0
SECTION
  2
HEADER
  9
$ACADVER
  1
AC1027
  9
$ACADMAINTVER
 70
     8
  9
$DWGCODEPAGE
  3
ANSI_1252
  9
$REQUIREDVERSIONS
160
                 0
  9
$COMMENTS
  1
File was created by Cadenas
  9
$CUSTOMPROPERTYTAG
  1
NN
  9
$CUSTOMPROPERTY
  1
S-2000 Flange Bearing - Round Labyrinth Seal
  9
$CUSTOMPROPERTYTAG
  1
NT
  9
$CUSTOMPROPERTY
  1
S-2000 3 & 4 Bolt Round Flange Bearing -Inch
  9
$CUSTOMPROPERTYTAG
  1
NB
  9
$CUSTOMPROPERTY
  1
070503
  9
$CUSTOMPROPERTYTAG
  1
NBSYN
  9
$CUSTOMPROPERTY
  1
$PN.
  9
$CUSTOMPROPERTYTAG
  1
LINA
  9
$CUSTOMPROPERTY
  1
070503
  9
$CUSTOMPROPERTYTAG
  1
SS
  9
$CUSTOMPROPERTY
  1
2-11/16
  9
$CUSTOMPROPERTYTAG
  1
PN
  9
$CUSTOMPROPERTY
  1
070503
  9
$CUSTOMPROPERTYTAG
  1
DESCRIPTION
  9
$CUSTOMPROPERTY
  1
F4R-S2-211L
  9
$CUSTOMPROPERTYTAG
  1
EF
  9
$CUSTOMPROPERTY
  1
Non-Expansion Type
  9
$CUSTOMPROPERTYTAG
  1
ST
  9
$CUSTOMPROPERTY
  1
Labyrinth Seal
  9
$CUSTOMPROPERTYTAG
  1
A
  9
$CUSTOMPROPERTY
  1
3-19/32
  9
$CUSTOMPROPERTYTAG
  1
B
  9
$CUSTOMPROPERTY
  1
9-1/4
  9
$CUSTOMPROPERTYTAG
  1
C
  9
$CUSTOMPROPERTY
  1
3-57/64
  9
$CUSTOMPROPERTYTAG
  1
D
  9
$CUSTOMPROPERTY
  1
5-9/16
  9
$CUSTOMPROPERTYTAG
  1
DD
  9
$CUSTOMPROPERTY
  1
7-7/8
  9
$CUSTOMPROPERTYTAG
  1
E
  9
$CUSTOMPROPERTY
  1
2-25/64
  9
$CUSTOMPROPERTYTAG
  1
F
  9
$CUSTOMPROPERTY
  1
3/4
  9
$CUSTOMPROPERTYTAG
  1
H
  9
$CUSTOMPROPERTY
  1
7/8
  9
$CUSTOMPROPERTYTAG
  1
J
  9
$CUSTOMPROPERTY
  1
6-23/64
  9
$CUSTOMPROPERTYTAG
  1
L
  9
$CUSTOMPROPERTY
  1
4-45/64
  9
$CUSTOMPROPERTYTAG
  1
P
  9
$CUSTOMPROPERTY
  1
19/64
  9
$CUSTOMPROPERTYTAG
  1
X
  9
$CUSTOMPROPERTY
  1
1/4
  9
$CUSTOMPROPERTYTAG
  1
Y
  9
$CUSTOMPROPERTY
  1
0.025
  9
$CUSTOMPROPERTYTAG
  1
Z
  9
$CUSTOMPROPERTY
  1
3-15/32
  9
$CUSTOMPROPERTYTAG
  1
COMPANY
  9
$CUSTOMPROPERTY
  1
baldor
  9
$INSBASE
 10
0.0
 20
0.0
 30
0.0
  9
$EXTMIN
 10
1.000000000000000E+20
 20
1.000000000000000E+20
 30
1.000000000000000E+20
  9
$EXTMAX
 10
-1.000000000000000E+20
 20
-1.000000000000000E+20
 30
-1.000000000000000E+20
  9
$LIMMIN
 10
0.0
 20
0.0
  9
$LIMMAX
 10
12.0
 20
9.0
  9
$ORTHOMODE
 70
     0
  9
$REGENMODE
 70
     1
  9
$FILLMODE
 70
     1
  9
$QTEXTMODE
 70
     0
  9
$MIRRTEXT
 70
     1
  9
$LTSCALE
 40
1.0
  9
$ATTMODE
 70
     1
  9
$TEXTSIZE
 40
0.2
  9
$TRACEWID
 40
0.05
  9
$TEXTSTYLE
  7
Standard
  9
$CLAYER
  8
0
  9
$CELTYPE
  6
ByLayer
  9
$CECOLOR
 62
   256
  9
$CELTSCALE
 40
1.0
  9
$DISPSILH
 70
     0
  9
$DIMSCALE
 40
1.0
  9
$DIMASZ
 40
0.18
  9
$DIMEXO
 40
0.0625
  9
$DIMDLI
 40
0.38
  9
$DIMRND
 40
0.0
  9
$DIMDLE
 40
0.0
  9
$DIMEXE
 40
0.18
  9
$DIMTP
 40
0.0
  9
$DIMTM
 40
0.0
  9
$DIMTXT
 40
0.18
  9
$DIMCEN
 40
0.09
  9
$DIMTSZ
 40
0.0
  9
$DIMTOL
 70
     0
  9
$DIMLIM
 70
     0
  9
$DIMTIH
 70
     1
  9
$DIMTOH
 70
     1
  9
$DIMSE1
 70
     0
  9
$DIMSE2
 70
     0
  9
$DIMTAD
 70
     0
  9
$DIMZIN
 70
     0
  9
$DIMBLK
  1

  9
$DIMASO
 70
     1
  9
$DIMSHO
 70
     1
  9
$DIMPOST
  1

  9
$DIMAPOST
  1

  9
$DIMALT
 70
     0
  9
$DIMALTD
 70
     2
  9
$DIMALTF
 40
25.4
  9
$DIMLFAC
 40
1.0
  9
$DIMTOFL
 70
     0
  9
$DIMTVP
 40
0.0
  9
$DIMTIX
 70
     0
  9
$DIMSOXD
 70
     0
  9
$DIMSAH
 70
     0
  9
$DIMBLK1
  1

  9
$DIMBLK2
  1

  9
$DIMSTYLE
  2
Standard
  9
$DIMCLRD
 70
     0
  9
$DIMCLRE
 70
     0
  9
$DIMCLRT
 70
     0
  9
$DIMTFAC
 40
1.0
  9
$DIMGAP
 40
0.09
  9
$DIMJUST
 70
     0
  9
$DIMSD1
 70
     0
  9
$DIMSD2
 70
     0
  9
$DIMTOLJ
 70
     1
  9
$DIMTZIN
 70
     0
  9
$DIMALTZ
 70
     0
  9
$DIMALTTZ
 70
     0
  9
$DIMUPT
 70
     0
  9
$DIMDEC
 70
     4
  9
$DIMTDEC
 70
     4
  9
$DIMALTU
 70
     2
  9
$DIMALTTD
 70
     2
  9
$DIMTXSTY
  7
Standard
  9
$DIMAUNIT
 70
     0
  9
$DIMADEC
 70
     0
  9
$DIMALTRND
 40
0.0
  9
$DIMAZIN
 70
     0
  9
$DIMDSEP
 70
    46
  9
$DIMATFIT
 70
     3
  9
$DIMFRAC
 70
     0
  9
$DIMLDRBLK
  1

  9
$DIMLUNIT
 70
     2
  9
$DIMLWD
 70
    -2
  9
$DIMLWE
 70
    -2
  9
$DIMTMOVE
 70
     0
  9
$DIMFXL
 40
1.0
  9
$DIMFXLON
 70
     0
  9
$DIMJOGANG
 40
0.7853981633974483
  9
$DIMTFILL
 70
     0
  9
$DIMTFILLCLR
 70
     0
  9
$DIMARCSYM
 70
     0
  9
$DIMLTYPE
  6

  9
$DIMLTEX1
  6

  9
$DIMLTEX2
  6

  9
$DIMTXTDIRECTION
 70
     0
  9
$LUNITS
 70
     2
  9
$LUPREC
 70
     4
  9
$SKETCHINC
 40
0.1
  9
$FILLETRAD
 40
0.5
  9
$AUNITS
 70
     0
  9
$AUPREC
 70
     0
  9
$MENU
  1
.
  9
$ELEVATION
 40
0.0
  9
$PELEVATION
 40
0.0
  9
$THICKNESS
 40
0.0
  9
$LIMCHECK
 70
     0
  9
$CHAMFERA
 40
0.0
  9
$CHAMFERB
 40
0.0
  9
$CHAMFERC
 40
0.0
  9
$CHAMFERD
 40
0.0
  9
$SKPOLY
 70
     0
  9
$TDCREATE
 40
2458168.961730394
  9
$TDUCREATE
 40
2458168.920063727
  9
$TDUPDATE
 40
2458168.961730579
  9
$TDUUPDATE
 40
2458168.920063912
  9
$TDINDWG
 40
0.0000000116
  9
$TDUSRTIMER
 40
0.0000000116
  9
$USRTIMER
 70
     1
  9
$ANGBASE
 50
0.0
  9
$ANGDIR
 70
     0
  9
$PDMODE
 70
     0
  9
$PDSIZE
 40
0.0
  9
$PLINEWID
 40
0.0
  9
$SPLFRAME
 70
     0
  9
$SPLINETYPE
 70
     6
  9
$SPLINESEGS
 70
     8
  9
$HANDSEED
  5
1F5
  9
$SURFTAB1
 70
     6
  9
$SURFTAB2
 70
     6
  9
$SURFTYPE
 70
     6
  9
$SURFU
 70
     6
  9
$SURFV
 70
     6
  9
$UCSBASE
  2

  9
$UCSNAME
  2

  9
$UCSORG
 10
0.0
 20
0.0
 30
0.0
  9
$UCSXDIR
 10
1.0
 20
0.0
 30
0.0
  9
$UCSYDIR
 10
0.0
 20
1.0
 30
0.0
  9
$UCSORTHOREF
  2

  9
$UCSORTHOVIEW
 70
     0
  9
$UCSORGTOP
 10
0.0
 20
0.0
 30
0.0
  9
$UCSORGBOTTOM
 10
0.0
 20
0.0
 30
0.0
  9
$UCSORGLEFT
 10
0.0
 20
0.0
 30
0.0
  9
$UCSORGRIGHT
 10
0.0
 20
0.0
 30
0.0
  9
$UCSORGFRONT
 10
0.0
 20
0.0
 30
0.0
  9
$UCSORGBACK
 10
0.0
 20
0.0
 30
0.0
  9
$PUCSBASE
  2

  9
$PUCSNAME
  2

  9
$PUCSORG
 10
0.0
 20
0.0
 30
0.0
  9
$PUCSXDIR
 10
1.0
 20
0.0
 30
0.0
  9
$PUCSYDIR
 10
0.0
 20
1.0
 30
0.0
  9
$PUCSORTHOREF
  2

  9
$PUCSORTHOVIEW
 70
     0
  9
$PUCSORGTOP
 10
0.0
 20
0.0
 30
0.0
  9
$PUCSORGBOTTOM
 10
0.0
 20
0.0
 30
0.0
  9
$PUCSORGLEFT
 10
0.0
 20
0.0
 30
0.0
  9
$PUCSORGRIGHT
 10
0.0
 20
0.0
 30
0.0
  9
$PUCSORGFRONT
 10
0.0
 20
0.0
 30
0.0
  9
$PUCSORGBACK
 10
0.0
 20
0.0
 30
0.0
  9
$USERI1
 70
     0
  9
$USERI2
 70
     0
  9
$USERI3
 70
     0
  9
$USERI4
 70
     0
  9
$USERI5
 70
     0
  9
$USERR1
 40
0.0
  9
$USERR2
 40
0.0
  9
$USERR3
 40
0.0
  9
$USERR4
 40
0.0
  9
$USERR5
 40
0.0
  9
$WORLDVIEW
 70
     1
  9
$SHADEDGE
 70
     3
  9
$SHADEDIF
 70
    70
  9
$TILEMODE
 70
     1
  9
$MAXACTVP
 70
    64
  9
$PINSBASE
 10
0.0
 20
0.0
 30
0.0
  9
$PLIMCHECK
 70
     0
  9
$PEXTMIN
 10
1.000000000000000E+20
 20
1.000000000000000E+20
 30
1.000000000000000E+20
  9
$PEXTMAX
 10
-1.000000000000000E+20
 20
-1.000000000000000E+20
 30
-1.000000000000000E+20
  9
$PLIMMIN
 10
0.0
 20
0.0
  9
$PLIMMAX
 10
12.0
 20
9.0
  9
$UNITMODE
 70
     0
  9
$VISRETAIN
 70
     1
  9
$PLINEGEN
 70
     0
  9
$PSLTSCALE
 70
     1
  9
$TREEDEPTH
 70
  3020
  9
$CMLSTYLE
  2
Standard
  9
$CMLJUST
 70
     0
  9
$CMLSCALE
 40
1.0
  9
$PROXYGRAPHICS
 70
     1
  9
$MEASUREMENT
 70
     0
  9
$CELWEIGHT
370
    -1
  9
$ENDCAPS
280
     0
  9
$JOINSTYLE
280
     0
  9
$LWDISPLAY
290
     0
  9
$INSUNITS
 70
     1
  9
$HYPERLINKBASE
  1

  9
$STYLESHEET
  1

  9
$XEDIT
290
     1
  9
$CEPSNTYPE
380
     0
  9
$PSTYLEMODE
290
     1
  9
$FINGERPRINTGUID
  2
{A20C24DE-988F-41F3-BADC-D3FDE0BF3192}
  9
$VERSIONGUID
  2
{FAEB1C32-E019-11D5-929B-00C0DF256EC4}
  9
$EXTNAMES
290
     1
  9
$PSVPSCALE
 40
0.0
  9
$OLESTARTUP
290
     0
  9
$SORTENTS
280
   127
  9
$INDEXCTL
280
     0
  9
$HIDETEXT
280
     1
  9
$XCLIPFRAME
280
     2
  9
$HALOGAP
280
     0
  9
$OBSCOLOR
 70
   257
  9
$OBSLTYPE
280
     0
  9
$INTERSECTIONDISPLAY
280
     0
  9
$INTERSECTIONCOLOR
 70
   257
  9
$DIMASSOC
280
     2
  9
$PROJECTNAME
  1

  9
$CAMERADISPLAY
290
     0
  9
$LENSLENGTH
 40
50.0
  9
$CAMERAHEIGHT
 40
0.0
  9
$STEPSPERSEC
 40
2.0
  9
$STEPSIZE
 40
6.0
  9
$3DDWFPREC
 40
2.0
  9
$PSOLWIDTH
 40
0.25
  9
$PSOLHEIGHT
 40
4.0
  9
$LOFTANG1
 40
1.570796326794897
  9
$LOFTANG2
 40
1.570796326794897
  9
$LOFTMAG1
 40
0.0
  9
$LOFTMAG2
 40
0.0
  9
$LOFTPARAM
 70
     7
  9
$LOFTNORMALS
280
     1
  9
$LATITUDE
 40
37.795
  9
$LONGITUDE
 40
-122.394
  9
$NORTHDIRECTION
 40
0.0
  9
$TIMEZONE
 70
 -8000
  9
$LIGHTGLYPHDISPLAY
280
     1
  9
$TILEMODELIGHTSYNCH
280
     1
  9
$CMATERIAL
347
44
  9
$SOLIDHIST
280
     0
  9
$SHOWHIST
280
     1
  9
$DWFFRAME
280
     2
  9
$DGNFRAME
280
     2
  9
$REALWORLDSCALE
290
     1
  9
$INTERFERECOLOR
 62
   256
  9
$CSHADOW
280
     0
  9
$SHADOWPLANELOCATION
 40
0.0
  0
ENDSEC
  0
SECTION
  2
CLASSES
  0
CLASS
  1
ACDBDICTIONARYWDFLT
  2
AcDbDictionaryWithDefault
  3
ObjectDBX Classes
 90
        0
 91
        4
280
     0
281
     0
  0
CLASS
  1
VISUALSTYLE
  2
AcDbVisualStyle
  3
ObjectDBX Classes
 90
     4095
 91
        4
280
     0
281
     0
  0
CLASS
  1
MATERIAL
  2
AcDbMaterial
  3
ObjectDBX Classes
 90
     1153
 91
        4
280
     0
281
     0
  0
CLASS
  1
SCALE
  2
AcDbScale
  3
ObjectDBX Classes
 90
     1153
 91
        4
280
     0
281
     0
  0
CLASS
  1
TABLESTYLE
  2
AcDbTableStyle
  3
ObjectDBX Classes
 90
     4095
 91
        4
280
     0
281
     0
  0
CLASS
  1
MLEADERSTYLE
  2
AcDbMLeaderStyle
  3
ACDB_MLEADERSTYLE_CLASS
 90
     4095
 91
        4
280
     0
281
     0
  0
CLASS
  1
SUN
  2
AcDbSun
  3
SCENEOE
 90
     1153
 91
        4
280
     0
281
     0
  0
CLASS
  1
DICTIONARYVAR
  2
AcDbDictionaryVar
  3
ObjectDBX Classes
 90
        0
 91
        4
280
     0
281
     0
  0
CLASS
  1
CELLSTYLEMAP
  2
AcDbCellStyleMap
  3
ObjectDBX Classes
 90
     1152
 91
        4
280
     0
281
     0
  0
ENDSEC
  0
SECTION
  2
TABLES
  0
TABLE
  2
VPORT
  5
8
330
0
100
AcDbSymbolTable
 70
     1
  0
VPORT
  5
29
330
8
100
AcDbSymbolTableRecord
100
AcDbViewportTableRecord
  2
*Active
 70
     0
 10
0.0
 20
0.0
 11
1.0
 21
1.0
 12
-1.605718750000001
 22
-0.0076013513513509
 13
0.0
 23
0.0
 14
0.5
 24
0.5
 15
0.5
 25
0.5
 16
0.0
 26
0.0
 36
1.0
 17
0.0
 27
0.0
 37
0.0
 40
9.419493243243245
 41
0.53376239253704
 42
50.0
 43
0.0
 44
0.0
 50
0.0
 51
0.0
 71
     0
 72
   100
 73
     1
 74
     3
 75
     0
 76
     0
 77
     0
 78
     0
281
     0
 65
     1
110
0.0
120
0.0
130
0.0
111
1.0
121
0.0
131
0.0
112
0.0
122
1.0
132
0.0
 79
     0
146
0.0
348
2F
 60
     3
 61
     5
292
     1
282
     1
141
0.0
142
0.0
 63
   250
361
6D
  0
ENDTAB
  0
TABLE
  2
LTYPE
  5
5
330
0
100
AcDbSymbolTable
 70
     3
  0
LTYPE
  5
14
330
5
100
AcDbSymbolTableRecord
100
AcDbLinetypeTableRecord
  2
ByBlock
 70
     0
  3

 72
    65
 73
     0
 40
0.0
  0
LTYPE
  5
15
330
5
100
AcDbSymbolTableRecord
100
AcDbLinetypeTableRecord
  2
ByLayer
 70
     0
  3

 72
    65
 73
     0
 40
0.0
  0
LTYPE
  5
16
330
5
100
AcDbSymbolTableRecord
100
AcDbLinetypeTableRecord
  2
Continuous
 70
     0
  3
Solid line
 72
    65
 73
     0
 40
0.0
  0
LTYPE
  5
A5
330
5
100
AcDbSymbolTableRecord
100
AcDbLinetypeTableRecord
  2
Dashed
 70
     0
  3

 72
    65
 73
     2
 40
2.0
 49
1.0
 74
     0
 49
-1.0
 74
     0
  0
LTYPE
  5
13A
330
5
100
AcDbSymbolTableRecord
100
AcDbLinetypeTableRecord
  2
Center
 70
     0
  3

 72
    65
 73
     4
 40
1.5
 49
0.45
 74
     0
 49
-0.5
 74
     0
 49
0.05
 74
     0
 49
-0.5
 74
     0
  0
ENDTAB
  0
TABLE
  2
LAYER
  5
2
330
0
100
AcDbSymbolTable
 70
     7
  0
LAYER
  5
10
330
2
100
AcDbSymbolTableRecord
100
AcDbLayerTableRecord
  2
0
 70
     0
 62
     7
  6
Continuous
370
    -3
390
F
347
46
348
0
  0
LAYER
  5
72
330
2
100
AcDbSymbolTableRecord
100
AcDbLayerTableRecord
  2
AM_6
 70
     0
 62
    -2
  6
Continuous
370
    35
390
F
347
46
348
0
  0
LAYER
  5
A6
330
2
100
AcDbSymbolTableRecord
100
AcDbLayerTableRecord
  2
AM_9
 70
     0
 62
     6
  6
Dashed
370
    25
390
F
347
46
348
0
  0
LAYER
  5
BA
330
2
100
AcDbSymbolTableRecord
100
AcDbLayerTableRecord
  2
AM_5
 70
     0
 62
     3
  6
Continuous
370
    25
390
F
347
46
348
0
  0
LAYER
  5
BF
330
2
100
AcDbSymbolTableRecord
100
AcDbLayerTableRecord
  2
AM_4
 70
     0
 62
     7
  6
Continuous
370
    50
390
F
347
46
348
0
  0
LAYER
  5
13B
330
2
100
AcDbSymbolTableRecord
100
AcDbLayerTableRecord
  2
AM_7
 70
     0
 62
     7
  6
Center
370
    25
390
F
347
46
348
0
  0
LAYER
  5
1E4
330
2
100
AcDbSymbolTableRecord
100
AcDbLayerTableRecord
  2
ConnectionPoints
 70
     0
 62
     7
  6
Continuous
370
    50
390
F
347
46
348
0
  0
ENDTAB
  0
TABLE
  2
STYLE
  5
3
330
0
100
AcDbSymbolTable
 70
     1
  0
STYLE
  5
11
330
3
100
AcDbSymbolTableRecord
100
AcDbTextStyleTableRecord
  2
Standard
 70
     0
 40
0.0
 41
1.0
 50
0.0
 71
     0
 42
0.2
  3
txt
  4

  0
ENDTAB
  0
TABLE
  2
VIEW
  5
6
330
0
100
AcDbSymbolTable
 70
     0
  0
ENDTAB
  0
TABLE
  2
UCS
  5
7
330
0
100
AcDbSymbolTable
 70
     0
  0
ENDTAB
  0
TABLE
  2
APPID
  5
9
330
0
100
AcDbSymbolTable
 70
     1
  0
APPID
  5
12
330
9
100
AcDbSymbolTableRecord
100
AcDbRegAppTableRecord
  2
ACAD
 70
     0
  0
ENDTAB
  0
TABLE
  2
DIMSTYLE
  5
A
330
0
100
AcDbSymbolTable
 70
     1
100
AcDbDimStyleTable
  0
DIMSTYLE
105
27
330
A
100
AcDbSymbolTableRecord
100
AcDbDimStyleTableRecord
  2
Standard
 70
     0
178
     0
340
11
  0
ENDTAB
  0
TABLE
  2
BLOCK_RECORD
  5
1
330
0
100
AcDbSymbolTable
 70
     6
  0
BLOCK_RECORD
  5
1F
330
1
100
AcDbSymbolTableRecord
100
AcDbBlockTableRecord
  2
*Model_Space
340
22
 70
     0
280
     1
281
     0
  0
BLOCK_RECORD
  5
1B
330
1
100
AcDbSymbolTableRecord
100
AcDbBlockTableRecord
  2
*Paper_Space
340
1E
 70
     0
280
     1
281
     0
  0
BLOCK_RECORD
  5
23
330
1
100
AcDbSymbolTableRecord
100
AcDbBlockTableRecord
  2
*Paper_Space0
340
26
 70
     0
280
     1
281
     0
  0
BLOCK_RECORD
  5
6E
330
1
100
AcDbSymbolTableRecord
100
AcDbBlockTableRecord
  2
1_070503_2
340
0
102
{BLKREFS
331
6F
102
}
 70
     0
280
     1
281
     0
  0
BLOCK_RECORD
  5
8C
330
1
100
AcDbSymbolTableRecord
100
AcDbBlockTableRecord
  2
2_2_11_16CS2i_0_in_070503_2
340
0
102
{BLKREFS
331
8D
102
}
 70
     0
280
     1
281
     0
  0
BLOCK_RECORD
  5
E1
330
1
100
AcDbSymbolTableRecord
100
AcDbBlockTableRecord
  2
3_070025i_0_in_070503_2
340
0
102
{BLKREFS
331
E2
102
}
 70
     0
280
     1
281
     0
  0
BLOCK_RECORD
  5
143
330
1
100
AcDbSymbolTableRecord
100
AcDbBlockTableRecord
  2
4_405015E_Inch_0_in_070503_2
340
0
102
{BLKREFS
331
144
102
}
 70
     0
280
     1
281
     0
  0
BLOCK_RECORD
  5
182
330
1
100
AcDbSymbolTableRecord
100
AcDbBlockTableRecord
  2
5_070503H_0_in_070503_2
340
0
102
{BLKREFS
331
183
102
}
 70
     0
280
     1
281
     0
  0
ENDTAB
  0
ENDSEC
  0
SECTION
  2
BLOCKS
  0
BLOCK
  5
20
330
1F
100
AcDbEntity
  8
0
100
AcDbBlockBegin
  2
*Model_Space
 70
     0
 10
0.0
 20
0.0
 30
0.0
  3
*Model_Space
  1

  0
ENDBLK
  5
21
330
1F
100
AcDbEntity
  8
0
100
AcDbBlockEnd
  0
BLOCK
  5
1C
330
1B
100
AcDbEntity
 67
     1
  8
0
100
AcDbBlockBegin
  2
*Paper_Space
 70
     0
 10
0.0
 20
0.0
 30
0.0
  3
*Paper_Space
  1

  0
ENDBLK
  5
1D
330
1B
100
AcDbEntity
 67
     1
  8
0
100
AcDbBlockEnd
  0
BLOCK
  5
24
330
23
100
AcDbEntity
  8
0
100
AcDbBlockBegin
  2
*Paper_Space0
 70
     0
 10
0.0
 20
0.0
 30
0.0
  3
*Paper_Space0
  1

  0
ENDBLK
  5
25
330
23
100
AcDbEntity
  8
0
100
AcDbBlockEnd
  0
BLOCK
  5
70
330
6E
100
AcDbEntity
  8
0
100
AcDbBlockBegin
  2
1_070503_2
 70
     2
 10
0.0
 20
0.0
 30
0.0
  3
1_070503_2
  1

  0
ATTDEF
  5
73
330
6E
100
AcDbEntity
  8
AM_6
100
AcDbText
 10
5.11953125
 20
4.609797297297297
 30
0.0
 40
0.5
  1
S-2000 Flange Bearing - Round Labyrinth Seal
100
AcDbAttributeDefinition
  3

  2
NN
 70
     8
280
     0
  0
ATTDEF
  5
74
330
6E
100
AcDbEntity
  8
AM_6
100
AcDbText
 10
5.11953125
 20
4.109797297297297
 30
0.0
 40
0.5
  1
S-2000 3 & 4 Bolt Round Flange Bearing -Inch
100
AcDbAttributeDefinition
  3

  2
NT
 70
     8
280
     0
  0
ATTDEF
  5
75
330
6E
100
AcDbEntity
  8
AM_6
100
AcDbText
 10
5.11953125
 20
3.609797297297297
 30
0.0
 40
0.5
  1
070503
100
AcDbAttributeDefinition
  3

  2
NB
 70
     8
280
     0
  0
ATTDEF
  5
76
330
6E
100
AcDbEntity
  8
AM_6
100
AcDbText
 10
5.11953125
 20
3.109797297297297
 30
0.0
 40
0.5
  1
$PN.
100
AcDbAttributeDefinition
  3

  2
NBSYN
 70
     8
280
     0
  0
ATTDEF
  5
77
330
6E
100
AcDbEntity
  8
AM_6
100
AcDbText
 10
5.11953125
 20
2.609797297297297
 30
0.0
 40
0.5
  1
070503
100
AcDbAttributeDefinition
  3

  2
LINA
 70
     8
280
     0
  0
ATTDEF
  5
78
330
6E
100
AcDbEntity
  8
AM_6
100
AcDbText
 10
5.11953125
 20
2.109797297297297
 30
0.0
 40
0.5
  1
2-11/16
100
AcDbAttributeDefinition
  3

  2
SS
 70
     8
280
     0
  0
ATTDEF
  5
79
330
6E
100
AcDbEntity
  8
AM_6
100
AcDbText
 10
5.11953125
 20
1.609797297297297
 30
0.0
 40
0.5
  1
070503
100
AcDbAttributeDefinition
  3

  2
PN
 70
     8
280
     0
  0
ATTDEF
  5
7A
330
6E
100
AcDbEntity
  8
AM_6
100
AcDbText
 10
5.11953125
 20
1.109797297297297
 30
0.0
 40
0.5
  1
F4R-S2-211L
100
AcDbAttributeDefinition
  3

  2
DESCRIPTION
 70
     8
280
     0
  0
ATTDEF
  5
7B
330
6E
100
AcDbEntity
  8
AM_6
100
AcDbText
 10
5.11953125
 20
0.6097972972972974
 30
0.0
 40
0.5
  1
Non-Expansion Type
100
AcDbAttributeDefinition
  3

  2
EF
 70
     8
280
     0
  0
ATTDEF
  5
7C
330
6E
100
AcDbEntity
  8
AM_6
100
AcDbText
 10
5.11953125
 20
0.1097972972972974
 30
0.0
 40
0.5
  1
Labyrinth Seal
100
AcDbAttributeDefinition
  3

  2
ST
 70
     8
280
     0
  0
ATTDEF
  5
7D
330
6E
100
AcDbEntity
  8
AM_6
100
AcDbText
 10
5.11953125
 20
-0.3902027027027026
 30
0.0
 40
0.5
  1
3-19/32
100
AcDbAttributeDefinition
  3

  2
A
 70
     8
280
     0
  0
ATTDEF
  5
7E
330
6E
100
AcDbEntity
  8
AM_6
100
AcDbText
 10
5.11953125
 20
-0.8902027027027026
 30
0.0
 40
0.5
  1
9-1/4
100
AcDbAttributeDefinition
  3

  2
B
 70
     8
280
     0
  0
ATTDEF
  5
7F
330
6E
100
AcDbEntity
  8
AM_6
100
AcDbText
 10
5.11953125
 20
-1.390202702702703
 30
0.0
 40
0.5
  1
3-57/64
100
AcDbAttributeDefinition
  3

  2
C
 70
     8
280
     0
  0
ATTDEF
  5
80
330
6E
100
AcDbEntity
  8
AM_6
100
AcDbText
 10
5.11953125
 20
-1.890202702702703
 30
0.0
 40
0.5
  1
5-9/16
100
AcDbAttributeDefinition
  3

  2
D
 70
     8
280
     0
  0
ATTDEF
  5
81
330
6E
100
AcDbEntity
  8
AM_6
100
AcDbText
 10
5.11953125
 20
-2.390202702702703
 30
0.0
 40
0.5
  1
7-7/8
100
AcDbAttributeDefinition
  3

  2
DD
 70
     8
280
     0
  0
ATTDEF
  5
82
330
6E
100
AcDbEntity
  8
AM_6
100
AcDbText
 10
5.11953125
 20
-2.890202702702703
 30
0.0
 40
0.5
  1
2-25/64
100
AcDbAttributeDefinition
  3

  2
E
 70
     8
280
     0
  0
ATTDEF
  5
83
330
6E
100
AcDbEntity
  8
AM_6
100
AcDbText
 10
5.11953125
 20
-3.390202702702703
 30
0.0
 40
0.5
  1
3/4
100
AcDbAttributeDefinition
  3

  2
F
 70
     8
280
     0
  0
ATTDEF
  5
84
330
6E
100
AcDbEntity
  8
AM_6
100
AcDbText
 10
5.11953125
 20
-3.890202702702703
 30
0.0
 40
0.5
  1
7/8
100
AcDbAttributeDefinition
  3

  2
H
 70
     8
280
     0
  0
ATTDEF
  5
85
330
6E
100
AcDbEntity
  8
AM_6
100
AcDbText
 10
5.11953125
 20
-4.390202702702703
 30
0.0
 40
0.5
  1
6-23/64
100
AcDbAttributeDefinition
  3

  2
J
 70
     8
280
     0
  0
ATTDEF
  5
86
330
6E
100
AcDbEntity
  8
AM_6
100
AcDbText
 10
5.11953125
 20
-4.890202702702703
 30
0.0
 40
0.5
  1
4-45/64
100
AcDbAttributeDefinition
  3

  2
L
 70
     8
280
     0
  0
ATTDEF
  5
87
330
6E
100
AcDbEntity
  8
AM_6
100
AcDbText
 10
5.11953125
 20
-5.390202702702703
 30
0.0
 40
0.5
  1
19/64
100
AcDbAttributeDefinition
  3

  2
P
 70
     8
280
     0
  0
ATTDEF
  5
88
330
6E
100
AcDbEntity
  8
AM_6
100
AcDbText
 10
5.11953125
 20
-5.890202702702703
 30
0.0
 40
0.5
  1
1/4
100
AcDbAttributeDefinition
  3

  2
X
 70
     8
280
     0
  0
ATTDEF
  5
89
330
6E
100
AcDbEntity
  8
AM_6
100
AcDbText
 10
5.11953125
 20
-6.390202702702703
 30
0.0
 40
0.5
  1
0.025
100
AcDbAttributeDefinition
  3

  2
Y
 70
     8
280
     0
  0
ATTDEF
  5
8A
330
6E
100
AcDbEntity
  8
AM_6
100
AcDbText
 10
5.11953125
 20
-6.890202702702703
 30
0.0
 40
0.5
  1
3-15/32
100
AcDbAttributeDefinition
  3

  2
Z
 70
     8
280
     0
  0
ATTDEF
  5
8B
330
6E
100
AcDbEntity
  8
AM_6
100
AcDbText
 10
5.11953125
 20
-7.390202702702703
 30
0.0
 40
0.5
  1
baldor
100
AcDbAttributeDefinition
  3

  2
COMPANY
 70
     8
280
     0
  0
INSERT
  5
8D
330
6E
100
AcDbEntity
  8
0
100
AcDbBlockReference
  2
2_2_11_16CS2i_0_in_070503_2
 10
0.0
 20
0.0
 30
0.0
  0
INSERT
  5
E2
330
6E
100
AcDbEntity
  8
0
100
AcDbBlockReference
  2
3_070025i_0_in_070503_2
 10
0.0
 20
0.0
 30
0.0
  0
INSERT
  5
144
330
6E
100
AcDbEntity
  8
0
100
AcDbBlockReference
  2
4_405015E_Inch_0_in_070503_2
 10
0.0
 20
0.0
 30
0.0
  0
INSERT
  5
183
330
6E
100
AcDbEntity
  8
0
100
AcDbBlockReference
  2
5_070503H_0_in_070503_2
 10
0.0
 20
0.0
 30
0.0
  0
ENDBLK
  5
71
330
6E
100
AcDbEntity
  8
0
100
AcDbBlockEnd
  0
BLOCK
  5
8E
330
8C
100
AcDbEntity
  8
0
100
AcDbBlockBegin
  2
2_2_11_16CS2i_0_in_070503_2
 70
     2
 10
0.0
 20
0.0
 30
0.0
  3
2_2_11_16CS2i_0_in_070503_2
  1

  0
ATTDEF
  5
90
330
8C
100
AcDbEntity
  8
AM_6
100
AcDbText
 10
1.993375
 20
2.3125
 30
0.0
 40
0.5
  1
S-2000 Collar -Inch
100
AcDbAttributeDefinition
  3

  2
NN
 70
     8
280
     0
  0
ATTDEF
  5
91
330
8C
100
AcDbEntity
  8
AM_6
100
AcDbText
 10
1.993375
 20
1.8125
 30
0.0
 40
0.5
  1
S-2000 Bearings
100
AcDbAttributeDefinition
  3

  2
NT
 70
     8
280
     0
  0
ATTDEF
  5
92
330
8C
100
AcDbEntity
  8
AM_6
100
AcDbText
 10
1.993375
 20
1.3125
 30
0.0
 40
0.5
  1
2-11/16CS2i
100
AcDbAttributeDefinition
  3

  2
NB
 70
     8
280
     0
  0
ATTDEF
  5
93
330
8C
100
AcDbEntity
  8
AM_6
100
AcDbText
 10
1.993375
 20
0.8125
 30
0.0
 40
0.5
  1
$BORE.CS2i
100
AcDbAttributeDefinition
  3

  2
NBSYN
 70
     8
280
     0
  0
ATTDEF
  5
94
330
8C
100
AcDbEntity
  8
AM_6
100
AcDbText
 10
1.993375
 20
0.3125
 30
0.0
 40
0.5
  1
2-11/16CS2i
100
AcDbAttributeDefinition
  3

  2
LINA
 70
     8
280
     0
  0
ATTDEF
  5
95
330
8C
100
AcDbEntity
  8
AM_6
100
AcDbText
 10
1.993375
 20
-0.1875
 30
0.0
 40
0.5
  1
2-11/16
100
AcDbAttributeDefinition
  3

  2
BORE
 70
     8
280
     0
  0
ATTDEF
  5
96
330
8C
100
AcDbEntity
  8
AM_6
100
AcDbText
 10
1.993375
 20
-0.6875
 30
0.0
 40
0.5
  1
2.687500
100
AcDbAttributeDefinition
  3

  2
BORE1
 70
     8
280
     0
  0
ATTDEF
  5
97
330
8C
100
AcDbEntity
  8
AM_6
100
AcDbText
 10
1.993375
 20
-1.1875
 30
0.0
 40
0.5
  1
4-45/64
100
AcDbAttributeDefinition
  3

  2
L1
 70
     8
280
     0
  0
ATTDEF
  5
98
330
8C
100
AcDbEntity
  8
AM_6
100
AcDbText
 10
1.993375
 20
-1.6875
 30
0.0
 40
0.5
  1
4.70313
100
AcDbAttributeDefinition
  3

  2
L
 70
     8
280
     0
  0
ATTDEF
  5
99
330
8C
100
AcDbEntity
  8
AM_6
100
AcDbText
 10
1.993375
 20
-2.1875
 30
0.0
 40
0.5
  1
4.62500
100
AcDbAttributeDefinition
  3

  2
L2
 70
     8
280
     0
  0
ATTDEF
  5
9A
330
8C
100
AcDbEntity
  8
AM_6
100
AcDbText
 10
1.993375
 20
-2.6875
 30
0.0
 40
0.5
  1
4.50
100
AcDbAttributeDefinition
  3

  2
A
 70
     8
280
     0
  0
ATTDEF
  5
9B
330
8C
100
AcDbEntity
  8
AM_6
100
AcDbText
 10
1.993375
 20
-3.1875
 30
0.0
 40
0.5
  1
1.94
100
AcDbAttributeDefinition
  3

  2
B
 70
     8
280
     0
  0
ATTDEF
  5
9C
330
8C
100
AcDbEntity
  8
AM_6
100
AcDbText
 10
1.993375
 20
-3.6875
 30
0.0
 40
0.5
  1
3.47
100
AcDbAttributeDefinition
  3

  2
C
 70
     8
280
     0
  0
ATTDEF
  5
9D
330
8C
100
AcDbEntity
  8
AM_6
100
AcDbText
 10
1.993375
 20
-4.1875
 30
0.0
 40
0.5
  1
4.78
100
AcDbAttributeDefinition
  3

  2
D
 70
     8
280
     0
  0
ATTDEF
  5
9E
330
8C
100
AcDbEntity
  8
AM_6
100
AcDbText
 10
1.993375
 20
-4.6875
 30
0.0
 40
0.5
  1
0.54
100
AcDbAttributeDefinition
  3

  2
E
 70
     8
280
     0
  0
ATTDEF
  5
9F
330
8C
100
AcDbEntity
  8
AM_6
100
AcDbText
 10
1.993375
 20
-5.1875
 30
0.0
 40
0.5
  1
0.442
100
AcDbAttributeDefinition
  3

  2
F
 70
     8
280
     0
  0
ATTDEF
  5
A0
330
8C
100
AcDbEntity
  8
AM_6
100
AcDbText
 10
1.993375
 20
-5.6875
 30
0.0
 40
0.5
  1
1/2-13
100
AcDbAttributeDefinition
  3

  2
CS
 70
     8
280
     0
  0
ATTDEF
  5
A1
330
8C
100
AcDbEntity
  8
AM_6
100
AcDbText
 10
1.993375
 20
-6.1875
 30
0.0
 40
0.5
  1
0.5000
100
AcDbAttributeDefinition
  3

  2
NDM
 70
     8
280
     0
  0
ATTDEF
  5
A2
330
8C
100
AcDbEntity
  8
AM_6
100
AcDbText
 10
1.993375
 20
-6.6875
 30
0.0
 40
0.5
  1
0.4170
100
AcDbAttributeDefinition
  3

  2
KDM
 70
     8
280
     0
  0
ATTDEF
  5
A3
330
8C
100
AcDbEntity
  8
AM_6
100
AcDbText
 10
1.993375
 20
-7.1875
 30
0.0
 40
0.5
  1
2
100
AcDbAttributeDefinition
  3

  2
DD
 70
     8
280
     0
  0
ATTDEF
  5
A4
330
8C
100
AcDbEntity
  8
AM_6
100
AcDbText
 10
1.993375
 20
-7.6875
 30
0.0
 40
0.5
  1
baldor
100
AcDbAttributeDefinition
  3

  2
COMPANY
 70
     8
280
     0
  0
LINE
  5
A7
330
8C
100
AcDbEntity
  8
AM_9
100
AcDbLine
 10
-3.240275
 20
2.309915
 30
0.0
 11
-3.23769
 21
2.3125
 31
0.0
  0
LINE
  5
A8
330
8C
100
AcDbEntity
  8
AM_9
100
AcDbLine
 10
-3.65956
 20
2.3125
 30
0.0
 11
-3.656975
 21
2.309915
 31
0.0
  0
LINE
  5
A9
330
8C
100
AcDbEntity
  8
AM_9
100
AcDbLine
 10
-3.271253131528707
 20
2.309915
 30
0.0
 11
-3.240275
 21
2.309915
 31
0.0
  0
LINE
  5
AA
330
8C
100
AcDbEntity
  8
AM_9
100
AcDbLine
 10
-3.240275
 20
1.743316666666673
 30
0.0
 11
-3.240275
 21
2.309915
 31
0.0
  0
LINE
  5
AB
330
8C
100
AcDbEntity
  8
AM_9
100
AcDbLine
 10
-3.656975
 20
2.309915
 30
0.0
 11
-3.656975
 21
1.743316666666673
 31
0.0
  0
LINE
  5
AC
330
8C
100
AcDbEntity
  8
AM_9
100
AcDbLine
 10
-3.656975
 20
2.309915
 30
0.0
 11
-3.625996868471293
 21
2.309915
 31
0.0
  0
LINE
  5
AD
330
8C
100
AcDbEntity
  8
AM_9
100
AcDbLine
 10
-3.656975
 20
1.743316666666673
 30
0.0
 11
-3.240275
 21
1.743316666666673
 31
0.0
  0
LINE
  5
AE
330
8C
100
AcDbEntity
  8
AM_9
100
AcDbLine
 10
-3.656975
 20
1.743316666666673
 30
0.0
 11
-3.665008499926563
 21
1.735283166740109
 31
0.0
  0
LINE
  5
AF
330
8C
100
AcDbEntity
  8
AM_9
100
AcDbLine
 10
-3.232303349708304
 20
1.735345016374976
 30
0.0
 11
-3.240275
 21
1.743316666666673
 31
0.0
  0
LWPOLYLINE
  5
B0
330
8C
100
AcDbEntity
  8
AM_9
100
AcDbPolyline
 90
       39
 70
     0
 43
0.0
 10
-3.28818066875648
 20
0.5890254700626273
 10
-3.268684625999029
 20
0.6141961062210206
 10
-3.253115675361797
 20
0.6415065184640436
 10
-3.240029494522095
 20
0.6760599527747676
 10
-3.23308679702824
 20
0.7117782647958321
 10
-3.23258528843404
 20
0.7488859425485238
 10
-3.238795428180735
 20
0.7851620103667715
 10
-3.251812605814691
 20
0.8198680908671245
 10
-3.271254757231113
 20
0.8517504540015436
 10
-3.296266421991176
 20
0.8793522699106655
 10
-3.326479894468448
 20
0.9024724552481196
 10
-3.35925132375807
 20
0.9194273976470282
 10
-3.395062628082111
 20
0.9310007182481745
 10
-3.429943106206522
 20
0.9364023306210596
 10
-3.465403266969308
 20
0.9365686464404309
 10
-3.498631309297699
 20
0.9317852251762073
 10
-3.530480005921873
 20
0.9224310735818811
 10
-3.560447817727668
 20
0.9085724076092785
 10
-3.587493925596461
 20
0.8907712261375367
 10
-3.612339244414015
 20
0.868071826696889
 10
-3.632800428933718
 20
0.8420767489012022
 10
-3.649368085542849
 20
0.8112869058935409
 10
-3.660191887546217
 20
0.7782195829319841
 10
-3.665080950329139
 20
0.7420183810332125
 10
-3.663363766420177
 20
0.7051854586134593
 10
-3.654791359535579
 20
0.6681214688356902
 10
-3.639597840272985
 20
0.6325677012209977
 10
-3.618233146632974
 20
0.599975067788225
 10
-3.591150984542453
 20
0.5711544343957852
 10
-3.560334367588376
 20
0.54820018159056
 10
-3.525677376945248
 20
0.5307967420929365
 10
-3.490931650676083
 20
0.5204789177352633
 10
-3.454821659427123
 20
0.5162103991709194
 10
-3.42080754250781
 20
0.5180049648621361
 10
-3.387588263442653
 20
0.525220883512025
 10
-3.35638782646181
 20
0.537475964708005
 10
-3.327617724445744
 20
0.5542453298024016
 10
-3.306792613816586
 20
0.5705464301926298
 10
-3.28818066875648
 20
0.5890254700626274
  0
LINE
  5
B1
330
8C
100
AcDbEntity
  8
AM_9
100
AcDbLine
 10
-3.890625
 20
-1.735
 30
0.0
 11
-3.006625
 21
-1.735
 31
0.0
  0
LINE
  5
B2
330
8C
100
AcDbEntity
  8
AM_9
100
AcDbLine
 10
-3.006625
 20
1.735
 30
0.0
 11
-3.232763124101318
 21
1.735
 31
0.0
  0
LINE
  5
B3
330
8C
100
AcDbEntity
  8
AM_9
100
AcDbLine
 10
-3.664630839839127
 20
1.735
 30
0.0
 11
-3.890625
 21
1.735
 31
0.0
  0
LWPOLYLINE
  5
B4
330
8C
100
AcDbEntity
  8
AM_9
100
AcDbPolyline
 90
       21
 70
     0
 43
0.0
 10
-3.665291666666201
 20
1.734999999999933
 10
-3.665036114352767
 20
1.734963553231908
 10
-3.659692220647533
 20
1.734210872143319
 10
-3.647814965200798
 20
1.732602866727684
 10
-3.628965734915685
 20
1.730235875674304
 10
-3.605109769650648
 20
1.72756835787447
 10
-3.575035334238765
 20
1.724733588278365
 10
-3.543196293770885
 20
1.722381168611358
 10
-3.506971451783199
 20
1.720523846078997
 10
-3.47265122961186
 20
1.719574172208164
 10
-3.436456398016386
 20
1.719429892626525
 10
-3.40351359990736
 20
1.720064026576171
 10
-3.370920213212397
 20
1.721407489605135
 10
-3.341047082354886
 20
1.723261129001908
 10
-3.313279236130348
 20
1.725513960970386
 10
-3.288280096308983
 20
1.727974975329969
 10
-3.267013550425185
 20
1.730388278227267
 10
-3.249946425731911
 20
1.732535648310732
 10
-3.238198200158213
 20
1.734121883030203
 10
-3.232456299756215
 20
1.7349290183679
 10
-3.231958333333534
 20
1.734999999999971
  0
ELLIPSE
  5
B5
330
8C
100
AcDbEntity
  8
AM_9
100
AcDbEllipse
 10
-3.448625000000005
 20
0.7367574593302618
 30
0.0
 11
0.2083499999999949
 21
0.0
 31
0.0
210
0.0
220
0.0
230
1.0
 40
0.9063077870366496
 41
2.455188979453867
 42
3.141592653589793
  0
LINE
  5
B6
330
8C
100
AcDbEntity
  8
AM_9
100
AcDbLine
 10
-3.240275
 20
0.7367574593302598
 30
0.0
 11
-3.240275
 21
0.9762122620687677
 31
0.0
  0
LINE
  5
B7
330
8C
100
AcDbEntity
  8
AM_9
100
AcDbLine
 10
-3.656975
 20
0.9762122620687677
 30
0.0
 11
-3.656975
 21
0.7367574593302598
 31
0.0
  0
ELLIPSE
  5
B8
330
8C
100
AcDbEntity
  8
AM_9
100
AcDbEllipse
 10
-3.448625
 20
0.7367574593302594
 30
0.0
 11
0.2083499999999998
 21
0.0
 31
0.0
210
0.0
220
0.0
230
1.0
 40
0.9063077870366498
 41
3.141592653589793
 42
6.283185307179586
  0
ELLIPSE
  5
B9
330
8C
100
AcDbEntity
  8
AM_9
100
AcDbEllipse
 10
-3.448624999999998
 20
0.7367574593302594
 30
0.0
 11
0.2083499999999976
 21
3.104656934738124E-9
 31
0.0
210
0.0
220
0.0
230
1.0
 40
0.906307787036652
 41
0.0000017304280906
 42
0.68721415142506
  0
LINE
  5
BB
330
8C
100
AcDbEntity
  8
AM_5
100
AcDbLine
 10
-3.698625
 20
2.3125
 30
0.0
 11
-3.698625
 21
1.735
 31
0.0
  0
LINE
  5
BC
330
8C
100
AcDbEntity
  8
AM_5
100
AcDbLine
 10
-3.573625
 20
1.701666666666667
 30
0.0
 11
-3.698625
 21
1.701666666666667
 31
0.0
  0
LINE
  5
BD
330
8C
100
AcDbEntity
  8
AM_5
100
AcDbLine
 10
-3.198625
 20
2.25609756097561
 30
0.0
 11
-3.198625
 21
1.735
 31
0.0
  0
LINE
  5
BE
330
8C
100
AcDbEntity
  8
AM_5
100
AcDbLine
 10
-3.323625
 20
1.701666666666667
 30
0.0
 11
-3.198625
 21
1.701666666666667
 31
0.0
  0
ELLIPSE
  5
C0
330
8C
100
AcDbEntity
  8
AM_4
100
AcDbEllipse
 10
-3.448625000000005
 20
0.9762122620687708
 30
0.0
 11
0.2083499999999945
 21
0.0
 31
0.0
210
0.0
220
0.0
230
1.0
 40
0.9063077870366469
 41
2.589286508049177
 42
3.141592653589793
  0
ELLIPSE
  5
C1
330
8C
100
AcDbEntity
  8
AM_4
100
AcDbEllipse
 10
-3.448625000000268
 20
0.9762122620687999
 30
0.0
 11
0.2083500000002676
 21
3.104656934742147E-9
 31
0.0
210
0.0
220
0.0
230
1.0
 40
0.9063077870366493
 41
5.730879146006161
 42
6.283187037607677
  0
ELLIPSE
  5
C2
330
8C
100
AcDbEntity
  8
AM_4
100
AcDbEllipse
 10
-3.448624999999999
 20
0.7367574593302597
 30
0.0
 11
0.2083499999999998
 21
0.0
 31
0.0
210
0.0
220
0.0
230
1.0
 40
0.9063077870366509
 41
1.570796326794897
 42
2.455188979453876
  0
ELLIPSE
  5
C3
330
8C
100
AcDbEntity
  8
AM_4
100
AcDbEllipse
 10
-3.448625000000007
 20
0.9762122620687667
 30
0.0
 11
0.2083499999999927
 21
0.0
 31
0.0
210
0.0
220
0.0
230
1.0
 40
0.9063077870366509
 41
3.141592653589793
 42
3.693898799130418
  0
ELLIPSE
  5
C4
330
8C
100
AcDbEntity
  8
AM_4
100
AcDbEllipse
 10
-3.448625000000005
 20
0.9762122620687682
 30
0.0
 11
0.2083500000000047
 21
0.0
 31
0.0
210
0.0
220
0.0
230
1.0
 40
0.9063077870366468
 41
0.0
 42
0.5523061455406021
  0
ELLIPSE
  5
C5
330
8C
100
AcDbEntity
  8
AM_4
100
AcDbEllipse
 10
-3.448624999999999
 20
0.7367574593302616
 30
0.0
 11
0.208349999999998
 21
0.0
 31
0.0
210
0.0
220
0.0
230
1.0
 40
0.90630778703665
 41
0.6872141666848455
 42
1.570796326794897
  0
LINE
  5
C6
330
8C
100
AcDbEntity
  8
AM_4
100
AcDbLine
 10
-3.061575058072008
 20
-2.202380952380952
 30
0.0
 11
-3.006625
 21
-2.202380952380952
 31
0.0
  0
LINE
  5
C7
330
8C
100
AcDbEntity
  8
AM_4
100
AcDbLine
 10
-3.006625
 20
2.202380952380952
 30
0.0
 11
-3.061575058072008
 21
2.202380952380952
 31
0.0
  0
LINE
  5
C8
330
8C
100
AcDbEntity
  8
AM_4
100
AcDbLine
 10
-3.006625
 20
2.202380952380952
 30
0.0
 11
-3.006625
 21
-2.202380952380952
 31
0.0
  0
LINE
  5
C9
330
8C
100
AcDbEntity
  8
AM_4
100
AcDbLine
 10
-3.061575058072008
 20
2.202380952380952
 30
0.0
 11
-3.115291666666667
 21
2.25609756097561
 31
0.0
  0
LINE
  5
CA
330
8C
100
AcDbEntity
  8
AM_4
100
AcDbLine
 10
-3.115291666666667
 20
-2.25609756097561
 30
0.0
 11
-3.061575058072008
 21
-2.202380952380952
 31
0.0
  0
LINE
  5
CB
330
8C
100
AcDbEntity
  8
AM_4
100
AcDbLine
 10
-3.061575058072008
 20
2.202380952380952
 30
0.0
 11
-3.061575058072008
 21
-2.202380952380952
 31
0.0
  0
LINE
  5
CC
330
8C
100
AcDbEntity
  8
AM_4
100
AcDbLine
 10
-3.198625
 20
-2.25609756097561
 30
0.0
 11
-3.115291666666667
 21
-2.25609756097561
 31
0.0
  0
LINE
  5
CD
330
8C
100
AcDbEntity
  8
AM_4
100
AcDbLine
 10
-3.115291666666667
 20
2.25609756097561
 30
0.0
 11
-3.198625
 21
2.25609756097561
 31
0.0
  0
LINE
  5
CE
330
8C
100
AcDbEntity
  8
AM_4
100
AcDbLine
 10
-3.115291666666667
 20
2.25609756097561
 30
0.0
 11
-3.115291666666667
 21
-2.25609756097561
 31
0.0
  0
LINE
  5
CF
330
8C
100
AcDbEntity
  8
AM_4
100
AcDbLine
 10
-3.198625
 20
2.25609756097561
 30
0.0
 11
-3.231188963353683
 21
2.3125
 31
0.0
  0
LINE
  5
D0
330
8C
100
AcDbEntity
  8
AM_4
100
AcDbLine
 10
-3.231188963353683
 20
-2.3125
 30
0.0
 11
-3.198625
 21
-2.25609756097561
 31
0.0
  0
LINE
  5
D1
330
8C
100
AcDbEntity
  8
AM_4
100
AcDbLine
 10
-3.198625
 20
2.25609756097561
 30
0.0
 11
-3.198625
 21
-2.25609756097561
 31
0.0
  0
LINE
  5
D2
330
8C
100
AcDbEntity
  8
AM_4
100
AcDbLine
 10
-3.890625
 20
2.165166666666666
 30
0.0
 11
-3.890625
 21
-2.165166666666666
 31
0.0
  0
ARC
  5
D3
330
8C
100
AcDbEntity
  8
AM_4
100
AcDbCircle
 10
-3.743291666666666
 20
-2.165166666666666
 30
0.0
 40
0.1473333333333335
100
AcDbArc
 50
180.0
 51
270.0
  0
ARC
  5
D4
330
8C
100
AcDbEntity
  8
AM_4
100
AcDbCircle
 10
-3.743291666666666
 20
2.165166666666666
 30
0.0
 40
0.147333333333334
100
AcDbArc
 50
90.0
 51
180.0
  0
LWPOLYLINE
  5
D5
330
8C
100
AcDbEntity
  8
AM_4
100
AcDbPolyline
 90
       13
 70
     0
 43
0.0
 10
-3.271253131528707
 20
2.309915
 10
-3.292154629022774
 20
2.308404662742254
 10
-3.317471169550632
 20
2.306826359902614
 10
-3.346546720354036
 20
2.305358442529732
 10
-3.378513550396748
 20
2.304161917675377
 10
-3.4124592616189
 20
2.303382563684018
 10
-3.447431869751475
 20
2.303095297867587
 10
-3.482313429328725
 20
2.303344971048241
 10
-3.516245168125476
 20
2.304087458113801
 10
-3.548239136057203
 20
2.305250665408642
 10
-3.577439203713099
 20
2.306694523897397
 10
-3.604100403854407
 20
2.30833758281135
 10
-3.625996868471293
 20
2.309914999999999
  0
LINE
  5
D6
330
8C
100
AcDbEntity
  8
AM_4
100
AcDbLine
 10
-3.625996868471293
 20
2.309915
 30
0.0
 11
-3.659559999999922
 21
2.312499999999993
 31
0.0
  0
LWPOLYLINE
  5
D7
330
8C
100
AcDbEntity
  8
AM_4
100
AcDbPolyline
 90
       13
 70
     0
 43
0.0
 10
-3.271253131528706
 20
0.8771426523500776
 10
-3.292154629022774
 20
0.8509176810520844
 10
-3.317471169550632
 20
0.8281847138923913
 10
-3.346546720354035
 20
0.8096949765267754
 10
-3.378513550396748
 20
0.7959640854058432
 10
-3.4124592616189
 20
0.7875084133639727
 10
-3.447431869751475
 20
0.784504000196556
 10
-3.482313429328725
 20
0.7871104261757476
 10
-3.516245168125475
 20
0.7951418651509049
 10
-3.548239136057203
 20
0.8084135115991802
 10
-3.577439203713099
 20
0.8264362431262525
 10
-3.604100403854406
 20
0.8498760425596207
 10
-3.625996868471293
 20
0.8771426523500775
  0
LWPOLYLINE
  5
D8
330
8C
100
AcDbEntity
  8
AM_4
100
AcDbPolyline
 90
        9
 70
     0
 43
0.0
 10
-3.625996868471293
 20
0.8771426523500776
 10
-3.638040941176019
 20
0.896041374061094
 10
-3.650926360017709
 20
0.9252559454487291
 10
-3.658117496888424
 20
0.9558876512163083
 10
-3.659311569585871
 20
0.9857655362824327
 10
-3.654947732606286
 20
1.015205836698636
 10
-3.64527383735203
 20
1.042981443025478
 10
-3.630673728254032
 20
1.068810686184985
 10
-3.625996868471293
 20
1.075281871787458
  0
LWPOLYLINE
  5
D9
330
8C
100
AcDbEntity
  8
AM_4
100
AcDbPolyline
 90
       13
 70
     0
 43
0.0
 10
-3.625996868471293
 20
1.075281871787458
 10
-3.605095370977225
 20
1.10023025087243
 10
-3.579778830449368
 20
1.121629178826944
 10
-3.550703279645964
 20
1.138878178815548
 10
-3.518736449603251
 20
1.151597723428326
 10
-3.484790738381099
 20
1.159394657011978
 10
-3.449818130248524
 20
1.1621562626194
 10
-3.414936570671274
 20
1.159760869531432
 10
-3.381004831874523
 20
1.152357007742298
 10
-3.349010863942797
 20
1.140068546584001
 10
-3.3198107962869
 20
1.123266216986364
 10
-3.293149596145593
 20
1.1012151909573
 10
-3.271253131528707
 20
1.075281871787458
  0
LWPOLYLINE
  5
DA
330
8C
100
AcDbEntity
  8
AM_4
100
AcDbPolyline
 90
        9
 70
     0
 43
0.0
 10
-3.271253131528707
 20
1.075281871787458
 10
-3.270626865382718
 20
1.074450625010707
 10
-3.254007342472555
 20
1.047279590613419
 10
-3.242955798587904
 20
1.017758916203462
 10
-3.238079618990659
 20
0.988070038139749
 10
-3.238878046922179
 20
0.957866610901139
 10
-3.248746818270481
 20
0.9184461844141483
 10
-3.25858804221478
 20
0.8971838710077163
 10
-3.271253131528694
 20
0.8771426523500598
  0
LINE
  5
DB
330
8C
100
AcDbEntity
  8
AM_4
100
AcDbLine
 10
-3.743291666666666
 20
-2.3125
 30
0.0
 11
-3.231188963353683
 21
-2.3125
 31
0.0
  0
LINE
  5
DC
330
8C
100
AcDbEntity
  8
AM_4
100
AcDbLine
 10
-3.231188963353683
 20
2.3125
 30
0.0
 11
-3.23769
 21
2.3125
 31
0.0
  0
LINE
  5
DD
330
8C
100
AcDbEntity
  8
AM_4
100
AcDbLine
 10
-3.65956
 20
2.3125
 30
0.0
 11
-3.743291666666666
 21
2.3125
 31
0.0
  0
LINE
  5
DE
330
8C
100
AcDbEntity
  8
AM_4
100
AcDbLine
 10
-3.743291666666666
 20
2.3125
 30
0.0
 11
-3.743291666666666
 21
-2.3125
 31
0.0
  0
LINE
  5
DF
330
8C
100
AcDbEntity
  8
AM_4
100
AcDbLine
 10
-3.237690000000077
 20
2.312499999999993
 30
0.0
 11
-3.271253131528707
 21
2.309915
 31
0.0
  0
LINE
  5
E0
330
8C
100
AcDbEntity
  8
AM_4
100
AcDbLine
 10
-3.231188963353683
 20
2.3125
 30
0.0
 11
-3.231188963353683
 21
-2.3125
 31
0.0
  0
ENDBLK
  5
8F
330
8C
100
AcDbEntity
  8
0
100
AcDbBlockEnd
  0
BLOCK
  5
E3
330
E1
100
AcDbEntity
  8
0
100
AcDbBlockBegin
  2
3_070025i_0_in_070503_2
 70
     2
 10
0.0
 20
0.0
 30
0.0
  3
3_070025i_0_in_070503_2
  1

  0
ATTDEF
  5
E5
330
E1
100
AcDbEntity
  8
AM_6
100
AcDbText
 10
4.703125
 20
2.55905
 30
0.0
 40
0.5
  1
S-2000 Insert -Inch
100
AcDbAttributeDefinition
  3

  2
NN
 70
     8
280
     0
  0
ATTDEF
  5
E6
330
E1
100
AcDbEntity
  8
AM_6
100
AcDbText
 10
4.703125
 20
2.05905
 30
0.0
 40
0.5
  1
S-2000 Bearings
100
AcDbAttributeDefinition
  3

  2
NT
 70
     8
280
     0
  0
ATTDEF
  5
E7
330
E1
100
AcDbEntity
  8
AM_6
100
AcDbText
 10
4.703125
 20
1.55905
 30
0.0
 40
0.5
  1
070025i
100
AcDbAttributeDefinition
  3

  2
NB
 70
     8
280
     0
  0
ATTDEF
  5
E8
330
E1
100
AcDbEntity
  8
AM_6
100
AcDbText
 10
4.703125
 20
1.05905
 30
0.0
 40
0.5
  1
$PN.i
100
AcDbAttributeDefinition
  3

  2
NBSYN
 70
     8
280
     0
  0
ATTDEF
  5
E9
330
E1
100
AcDbEntity
  8
AM_6
100
AcDbText
 10
4.703125
 20
0.55905
 30
0.0
 40
0.5
  1
070025i
100
AcDbAttributeDefinition
  3

  2
LINA
 70
     8
280
     0
  0
ATTDEF
  5
EA
330
E1
100
AcDbEntity
  8
AM_6
100
AcDbText
 10
4.703125
 20
0.05905
 30
0.0
 40
0.5
  1
2-11/16
100
AcDbAttributeDefinition
  3

  2
SS
 70
     8
280
     0
  0
ATTDEF
  5
EB
330
E1
100
AcDbEntity
  8
AM_6
100
AcDbText
 10
4.703125
 20
-0.44095
 30
0.0
 40
0.5
  1
3.47
100
AcDbAttributeDefinition
  3

  2
CC
 70
     8
280
     0
  0
ATTDEF
  5
EC
330
E1
100
AcDbEntity
  8
AM_6
100
AcDbText
 10
4.703125
 20
-0.94095
 30
0.0
 40
0.5
  1
2.687500
100
AcDbAttributeDefinition
  3

  2
SS1
 70
     8
280
     0
  0
ATTDEF
  5
ED
330
E1
100
AcDbEntity
  8
AM_6
100
AcDbText
 10
4.703125
 20
-1.44095
 30
0.0
 40
0.5
  1
070025
100
AcDbAttributeDefinition
  3

  2
PN
 70
     8
280
     0
  0
ATTDEF
  5
EE
330
E1
100
AcDbEntity
  8
AM_6
100
AcDbText
 10
4.703125
 20
-1.94095
 30
0.0
 40
0.5
  1
INS-S2-211L
100
AcDbAttributeDefinition
  3

  2
DESCRIPTION
 70
     8
280
     0
  0
ATTDEF
  5
EF
330
E1
100
AcDbEntity
  8
AM_6
100
AcDbText
 10
4.703125
 20
-2.44095
 30
0.0
 40
0.5
  1
Labyrinth Seal
100
AcDbAttributeDefinition
  3

  2
ST
 70
     8
280
     0
  0
ATTDEF
  5
F0
330
E1
100
AcDbEntity
  8
AM_6
100
AcDbText
 10
4.703125
 20
-2.94095
 30
0.0
 40
0.5
  1
2
100
AcDbAttributeDefinition
  3

  2
ST1
 70
     8
280
     0
  0
ATTDEF
  5
F1
330
E1
100
AcDbEntity
  8
AM_6
100
AcDbText
 10
4.703125
 20
-3.44095
 30
0.0
 40
0.5
  1
5.1181
100
AcDbAttributeDefinition
  3

  2
A
 70
     8
280
     0
  0
ATTDEF
  5
F2
330
E1
100
AcDbEntity
  8
AM_6
100
AcDbText
 10
4.703125
 20
-3.94095
 30
0.0
 40
0.5
  1
1-9/32
100
AcDbAttributeDefinition
  3

  2
B
 70
     8
280
     0
  0
ATTDEF
  5
F3
330
E1
100
AcDbEntity
  8
AM_6
100
AcDbText
 10
4.703125
 20
-4.44095
 30
0.0
 40
0.5
  1
3-19/32
100
AcDbAttributeDefinition
  3

  2
C
 70
     8
280
     0
  0
ATTDEF
  5
F4
330
E1
100
AcDbEntity
  8
AM_6
100
AcDbText
 10
4.703125
 20
-4.94095
 30
0.0
 40
0.5
  1
1.219
100
AcDbAttributeDefinition
  3

  2
D
 70
     8
280
     0
  0
ATTDEF
  5
F5
330
E1
100
AcDbEntity
  8
AM_6
100
AcDbText
 10
4.703125
 20
-5.44095
 30
0.0
 40
0.5
  1
4-5/8
100
AcDbAttributeDefinition
  3

  2
E
 70
     8
280
     0
  0
ATTDEF
  5
F6
330
E1
100
AcDbEntity
  8
AM_6
100
AcDbText
 10
4.703125
 20
-5.94095
 30
0.0
 40
0.5
  1
0.53125
100
AcDbAttributeDefinition
  3

  2
F
 70
     8
280
     0
  0
ATTDEF
  5
F7
330
E1
100
AcDbEntity
  8
AM_6
100
AcDbText
 10
4.703125
 20
-6.44095
 30
0.0
 40
0.5
  1
2
100
AcDbAttributeDefinition
  3

  2
DD
 70
     8
280
     0
  0
ATTDEF
  5
F8
330
E1
100
AcDbEntity
  8
AM_6
100
AcDbText
 10
4.703125
 20
-6.94095
 30
0.0
 40
0.5
  1
baldor
100
AcDbAttributeDefinition
  3

  2
COMPANY
 70
     8
280
     0
  0
LINE
  5
F9
330
E1
100
AcDbEntity
  8
AM_9
100
AcDbLine
 10
-3.718625
 20
1.73486036491284
 30
0.0
 11
-3.718625
 21
1.34375
 31
0.0
  0
LINE
  5
FA
330
E1
100
AcDbEntity
  8
AM_9
100
AcDbLine
 10
-3.178625
 20
1.34375
 30
0.0
 11
-3.178625
 21
1.734973151062446
 31
0.0
  0
LINE
  5
FB
330
E1
100
AcDbEntity
  8
AM_9
100
AcDbLine
 10
-3.718625
 20
0.7332426841201136
 30
0.0
 11
-3.718625
 21
0.5678583232887976
 31
0.0
  0
LINE
  5
FC
330
E1
100
AcDbEntity
  8
AM_9
100
AcDbLine
 10
-3.178625
 20
0.5678154565267889
 30
0.0
 11
-3.178625
 21
0.7332426841201136
 31
0.0
  0
LWPOLYLINE
  5
FD
330
E1
100
AcDbEntity
  8
AM_9
100
AcDbPolyline
 90
        4
 70
     0
 43
0.0
 10
-3.702316582718534
 20
0.6503053353746827
 10
-3.713739178457005
 20
0.6136820259872994
 10
-3.718566494520596
 20
0.5729821855064544
 10
-3.718624998757235
 20
0.5679167674345325
  0
LWPOLYLINE
  5
FE
330
E1
100
AcDbEntity
  8
AM_9
100
AcDbPolyline
 90
        8
 70
     0
 43
0.0
 10
-3.512624369179043
 20
0.7946978923125693
 10
-3.547338730397675
 20
0.7856144747675973
 10
-3.587253434728903
 20
0.7693740687134119
 10
-3.623784034542084
 20
0.7474092112853653
 10
-3.655469975859194
 20
0.7204157749551974
 10
-3.681748584088377
 20
0.6883678578801375
 10
-3.70141785629484
 20
0.6524366150779715
 10
-3.702316582718534
 20
0.6503053353746827
  0
LWPOLYLINE
  5
FF
330
E1
100
AcDbEntity
  8
AM_9
100
AcDbPolyline
 90
        8
 70
     0
 43
0.0
 10
-3.194426186997097
 20
0.6490730541937021
 10
-3.204008362503912
 20
0.6694192935531821
 10
-3.226280901723712
 20
0.7029775816025694
 10
-3.254595993148778
 20
0.7324881137867987
 10
-3.288904855942295
 20
0.7576596106184794
 10
-3.327757433160832
 20
0.7774663779142416
 10
-3.370241923198582
 20
0.7914383007459921
 10
-3.385539313745869
 20
0.794879788674915
  0
LWPOLYLINE
  5
100
330
E1
100
AcDbEntity
  8
AM_9
100
AcDbPolyline
 90
        4
 70
     0
 43
0.0
 10
-3.178625000717643
 20
0.5678754478364677
 10
-3.180151049540329
 20
0.5937442467366413
 10
-3.188565157299679
 20
0.6327604861171339
 10
-3.194426186997097
 20
0.6490730541937021
  0
LWPOLYLINE
  5
101
330
E1
100
AcDbEntity
  8
AM_9
100
AcDbPolyline
 90
       11
 70
     0
 43
0.0
 10
-3.718624998757235
 20
0.5679167674345325
 10
-3.715750158790635
 20
0.5322048103157943
 10
-3.705638023636771
 20
0.4918368453370556
 10
-3.688487508624092
 20
0.4531743754914127
 10
-3.664872575479547
 20
0.417245968081358
 10
-3.634833846455435
 20
0.38468525087819
 10
-3.599599221944328
 20
0.3570855244796238
 10
-3.559610833158973
 20
0.3352430197478956
 10
-3.516386219750137
 20
0.3201764998563689
 10
-3.482789195651458
 20
0.3137725932038975
 10
-3.448625
 20
0.3116083177562808
  0
LWPOLYLINE
  5
102
330
E1
100
AcDbEntity
  8
AM_9
100
AcDbPolyline
 90
        7
 70
     0
 43
0.0
 10
-3.258203717103087
 20
0.9022475778066343
 10
-3.239433406601096
 20
0.8843929389854571
 10
-3.213704103600343
 20
0.8516496473503784
 10
-3.194621897166227
 20
0.815198592935213
 10
-3.182878418495136
 20
0.7760819607321047
 10
-3.178634176900261
 20
0.735259596211835
 10
-3.178625000337887
 20
0.733254926266177
  0
LWPOLYLINE
  5
103
330
E1
100
AcDbEntity
  8
AM_9
100
AcDbPolyline
 90
       11
 70
     0
 43
0.0
 10
-3.639654395999194
 20
0.901725978679142
 10
-3.606451430692859
 20
0.9258893966518486
 10
-3.567406192761772
 20
0.9457982923585129
 10
-3.524876049515454
 20
0.9597448171546433
 10
-3.480145148649331
 20
0.9674620266758084
 10
-3.434963706378366
 20
0.9687007404748414
 10
-3.390170868557394
 20
0.9636303508581853
 10
-3.347289073453575
 20
0.9523662257738067
 10
-3.307228240050793
 20
0.9352349712857533
 10
-3.270852649049555
 20
0.9123427445949038
 10
-3.258203717103087
 20
0.9022475778066343
  0
LWPOLYLINE
  5
104
330
E1
100
AcDbEntity
  8
AM_9
100
AcDbPolyline
 90
        7
 70
     0
 43
0.0
 10
-3.718624999060577
 20
0.7332222712293913
 10
-3.716986689251915
 20
0.760051280386422
 10
-3.7083111914755
 20
0.7994754444077306
 10
-3.692499925706517
 20
0.8366164094441347
 10
-3.669810563952598
 20
0.8706134133622141
 10
-3.641019707038779
 20
0.9005423672521872
 10
-3.639654395999194
 20
0.901725978679142
  0
LWPOLYLINE
  5
105
330
E1
100
AcDbEntity
  8
AM_9
100
AcDbPolyline
 90
       11
 70
     0
 43
0.0
 10
-3.178625000337887
 20
0.733254926266177
 10
-3.18205219455302
 20
0.6943075068191419
 10
-3.192837070566499
 20
0.6539873103851299
 10
-3.210751624235077
 20
0.6155340832923069
 10
-3.235194579887676
 20
0.5800276648226287
 10
-3.265906807824553
 20
0.54829009896526
 10
-3.301746540818259
 20
0.5216369625882545
 10
-3.342031783534719
 20
0.5009130518079106
 10
-3.385385450401828
 20
0.4869062310260637
 10
-3.416778786116405
 20
0.4814468153714229
 10
-3.448625
 20
0.4796065289345783
  0
LWPOLYLINE
  5
106
330
E1
100
AcDbEntity
  8
AM_9
100
AcDbPolyline
 90
       11
 70
     0
 43
0.0
 10
-3.448625
 20
0.3116083177562808
 10
-3.403815305412586
 20
0.315353884064351
 10
-3.36028133861626
 20
0.32632931000592
 10
-3.319302812216786
 20
0.344210353435201
 10
-3.28191396147909
 20
0.3682688674069596
 10
-3.248773412314983
 20
0.3981835847728445
 10
-3.221212879958264
 20
0.4326424980039101
 10
-3.199921511489591
 20
0.4709625607916607
 10
-3.185710094134945
 20
0.5116091982035768
 10
-3.179166530533204
 20
0.5527721087445033
 10
-3.178625000717643
 20
0.5678754478364677
  0
LWPOLYLINE
  5
107
330
E1
100
AcDbEntity
  8
AM_9
100
AcDbPolyline
 90
       11
 70
     0
 43
0.0
 10
-3.448625
 20
1.316344963335979
 10
-3.40445316930813
 20
1.317085879176704
 10
-3.36028133861626
 20
1.319306130133066
 10
-3.319839836754756
 20
1.322629835128523
 10
-3.28191396147909
 20
1.326859688461715
 10
-3.249184637935536
 20
1.331367913283329
 10
-3.221212879958264
 20
1.3358444276344
 10
-3.200159460135005
 20
1.339589185907532
 10
-3.185710094134945
 20
1.342344333703551
 10
-3.179179891210509
 20
1.343638615532682
 10
-3.178625000001136
 20
1.343749999999772
  0
LINE
  5
108
330
E1
100
AcDbEntity
  8
AM_9
100
AcDbLine
 10
-0.2968750000000001
 20
1.34375
 30
0.0
 11
-3.178625
 21
1.34375
 31
0.0
  0
LINE
  5
109
330
E1
100
AcDbEntity
  8
AM_9
100
AcDbLine
 10
-3.718625
 20
1.34375
 30
0.0
 11
-3.890625
 21
1.34375
 31
0.0
  0
LINE
  5
10A
330
E1
100
AcDbEntity
  8
AM_9
100
AcDbLine
 10
-3.890625
 20
-1.34375
 30
0.0
 11
-0.2968750000000001
 21
-1.34375
 31
0.0
  0
LINE
  5
10B
330
E1
100
AcDbEntity
  8
AM_9
100
AcDbLine
 10
-3.704593624039891
 20
1.341001118192254
 30
0.0
 11
-3.718624999998203
 21
1.343749999999639
 31
0.0
  0
LINE
  5
10C
330
E1
100
AcDbEntity
  8
AM_9
100
AcDbLine
 10
-3.431629861660139
 20
1.316454669643885
 30
0.0
 11
-3.454932003275859
 21
1.316360072620832
 31
0.0
  0
LWPOLYLINE
  5
10D
330
E1
100
AcDbEntity
  8
AM_9
100
AcDbPolyline
 90
       11
 70
     0
 43
0.0
 10
-3.718624999998203
 20
1.343749999999639
 10
-3.715869821835593
 20
1.343199113049863
 10
-3.705638023636771
 20
1.341200863710919
 10
-3.688792318347781
 20
1.338074887030754
 10
-3.664872575479547
 20
1.333989159026708
 10
-3.635310511047304
 20
1.329517033563314
 10
-3.599599221944327
 20
1.32497444435419
 10
-3.560236821301561
 20
1.321068227289663
 10
-3.516386219750137
 20
1.318087874688948
 10
-3.48307526596029
 20
1.316795687768127
 10
-3.448625
 20
1.316344963335979
  0
LINE
  5
10E
330
E1
100
AcDbEntity
  8
AM_9
100
AcDbLine
 10
-0.2968750000000001
 20
-1.735
 30
0.0
 11
-0.2968750000000001
 21
1.735
 31
0.0
  0
LINE
  5
10F
330
E1
100
AcDbEntity
  8
AM_9
100
AcDbLine
 10
-0.2968750000000001
 20
1.735
 30
0.0
 11
-0.5563750000000004
 21
1.735
 31
0.0
  0
LINE
  5
110
330
E1
100
AcDbEntity
  8
AM_9
100
AcDbLine
 10
-0.5563750000000004
 20
-1.735
 30
0.0
 11
-0.2968750000000001
 21
-1.735
 31
0.0
  0
LWPOLYLINE
  5
111
330
E1
100
AcDbEntity
  8
AM_9
100
AcDbPolyline
 90
       11
 70
     0
 43
0.0
 10
-3.448625
 20
0.4796065289345783
 10
-3.493641402455498
 20
0.4833101015160274
 10
-3.537381420371638
 20
0.4941765714991641
 10
-3.578566422842957
 20
0.5119166763251392
 10
-3.616122412273244
 20
0.5358357738896399
 10
-3.649201240282542
 20
0.565477112603116
 10
-3.676657979761296
 20
0.5996662737626878
 10
-3.697732090367963
 20
0.6375998093529771
 10
-3.711742799535108
 20
0.6778983930364383
 10
-3.718142223934402
 20
0.7190153699496271
 10
-3.718624999060577
 20
0.7332222712293913
  0
LWPOLYLINE
  5
112
330
E1
100
AcDbEntity
  8
AM_9
100
AcDbPolyline
 90
       11
 70
     0
 43
0.0
 10
-3.448625
 20
1.713862596592854
 10
-3.493003210185819
 20
1.714437057911225
 10
-3.537381420371638
 20
1.716159288107368
 10
-3.578021105547303
 20
1.718740338774537
 10
-3.616122412273244
 20
1.72202798557928
 10
-3.648788761151045
 20
1.725511672310023
 10
-3.676657979761296
 20
1.728966176609252
 10
-3.697499938649829
 20
1.731838253154133
 10
-3.711742799535108
 20
1.733942322118068
 10
-3.718131065422807
 20
1.73492320270947
 10
-3.718624999999459
 20
1.734999999999916
  0
LINE
  5
113
330
E1
100
AcDbEntity
  8
AM_9
100
AcDbLine
 10
-3.006625
 20
1.735
 30
0.0
 11
-3.178799445653871
 21
1.735
 31
0.0
  0
LINE
  5
114
330
E1
100
AcDbEntity
  8
AM_9
100
AcDbLine
 10
-3.717725169706478
 20
1.735
 30
0.0
 11
-3.890625
 21
1.735
 31
0.0
  0
LINE
  5
115
330
E1
100
AcDbEntity
  8
AM_9
100
AcDbLine
 10
-3.890625
 20
-1.735
 30
0.0
 11
-3.006625
 21
-1.735
 31
0.0
  0
LINE
  5
116
330
E1
100
AcDbEntity
  8
AM_9
100
AcDbLine
 10
-3.185831690005495
 20
1.733893111981782
 30
0.0
 11
-3.178625000000178
 21
1.734999999999972
 31
0.0
  0
LINE
  5
117
330
E1
100
AcDbEntity
  8
AM_9
100
AcDbLine
 10
-3.46452956953644
 20
1.713936391857096
 30
0.0
 11
-3.440508402334593
 21
1.713881815983139
 31
0.0
  0
LWPOLYLINE
  5
118
330
E1
100
AcDbEntity
  8
AM_9
100
AcDbPolyline
 90
       11
 70
     0
 43
0.0
 10
-3.178625000000178
 20
1.734999999999972
 10
-3.181923762514923
 20
1.734489708841212
 10
-3.192837070566499
 20
1.732845193559966
 10
-3.210431273893857
 20
1.730335589172323
 10
-3.235194579887676
 20
1.727100907367408
 10
-3.265416180495765
 20
1.7236271265979
 10
-3.301746540818259
 20
1.720144843253499
 10
-3.341408910902559
 20
1.717212942462684
 10
-3.385385450401828
 20
1.715028932885209
 10
-3.416550684637121
 20
1.714162699893449
 10
-3.448625
 20
1.713862596592854
  0
LINE
  5
119
330
E1
100
AcDbEntity
  8
AM_9
100
AcDbLine
 10
-0.6845000000000006
 20
2.04724
 30
0.0
 11
-0.8749999999999998
 21
2.04724
 31
0.0
  0
LINE
  5
11A
330
E1
100
AcDbEntity
  8
AM_9
100
AcDbLine
 10
-0.8749999999999997
 20
-2.04724
 30
0.0
 11
-0.6845000000000006
 21
-2.04724
 31
0.0
  0
LINE
  5
11B
330
E1
100
AcDbEntity
  8
AM_9
100
AcDbLine
 10
-0.5563750000000004
 20
-1.919115
 30
0.0
 11
-0.5563750000000004
 21
1.919115
 31
0.0
  0
LINE
  5
11C
330
E1
100
AcDbEntity
  8
AM_9
100
AcDbLine
 10
-0.6845000000000006
 20
-2.04724
 30
0.0
 11
-0.6845000000000006
 21
2.04724
 31
0.0
  0
ARC
  5
11D
330
E1
100
AcDbEntity
  8
AM_9
100
AcDbCircle
 10
-0.6845000000000006
 20
1.919115
 30
0.0
 40
0.1281249999999999
100
AcDbArc
 50
0.0
 51
90.0
  0
ARC
  5
11E
330
E1
100
AcDbEntity
  8
AM_9
100
AcDbCircle
 10
-0.6845000000000006
 20
-1.919115
 30
0.0
 40
0.128125
100
AcDbArc
 50
270.0
 51
0.0
  0
LINE
  5
11F
330
E1
100
AcDbEntity
  8
AM_9
100
AcDbLine
 10
-2.1565
 20
2.04724
 30
0.0
 11
-2.34725
 21
2.04724
 31
0.0
  0
LINE
  5
120
330
E1
100
AcDbEntity
  8
AM_9
100
AcDbLine
 10
-2.34725
 20
-2.04724
 30
0.0
 11
-2.1565
 21
-2.04724
 31
0.0
  0
LINE
  5
121
330
E1
100
AcDbEntity
  8
AM_9
100
AcDbLine
 10
-2.34725
 20
-2.04724
 30
0.0
 11
-2.34725
 21
2.04724
 31
0.0
  0
ARC
  5
122
330
E1
100
AcDbEntity
  8
AM_9
100
AcDbCircle
 10
-2.347249999999994
 20
1.919114999999975
 30
0.0
 40
0.1281250000000256
100
AcDbArc
 50
90.0
 51
109.7877400038193
  0
ARC
  5
123
330
E1
100
AcDbEntity
  8
AM_9
100
AcDbCircle
 10
-2.347249999999994
 20
-1.919114999999975
 30
0.0
 40
0.1281250000000256
100
AcDbArc
 50
250.2122599961807
 51
270.0
  0
LINE
  5
124
330
E1
100
AcDbEntity
  8
AM_9
100
AcDbLine
 10
-1.451812500000004
 20
2.456688
 30
0.0
 11
-1.579937499999997
 21
2.456688
 31
0.0
  0
LINE
  5
125
330
E1
100
AcDbEntity
  8
AM_9
100
AcDbLine
 10
-1.579937499999997
 20
-2.456688
 30
0.0
 11
-1.451812500000004
 21
-2.456688
 31
0.0
  0
LINE
  5
126
330
E1
100
AcDbEntity
  8
AM_9
100
AcDbLine
 10
-1.003375
 20
2.55905
 30
0.0
 11
-1.392713771745216
 21
2.55905
 31
0.0
  0
LINE
  5
127
330
E1
100
AcDbEntity
  8
AM_9
100
AcDbLine
 10
-1.392713771745216
 20
-2.55905
 30
0.0
 11
-1.003375
 21
-2.55905
 31
0.0
  0
LINE
  5
128
330
E1
100
AcDbEntity
  8
AM_9
100
AcDbLine
 10
-1.579937499999997
 20
-2.456688
 30
0.0
 11
-1.579937499999997
 21
2.456688
 31
0.0
  0
LINE
  5
129
330
E1
100
AcDbEntity
  8
AM_9
100
AcDbLine
 10
-1.579937499999997
 20
2.456688
 30
0.0
 11
-1.639036228254785
 21
2.55905
 31
0.0
  0
LINE
  5
12A
330
E1
100
AcDbEntity
  8
AM_9
100
AcDbLine
 10
-1.639036228254785
 20
-2.55905
 30
0.0
 11
-1.579937499999997
 21
-2.456688
 31
0.0
  0
LINE
  5
12B
330
E1
100
AcDbEntity
  8
AM_9
100
AcDbLine
 10
-1.392713771745216
 20
-2.55905
 30
0.0
 11
-1.392713771745216
 21
2.55905
 31
0.0
  0
LINE
  5
12C
330
E1
100
AcDbEntity
  8
AM_9
100
AcDbLine
 10
-1.451812500000004
 20
-2.456688
 30
0.0
 11
-1.451812500000004
 21
2.456688
 31
0.0
  0
LINE
  5
12D
330
E1
100
AcDbEntity
  8
AM_9
100
AcDbLine
 10
-1.451812500000004
 20
-2.456688
 30
0.0
 11
-1.392713771745216
 21
-2.55905
 31
0.0
  0
LINE
  5
12E
330
E1
100
AcDbEntity
  8
AM_9
100
AcDbLine
 10
-1.392713771745216
 20
2.55905
 30
0.0
 11
-1.451812500000004
 21
2.456688
 31
0.0
  0
LINE
  5
12F
330
E1
100
AcDbEntity
  8
AM_9
100
AcDbLine
 10
-0.8752500000000007
 20
-2.430925000000001
 30
0.0
 11
-0.8752500000000007
 21
2.430925000000001
 31
0.0
  0
LINE
  5
130
330
E1
100
AcDbEntity
  8
AM_9
100
AcDbLine
 10
-1.003375
 20
-2.55905
 30
0.0
 11
-1.003375
 21
2.55905
 31
0.0
  0
ARC
  5
131
330
E1
100
AcDbEntity
  8
AM_9
100
AcDbCircle
 10
-1.003374999999999
 20
2.430925000000001
 30
0.0
 40
0.1281249999999985
100
AcDbArc
 50
0.0
 51
90.0
  0
ARC
  5
132
330
E1
100
AcDbEntity
  8
AM_9
100
AcDbCircle
 10
-1.003374999999999
 20
-2.430925000000001
 30
0.0
 40
0.1281249999999989
100
AcDbArc
 50
270.0
 51
0.0
  0
LINE
  5
133
330
E1
100
AcDbEntity
  8
AM_9
100
AcDbLine
 10
-2.1565
 20
-2.430925
 30
0.0
 11
-2.1565
 21
2.430925
 31
0.0
  0
ARC
  5
134
330
E1
100
AcDbEntity
  8
AM_9
100
AcDbCircle
 10
-2.028375000000001
 20
2.430925000000001
 30
0.0
 40
0.1281249999999989
100
AcDbArc
 50
90.0
 51
180.0
  0
ARC
  5
135
330
E1
100
AcDbEntity
  8
AM_9
100
AcDbCircle
 10
-2.028375000000001
 20
-2.430925000000001
 30
0.0
 40
0.1281249999999989
100
AcDbArc
 50
180.0
 51
270.0
  0
LINE
  5
136
330
E1
100
AcDbEntity
  8
AM_9
100
AcDbLine
 10
-1.639036228254785
 20
-2.55905
 30
0.0
 11
-1.639036228254785
 21
2.55905
 31
0.0
  0
LINE
  5
137
330
E1
100
AcDbEntity
  8
AM_9
100
AcDbLine
 10
-2.028375000000001
 20
-2.55905
 30
0.0
 11
-2.028375000000001
 21
2.55905
 31
0.0
  0
LINE
  5
138
330
E1
100
AcDbEntity
  8
AM_9
100
AcDbLine
 10
-1.639036228254785
 20
2.55905
 30
0.0
 11
-2.028375000000001
 21
2.55905
 31
0.0
  0
LINE
  5
139
330
E1
100
AcDbEntity
  8
AM_9
100
AcDbLine
 10
-2.028375000000001
 20
-2.55905
 30
0.0
 11
-1.639036228254785
 21
-2.55905
 31
0.0
  0
LINE
  5
13C
330
E1
100
AcDbEntity
  8
AM_7
100
AcDbLine
 10
-3.448625
 20
-0.088974358974359
 30
0.0
 11
-3.448625
 21
2.384059916666667
 31
0.0
  0
LWPOLYLINE
  5
13D
330
E1
100
AcDbEntity
  8
AM_4
100
AcDbPolyline
 90
        5
 70
     0
 43
0.0
 10
-3.385539313745869
 20
0.794879788674915
 10
-3.415025284661996
 20
0.7992935705790587
 10
-3.460024794984959
 20
0.8007963510639788
 10
-3.50469764347124
 20
0.7961838922455865
 10
-3.512624369179043
 20
0.7946978923125693
  0
LINE
  5
13E
330
E1
100
AcDbEntity
  8
AM_4
100
AcDbLine
 10
-2.475375000000001
 20
1.735
 30
0.0
 11
-3.006625
 21
1.735
 31
0.0
  0
LINE
  5
13F
330
E1
100
AcDbEntity
  8
AM_4
100
AcDbLine
 10
-3.006625
 20
-1.735
 30
0.0
 11
-2.475375000000001
 21
-1.735
 31
0.0
  0
LINE
  5
140
330
E1
100
AcDbEntity
  8
AM_4
100
AcDbLine
 10
-2.475375000000001
 20
-1.919115
 30
0.0
 11
-2.475375000000001
 21
1.919115
 31
0.0
  0
ARC
  5
141
330
E1
100
AcDbEntity
  8
AM_4
100
AcDbCircle
 10
-2.347249999999999
 20
1.919114999999999
 30
0.0
 40
0.1281250000000013
100
AcDbArc
 50
109.7877400038207
 51
180.0
  0
ARC
  5
142
330
E1
100
AcDbEntity
  8
AM_4
100
AcDbCircle
 10
-2.347249999999999
 20
-1.919114999999998
 30
0.0
 40
0.1281250000000012
100
AcDbArc
 50
180.0
 51
250.2122599961794
  0
ENDBLK
  5
E4
330
E1
100
AcDbEntity
  8
0
100
AcDbBlockEnd
  0
BLOCK
  5
145
330
143
100
AcDbEntity
  8
0
100
AcDbBlockBegin
  2
4_405015E_Inch_0_in_070503_2
 70
     2
 10
0.0
 20
0.0
 30
0.0
  3
4_405015E_Inch_0_in_070503_2
  1

  0
ATTDEF
  5
147
330
143
100
AcDbEntity
  8
AM_6
100
AcDbText
 10
3.619778242770461
 20
3.6866875
 30
0.0
 40
0.5
  1
405015E -Inch
100
AcDbAttributeDefinition
  3

  2
NN
 70
     8
280
     0
  0
ATTDEF
  5
148
330
143
100
AcDbEntity
  8
AM_6
100
AcDbText
 10
3.619778242770461
 20
3.1866875
 30
0.0
 40
0.5
  1
Grease Fitting
100
AcDbAttributeDefinition
  3

  2
NT
 70
     8
280
     0
  0
ATTDEF
  5
149
330
143
100
AcDbEntity
  8
AM_6
100
AcDbText
 10
3.619778242770461
 20
2.6866875
 30
0.0
 40
0.5
  1
405015E-Inch
100
AcDbAttributeDefinition
  3

  2
NB
 70
     8
280
     0
  0
ATTDEF
  5
14A
330
143
100
AcDbEntity
  8
AM_6
100
AcDbText
 10
3.619778242770461
 20
2.1866875
 30
0.0
 40
0.5
  1
$MN.-Inch
100
AcDbAttributeDefinition
  3

  2
NBSYN
 70
     8
280
     0
  0
ATTDEF
  5
14B
330
143
100
AcDbEntity
  8
AM_6
100
AcDbText
 10
3.619778242770461
 20
1.6866875
 30
0.0
 40
0.5
  1
405015E
100
AcDbAttributeDefinition
  3

  2
LINA
 70
     8
280
     0
  0
ATTDEF
  5
14C
330
143
100
AcDbEntity
  8
AM_6
100
AcDbText
 10
3.619778242770461
 20
1.1866875
 30
0.0
 40
0.5
  1
405015E
100
AcDbAttributeDefinition
  3

  2
MN
 70
     8
280
     0
  0
ATTDEF
  5
14D
330
143
100
AcDbEntity
  8
AM_6
100
AcDbText
 10
3.619778242770461
 20
0.6866874999999997
 30
0.0
 40
0.5
  1
1/8 x 27PTF
100
AcDbAttributeDefinition
  3

  2
T
 70
     8
280
     0
  0
ATTDEF
  5
14E
330
143
100
AcDbEntity
  8
AM_6
100
AcDbText
 10
3.619778242770461
 20
0.1866874999999997
 30
0.0
 40
0.5
  1
baldor
100
AcDbAttributeDefinition
  3

  2
COMPANY
 70
     8
280
     0
  0
LINE
  5
14F
330
143
100
AcDbEntity
  8
AM_9
100
AcDbLine
 10
-1.794715372472269
 20
3.0146875
 30
0.0
 11
-1.470909627527731
 21
3.0146875
 31
0.0
  0
LINE
  5
150
330
143
100
AcDbEntity
  8
AM_9
100
AcDbLine
 10
-1.470909627527731
 20
3.0146875
 30
0.0
 11
-1.434194873218785
 21
3.051402254308947
 31
0.0
  0
LINE
  5
151
330
143
100
AcDbEntity
  8
AM_9
100
AcDbLine
 10
-1.831430126781215
 20
3.051402254308947
 30
0.0
 11
-1.794715372472269
 21
3.0146875
 31
0.0
  0
LINE
  5
152
330
143
100
AcDbEntity
  8
AM_9
100
AcDbLine
 10
-1.831430126781215
 20
3.051402254308947
 30
0.0
 11
-1.434194873218785
 21
3.051402254308947
 31
0.0
  0
LINE
  5
153
330
143
100
AcDbEntity
  8
AM_9
100
AcDbLine
 10
-1.434194873218785
 20
3.051402254308947
 30
0.0
 11
-1.42706060277693
 21
3.2796875
 31
0.0
  0
LINE
  5
154
330
143
100
AcDbEntity
  8
AM_9
100
AcDbLine
 10
-1.83856439722307
 20
3.2796875
 30
0.0
 11
-1.831430126781215
 21
3.051402254308947
 31
0.0
  0
LINE
  5
155
330
143
100
AcDbEntity
  8
AM_5
100
AcDbLine
 10
-1.464663375147652
 20
3.214557587748463
 30
0.0
 11
-1.470909627527731
 21
3.0146875
 31
0.0
  0
LINE
  5
156
330
143
100
AcDbEntity
  8
AM_5
100
AcDbLine
 10
-1.42706060277693
 20
3.2796875
 30
0.0
 11
-1.464663375147652
 21
3.214557587748463
 31
0.0
  0
LINE
  5
157
330
143
100
AcDbEntity
  8
AM_5
100
AcDbLine
 10
-1.836528985751557
 20
3.214557587748463
 30
0.0
 11
-1.429096014248443
 21
3.214557587748463
 31
0.0
  0
LINE
  5
158
330
143
100
AcDbEntity
  8
AM_5
100
AcDbLine
 10
-1.800961624852348
 20
3.214557587748463
 30
0.0
 11
-1.794715372472269
 21
3.0146875
 31
0.0
  0
LINE
  5
159
330
143
100
AcDbEntity
  8
AM_5
100
AcDbLine
 10
-1.83856439722307
 20
3.2796875
 30
0.0
 11
-1.800961624852348
 21
3.214557587748463
 31
0.0
  0
LINE
  5
15A
330
143
100
AcDbEntity
  8
AM_7
100
AcDbLine
 10
-1.6328125
 20
3.6866875
 30
0.0
 11
-1.6328125
 21
2.9826875
 31
0.0
  0
LINE
  5
15B
330
143
100
AcDbEntity
  8
AM_4
100
AcDbLine
 10
-1.5278125
 20
3.4846875
 30
0.0
 11
-1.5278125
 21
3.5146875
 31
0.0
  0
LINE
  5
15C
330
143
100
AcDbEntity
  8
AM_4
100
AcDbLine
 10
-1.7378125
 20
3.5146875
 30
0.0
 11
-1.7378125
 21
3.4846875
 31
0.0
  0
LINE
  5
15D
330
143
100
AcDbEntity
  8
AM_4
100
AcDbLine
 10
-1.8515625
 20
3.3796875
 30
0.0
 11
-1.4140625
 21
3.3796875
 31
0.0
  0
LINE
  5
15E
330
143
100
AcDbEntity
  8
AM_4
100
AcDbLine
 10
-1.380221757229539
 20
3.370619900303386
 30
0.0
 11
-1.4140625
 21
3.3796875
 31
0.0
  0
LINE
  5
15F
330
143
100
AcDbEntity
  8
AM_4
100
AcDbLine
 10
-1.8515625
 20
3.3796875
 30
0.0
 11
-1.885403242770461
 21
3.370619900303386
 31
0.0
  0
LINE
  5
160
330
143
100
AcDbEntity
  8
AM_4
100
AcDbLine
 10
-1.4140625
 20
3.2796875
 30
0.0
 11
-1.380221757229539
 21
3.288755099696615
 31
0.0
  0
LINE
  5
161
330
143
100
AcDbEntity
  8
AM_4
100
AcDbLine
 10
-1.885403242770461
 20
3.288755099696615
 30
0.0
 11
-1.8515625
 21
3.2796875
 31
0.0
  0
LINE
  5
162
330
143
100
AcDbEntity
  8
AM_4
100
AcDbLine
 10
-1.7378125
 20
3.4846875
 30
0.0
 11
-1.5278125
 21
3.4846875
 31
0.0
  0
LINE
  5
163
330
143
100
AcDbEntity
  8
AM_4
100
AcDbLine
 10
-1.7378125
 20
3.4846875
 30
0.0
 11
-1.751632590734898
 21
3.452440621618573
 31
0.0
  0
LINE
  5
164
330
143
100
AcDbEntity
  8
AM_4
100
AcDbLine
 10
-1.513992409265103
 20
3.452440621618573
 30
0.0
 11
-1.5278125
 21
3.4846875
 31
0.0
  0
LINE
  5
165
330
143
100
AcDbEntity
  8
AM_4
100
AcDbLine
 10
-1.735490401933188
 20
3.6546875
 30
0.0
 11
-1.530134598066813
 21
3.6546875
 31
0.0
  0
LINE
  5
166
330
143
100
AcDbEntity
  8
AM_4
100
AcDbLine
 10
-1.735490401933188
 20
3.6546875
 30
0.0
 11
-1.7678125
 21
3.5746875
 31
0.0
  0
LINE
  5
167
330
143
100
AcDbEntity
  8
AM_4
100
AcDbLine
 10
-1.4978125
 20
3.5746875
 30
0.0
 11
-1.530134598066813
 21
3.6546875
 31
0.0
  0
LINE
  5
168
330
143
100
AcDbEntity
  8
AM_4
100
AcDbLine
 10
-1.7678125
 20
3.5746875
 30
0.0
 11
-1.4978125
 21
3.5746875
 31
0.0
  0
LINE
  5
169
330
143
100
AcDbEntity
  8
AM_4
100
AcDbLine
 10
-1.7378125
 20
3.5146875
 30
0.0
 11
-1.5278125
 21
3.5146875
 31
0.0
  0
LINE
  5
16A
330
143
100
AcDbEntity
  8
AM_4
100
AcDbLine
 10
-1.5278125
 20
3.5146875
 30
0.0
 11
-1.4978125
 21
3.5746875
 31
0.0
  0
LINE
  5
16B
330
143
100
AcDbEntity
  8
AM_4
100
AcDbLine
 10
-1.7678125
 20
3.5746875
 30
0.0
 11
-1.7378125
 21
3.5146875
 31
0.0
  0
LINE
  5
16C
330
143
100
AcDbEntity
  8
AM_4
100
AcDbLine
 10
-1.751632590734898
 20
3.452440621618573
 30
0.0
 11
-1.513992409265103
 21
3.452440621618573
 31
0.0
  0
LINE
  5
16D
330
143
100
AcDbEntity
  8
AM_4
100
AcDbLine
 10
-1.751632590734898
 20
3.452440621618573
 30
0.0
 11
-1.805346553283016
 21
3.398005698540882
 31
0.0
  0
LINE
  5
16E
330
143
100
AcDbEntity
  8
AM_4
100
AcDbLine
 10
-1.460278446716985
 20
3.398005698540882
 30
0.0
 11
-1.513992409265103
 21
3.452440621618573
 31
0.0
  0
LINE
  5
16F
330
143
100
AcDbEntity
  8
AM_4
100
AcDbLine
 10
-1.805346553283016
 20
3.398005698540882
 30
0.0
 11
-1.460278446716985
 21
3.398005698540882
 31
0.0
  0
LINE
  5
170
330
143
100
AcDbEntity
  8
AM_4
100
AcDbLine
 10
-1.805346553283016
 20
3.398005698540882
 30
0.0
 11
-1.8465625
 21
3.3796875
 31
0.0
  0
LINE
  5
171
330
143
100
AcDbEntity
  8
AM_4
100
AcDbLine
 10
-1.4190625
 20
3.3796875
 30
0.0
 11
-1.460278446716985
 21
3.398005698540882
 31
0.0
  0
LINE
  5
172
330
143
100
AcDbEntity
  8
AM_4
100
AcDbLine
 10
-1.380221757229539
 20
3.370619900303386
 30
0.0
 11
-1.380221757229539
 21
3.288755099696615
 31
0.0
  0
LWPOLYLINE
  5
173
330
143
100
AcDbEntity
  8
AM_4
100
AcDbPolyline
 90
        3
 70
     0
 43
0.0
 10
-1.443369442922154
 20
3.3796875
 10
-1.411795600075846
 20
3.377294119214965
 10
-1.380221757229539
 20
3.370619900303386
  0
LWPOLYLINE
  5
174
330
143
100
AcDbEntity
  8
AM_4
100
AcDbPolyline
 90
        3
 70
     0
 43
0.0
 10
-1.506517128614769
 20
3.370619900303386
 10
-1.475085250267872
 20
3.37727297505038
 10
-1.443369442922154
 20
3.3796875
  0
LWPOLYLINE
  5
175
330
143
100
AcDbEntity
  8
AM_4
100
AcDbPolyline
 90
        3
 70
     0
 43
0.0
 10
-1.380221757229539
 20
3.288755099696615
 10
-1.411653635576436
 20
3.28210202494962
 10
-1.443369442922154
 20
3.2796875
  0
LWPOLYLINE
  5
176
330
143
100
AcDbEntity
  8
AM_4
100
AcDbPolyline
 90
        3
 70
     0
 43
0.0
 10
-1.443369442922154
 20
3.2796875
 10
-1.474943285768462
 20
3.282080880785035
 10
-1.506517128614769
 20
3.288755099696615
  0
LINE
  5
177
330
143
100
AcDbEntity
  8
AM_4
100
AcDbLine
 10
-1.506517128614769
 20
3.370619900303386
 30
0.0
 11
-1.506517128614769
 21
3.288755099696615
 31
0.0
  0
LWPOLYLINE
  5
178
330
143
100
AcDbEntity
  8
AM_4
100
AcDbPolyline
 90
        4
 70
     0
 43
0.0
 10
-1.6328125
 20
3.3796875
 10
-1.584412683944101
 20
3.378269939282863
 10
-1.536012867888202
 20
3.374205087482156
 10
-1.506517128614769
 20
3.370619900303386
  0
LWPOLYLINE
  5
179
330
143
100
AcDbEntity
  8
AM_4
100
AcDbPolyline
 90
        3
 70
     0
 43
0.0
 10
-1.6328125
 20
3.2796875
 10
-1.695960185692615
 20
3.282080880785035
 10
-1.759107871385231
 20
3.288755099696615
  0
LWPOLYLINE
  5
17A
330
143
100
AcDbEntity
  8
AM_4
100
AcDbPolyline
 90
        4
 70
     0
 43
0.0
 10
-1.506517128614769
 20
3.288755099696615
 10
-1.536012867888202
 20
3.285169912517844
 10
-1.584270058752246
 20
3.281113328243072
 10
-1.6328125
 20
3.2796875
  0
LWPOLYLINE
  5
17B
330
143
100
AcDbEntity
  8
AM_4
100
AcDbPolyline
 90
        3
 70
     0
 43
0.0
 10
-1.759107871385231
 20
3.370619900303386
 10
-1.696244114691437
 20
3.37727297505038
 10
-1.6328125
 20
3.3796875
  0
LINE
  5
17C
330
143
100
AcDbEntity
  8
AM_4
100
AcDbLine
 10
-1.759107871385231
 20
3.370619900303386
 30
0.0
 11
-1.759107871385231
 21
3.288755099696615
 31
0.0
  0
LWPOLYLINE
  5
17D
330
143
100
AcDbEntity
  8
AM_4
100
AcDbPolyline
 90
        3
 70
     0
 43
0.0
 10
-1.822255557077846
 20
3.3796875
 10
-1.790681714231539
 20
3.377294119214965
 10
-1.759107871385231
 20
3.370619900303386
  0
LWPOLYLINE
  5
17E
330
143
100
AcDbEntity
  8
AM_4
100
AcDbPolyline
 90
        3
 70
     0
 43
0.0
 10
-1.885403242770461
 20
3.370619900303386
 10
-1.853971364423564
 20
3.37727297505038
 10
-1.822255557077846
 20
3.3796875
  0
LINE
  5
17F
330
143
100
AcDbEntity
  8
AM_4
100
AcDbLine
 10
-1.885403242770461
 20
3.370619900303386
 30
0.0
 11
-1.885403242770461
 21
3.288755099696615
 31
0.0
  0
LWPOLYLINE
  5
180
330
143
100
AcDbEntity
  8
AM_4
100
AcDbPolyline
 90
        3
 70
     0
 43
0.0
 10
-1.822255557077846
 20
3.2796875
 10
-1.853829399924154
 20
3.282080880785035
 10
-1.885403242770461
 20
3.288755099696615
  0
LWPOLYLINE
  5
181
330
143
100
AcDbEntity
  8
AM_4
100
AcDbPolyline
 90
        3
 70
     0
 43
0.0
 10
-1.759107871385231
 20
3.288755099696615
 10
-1.790539749732128
 20
3.28210202494962
 10
-1.822255557077846
 20
3.2796875
  0
ENDBLK
  5
146
330
143
100
AcDbEntity
  8
0
100
AcDbBlockEnd
  0
BLOCK
  5
184
330
182
100
AcDbEntity
  8
0
100
AcDbBlockBegin
  2
5_070503H_0_in_070503_2
 70
     2
 10
0.0
 20
0.0
 30
0.0
  3
5_070503H_0_in_070503_2
  1

  0
ATTDEF
  5
186
330
182
100
AcDbEntity
  8
AM_6
100
AcDbText
 10
5.11953125
 20
4.609797297297297
 30
0.0
 40
0.5
  1
F3&4R-S2 -(Labyrinth Seal)-Housing
100
AcDbAttributeDefinition
  3

  2
NN
 70
     8
280
     0
  0
ATTDEF
  5
187
330
182
100
AcDbEntity
  8
AM_6
100
AcDbText
 10
5.11953125
 20
4.109797297297297
 30
0.0
 40
0.5
  1
S-2000 3 & 4 Bolt Round Flange Bearing -Inch
100
AcDbAttributeDefinition
  3

  2
NT
 70
     8
280
     0
  0
ATTDEF
  5
188
330
182
100
AcDbEntity
  8
AM_6
100
AcDbText
 10
5.11953125
 20
3.609797297297297
 30
0.0
 40
0.5
  1
070503H
100
AcDbAttributeDefinition
  3

  2
NB
 70
     8
280
     0
  0
ATTDEF
  5
189
330
182
100
AcDbEntity
  8
AM_6
100
AcDbText
 10
5.11953125
 20
3.109797297297297
 30
0.0
 40
0.5
  1
$PN.H
100
AcDbAttributeDefinition
  3

  2
NBSYN
 70
     8
280
     0
  0
ATTDEF
  5
18A
330
182
100
AcDbEntity
  8
AM_6
100
AcDbText
 10
5.11953125
 20
2.609797297297297
 30
0.0
 40
0.5
  1
070503
100
AcDbAttributeDefinition
  3

  2
LINA
 70
     8
280
     0
  0
ATTDEF
  5
18B
330
182
100
AcDbEntity
  8
AM_6
100
AcDbText
 10
5.11953125
 20
2.109797297297297
 30
0.0
 40
0.5
  1
2-11/16
100
AcDbAttributeDefinition
  3

  2
SS
 70
     8
280
     0
  0
ATTDEF
  5
18C
330
182
100
AcDbEntity
  8
AM_6
100
AcDbText
 10
5.11953125
 20
1.609797297297297
 30
0.0
 40
0.5
  1
070503
100
AcDbAttributeDefinition
  3

  2
PN
 70
     8
280
     0
  0
ATTDEF
  5
18D
330
182
100
AcDbEntity
  8
AM_6
100
AcDbText
 10
5.11953125
 20
1.109797297297297
 30
0.0
 40
0.5
  1
F4R-S2-211L
100
AcDbAttributeDefinition
  3

  2
DESCRIPTION
 70
     8
280
     0
  0
ATTDEF
  5
18E
330
182
100
AcDbEntity
  8
AM_6
100
AcDbText
 10
5.11953125
 20
0.6097972972972974
 30
0.0
 40
0.5
  1
Non-Expansion Type
100
AcDbAttributeDefinition
  3

  2
EF
 70
     8
280
     0
  0
ATTDEF
  5
18F
330
182
100
AcDbEntity
  8
AM_6
100
AcDbText
 10
5.11953125
 20
0.1097972972972974
 30
0.0
 40
0.5
  1
3-19/32
100
AcDbAttributeDefinition
  3

  2
A
 70
     8
280
     0
  0
ATTDEF
  5
190
330
182
100
AcDbEntity
  8
AM_6
100
AcDbText
 10
5.11953125
 20
-0.3902027027027026
 30
0.0
 40
0.5
  1
9-1/4
100
AcDbAttributeDefinition
  3

  2
B
 70
     8
280
     0
  0
ATTDEF
  5
191
330
182
100
AcDbEntity
  8
AM_6
100
AcDbText
 10
5.11953125
 20
-0.8902027027027026
 30
0.0
 40
0.5
  1
3-57/64
100
AcDbAttributeDefinition
  3

  2
C
 70
     8
280
     0
  0
ATTDEF
  5
192
330
182
100
AcDbEntity
  8
AM_6
100
AcDbText
 10
5.11953125
 20
-1.390202702702703
 30
0.0
 40
0.5
  1
7-7/8
100
AcDbAttributeDefinition
  3

  2
DD
 70
     8
280
     0
  0
ATTDEF
  5
193
330
182
100
AcDbEntity
  8
AM_6
100
AcDbText
 10
5.11953125
 20
-1.890202702702703
 30
0.0
 40
0.5
  1
2-25/64
100
AcDbAttributeDefinition
  3

  2
E
 70
     8
280
     0
  0
ATTDEF
  5
194
330
182
100
AcDbEntity
  8
AM_6
100
AcDbText
 10
5.11953125
 20
-2.390202702702703
 30
0.0
 40
0.5
  1
3/4
100
AcDbAttributeDefinition
  3

  2
F
 70
     8
280
     0
  0
ATTDEF
  5
195
330
182
100
AcDbEntity
  8
AM_6
100
AcDbText
 10
5.11953125
 20
-2.890202702702703
 30
0.0
 40
0.5
  1
7/8
100
AcDbAttributeDefinition
  3

  2
H
 70
     8
280
     0
  0
ATTDEF
  5
196
330
182
100
AcDbEntity
  8
AM_6
100
AcDbText
 10
5.11953125
 20
-3.390202702702703
 30
0.0
 40
0.5
  1
6-23/64
100
AcDbAttributeDefinition
  3

  2
J
 70
     8
280
     0
  0
ATTDEF
  5
197
330
182
100
AcDbEntity
  8
AM_6
100
AcDbText
 10
5.11953125
 20
-3.890202702702703
 30
0.0
 40
0.5
  1
4-45/64
100
AcDbAttributeDefinition
  3

  2
L
 70
     8
280
     0
  0
ATTDEF
  5
198
330
182
100
AcDbEntity
  8
AM_6
100
AcDbText
 10
5.11953125
 20
-4.390202702702703
 30
0.0
 40
0.5
  1
19/64
100
AcDbAttributeDefinition
  3

  2
P
 70
     8
280
     0
  0
ATTDEF
  5
199
330
182
100
AcDbEntity
  8
AM_6
100
AcDbText
 10
5.11953125
 20
-4.890202702702703
 30
0.0
 40
0.5
  1
1/4
100
AcDbAttributeDefinition
  3

  2
X
 70
     8
280
     0
  0
ATTDEF
  5
19A
330
182
100
AcDbEntity
  8
AM_6
100
AcDbText
 10
5.11953125
 20
-5.390202702702703
 30
0.0
 40
0.5
  1
0.025
100
AcDbAttributeDefinition
  3

  2
Y
 70
     8
280
     0
  0
ATTDEF
  5
19B
330
182
100
AcDbEntity
  8
AM_6
100
AcDbText
 10
5.11953125
 20
-5.890202702702703
 30
0.0
 40
0.5
  1
3-15/32
100
AcDbAttributeDefinition
  3

  2
Z
 70
     8
280
     0
  0
ATTDEF
  5
19C
330
182
100
AcDbEntity
  8
AM_6
100
AcDbText
 10
5.11953125
 20
-6.390202702702703
 30
0.0
 40
0.5
  1
baldor
100
AcDbAttributeDefinition
  3

  2
COMPANY
 70
     8
280
     0
  0
LINE
  5
19D
330
182
100
AcDbEntity
  8
AM_9
100
AcDbLine
 10
-0.7499999999999999
 20
4.250000000000004
 30
0.0
 11
0.0
 21
4.250000000000004
 31
0.0
  0
LINE
  5
19E
330
182
100
AcDbEntity
  8
AM_9
100
AcDbLine
 10
-0.8749999999999998
 20
-2.862415330376125
 30
0.0
 11
-0.7499999999999998
 21
-2.862415330376125
 31
0.0
  0
LINE
  5
19F
330
182
100
AcDbEntity
  8
AM_9
100
AcDbLine
 10
-0.7499999999999998
 20
-2.826245739233925
 30
0.0
 11
-0.9046444934029724
 21
-2.826245739233925
 31
0.0
  0
LINE
  5
1A0
330
182
100
AcDbEntity
  8
AM_9
100
AcDbLine
 10
-0.8749999999999998
 20
2.862415330376125
 30
0.0
 11
-0.7499999999999998
 21
2.862415330376125
 31
0.0
  0
LINE
  5
1A1
330
182
100
AcDbEntity
  8
AM_9
100
AcDbLine
 10
-0.9045713266570427
 20
2.826245739233924
 30
0.0
 11
-0.7499999999999998
 21
2.826245739233924
 31
0.0
  0
LINE
  5
1A2
330
182
100
AcDbEntity
  8
AM_9
100
AcDbLine
 10
-2.390625
 20
-2.55905
 30
0.0
 11
-0.1250000000000002
 21
-2.55905
 31
0.0
  0
LINE
  5
1A3
330
182
100
AcDbEntity
  8
AM_9
100
AcDbLine
 10
-0.1250000000000002
 20
2.55905
 30
0.0
 11
-2.390625
 21
2.55905
 31
0.0
  0
LINE
  5
1A4
330
182
100
AcDbEntity
  8
AM_9
100
AcDbLine
 10
-0.7499999999999998
 20
-2.826245739233925
 30
0.0
 11
-0.7499999999999998
 21
-3.685254666394535
 31
0.0
  0
LINE
  5
1A5
330
182
100
AcDbEntity
  8
AM_9
100
AcDbLine
 10
-0.7499999999999998
 20
3.685254666394534
 30
0.0
 11
-0.7499999999999998
 21
2.826245739233924
 31
0.0
  0
LINE
  5
1A6
330
182
100
AcDbEntity
  8
AM_9
100
AcDbLine
 10
-0.125
 20
2.78186875
 30
0.0
 11
-0.125
 21
-2.78186875
 31
0.0
  0
ARC
  5
1A7
330
182
100
AcDbEntity
  8
AM_9
100
AcDbCircle
 10
-0.0374999999999991
 20
-2.781868749999999
 30
0.0
 40
0.0875000000000009
100
AcDbArc
 50
180.0
 51
270.0
  0
ARC
  5
1A8
330
182
100
AcDbEntity
  8
AM_9
100
AcDbCircle
 10
-0.0374999999999991
 20
2.781868749999999
 30
0.0
 40
0.0875000000000012
100
AcDbArc
 50
90.0
 51
180.0
  0
LINE
  5
1A9
330
182
100
AcDbEntity
  8
AM_9
100
AcDbLine
 10
-0.0374999999999993
 20
-2.86936875
 30
0.0
 11
0.0
 21
-2.86936875
 31
0.0
  0
LINE
  5
1AA
330
182
100
AcDbEntity
  8
AM_9
100
AcDbLine
 10
0.0
 20
2.86936875
 30
0.0
 11
-0.0374999999999993
 21
2.86936875
 31
0.0
  0
LINE
  5
1AB
330
182
100
AcDbEntity
  8
AM_9
100
AcDbLine
 10
-0.0374999999999993
 20
2.86936875
 30
0.0
 11
-0.0374999999999993
 21
-2.86936875
 31
0.0
  0
LINE
  5
1AC
330
182
100
AcDbEntity
  8
AM_9
100
AcDbLine
 10
-0.8749999999999998
 20
-3.159232950922031
 30
0.0
 11
0.0000000000000002
 21
-3.159232950922031
 31
0.0
  0
LINE
  5
1AD
330
182
100
AcDbEntity
  8
AM_9
100
AcDbLine
 10
0.0000000000000002
 20
-2.409232950922031
 30
0.0
 11
-0.8749999999999998
 21
-2.409232950922031
 31
0.0
  0
LINE
  5
1AE
330
182
100
AcDbEntity
  8
AM_9
100
AcDbLine
 10
-0.8749999999999998
 20
2.409232950922031
 30
0.0
 11
0.0000000000000002
 21
2.409232950922031
 31
0.0
  0
LINE
  5
1AF
330
182
100
AcDbEntity
  8
AM_9
100
AcDbLine
 10
0.0000000000000002
 20
3.159232950922031
 30
0.0
 11
-0.8749999999999998
 21
3.159232950922031
 31
0.0
  0
LINE
  5
1B0
330
182
100
AcDbEntity
  8
AM_9
100
AcDbLine
 10
-0.9625000000000005
 20
2.8471613866579
 30
0.0
 11
-0.7500000000000001
 21
2.8471613866579
 31
0.0
  0
LINE
  5
1B1
330
182
100
AcDbEntity
  8
AM_9
100
AcDbLine
 10
-0.9625000000000005
 20
-2.847161386657898
 30
0.0
 11
-0.7500000000000001
 21
-2.847161384312327
 31
0.0
  0
LINE
  5
1B2
330
182
100
AcDbEntity
  8
AM_9
100
AcDbLine
 10
-0.8749999999999998
 20
-3.1796875
 30
0.0
 11
-0.7499999999999999
 21
-3.1796875
 31
0.0
  0
LINE
  5
1B3
330
182
100
AcDbEntity
  8
AM_9
100
AcDbLine
 10
-0.7499999999999999
 20
3.1796875
 30
0.0
 11
-0.8749999999999998
 21
3.1796875
 31
0.0
  0
LINE
  5
1B4
330
182
100
AcDbEntity
  8
AM_7
100
AcDbLine
 10
-4.070312500000001
 20
0.0
 30
0.0
 11
0.11953125
 21
0.0
 31
0.0
  0
LINE
  5
1B5
330
182
100
AcDbEntity
  8
AM_7
100
AcDbLine
 10
0.0460526315789472
 20
2.784232950922031
 30
0.0
 11
-0.9671052631578949
 21
2.784232950922031
 31
0.0
  0
LINE
  5
1B6
330
182
100
AcDbEntity
  8
AM_7
100
AcDbLine
 10
0.0460526315789472
 20
-2.784232950922031
 30
0.0
 11
-0.9671052631578949
 21
-2.784232950922031
 31
0.0
  0
LINE
  5
1B7
330
182
100
AcDbEntity
  8
AM_7
100
AcDbLine
 10
-1.6953125
 20
3.310719375
 30
0.0
 11
-1.6953125
 21
2.628018125
 31
0.0
  0
LINE
  5
1B8
330
182
100
AcDbEntity
  8
AM_4
100
AcDbLine
 10
-2.095312499999999
 20
3.2796875
 30
0.0
 11
-1.295312500386822
 21
3.2796875
 31
0.0
  0
ARC
  5
1B9
330
182
100
AcDbEntity
  8
AM_4
100
AcDbCircle
 10
-1.2953125
 20
3.1796875
 30
0.0
 40
0.1000000000000001
100
AcDbArc
 50
0.0
 51
90.0
  0
ARC
  5
1BA
330
182
100
AcDbEntity
  8
AM_4
100
AcDbCircle
 10
-2.095312499999999
 20
3.179687499999999
 30
0.0
 40
0.100000000000001
100
AcDbArc
 50
90.0
 51
180.0
  0
LINE
  5
1BB
330
182
100
AcDbEntity
  8
AM_4
100
AcDbLine
 10
-2.1953125
 20
3.1796875
 30
0.0
 11
-1.1953125
 21
3.1796875
 31
0.0
  0
LWPOLYLINE
  5
1BC
330
182
100
AcDbEntity
  8
AM_4
100
AcDbPolyline
 90
        5
 70
     0
 43
0.0
 10
-0.9043842978797989
 20
-2.826245789667775
 10
-0.9111081137810383
 20
-2.826630996001632
 10
-0.935444319365116
 20
-2.832975846866642
 10
-0.9621933130192947
 20
-2.846961607083798
 10
-0.9624999999999994
 20
-2.847161386657899
  0
LWPOLYLINE
  5
1BD
330
182
100
AcDbEntity
  8
AM_4
100
AcDbPolyline
 90
        6
 70
     0
 43
0.0
 10
-0.9043632757853007
 20
2.826245765361275
 10
-0.8994932846702051
 20
2.826467413014319
 10
-0.8871352690584557
 20
2.829787440209641
 10
-0.8804141351135263
 20
2.834782876238755
 10
-0.8760702447309238
 20
2.84232439200967
 10
-0.8749999999999998
 20
2.849525476768299
  0
LWPOLYLINE
  5
1BE
330
182
100
AcDbEntity
  8
AM_4
100
AcDbPolyline
 90
        9
 70
     0
 43
0.0
 10
-0.9625000000000001
 20
-1.415656962678643
 10
-0.9621933130192837
 20
-1.416059894008221
 10
-0.9376575208572743
 20
-1.449996487350178
 10
-0.9138383557825333
 20
-1.487543379747593
 10
-0.8994932846700507
 20
-1.514114581583864
 10
-0.8871352690582416
 20
-1.54217255481603
 10
-0.8804141351134089
 20
-1.562510534518298
 10
-0.8760702447308867
 20
-1.583268789313937
 10
-0.8749999999999998
 20
-1.598348747115173
  0
LWPOLYLINE
  5
1BF
330
182
100
AcDbEntity
  8
AM_4
100
AcDbPolyline
 90
        6
 70
     0
 43
0.0
 10
-0.8749999999999998
 20
-2.84952547676861
 10
-0.8754005951613237
 20
-2.845013488449252
 10
-0.8786351987730756
 20
-2.837030965320694
 10
-0.8846674999574645
 20
-2.831198029548714
 10
-0.8963829976298463
 20
-2.826874739727543
 10
-0.9043842978797989
 20
-2.826245789667775
  0
LWPOLYLINE
  5
1C0
330
182
100
AcDbEntity
  8
AM_4
100
AcDbPolyline
 90
        5
 70
     0
 43
0.0
 10
-0.9625
 20
2.847161386657898
 10
-0.9621933130192438
 20
2.846961607083812
 10
-0.9376575208572807
 20
2.833872548516331
 10
-0.9138383557825849
 20
2.826983035961555
 10
-0.9043632757853007
 20
2.826245765361275
  0
LWPOLYLINE
  5
1C1
330
182
100
AcDbEntity
  8
AM_4
100
AcDbPolyline
 90
        9
 70
     0
 43
0.0
 10
-0.8749999999999998
 20
1.598348747115757
 10
-0.8754005951613237
 20
1.58928721432735
 10
-0.8786351987730756
 20
1.569490936877901
 10
-0.8846674999574645
 20
1.548931850507073
 10
-0.8963829976298461
 20
1.520550176076978
 10
-0.9111081137810376
 20
1.492292910577865
 10
-0.9354443193651165
 20
1.453254180511667
 10
-0.9621933130192514
 20
1.416059894008202
 10
-0.9625000000000001
 20
1.41565696267864
  0
LINE
  5
1C2
330
182
100
AcDbEntity
  8
AM_4
100
AcDbLine
 10
-0.9625000000000001
 20
-2.8471613866579
 30
0.0
 11
-0.8752098948384286
 21
-2.8471613866579
 31
0.0
  0
LINE
  5
1C3
330
182
100
AcDbEntity
  8
AM_4
100
AcDbLine
 10
-0.9625000000000001
 20
-1.415656962678643
 30
0.0
 11
-0.9625000000000001
 21
-2.8471613866579
 31
0.0
  0
LINE
  5
1C4
330
182
100
AcDbEntity
  8
AM_4
100
AcDbLine
 10
-0.9625000000000001
 20
-1.415656962678643
 30
0.0
 11
-0.7499999999999998
 21
-1.415656967396046
 31
0.0
  0
LINE
  5
1C5
330
182
100
AcDbEntity
  8
AM_4
100
AcDbLine
 10
-0.9625000000000001
 20
1.415656962678642
 30
0.0
 11
-0.7499999999999998
 21
1.415656962678642
 31
0.0
  0
LINE
  5
1C6
330
182
100
AcDbEntity
  8
AM_4
100
AcDbLine
 10
-0.9625000000000001
 20
2.847161386657898
 30
0.0
 11
-0.9625000000000001
 21
1.415656962678642
 31
0.0
  0
LINE
  5
1C7
330
182
100
AcDbEntity
  8
AM_4
100
AcDbLine
 10
-0.9625000000000001
 20
2.847161386657898
 30
0.0
 11
-0.8753513576215819
 21
2.847161384312327
 31
0.0
  0
LWPOLYLINE
  5
1C8
330
182
100
AcDbEntity
  8
AM_4
100
AcDbPolyline
 90
       37
 70
     0
 43
0.0
 10
-1.1953125
 20
3.1796875
 10
-1.198241880479287
 20
3.179228176530736
 10
-1.20713547968583
 20
3.177849807781838
 10
-1.217650573199553
 20
3.176251166811508
 10
-1.231372923851816
 20
3.174216836949361
 10
-1.248742688381673
 20
3.171724444248155
 10
-1.269274740498796
 20
3.168898983902304
 10
-1.292330885386469
 20
3.165881684505988
 10
-1.318124429541368
 20
3.16270192053449
 10
-1.347335701344539
 20
3.159351522519531
 10
-1.379053157251146
 20
3.156015299318459
 10
-1.412391606329596
 20
3.152849470197652
 10
-1.447702978297128
 20
3.149876675823066
 10
-1.485863206087772
 20
3.147107641675553
 10
-1.52558429781854
 20
3.144713064855361
 10
-1.565235725609231
 20
3.142823253586801
 10
-1.605802724249897
 20
3.141404876422503
 10
-1.648235813341348
 20
3.1404833505071
 10
-1.691022105862576
 20
3.140132322870822
 10
-1.732156967458213
 20
3.14034647701737
 10
-1.773036602673126
 20
3.141091153372119
 10
-1.814541041630225
 20
3.142393038918246
 10
-1.855175087770407
 20
3.144196025158879
 10
-1.893520865204059
 20
3.14637941739952
 10
-1.930513054301338
 20
3.148925514901853
 10
-1.966881885023871
 20
3.151851183200412
 10
-2.001306657182159
 20
3.155003173038954
 10
-2.033001344653076
 20
3.158234956449074
 10
-2.062377600174905
 20
3.161510617635605
 10
-2.089962757147476
 20
3.164832023819187
 10
-2.114689549757044
 20
3.168010370487945
 10
-2.135910409697276
 20
3.17088916647013
 10
-2.154081040528413
 20
3.173465167830713
 10
-2.169452862619221
 20
3.175723439038598
 10
-2.181335455424234
 20
3.177519616124432
 10
-2.1917541484373
 20
3.179129897937389
 10
-2.1953125
 20
3.1796875
  0
LINE
  5
1C9
330
182
100
AcDbEntity
  8
AM_4
100
AcDbLine
 10
-2.303125
 20
-3.1796875
 30
0.0
 11
-0.8749999999999998
 21
-3.1796875
 31
0.0
  0
LINE
  5
1CA
330
182
100
AcDbEntity
  8
AM_4
100
AcDbLine
 10
-0.8749999999999998
 20
3.1796875
 30
0.0
 11
-1.1953125
 21
3.1796875
 31
0.0
  0
LINE
  5
1CB
330
182
100
AcDbEntity
  8
AM_4
100
AcDbLine
 10
-2.1953125
 20
3.1796875
 30
0.0
 11
-2.303125
 21
3.1796875
 31
0.0
  0
LINE
  5
1CC
330
182
100
AcDbEntity
  8
AM_4
100
AcDbLine
 10
-2.390625
 20
3.092187500000001
 30
0.0
 11
-2.390625
 21
-3.092187500000001
 31
0.0
  0
ARC
  5
1CD
330
182
100
AcDbEntity
  8
AM_4
100
AcDbCircle
 10
-2.303125
 20
-3.0921875
 30
0.0
 40
0.0875000000000004
100
AcDbArc
 50
180.0
 51
270.0
  0
ARC
  5
1CE
330
182
100
AcDbEntity
  8
AM_4
100
AcDbCircle
 10
-2.303125
 20
3.0921875
 30
0.0
 40
0.0875000000000004
100
AcDbArc
 50
90.0
 51
180.0
  0
LINE
  5
1CF
330
182
100
AcDbEntity
  8
AM_4
100
AcDbLine
 10
-2.303125
 20
3.1796875
 30
0.0
 11
-2.303125
 21
-3.1796875
 31
0.0
  0
LINE
  5
1D0
330
182
100
AcDbEntity
  8
AM_4
100
AcDbLine
 10
-0.8749999999999998
 20
1.619416029419547
 30
0.0
 11
-0.7499999999999998
 21
1.619416029419547
 31
0.0
  0
LWPOLYLINE
  5
1D1
330
182
100
AcDbEntity
  8
AM_4
100
AcDbPolyline
 90
        7
 70
     0
 43
0.0
 10
-0.8749999999999998
 20
3.632482836259473
 10
-0.874755790329423
 20
3.636426502412008
 10
-0.8670155849429448
 20
3.654519698526746
 10
-0.849208080590483
 20
3.669907595131067
 10
-0.8242028713096538
 20
3.680392106533148
 10
-0.795892482701852
 20
3.685011609736137
 10
-0.7875
 20
3.685254666394533
  0
LINE
  5
1D2
330
182
100
AcDbEntity
  8
AM_4
100
AcDbLine
 10
-0.8749999999999998
 20
3.632482836259473
 30
0.0
 11
-0.8749999999999998
 21
1.598348747115757
 31
0.0
  0
LWPOLYLINE
  5
1D3
330
182
100
AcDbEntity
  8
AM_4
100
AcDbPolyline
 90
        6
 70
     0
 43
0.0
 10
-0.7874999999999999
 20
2.794552387023244
 10
-0.8154135576999579
 20
2.790618292142147
 10
-0.8401762173345663
 20
2.779377210815258
 10
-0.8596237042599941
 20
2.761876937757748
 10
-0.8718488789366167
 20
2.739244800932749
 10
-0.8749999999999997
 20
2.719186403003724
  0
LINE
  5
1D4
330
182
100
AcDbEntity
  8
AM_4
100
AcDbLine
 10
-0.8749999999999998
 20
-1.598348747115173
 30
0.0
 11
-0.8749999999999998
 21
-3.632482836259475
 31
0.0
  0
LWPOLYLINE
  5
1D5
330
182
100
AcDbEntity
  8
AM_4
100
AcDbPolyline
 90
        6
 70
     0
 43
0.0
 10
-0.7875
 20
-3.685254666394535
 10
-0.815413557699958
 20
-3.682499983502759
 10
-0.8401762173345663
 20
-3.674628893620043
 10
-0.8596237042599942
 20
-3.662375070504446
 10
-0.871848878936617
 20
-3.646527877693788
 10
-0.8749999999999998
 20
-3.632482836259475
  0
LINE
  5
1D6
330
182
100
AcDbEntity
  8
AM_4
100
AcDbLine
 10
-0.8749999999999998
 20
-1.619416029419549
 30
0.0
 11
-0.7499999999999998
 21
-1.619416029419549
 31
0.0
  0
LWPOLYLINE
  5
1D7
330
182
100
AcDbEntity
  8
AM_4
100
AcDbPolyline
 90
        7
 70
     0
 43
0.0
 10
-0.8749999999999997
 20
-2.719186403003725
 10
-0.8747557903294227
 20
-2.724818541958723
 10
-0.8670155849429447
 20
-2.750658303925579
 10
-0.8492080805904827
 20
-2.772634497788995
 10
-0.824202871309653
 20
-2.787607931849542
 10
-0.7958924827018523
 20
-2.79420526614103
 10
-0.7874999999999999
 20
-2.794552387023244
  0
LINE
  5
1D8
330
182
100
AcDbEntity
  8
AM_4
100
AcDbLine
 10
0.0
 20
4.609797297297297
 30
0.0
 11
0.0
 21
-4.625
 31
0.0
  0
LINE
  5
1D9
330
182
100
AcDbEntity
  8
AM_4
100
AcDbLine
 10
-0.7499999999999999
 20
4.609797297297297
 30
0.0
 11
0.0
 21
4.609797297297297
 31
0.0
  0
LINE
  5
1DA
330
182
100
AcDbEntity
  8
AM_4
100
AcDbLine
 10
-0.7499999999999999
 20
4.609797297297297
 30
0.0
 11
-0.7499999999999998
 21
3.685254666394534
 31
0.0
  0
LINE
  5
1DB
330
182
100
AcDbEntity
  8
AM_4
100
AcDbLine
 10
-0.7875
 20
3.685254666394533
 30
0.0
 11
-0.7499999999999998
 21
3.685254666394534
 31
0.0
  0
LINE
  5
1DC
330
182
100
AcDbEntity
  8
AM_4
100
AcDbLine
 10
-0.7875
 20
3.685254666394533
 30
0.0
 11
-0.7874999999999999
 21
2.794552387023244
 31
0.0
  0
LINE
  5
1DD
330
182
100
AcDbEntity
  8
AM_4
100
AcDbLine
 10
-0.7499999999999997
 20
2.794552387023243
 30
0.0
 11
-0.7874999999999999
 21
2.794552387023244
 31
0.0
  0
LINE
  5
1DE
330
182
100
AcDbEntity
  8
AM_4
100
AcDbLine
 10
-0.7499999999999997
 20
2.794552387023243
 30
0.0
 11
-0.7499999999999997
 21
-2.794552387023244
 31
0.0
  0
LINE
  5
1DF
330
182
100
AcDbEntity
  8
AM_4
100
AcDbLine
 10
-0.7874999999999999
 20
-2.794552387023244
 30
0.0
 11
-0.7499999999999997
 21
-2.794552387023244
 31
0.0
  0
LINE
  5
1E0
330
182
100
AcDbEntity
  8
AM_4
100
AcDbLine
 10
-0.7874999999999999
 20
-2.794552387023244
 30
0.0
 11
-0.7875
 21
-3.685254666394535
 31
0.0
  0
LINE
  5
1E1
330
182
100
AcDbEntity
  8
AM_4
100
AcDbLine
 10
-0.7499999999999998
 20
-3.685254666394535
 30
0.0
 11
-0.7875
 21
-3.685254666394535
 31
0.0
  0
LINE
  5
1E2
330
182
100
AcDbEntity
  8
AM_4
100
AcDbLine
 10
-0.7499999999999998
 20
-3.685254666394535
 30
0.0
 11
-0.7499999999999999
 21
-4.625
 31
0.0
  0
LINE
  5
1E3
330
182
100
AcDbEntity
  8
AM_4
100
AcDbLine
 10
-0.7499999999999999
 20
-4.625
 30
0.0
 11
0.0
 21
-4.625
 31
0.0
  0
ENDBLK
  5
185
330
182
100
AcDbEntity
  8
0
100
AcDbBlockEnd
  0
ENDSEC
  0
SECTION
  2
ENTITIES
  0
INSERT
  5
6F
330
1F
100
AcDbEntity
  8
0
100
AcDbBlockReference
  2
1_070503_2
 10
0.0
 20
0.0
 30
0.0
  0
POINT
  5
1E5
330
1F
100
AcDbEntity
  8
ConnectionPoints
100
AcDbPoint
 10
-3.890625
 20
0.0
 30
0.0000000000000002
  0
POINT
  5
1E6
330
1F
100
AcDbEntity
  8
ConnectionPoints
100
AcDbPoint
 10
0.8588749999999994
 20
0.0
 30
-0.0000000000000001
  0
POINT
  5
1E7
330
1F
100
AcDbEntity
  8
ConnectionPoints
100
AcDbPoint
 10
-3.890625
 20
0.0
 30
0.0000000000000002
  0
POINT
  5
1E8
330
1F
100
AcDbEntity
  8
ConnectionPoints
100
AcDbPoint
 10
-1.6328125
 20
3.2796875
 30
0.0000000000000001
  0
POINT
  5
1E9
330
1F
100
AcDbEntity
  8
ConnectionPoints
100
AcDbPoint
 10
-1.6328125
 20
3.2796875
 30
0.0000000000000001
  0
POINT
  5
1EA
330
1F
100
AcDbEntity
  8
ConnectionPoints
100
AcDbPoint
 10
-3.640625
 20
0.0
 30
0.0000000000000002
  0
POINT
  5
1EB
330
1F
100
AcDbEntity
  8
ConnectionPoints
100
AcDbPoint
 10
-3.890625
 20
0.0
 30
0.0000000000000002
  0
ENDSEC
  0
SECTION
  2
OBJECTS
  0
DICTIONARY
  5
C
330
0
100
AcDbDictionary
281
     1
  3
ACAD_DETAILVIEWSTYLE
350
1F3
  3
ACAD_GROUP
350
D
  3
ACAD_LAYOUT
350
1A
  3
ACAD_MATERIAL
350
43
  3
ACAD_MLEADERSTYLE
350
6B
  3
ACAD_MLINESTYLE
350
17
  3
ACAD_PLOTSETTINGS
350
19
  3
ACAD_PLOTSTYLENAME
350
E
  3
ACAD_SCALELIST
350
47
  3
ACAD_SECTIONVIEWSTYLE
350
1F4
  3
ACAD_TABLESTYLE
350
69
  3
ACAD_VISUALSTYLE
350
2A
  3
ACDB_RECOMPOSE_DATA
350
1F0
  3
AcDbVariableDictionary
350
1EC
  0
SUN
  5
6D
330
29
100
AcDbSun
 90
        1
290
     0
 63
     7
421
 16777215
 40
1.0
291
     1
 91
  2455826
 92
 54000000
292
     0
 70
     2
 71
   256
280
     1
  0
DICTIONARY
  5
1F3
102
{ACAD_REACTORS
330
C
102
}
330
C
100
AcDbDictionary
281
     1
  0
DICTIONARY
  5
D
102
{ACAD_REACTORS
330
C
102
}
330
C
100
AcDbDictionary
281
     1
  0
DICTIONARY
  5
1A
102
{ACAD_REACTORS
330
C
102
}
330
C
100
AcDbDictionary
281
     1
  3
Layout1
350
1E
  3
Layout2
350
26
  3
Model
350
22
  0
DICTIONARY
  5
43
102
{ACAD_REACTORS
330
C
102
}
330
C
100
AcDbDictionary
281
     1
  3
ByBlock
350
45
  3
ByLayer
350
44
  3
Global
350
46
  0
DICTIONARY
  5
6B
102
{ACAD_REACTORS
330
C
102
}
330
C
100
AcDbDictionary
281
     1
  3
Standard
350
6C
  0
DICTIONARY
  5
17
102
{ACAD_REACTORS
330
C
102
}
330
C
100
AcDbDictionary
281
     1
  3
Standard
350
18
  0
DICTIONARY
  5
19
102
{ACAD_REACTORS
330
C
102
}
330
C
100
AcDbDictionary
281
     1
  0
ACDBDICTIONARYWDFLT
  5
E
102
{ACAD_REACTORS
330
C
102
}
330
C
100
AcDbDictionary
281
     1
  3
Normal
350
F
100
AcDbDictionaryWithDefault
340
F
  0
DICTIONARY
  5
47
102
{ACAD_REACTORS
330
C
102
}
330
C
100
AcDbDictionary
281
     1
  3
A0
350
48
  3
A1
350
49
  3
A2
350
4A
  3
A3
350
4B
  3
A4
350
4C
  3
A5
350
4D
  3
A6
350
4E
  3
A7
350
4F
  3
A8
350
50
  3
A9
350
51
  3
B0
350
52
  3
B1
350
53
  3
B2
350
54
  3
B3
350
55
  3
B4
350
56
  3
B5
350
57
  3
B6
350
58
  3
B7
350
59
  3
B8
350
5A
  3
B9
350
5B
  3
C0
350
5C
  3
C1
350
5D
  3
C2
350
5E
  3
C3
350
5F
  3
C4
350
60
  3
C5
350
61
  3
C6
350
62
  3
C7
350
63
  3
C8
350
64
  3
C9
350
65
  3
D0
350
66
  3
D1
350
67
  3
D2
350
68
  0
DICTIONARY
  5
1F4
102
{ACAD_REACTORS
330
C
102
}
330
C
100
AcDbDictionary
281
     1
  0
DICTIONARY
  5
69
102
{ACAD_REACTORS
330
C
102
}
330
C
100
AcDbDictionary
281
     1
  3
Standard
350
6A
  0
DICTIONARY
  5
2A
102
{ACAD_REACTORS
330
C
102
}
330
C
100
AcDbDictionary
281
     1
  3
2dWireframe
350
2F
  3
Basic
350
32
  3
Brighten
350
36
  3
ColorChange
350
3A
  3
Conceptual
350
34
  3
Dim
350
35
  3
EdgeColorOff
350
3D
  3
Facepattern
350
39
  3
Flat
350
2B
  3
FlatWithEdges
350
2C
  3
Gouraud
350
2D
  3
GouraudWithEdges
350
2E
  3
Hidden
350
31
  3
JitterOff
350
3B
  3
Linepattern
350
38
  3
OverhangOff
350
3C
  3
Realistic
350
33
  3
Shaded
350
42
  3
Shaded with edges
350
41
  3
Shades of Gray
350
3E
  3
Sketchy
350
3F
  3
Thicken
350
37
  3
Wireframe
350
30
  3
X-Ray
350
40
  0
XRECORD
  5
1F0
102
{ACAD_REACTORS
330
C
102
}
330
C
100
AcDbXrecord
280
     1
 90
        1
330
6A
  0
DICTIONARY
  5
1EC
102
{ACAD_REACTORS
330
C
102
}
330
C
100
AcDbDictionary
281
     1
  3
CANNOSCALE
350
1ED
  3
CMLEADERSTYLE
350
1F2
  3
CTABLESTYLE
350
1F1
  0
LAYOUT
  5
1E
102
{ACAD_REACTORS
330
1A
102
}
330
1A
100
AcDbPlotSettings
  1

  2
none_device
  4

  6

 40
0.0
 41
0.0
 42
0.0
 43
0.0
 44
0.0
 45
0.0
 46
0.0
 47
0.0
 48
0.0
 49
0.0
140
0.0
141
0.0
142
1.0
143
1.0
 70
   688
 72
     0
 73
     0
 74
     5
  7

 75
    16
 76
     0
 77
     2
 78
   300
147
1.0
148
0.0
149
0.0
100
AcDbLayout
  1
Layout1
 70
     1
 71
     1
 10
0.0
 20
0.0
 11
12.0
 21
9.0
 12
0.0
 22
0.0
 32
0.0
 14
1.000000000000000E+20
 24
1.000000000000000E+20
 34
1.000000000000000E+20
 15
-1.000000000000000E+20
 25
-1.000000000000000E+20
 35
-1.000000000000000E+20
146
0.0
 13
0.0
 23
0.0
 33
0.0
 16
1.0
 26
0.0
 36
0.0
 17
0.0
 27
1.0
 37
0.0
 76
     0
330
1B
  0
LAYOUT
  5
26
102
{ACAD_REACTORS
330
1A
102
}
330
1A
100
AcDbPlotSettings
  1

  2
none_device
  4

  6

 40
0.0
 41
0.0
 42
0.0
 43
0.0
 44
0.0
 45
0.0
 46
0.0
 47
0.0
 48
0.0
 49
0.0
140
0.0
141
0.0
142
1.0
143
1.0
 70
   688
 72
     0
 73
     0
 74
     5
  7

 75
    16
 76
     0
 77
     2
 78
   300
147
1.0
148
0.0
149
0.0
100
AcDbLayout
  1
Layout2
 70
     1
 71
     2
 10
0.0
 20
0.0
 11
0.0
 21
0.0
 12
0.0
 22
0.0
 32
0.0
 14
0.0
 24
0.0
 34
0.0
 15
0.0
 25
0.0
 35
0.0
146
0.0
 13
0.0
 23
0.0
 33
0.0
 16
1.0
 26
0.0
 36
0.0
 17
0.0
 27
1.0
 37
0.0
 76
     0
330
23
  0
LAYOUT
  5
22
102
{ACAD_REACTORS
330
1A
102
}
330
1A
100
AcDbPlotSettings
  1

  2
none_device
  4
Letter_(8.50_x_11.00_Inches)
  6

 40
6.35
 41
6.35
 42
6.35000508
 43
6.35000508
 44
215.9
 45
279.4
 46
0.0
 47
0.0
 48
0.0
 49
0.0
140
0.0
141
0.0
142
1.0
143
1.0
 70
  1712
 72
     0
 73
     0
 74
     0
  7

 75
     0
 76
     0
 77
     2
 78
   300
147
1.0
148
0.0
149
0.0
100
AcDbLayout
  1
Model
 70
     1
 71
     0
 10
0.0
 20
0.0
 11
12.0
 21
9.0
 12
0.0
 22
0.0
 32
0.0
 14
1.000000000000000E+20
 24
1.000000000000000E+20
 34
1.000000000000000E+20
 15
-1.000000000000000E+20
 25
-1.000000000000000E+20
 35
-1.000000000000000E+20
146
0.0
 13
0.0
 23
0.0
 33
0.0
 16
1.0
 26
0.0
 36
0.0
 17
0.0
 27
1.0
 37
0.0
 76
     0
330
1F
331
29
  0
MATERIAL
  5
45
102
{ACAD_REACTORS
330
43
102
}
330
43
100
AcDbMaterial
  1
ByBlock
 72
     1
 94
      127
  0
MATERIAL
  5
44
102
{ACAD_REACTORS
330
43
102
}
330
43
100
AcDbMaterial
  1
ByLayer
 72
     1
 94
      127
  0
MATERIAL
  5
46
102
{ACAD_REACTORS
330
43
102
}
330
43
100
AcDbMaterial
  1
Global
 72
     1
 94
      127
  0
MLEADERSTYLE
  5
6C
102
{ACAD_REACTORS
330
6B
102
}
330
6B
100
AcDbMLeaderStyle
179
     2
170
     2
171
     1
172
     0
 90
        2
 40
0.0
 41
0.0
173
     1
 91
-1056964608
340
14
 92
       -2
290
     1
 42
0.09
291
     1
 43
0.36
  3
Standard
341
0
 44
0.18
300

342
11
174
     1
178
     6
175
     1
176
     0
 93
-1056964608
 45
0.18
292
     0
297
     0
 46
0.18
343
0
 94
-1056964608
 47
1.0
 49
1.0
140
1.0
293
     1
141
0.0
294
     1
177
     0
142
1.0
295
     0
296
     0
143
0.125
271
     0
272
     9
273
     9
298
     0
  0
MLINESTYLE
  5
18
102
{ACAD_REACTORS
330
17
102
}
330
17
100
AcDbMlineStyle
  2
Standard
 70
     0
  3

 62
   256
 51
90.0
 52
90.0
 71
     2
 49
0.5
 62
   256
  6
BYLAYER
 49
-0.5
 62
   256
  6
BYLAYER
  0
ACDBPLACEHOLDER
  5
F
102
{ACAD_REACTORS
330
E
102
}
330
E
  0
SCALE
  5
48
102
{ACAD_REACTORS
330
47
102
}
330
47
100
AcDbScale
 70
     0
300
1:1
140
1.0
141
1.0
290
     1
  0
SCALE
  5
49
102
{ACAD_REACTORS
330
47
102
}
330
47
100
AcDbScale
 70
     0
300
1:2
140
1.0
141
2.0
290
     0
  0
SCALE
  5
4A
102
{ACAD_REACTORS
330
47
102
}
330
47
100
AcDbScale
 70
     0
300
1:4
140
1.0
141
4.0
290
     0
  0
SCALE
  5
4B
102
{ACAD_REACTORS
330
47
102
}
330
47
100
AcDbScale
 70
     0
300
1:5
140
1.0
141
5.0
290
     0
  0
SCALE
  5
4C
102
{ACAD_REACTORS
330
47
102
}
330
47
100
AcDbScale
 70
     0
300
1:8
140
1.0
141
8.0
290
     0
  0
SCALE
  5
4D
102
{ACAD_REACTORS
330
47
102
}
330
47
100
AcDbScale
 70
     0
300
1:10
140
1.0
141
10.0
290
     0
  0
SCALE
  5
4E
102
{ACAD_REACTORS
330
47
102
}
330
47
100
AcDbScale
 70
     0
300
1:16
140
1.0
141
16.0
290
     0
  0
SCALE
  5
4F
102
{ACAD_REACTORS
330
47
102
}
330
47
100
AcDbScale
 70
     0
300
1:20
140
1.0
141
20.0
290
     0
  0
SCALE
  5
50
102
{ACAD_REACTORS
330
47
102
}
330
47
100
AcDbScale
 70
     0
300
1:30
140
1.0
141
30.0
290
     0
  0
SCALE
  5
51
102
{ACAD_REACTORS
330
47
102
}
330
47
100
AcDbScale
 70
     0
300
1:40
140
1.0
141
40.0
290
     0
  0
SCALE
  5
52
102
{ACAD_REACTORS
330
47
102
}
330
47
100
AcDbScale
 70
     0
300
1:50
140
1.0
141
50.0
290
     0
  0
SCALE
  5
53
102
{ACAD_REACTORS
330
47
102
}
330
47
100
AcDbScale
 70
     0
300
1:100
140
1.0
141
100.0
290
     0
  0
SCALE
  5
54
102
{ACAD_REACTORS
330
47
102
}
330
47
100
AcDbScale
 70
     0
300
2:1
140
2.0
141
1.0
290
     0
  0
SCALE
  5
55
102
{ACAD_REACTORS
330
47
102
}
330
47
100
AcDbScale
 70
     0
300
4:1
140
4.0
141
1.0
290
     0
  0
SCALE
  5
56
102
{ACAD_REACTORS
330
47
102
}
330
47
100
AcDbScale
 70
     0
300
8:1
140
8.0
141
1.0
290
     0
  0
SCALE
  5
57
102
{ACAD_REACTORS
330
47
102
}
330
47
100
AcDbScale
 70
     0
300
10:1
140
10.0
141
1.0
290
     0
  0
SCALE
  5
58
102
{ACAD_REACTORS
330
47
102
}
330
47
100
AcDbScale
 70
     0
300
100:1
140
100.0
141
1.0
290
     0
  0
SCALE
  5
59
102
{ACAD_REACTORS
330
47
102
}
330
47
100
AcDbScale
 70
     0
300
1/128" = 1'-0"
140
0.0078125
141
12.0
290
     0
  0
SCALE
  5
5A
102
{ACAD_REACTORS
330
47
102
}
330
47
100
AcDbScale
 70
     0
300
1/64" = 1'-0"
140
0.015625
141
12.0
290
     0
  0
SCALE
  5
5B
102
{ACAD_REACTORS
330
47
102
}
330
47
100
AcDbScale
 70
     0
300
1/32" = 1'-0"
140
0.03125
141
12.0
290
     0
  0
SCALE
  5
5C
102
{ACAD_REACTORS
330
47
102
}
330
47
100
AcDbScale
 70
     0
300
1/16" = 1'-0"
140
0.0625
141
12.0
290
     0
  0
SCALE
  5
5D
102
{ACAD_REACTORS
330
47
102
}
330
47
100
AcDbScale
 70
     0
300
3/32" = 1'-0"
140
0.09375
141
12.0
290
     0
  0
SCALE
  5
5E
102
{ACAD_REACTORS
330
47
102
}
330
47
100
AcDbScale
 70
     0
300
1/8" = 1'-0"
140
0.125
141
12.0
290
     0
  0
SCALE
  5
5F
102
{ACAD_REACTORS
330
47
102
}
330
47
100
AcDbScale
 70
     0
300
3/16" = 1'-0"
140
0.1875
141
12.0
290
     0
  0
SCALE
  5
60
102
{ACAD_REACTORS
330
47
102
}
330
47
100
AcDbScale
 70
     0
300
1/4" = 1'-0"
140
0.25
141
12.0
290
     0
  0
SCALE
  5
61
102
{ACAD_REACTORS
330
47
102
}
330
47
100
AcDbScale
 70
     0
300
3/8" = 1'-0"
140
0.375
141
12.0
290
     0
  0
SCALE
  5
62
102
{ACAD_REACTORS
330
47
102
}
330
47
100
AcDbScale
 70
     0
300
1/2" = 1'-0"
140
0.5
141
12.0
290
     0
  0
SCALE
  5
63
102
{ACAD_REACTORS
330
47
102
}
330
47
100
AcDbScale
 70
     0
300
3/4" = 1'-0"
140
0.75
141
12.0
290
     0
  0
SCALE
  5
64
102
{ACAD_REACTORS
330
47
102
}
330
47
100
AcDbScale
 70
     0
300
1" = 1'-0"
140
1.0
141
12.0
290
     0
  0
SCALE
  5
65
102
{ACAD_REACTORS
330
47
102
}
330
47
100
AcDbScale
 70
     0
300
1-1/2" = 1'-0"
140
1.5
141
12.0
290
     0
  0
SCALE
  5
66
102
{ACAD_REACTORS
330
47
102
}
330
47
100
AcDbScale
 70
     0
300
3" = 1'-0"
140
3.0
141
12.0
290
     0
  0
SCALE
  5
67
102
{ACAD_REACTORS
330
47
102
}
330
47
100
AcDbScale
 70
     0
300
6" = 1'-0"
140
6.0
141
12.0
290
     0
  0
SCALE
  5
68
102
{ACAD_REACTORS
330
47
102
}
330
47
100
AcDbScale
 70
     0
300
1'-0" = 1'-0"
140
12.0
141
12.0
290
     0
  0
TABLESTYLE
  5
6A
102
{ACAD_REACTORS
330
69
102
}
102
{ACAD_XDICTIONARY
360
1EE
102
}
330
69
100
AcDbTableStyle
  3
Standard
 70
     0
 71
     0
 40
0.06
 41
0.06
280
     0
281
     0
  7
Standard
140
0.18
170
     2
 62
     0
 63
   257
283
     0
 90
        4
 91
        0
  1

274
    -2
284
     1
 64
     0
275
    -2
285
     1
 65
     0
276
    -2
286
     1
 66
     0
277
    -2
287
     1
 67
     0
278
    -2
288
     1
 68
     0
279
    -2
289
     1
 69
     0
  7
Standard
140
0.25
170
     5
 62
     0
 63
   257
283
     0
 90
        4
 91
        0
  1

274
    -2
284
     1
 64
     0
275
    -2
285
     1
 65
     0
276
    -2
286
     1
 66
     0
277
    -2
287
     1
 67
     0
278
    -2
288
     1
 68
     0
279
    -2
289
     1
 69
     0
  7
Standard
140
0.18
170
     5
 62
     0
 63
   257
283
     0
 90
        4
 91
        0
  1

274
    -2
284
     1
 64
     0
275
    -2
285
     1
 65
     0
276
    -2
286
     1
 66
     0
277
    -2
287
     1
 67
     0
278
    -2
288
     1
 68
     0
279
    -2
289
     1
 69
     0
  0
VISUALSTYLE
  5
2F
102
{ACAD_REACTORS
330
2A
102
}
330
2A
100
AcDbVisualStyle
  2
2dWireframe
 70
     4
177
     3
291
     0
 70
    58
 90
        0
176
     1
 90
        2
176
     1
 90
        0
176
     1
 90
        0
176
     1
 40
0.6
176
     1
 40
30.0
176
     1
 62
     7
420
 16777215
176
     1
 90
        1
176
     1
 90
        4
176
     1
 62
     7
176
     1
 62
   257
176
     1
 90
        1
176
     1
 90
        1
176
     1
 40
1.0
176
     1
 90
        0
176
     1
 62
   257
176
     1
 40
1.0
176
     1
 90
        1
176
     1
 90
        6
176
     1
 90
        2
176
     1
 62
     7
176
     1
 90
        5
176
     1
 90
        0
176
     1
 90
        0
176
     1
290
     0
176
     1
 90
        1
176
     1
 40
0.0
176
     1
 90
        0
176
     1
290
     1
176
     1
290
     1
176
     1
290
     0
176
     1
290
     0
176
     1
290
     0
176
     1
290
     0
176
     1
290
     0
176
     1
290
     0
176
     1
290
     0
176
     1
 90
       50
176
     1
 40
0.0
176
     1
 40
1.0
176
     1
 90
        0
176
     1
 62
    18
420
        0
176
     1
 90
       50
176
     1
 90
        3
176
     1
 62
     5
420
      255
176
     1
290
     0
176
     1
 90
       50
176
     1
 90
       50
176
     1
 90
       50
176
     1
290
     0
176
     1
 90
       50
176
     1
 62
   256
176
     0
 40
1.0
176
     0
 90
        2
176
     1
  1
strokes_ogs.tif
176
     1
290
     0
176
     1
 40
1.0
176
     1
 40
1.0
176
     1
  0
VISUALSTYLE
  5
32
102
{ACAD_REACTORS
330
2A
102
}
330
2A
100
AcDbVisualStyle
  2
Basic
 70
     7
177
     3
291
     1
 70
    58
 90
        1
176
     1
 90
        0
176
     1
 90
        1
176
     1
 90
        0
176
     1
 40
0.6
176
     1
 40
30.0
176
     1
 62
     7
420
 16777215
176
     1
 90
        0
176
     1
 90
        4
176
     1
 62
     7
176
     1
 62
   257
176
     1
 90
        1
176
     1
 90
        1
176
     1
 40
1.0
176
     1
 90
        8
176
     1
 62
     7
176
     1
 40
1.0
176
     1
 90
        1
176
     1
 90
        6
176
     1
 90
        2
176
     1
 62
     7
176
     1
 90
        5
176
     1
 90
        0
176
     1
 90
        0
176
     1
290
     0
176
     1
 90
        1
176
     1
 40
0.0
176
     1
 90
        0
176
     1
290
     0
176
     1
290
     1
176
     1
290
     1
176
     1
290
     0
176
     1
290
     0
176
     1
290
     0
176
     1
290
     0
176
     1
290
     0
176
     1
290
     0
176
     1
 90
       50
176
     1
 40
0.0
176
     1
 40
1.0
176
     1
 90
        0
176
     1
 62
    18
420
        0
176
     1
 90
       50
176
     1
 90
        3
176
     1
 62
     5
420
      255
176
     1
290
     0
176
     1
 90
       50
176
     1
 90
       50
176
     1
 90
       50
176
     1
290
     0
176
     1
 90
       50
176
     1
 62
   256
176
     0
 40
1.0
176
     0
 90
        2
176
     1
  1
strokes_ogs.tif
176
     1
290
     0
176
     1
 40
1.0
176
     1
 40
1.0
176
     1
  0
VISUALSTYLE
  5
36
102
{ACAD_REACTORS
330
2A
102
}
330
2A
100
AcDbVisualStyle
  2
Brighten
 70
    12
177
     3
291
     1
 70
    58
 90
        2
176
     1
 90
        2
176
     1
 90
        0
176
     1
 90
        0
176
     1
 40
0.6
176
     1
 40
30.0
176
     1
 62
     7
420
 16777215
176
     1
 90
        1
176
     1
 90
        4
176
     1
 62
     7
176
     1
 62
   257
176
     1
 90
        1
176
     1
 90
        1
176
     1
 40
1.0
176
     1
 90
        8
176
     1
 62
     7
176
     1
 40
1.0
176
     1
 90
        1
176
     1
 90
        6
176
     1
 90
        2
176
     1
 62
     7
176
     1
 90
        5
176
     1
 90
        0
176
     1
 90
        0
176
     1
290
     0
176
     1
 90
        1
176
     1
 40
50.0
176
     1
 90
        0
176
     1
290
     0
176
     1
290
     1
176
     1
290
     1
176
     1
290
     0
176
     1
290
     0
176
     1
290
     0
176
     1
290
     0
176
     1
290
     0
176
     1
290
     0
176
     1
 90
       50
176
     1
 40
0.0
176
     1
 40
1.0
176
     1
 90
        0
176
     1
 62
    18
420
        0
176
     1
 90
       50
176
     1
 90
        3
176
     1
 62
     5
420
      255
176
     1
290
     0
176
     1
 90
       50
176
     1
 90
       50
176
     1
 90
       50
176
     1
290
     0
176
     1
 90
       50
176
     1
 62
   256
176
     0
 40
1.0
176
     0
 90
        2
176
     1
  1
strokes_ogs.tif
176
     1
290
     0
176
     1
 40
1.0
176
     1
 40
1.0
176
     1
  0
VISUALSTYLE
  5
3A
102
{ACAD_REACTORS
330
2A
102
}
330
2A
100
AcDbVisualStyle
  2
ColorChange
 70
    16
177
     3
291
     1
 70
    58
 90
        2
176
     1
 90
        2
176
     1
 90
        3
176
     1
 90
        0
176
     1
 40
0.6
176
     1
 40
30.0
176
     1
 62
     8
420
  8421504
176
     1
 90
        1
176
     1
 90
        4
176
     1
 62
     7
176
     1
 62
   257
176
     1
 90
        1
176
     1
 90
        1
176
     1
 40
1.0
176
     1
 90
        8
176
     1
 62
     8
420
  8421504
176
     1
 40
1.0
176
     1
 90
        1
176
     1
 90
        6
176
     1
 90
        2
176
     1
 62
     7
176
     1
 90
        5
176
     1
 90
        0
176
     1
 90
        0
176
     1
290
     0
176
     1
 90
        1
176
     1
 40
0.0
176
     1
 90
        0
176
     1
290
     0
176
     1
290
     1
176
     1
290
     1
176
     1
290
     0
176
     1
290
     0
176
     1
290
     0
176
     1
290
     0
176
     1
290
     0
176
     1
290
     0
176
     1
 90
       50
176
     1
 40
0.0
176
     1
 40
1.0
176
     1
 90
        0
176
     1
 62
    18
420
        0
176
     1
 90
       50
176
     1
 90
        3
176
     1
 62
     5
420
      255
176
     1
290
     0
176
     1
 90
       50
176
     1
 90
       50
176
     1
 90
       50
176
     1
290
     0
176
     1
 90
       50
176
     1
 62
   256
176
     0
 40
1.0
176
     0
 90
        2
176
     1
  1
strokes_ogs.tif
176
     1
290
     0
176
     1
 40
1.0
176
     1
 40
1.0
176
     1
  0
VISUALSTYLE
  5
34
102
{ACAD_REACTORS
330
2A
102
}
330
2A
100
AcDbVisualStyle
  2
Conceptual
 70
     9
177
     3
291
     0
 70
    58
 90
        3
176
     1
 90
        2
176
     1
 90
        0
176
     1
 90
        0
176
     1
 40
0.6
176
     1
 40
30.0
176
     1
 62
     7
420
 16777215
176
     1
 90
        2
176
     1
 90
        2
176
     1
 62
     7
176
     1
 62
   257
176
     1
 90
        1
176
     1
 90
        1
176
     1
 40
179.0
176
     1
 90
        8
176
     1
 62
     7
176
     1
 40
1.0
176
     1
 90
        1
176
     1
 90
        6
176
     1
 90
        2
176
     1
 62
     7
176
     1
 90
        3
176
     1
 90
        0
176
     1
 90
        0
176
     1
290
     0
176
     1
 90
        1
176
     1
 40
0.0
176
     1
 90
        0
176
     1
290
     0
176
     1
290
     1
176
     1
290
     1
176
     1
290
     0
176
     1
290
     0
176
     1
290
     0
176
     1
290
     0
176
     1
290
     0
176
     1
290
     0
176
     1
 90
       50
176
     1
 40
0.0
176
     1
 40
1.0
176
     1
 90
        0
176
     1
 62
    18
420
        0
176
     1
 90
       50
176
     1
 90
        3
176
     1
 62
     5
420
      255
176
     1
290
     0
176
     1
 90
       50
176
     1
 90
       50
176
     1
 90
       50
176
     1
290
     0
176
     1
 90
       50
176
     1
 62
   256
176
     0
 40
1.0
176
     0
 90
        2
176
     1
  1
strokes_ogs.tif
176
     1
290
     0
176
     1
 40
1.0
176
     1
 40
1.0
176
     1
  0
VISUALSTYLE
  5
35
102
{ACAD_REACTORS
330
2A
102
}
330
2A
100
AcDbVisualStyle
  2
Dim
 70
    11
177
     3
291
     1
 70
    58
 90
        2
176
     1
 90
        2
176
     1
 90
        0
176
     1
 90
        0
176
     1
 40
0.6
176
     1
 40
30.0
176
     1
 62
     7
420
 16777215
176
     1
 90
        1
176
     1
 90
        4
176
     1
 62
     7
176
     1
 62
   257
176
     1
 90
        1
176
     1
 90
        1
176
     1
 40
1.0
176
     1
 90
        8
176
     1
 62
     7
176
     1
 40
1.0
176
     1
 90
        1
176
     1
 90
        6
176
     1
 90
        2
176
     1
 62
     7
176
     1
 90
        5
176
     1
 90
        0
176
     1
 90
        0
176
     1
290
     0
176
     1
 90
        1
176
     1
 40
-50.0
176
     1
 90
        0
176
     1
290
     0
176
     1
290
     1
176
     1
290
     1
176
     1
290
     0
176
     1
290
     0
176
     1
290
     0
176
     1
290
     0
176
     1
290
     0
176
     1
290
     0
176
     1
 90
       50
176
     1
 40
0.0
176
     1
 40
1.0
176
     1
 90
        0
176
     1
 62
    18
420
        0
176
     1
 90
       50
176
     1
 90
        3
176
     1
 62
     5
420
      255
176
     1
290
     0
176
     1
 90
       50
176
     1
 90
       50
176
     1
 90
       50
176
     1
290
     0
176
     1
 90
       50
176
     1
 62
   256
176
     0
 40
1.0
176
     0
 90
        2
176
     1
  1
strokes_ogs.tif
176
     1
290
     0
176
     1
 40
1.0
176
     1
 40
1.0
176
     1
  0
VISUALSTYLE
  5
3D
102
{ACAD_REACTORS
330
2A
102
}
330
2A
100
AcDbVisualStyle
  2
EdgeColorOff
 70
    22
177
     3
291
     1
 70
    58
 90
        2
176
     0
 90
        2
176
     0
 90
        0
176
     0
 90
        0
176
     0
 40
0.6
176
     0
 40
30.0
176
     0
 62
     7
420
 16777215
176
     0
 90
        1
176
     0
 90
        4
176
     0
 62
     7
176
     0
 62
   257
176
     0
 90
        1
176
     0
 90
        1
176
     0
 40
1.0
176
     0
 90
        8
176
     2
 62
     7
176
     0
 40
1.0
176
     0
 90
        1
176
     0
 90
        6
176
     0
 90
        2
176
     0
 62
     7
176
     0
 90
        5
176
     0
 90
        0
176
     0
 90
        0
176
     0
290
     0
176
     0
 90
        1
176
     0
 40
0.0
176
     0
 90
        0
176
     0
290
     0
176
     0
290
     1
176
     0
290
     1
176
     0
290
     0
176
     0
290
     0
176
     0
290
     0
176
     0
290
     0
176
     0
290
     0
176
     0
290
     0
176
     0
 90
       50
176
     0
 40
0.0
176
     0
 40
1.0
176
     0
 90
        0
176
     0
 62
    18
420
        0
176
     0
 90
       50
176
     0
 90
        3
176
     0
 62
     5
420
      255
176
     0
290
     0
176
     0
 90
       50
176
     0
 90
       50
176
     0
 90
       50
176
     0
290
     0
176
     0
 90
       50
176
     0
 62
   256
176
     0
 40
1.0
176
     0
 90
        2
176
     0
  1
strokes_ogs.tif
176
     0
290
     0
176
     0
 40
1.0
176
     0
 40
1.0
176
     0
  0
VISUALSTYLE
  5
39
102
{ACAD_REACTORS
330
2A
102
}
330
2A
100
AcDbVisualStyle
  2
Facepattern
 70
    15
177
     3
291
     1
 70
    58
 90
        2
176
     1
 90
        2
176
     1
 90
        0
176
     1
 90
        0
176
     1
 40
0.6
176
     1
 40
30.0
176
     1
 62
     7
420
 16777215
176
     1
 90
        1
176
     1
 90
        4
176
     1
 62
     7
176
     1
 62
   257
176
     1
 90
        1
176
     1
 90
        1
176
     1
 40
1.0
176
     1
 90
        8
176
     1
 62
     7
176
     1
 40
1.0
176
     1
 90
        1
176
     1
 90
        6
176
     1
 90
        2
176
     1
 62
     7
176
     1
 90
        5
176
     1
 90
        0
176
     1
 90
        0
176
     1
290
     0
176
     1
 90
        1
176
     1
 40
0.0
176
     1
 90
        0
176
     1
290
     0
176
     1
290
     1
176
     1
290
     1
176
     1
290
     0
176
     1
290
     0
176
     1
290
     0
176
     1
290
     0
176
     1
290
     0
176
     1
290
     0
176
     1
 90
       50
176
     1
 40
0.0
176
     1
 40
1.0
176
     1
 90
        0
176
     1
 62
    18
420
        0
176
     1
 90
       50
176
     1
 90
        3
176
     1
 62
     5
420
      255
176
     1
290
     0
176
     1
 90
       50
176
     1
 90
       50
176
     1
 90
       50
176
     1
290
     0
176
     1
 90
       50
176
     1
 62
   256
176
     0
 40
1.0
176
     0
 90
        2
176
     1
  1
strokes_ogs.tif
176
     1
290
     0
176
     1
 40
1.0
176
     1
 40
1.0
176
     1
  0
VISUALSTYLE
  5
2B
102
{ACAD_REACTORS
330
2A
102
}
330
2A
100
AcDbVisualStyle
  2
Flat
 70
     0
177
     3
291
     1
 70
    58
 90
        2
176
     1
 90
        1
176
     1
 90
        1
176
     1
 90
        2
176
     1
 40
0.6
176
     1
 40
30.0
176
     1
 62
     7
420
 16777215
176
     1
 90
        0
176
     1
 90
        0
176
     1
 62
     7
176
     1
 62
   257
176
     1
 90
        1
176
     1
 90
        1
176
     1
 40
1.0
176
     1
 90
        8
176
     1
 62
     7
176
     1
 40
1.0
176
     1
 90
        1
176
     1
 90
        6
176
     1
 90
        2
176
     1
 62
     7
176
     1
 90
        5
176
     1
 90
        0
176
     1
 90
        0
176
     1
290
     0
176
     1
 90
       13
176
     1
 40
0.0
176
     1
 90
        0
176
     1
290
     0
176
     1
290
     1
176
     1
290
     1
176
     1
290
     0
176
     1
290
     0
176
     1
290
     0
176
     1
290
     0
176
     1
290
     0
176
     1
290
     0
176
     1
 90
       50
176
     1
 40
0.0
176
     1
 40
1.0
176
     1
 90
        0
176
     1
 62
    18
420
        0
176
     1
 90
       50
176
     1
 90
        3
176
     1
 62
     5
420
      255
176
     1
290
     0
176
     1
 90
       50
176
     1
 90
       50
176
     1
 90
       50
176
     1
290
     0
176
     1
 90
       50
176
     1
 62
   256
176
     0
 40
1.0
176
     0
 90
        2
176
     1
  1
strokes_ogs.tif
176
     1
290
     0
176
     1
 40
1.0
176
     1
 40
1.0
176
     1
  0
VISUALSTYLE
  5
2C
102
{ACAD_REACTORS
330
2A
102
}
330
2A
100
AcDbVisualStyle
  2
FlatWithEdges
 70
     1
177
     3
291
     1
 70
    58
 90
        2
176
     1
 90
        1
176
     1
 90
        1
176
     1
 90
        2
176
     1
 40
0.6
176
     1
 40
30.0
176
     1
 62
     7
420
 16777215
176
     1
 90
        1
176
     1
 90
        0
176
     1
 62
     7
176
     1
 62
   257
176
     1
 90
        1
176
     1
 90
        1
176
     1
 40
1.0
176
     1
 90
        0
176
     1
 62
   257
176
     1
 40
1.0
176
     1
 90
        1
176
     1
 90
        6
176
     1
 90
        2
176
     1
 62
     7
176
     1
 90
        5
176
     1
 90
        0
176
     1
 90
        0
176
     1
290
     0
176
     1
 90
       13
176
     1
 40
0.0
176
     1
 90
        0
176
     1
290
     0
176
     1
290
     1
176
     1
290
     1
176
     1
290
     0
176
     1
290
     0
176
     1
290
     0
176
     1
290
     0
176
     1
290
     0
176
     1
290
     0
176
     1
 90
       50
176
     1
 40
0.0
176
     1
 40
1.0
176
     1
 90
        0
176
     1
 62
    18
420
        0
176
     1
 90
       50
176
     1
 90
        3
176
     1
 62
     5
420
      255
176
     1
290
     0
176
     1
 90
       50
176
     1
 90
       50
176
     1
 90
       50
176
     1
290
     0
176
     1
 90
       50
176
     1
 62
   256
176
     0
 40
1.0
176
     0
 90
        2
176
     1
  1
strokes_ogs.tif
176
     1
290
     0
176
     1
 40
1.0
176
     1
 40
1.0
176
     1
  0
VISUALSTYLE
  5
2D
102
{ACAD_REACTORS
330
2A
102
}
330
2A
100
AcDbVisualStyle
  2
Gouraud
 70
     2
177
     3
291
     1
 70
    58
 90
        2
176
     1
 90
        2
176
     1
 90
        1
176
     1
 90
        2
176
     1
 40
0.6
176
     1
 40
30.0
176
     1
 62
     7
420
 16777215
176
     1
 90
        0
176
     1
 90
        0
176
     1
 62
     7
176
     1
 62
   257
176
     1
 90
        1
176
     1
 90
        1
176
     1
 40
1.0
176
     1
 90
        0
176
     1
 62
     7
176
     1
 40
1.0
176
     1
 90
        1
176
     1
 90
        6
176
     1
 90
        2
176
     1
 62
     7
176
     1
 90
        5
176
     1
 90
        0
176
     1
 90
        0
176
     1
290
     0
176
     1
 90
       13
176
     1
 40
0.0
176
     1
 90
        0
176
     1
290
     0
176
     1
290
     1
176
     1
290
     1
176
     1
290
     0
176
     1
290
     0
176
     1
290
     0
176
     1
290
     0
176
     1
290
     0
176
     1
290
     0
176
     1
 90
       50
176
     1
 40
0.0
176
     1
 40
1.0
176
     1
 90
        0
176
     1
 62
    18
420
        0
176
     1
 90
       50
176
     1
 90
        3
176
     1
 62
     5
420
      255
176
     1
290
     0
176
     1
 90
       50
176
     1
 90
       50
176
     1
 90
       50
176
     1
290
     0
176
     1
 90
       50
176
     1
 62
   256
176
     0
 40
1.0
176
     0
 90
        2
176
     1
  1
strokes_ogs.tif
176
     1
290
     0
176
     1
 40
1.0
176
     1
 40
1.0
176
     1
  0
VISUALSTYLE
  5
2E
102
{ACAD_REACTORS
330
2A
102
}
330
2A
100
AcDbVisualStyle
  2
GouraudWithEdges
 70
     3
177
     3
291
     1
 70
    58
 90
        2
176
     1
 90
        2
176
     1
 90
        1
176
     1
 90
        2
176
     1
 40
0.6
176
     1
 40
30.0
176
     1
 62
     7
420
 16777215
176
     1
 90
        1
176
     1
 90
        0
176
     1
 62
     7
176
     1
 62
   257
176
     1
 90
        1
176
     1
 90
        1
176
     1
 40
1.0
176
     1
 90
        0
176
     1
 62
   257
176
     1
 40
1.0
176
     1
 90
        1
176
     1
 90
        6
176
     1
 90
        2
176
     1
 62
     7
176
     1
 90
        5
176
     1
 90
        0
176
     1
 90
        0
176
     1
290
     0
176
     1
 90
       13
176
     1
 40
0.0
176
     1
 90
        0
176
     1
290
     0
176
     1
290
     1
176
     1
290
     1
176
     1
290
     0
176
     1
290
     0
176
     1
290
     0
176
     1
290
     0
176
     1
290
     0
176
     1
290
     0
176
     1
 90
       50
176
     1
 40
0.0
176
     1
 40
1.0
176
     1
 90
        0
176
     1
 62
    18
420
        0
176
     1
 90
       50
176
     1
 90
        3
176
     1
 62
     5
420
      255
176
     1
290
     0
176
     1
 90
       50
176
     1
 90
       50
176
     1
 90
       50
176
     1
290
     0
176
     1
 90
       50
176
     1
 62
   256
176
     0
 40
1.0
176
     0
 90
        2
176
     1
  1
strokes_ogs.tif
176
     1
290
     0
176
     1
 40
1.0
176
     1
 40
1.0
176
     1
  0
VISUALSTYLE
  5
31
102
{ACAD_REACTORS
330
2A
102
}
330
2A
100
AcDbVisualStyle
  2
Hidden
 70
     6
177
     3
291
     0
 70
    58
 90
        1
176
     1
 90
        2
176
     1
 90
        2
176
     1
 90
        0
176
     1
 40
0.6
176
     1
 40
30.0
176
     1
 62
     7
420
 16777215
176
     1
 90
        2
176
     1
 90
        2
176
     1
 62
     7
176
     1
 62
   257
176
     1
 90
        2
176
     1
 90
        1
176
     1
 40
40.0
176
     1
 90
        0
176
     1
 62
   257
176
     1
 40
1.0
176
     1
 90
        1
176
     1
 90
        6
176
     1
 90
        2
176
     1
 62
     7
176
     1
 90
        3
176
     1
 90
        0
176
     1
 90
        0
176
     1
290
     0
176
     1
 90
        1
176
     1
 40
0.0
176
     1
 90
        0
176
     1
290
     0
176
     1
290
     1
176
     1
290
     1
176
     1
290
     0
176
     1
290
     0
176
     1
290
     0
176
     1
290
     0
176
     1
290
     0
176
     1
290
     0
176
     1
 90
       50
176
     1
 40
0.0
176
     1
 40
1.0
176
     1
 90
        0
176
     1
 62
    18
420
        0
176
     1
 90
       50
176
     1
 90
        3
176
     1
 62
     5
420
      255
176
     1
290
     0
176
     1
 90
       50
176
     1
 90
       50
176
     1
 90
       50
176
     1
290
     0
176
     1
 90
       50
176
     1
 62
   256
176
     0
 40
1.0
176
     0
 90
        2
176
     1
  1
strokes_ogs.tif
176
     1
290
     0
176
     1
 40
1.0
176
     1
 40
1.0
176
     1
  0
VISUALSTYLE
  5
3B
102
{ACAD_REACTORS
330
2A
102
}
330
2A
100
AcDbVisualStyle
  2
JitterOff
 70
    20
177
     3
291
     1
 70
    58
 90
        2
176
     0
 90
        2
176
     0
 90
        0
176
     0
 90
        0
176
     0
 40
0.6
176
     0
 40
30.0
176
     0
 62
     7
420
 16777215
176
     0
 90
        1
176
     0
 90
        4
176
     0
 62
     7
176
     0
 62
   257
176
     0
 90
        1
176
     0
 90
        1
176
     0
 40
1.0
176
     0
 90
       10
176
     2
 62
     7
176
     0
 40
1.0
176
     0
 90
        1
176
     0
 90
        6
176
     0
 90
        2
176
     0
 62
     7
176
     0
 90
        5
176
     0
 90
        0
176
     0
 90
        0
176
     0
290
     0
176
     0
 90
        1
176
     0
 40
0.0
176
     0
 90
        0
176
     0
290
     0
176
     0
290
     1
176
     0
290
     1
176
     0
290
     0
176
     0
290
     0
176
     0
290
     0
176
     0
290
     0
176
     0
290
     0
176
     0
290
     0
176
     0
 90
       50
176
     0
 40
0.0
176
     0
 40
1.0
176
     0
 90
        0
176
     0
 62
    18
420
        0
176
     0
 90
       50
176
     0
 90
        3
176
     0
 62
     5
420
      255
176
     0
290
     0
176
     0
 90
       50
176
     0
 90
       50
176
     0
 90
       50
176
     0
290
     0
176
     0
 90
       50
176
     0
 62
   256
176
     0
 40
1.0
176
     0
 90
        2
176
     0
  1
strokes_ogs.tif
176
     0
290
     0
176
     0
 40
1.0
176
     0
 40
1.0
176
     0
  0
VISUALSTYLE
  5
38
102
{ACAD_REACTORS
330
2A
102
}
330
2A
100
AcDbVisualStyle
  2
Linepattern
 70
    14
177
     3
291
     1
 70
    58
 90
        2
176
     1
 90
        2
176
     1
 90
        0
176
     1
 90
        0
176
     1
 40
0.6
176
     1
 40
30.0
176
     1
 62
     7
420
 16777215
176
     1
 90
        1
176
     1
 90
        4
176
     1
 62
     7
176
     1
 62
   257
176
     1
 90
        7
176
     1
 90
        7
176
     1
 40
1.0
176
     1
 90
        8
176
     1
 62
     7
176
     1
 40
1.0
176
     1
 90
        1
176
     1
 90
        6
176
     1
 90
        2
176
     1
 62
     7
176
     1
 90
        5
176
     1
 90
        0
176
     1
 90
        0
176
     1
290
     0
176
     1
 90
        1
176
     1
 40
0.0
176
     1
 90
        0
176
     1
290
     0
176
     1
290
     1
176
     1
290
     1
176
     1
290
     0
176
     1
290
     0
176
     1
290
     0
176
     1
290
     0
176
     1
290
     0
176
     1
290
     0
176
     1
 90
       50
176
     1
 40
0.0
176
     1
 40
1.0
176
     1
 90
        0
176
     1
 62
    18
420
        0
176
     1
 90
       50
176
     1
 90
        3
176
     1
 62
     5
420
      255
176
     1
290
     0
176
     1
 90
       50
176
     1
 90
       50
176
     1
 90
       50
176
     1
290
     0
176
     1
 90
       50
176
     1
 62
   256
176
     0
 40
1.0
176
     0
 90
        2
176
     1
  1
strokes_ogs.tif
176
     1
290
     0
176
     1
 40
1.0
176
     1
 40
1.0
176
     1
  0
VISUALSTYLE
  5
3C
102
{ACAD_REACTORS
330
2A
102
}
330
2A
100
AcDbVisualStyle
  2
OverhangOff
 70
    21
177
     3
291
     1
 70
    58
 90
        2
176
     0
 90
        2
176
     0
 90
        0
176
     0
 90
        0
176
     0
 40
0.6
176
     0
 40
30.0
176
     0
 62
     7
420
 16777215
176
     0
 90
        1
176
     0
 90
        4
176
     0
 62
     7
176
     0
 62
   257
176
     0
 90
        1
176
     0
 90
        1
176
     0
 40
1.0
176
     0
 90
        9
176
     2
 62
     7
176
     0
 40
1.0
176
     0
 90
        1
176
     0
 90
        6
176
     0
 90
        2
176
     0
 62
     7
176
     0
 90
        5
176
     0
 90
        0
176
     0
 90
        0
176
     0
290
     0
176
     0
 90
        1
176
     0
 40
0.0
176
     0
 90
        0
176
     0
290
     0
176
     0
290
     1
176
     0
290
     1
176
     0
290
     0
176
     0
290
     0
176
     0
290
     0
176
     0
290
     0
176
     0
290
     0
176
     0
290
     0
176
     0
 90
       50
176
     0
 40
0.0
176
     0
 40
1.0
176
     0
 90
        0
176
     0
 62
    18
420
        0
176
     0
 90
       50
176
     0
 90
        3
176
     0
 62
     5
420
      255
176
     0
290
     0
176
     0
 90
       50
176
     0
 90
       50
176
     0
 90
       50
176
     0
290
     0
176
     0
 90
       50
176
     0
 62
   256
176
     0
 40
1.0
176
     0
 90
        2
176
     0
  1
strokes_ogs.tif
176
     0
290
     0
176
     0
 40
1.0
176
     0
 40
1.0
176
     0
  0
VISUALSTYLE
  5
33
102
{ACAD_REACTORS
330
2A
102
}
330
2A
100
AcDbVisualStyle
  2
Realistic
 70
     8
177
     3
291
     0
 70
    58
 90
        2
176
     1
 90
        3
176
     1
 90
        0
176
     1
 90
        2
176
     1
 40
0.6
176
     1
 40
30.0
176
     1
 62
     7
420
 16777215
176
     1
 90
        0
176
     1
 90
        0
176
     1
 62
     7
176
     1
 62
   257
176
     1
 90
        1
176
     1
 90
        1
176
     1
 40
1.0
176
     1
 90
        8
176
     1
 62
   257
176
     1
 40
1.0
176
     1
 90
        1
176
     1
 90
        6
176
     1
 90
        2
176
     1
 62
     7
176
     1
 90
        3
176
     1
 90
        0
176
     1
 90
        0
176
     1
290
     0
176
     1
 90
       13
176
     1
 40
0.0
176
     1
 90
        0
176
     1
290
     0
176
     1
290
     1
176
     1
290
     1
176
     1
290
     0
176
     1
290
     0
176
     1
290
     0
176
     1
290
     0
176
     1
290
     0
176
     1
290
     0
176
     1
 90
       50
176
     1
 40
0.0
176
     1
 40
1.0
176
     1
 90
        0
176
     1
 62
    18
420
        0
176
     1
 90
       50
176
     1
 90
        3
176
     1
 62
     5
420
      255
176
     1
290
     0
176
     1
 90
       50
176
     1
 90
       50
176
     1
 90
       50
176
     1
290
     0
176
     1
 90
       50
176
     1
 62
   256
176
     0
 40
1.0
176
     0
 90
        2
176
     1
  1
strokes_ogs.tif
176
     1
290
     0
176
     1
 40
1.0
176
     1
 40
1.0
176
     1
  0
VISUALSTYLE
  5
42
102
{ACAD_REACTORS
330
2A
102
}
330
2A
100
AcDbVisualStyle
  2
Shaded
 70
    27
177
     3
291
     0
 70
    58
 90
        2
176
     1
 90
        2
176
     1
 90
        1
176
     1
 90
        2
176
     1
 40
0.6
176
     1
 40
30.0
176
     1
 62
     7
420
 16777215
176
     1
 90
        0
176
     1
 90
        4
176
     1
 62
     7
176
     1
 62
   257
176
     1
 90
        1
176
     1
 90
        1
176
     1
 40
1.0
176
     1
 90
        8
176
     1
 62
   257
176
     1
 40
1.0
176
     1
 90
        1
176
     1
 90
        6
176
     1
 90
        2
176
     1
 62
     8
420
  7895160
176
     1
 90
        3
176
     1
 90
        0
176
     1
 90
        0
176
     1
290
     0
176
     1
 90
        5
176
     1
 40
0.0
176
     1
 90
        0
176
     1
290
     0
176
     1
290
     1
176
     1
290
     1
176
     1
290
     0
176
     1
290
     0
176
     1
290
     0
176
     1
290
     0
176
     1
290
     0
176
     1
290
     0
176
     1
 90
       50
176
     1
 40
0.0
176
     1
 40
1.0
176
     1
 90
        0
176
     1
 62
    18
420
        0
176
     1
 90
       50
176
     1
 90
        3
176
     1
 62
     5
420
      255
176
     1
290
     0
176
     1
 90
       50
176
     1
 90
       50
176
     1
 90
       50
176
     1
290
     0
176
     1
 90
       50
176
     1
 62
   256
176
     0
 40
1.0
176
     0
 90
        2
176
     1
  1
strokes_ogs.tif
176
     1
290
     0
176
     1
 40
1.0
176
     1
 40
1.0
176
     1
  0
VISUALSTYLE
  5
41
102
{ACAD_REACTORS
330
2A
102
}
330
2A
100
AcDbVisualStyle
  2
Shaded with edges
 70
    26
177
     3
291
     0
 70
    58
 90
        2
176
     1
 90
        2
176
     1
 90
        1
176
     1
 90
        2
176
     1
 40
0.6
176
     1
 40
30.0
176
     1
 62
     7
420
 16777215
176
     1
 90
        1
176
     1
 90
       10
176
     1
 62
     7
176
     1
 62
   257
176
     1
 90
        2
176
     1
 90
        1
176
     1
 40
1.0
176
     1
 90
        8
176
     1
 62
   257
176
     1
 40
1.0
176
     1
 90
        1
176
     1
 90
        6
176
     1
 90
        2
176
     1
 62
     7
176
     1
 90
        3
176
     1
 90
        0
176
     1
 90
        0
176
     1
290
     0
176
     1
 90
        5
176
     1
 40
0.0
176
     1
 90
        0
176
     1
290
     0
176
     1
290
     1
176
     1
290
     1
176
     1
290
     0
176
     1
290
     0
176
     1
290
     0
176
     1
290
     0
176
     1
290
     0
176
     1
290
     0
176
     1
 90
       50
176
     1
 40
0.0
176
     1
 40
1.0
176
     1
 90
        0
176
     1
 62
    18
420
        0
176
     1
 90
       50
176
     1
 90
        3
176
     1
 62
     5
420
      255
176
     1
290
     0
176
     1
 90
       50
176
     1
 90
       50
176
     1
 90
       50
176
     1
290
     0
176
     1
 90
       50
176
     1
 62
   256
176
     0
 40
1.0
176
     0
 90
        2
176
     1
  1
strokes_ogs.tif
176
     1
290
     0
176
     1
 40
1.0
176
     1
 40
1.0
176
     1
  0
VISUALSTYLE
  5
3E
102
{ACAD_REACTORS
330
2A
102
}
330
2A
100
AcDbVisualStyle
  2
Shades of Gray
 70
    23
177
     3
291
     0
 70
    58
 90
        2
176
     1
 90
        2
176
     1
 90
        3
176
     1
 90
        0
176
     1
 40
0.6
176
     1
 40
30.0
176
     1
 62
     7
420
 16777215
176
     1
 90
        2
176
     1
 90
        2
176
     1
 62
     7
176
     1
 62
     7
176
     1
 90
        1
176
     1
 90
        1
176
     1
 40
40.0
176
     1
 90
        8
176
     1
 62
     7
176
     1
 40
1.0
176
     1
 90
        1
176
     1
 90
        6
176
     1
 90
        2
176
     1
 62
     7
176
     1
 90
        3
176
     1
 90
        0
176
     1
 90
        0
176
     1
290
     0
176
     1
 90
        1
176
     1
 40
0.0
176
     1
 90
        0
176
     1
290
     0
176
     1
290
     1
176
     1
290
     1
176
     1
290
     0
176
     1
290
     0
176
     1
290
     0
176
     1
290
     0
176
     1
290
     0
176
     1
290
     0
176
     1
 90
       50
176
     1
 40
0.0
176
     1
 40
1.0
176
     1
 90
        0
176
     1
 62
    18
420
        0
176
     1
 90
       50
176
     1
 90
        3
176
     1
 62
     5
420
      255
176
     1
290
     0
176
     1
 90
       50
176
     1
 90
       50
176
     1
 90
       50
176
     1
290
     0
176
     1
 90
       50
176
     1
 62
   256
176
     0
 40
1.0
176
     0
 90
        2
176
     1
  1
strokes_ogs.tif
176
     1
290
     0
176
     1
 40
1.0
176
     1
 40
1.0
176
     1
  0
VISUALSTYLE
  5
3F
102
{ACAD_REACTORS
330
2A
102
}
330
2A
100
AcDbVisualStyle
  2
Sketchy
 70
    24
177
     3
291
     0
 70
    58
 90
        1
176
     1
 90
        2
176
     1
 90
        2
176
     1
 90
        0
176
     1
 40
0.6
176
     1
 40
30.0
176
     1
 62
     7
420
 16777215
176
     1
 90
        2
176
     1
 90
        2
176
     1
 62
     7
176
     1
 62
     7
176
     1
 90
        1
176
     1
 90
        1
176
     1
 40
40.0
176
     1
 90
       11
176
     1
 62
     7
176
     1
 40
1.0
176
     1
 90
        1
176
     1
 90
        6
176
     1
 90
        2
176
     1
 62
     7
176
     1
 90
        6
176
     1
 90
        0
176
     1
 90
        0
176
     1
290
     0
176
     1
 90
        1
176
     1
 40
0.0
176
     1
 90
        0
176
     1
290
     0
176
     1
290
     1
176
     1
290
     1
176
     1
290
     0
176
     1
290
     0
176
     1
290
     0
176
     1
290
     0
176
     1
290
     0
176
     1
290
     0
176
     1
 90
       50
176
     1
 40
0.0
176
     1
 40
1.0
176
     1
 90
        0
176
     1
 62
    18
420
        0
176
     1
 90
       50
176
     1
 90
        3
176
     1
 62
     5
420
      255
176
     1
290
     0
176
     1
 90
       50
176
     1
 90
       50
176
     1
 90
       50
176
     1
290
     0
176
     1
 90
       50
176
     1
 62
   256
176
     0
 40
1.0
176
     0
 90
        2
176
     1
  1
strokes_ogs.tif
176
     1
290
     0
176
     1
 40
1.0
176
     1
 40
1.0
176
     1
  0
VISUALSTYLE
  5
37
102
{ACAD_REACTORS
330
2A
102
}
330
2A
100
AcDbVisualStyle
  2
Thicken
 70
    13
177
     3
291
     1
 70
    58
 90
        2
176
     1
 90
        2
176
     1
 90
        0
176
     1
 90
        0
176
     1
 40
0.6
176
     1
 40
30.0
176
     1
 62
     7
420
 16777215
176
     1
 90
        1
176
     1
 90
        4
176
     1
 62
     7
176
     1
 62
   257
176
     1
 90
        1
176
     1
 90
        1
176
     1
 40
1.0
176
     1
 90
       12
176
     1
 62
     7
176
     1
 40
1.0
176
     1
 90
        1
176
     1
 90
        6
176
     1
 90
        2
176
     1
 62
     7
176
     1
 90
        5
176
     1
 90
        0
176
     1
 90
        0
176
     1
290
     0
176
     1
 90
        1
176
     1
 40
0.0
176
     1
 90
        0
176
     1
290
     0
176
     1
290
     1
176
     1
290
     1
176
     1
290
     0
176
     1
290
     0
176
     1
290
     0
176
     1
290
     0
176
     1
290
     0
176
     1
290
     0
176
     1
 90
       50
176
     1
 40
0.0
176
     1
 40
1.0
176
     1
 90
        0
176
     1
 62
    18
420
        0
176
     1
 90
       50
176
     1
 90
        3
176
     1
 62
     5
420
      255
176
     1
290
     0
176
     1
 90
       50
176
     1
 90
       50
176
     1
 90
       50
176
     1
290
     0
176
     1
 90
       50
176
     1
 62
   256
176
     0
 40
1.0
176
     0
 90
        2
176
     1
  1
strokes_ogs.tif
176
     1
290
     0
176
     1
 40
1.0
176
     1
 40
1.0
176
     1
  0
VISUALSTYLE
  5
30
102
{ACAD_REACTORS
330
2A
102
}
330
2A
100
AcDbVisualStyle
  2
Wireframe
 70
     5
177
     3
291
     0
 70
    58
 90
        0
176
     1
 90
        2
176
     1
 90
        0
176
     1
 90
        0
176
     1
 40
0.6
176
     1
 40
30.0
176
     1
 62
     7
420
 16777215
176
     1
 90
        1
176
     1
 90
        4
176
     1
 62
     7
176
     1
 62
   257
176
     1
 90
        1
176
     1
 90
        1
176
     1
 40
1.0
176
     1
 90
        0
176
     1
 62
   257
176
     1
 40
1.0
176
     1
 90
        1
176
     1
 90
        6
176
     1
 90
        2
176
     1
 62
     7
176
     1
 90
        3
176
     1
 90
        0
176
     1
 90
        0
176
     1
290
     0
176
     1
 90
        1
176
     1
 40
0.0
176
     1
 90
        0
176
     1
290
     0
176
     1
290
     1
176
     1
290
     1
176
     1
290
     0
176
     1
290
     0
176
     1
290
     0
176
     1
290
     0
176
     1
290
     0
176
     1
290
     0
176
     1
 90
       50
176
     1
 40
0.0
176
     1
 40
1.0
176
     1
 90
        0
176
     1
 62
    18
420
        0
176
     1
 90
       50
176
     1
 90
        3
176
     1
 62
     5
420
      255
176
     1
290
     0
176
     1
 90
       50
176
     1
 90
       50
176
     1
 90
       50
176
     1
290
     0
176
     1
 90
       50
176
     1
 62
   256
176
     0
 40
1.0
176
     0
 90
        2
176
     1
  1
strokes_ogs.tif
176
     1
290
     0
176
     1
 40
1.0
176
     1
 40
1.0
176
     1
  0
VISUALSTYLE
  5
40
102
{ACAD_REACTORS
330
2A
102
}
330
2A
100
AcDbVisualStyle
  2
X-Ray
 70
    25
177
     3
291
     0
 70
    58
 90
        2
176
     1
 90
        2
176
     1
 90
        1
176
     1
 90
        1
176
     1
 40
0.5
176
     1
 40
30.0
176
     1
 62
     7
420
 16777215
176
     1
 90
        1
176
     1
 90
        0
176
     1
 62
     7
176
     1
 62
   257
176
     1
 90
        1
176
     1
 90
        1
176
     1
 40
1.0
176
     1
 90
        8
176
     1
 62
     7
176
     1
 40
1.0
176
     1
 90
        1
176
     1
 90
        6
176
     1
 90
        2
176
     1
 62
     7
176
     1
 90
        3
176
     1
 90
        0
176
     1
 90
        0
176
     1
290
     0
176
     1
 90
       13
176
     1
 40
0.0
176
     1
 90
        0
176
     1
290
     0
176
     1
290
     1
176
     1
290
     1
176
     1
290
     0
176
     1
290
     0
176
     1
290
     0
176
     1
290
     0
176
     1
290
     0
176
     1
290
     0
176
     1
 90
       50
176
     1
 40
0.0
176
     1
 40
1.0
176
     1
 90
        0
176
     1
 62
    18
420
        0
176
     1
 90
       50
176
     1
 90
        3
176
     1
 62
     5
420
      255
176
     1
290
     0
176
     1
 90
       50
176
     1
 90
       50
176
     1
 90
       50
176
     1
290
     0
176
     1
 90
       50
176
     1
 62
   256
176
     0
 40
1.0
176
     0
 90
        2
176
     1
  1
strokes_ogs.tif
176
     1
290
     0
176
     1
 40
1.0
176
     1
 40
1.0
176
     1
  0
DICTIONARYVAR
  5
1ED
102
{ACAD_REACTORS
330
1EC
102
}
330
1EC
100
DictionaryVariables
280
     0
  1
1:1
  0
DICTIONARYVAR
  5
1F2
102
{ACAD_REACTORS
330
1EC
102
}
330
1EC
100
DictionaryVariables
280
     0
  1
Standard
  0
DICTIONARYVAR
  5
1F1
102
{ACAD_REACTORS
330
1EC
102
}
330
1EC
100
DictionaryVariables
280
     0
  1
Standard
  0
DICTIONARY
  5
1EE
330
6A
100
AcDbDictionary
280
     1
281
     1
  3
ACAD_ROUNDTRIP_2008_TABLESTYLE_CELLSTYLEMAP
360
1EF
  0
CELLSTYLEMAP
  5
1EF
102
{ACAD_REACTORS
330
1EE
102
}
330
1EE
100
AcDbCellStyleMap
 90
        3
300
CELLSTYLE
  1
TABLEFORMAT_BEGIN
 90
        5
170
     1
 91
        0
 92
    32768
 62
   257
 93
        1
300
CONTENTFORMAT
  1
CONTENTFORMAT_BEGIN
 90
        0
 91
        0
 92
        4
 93
        0
300

 40
0.0
140
1.0
 94
        5
 62
     0
340
11
144
0.25
309
CONTENTFORMAT_END
171
     1
301
MARGIN
  1
CELLMARGIN_BEGIN
 40
0.06
 40
0.06
 40
0.06
 40
0.06
 40
0.06
 40
0.06
309
CELLMARGIN_END
 94
        6
 95
        1
302
GRIDFORMAT
  1
GRIDFORMAT_BEGIN
 90
        0
 91
        1
 62
     0
 92
       -2
340
14
 93
        0
 40
0.045
309
GRIDFORMAT_END
 95
        2
302
GRIDFORMAT
  1
GRIDFORMAT_BEGIN
 90
        0
 91
        1
 62
     0
 92
       -2
340
14
 93
        0
 40
0.045
309
GRIDFORMAT_END
 95
        4
302
GRIDFORMAT
  1
GRIDFORMAT_BEGIN
 90
        0
 91
        1
 62
     0
 92
       -2
340
14
 93
        0
 40
0.045
309
GRIDFORMAT_END
 95
        8
302
GRIDFORMAT
  1
GRIDFORMAT_BEGIN
 90
        0
 91
        1
 62
     0
 92
       -2
340
14
 93
        0
 40
0.045
309
GRIDFORMAT_END
 95
       16
302
GRIDFORMAT
  1
GRIDFORMAT_BEGIN
 90
        0
 91
        1
 62
     0
 92
       -2
340
14
 93
        0
 40
0.045
309
GRIDFORMAT_END
 95
       32
302
GRIDFORMAT
  1
GRIDFORMAT_BEGIN
 90
        0
 91
        1
 62
     0
 92
       -2
340
14
 93
        0
 40
0.045
309
GRIDFORMAT_END
309
TABLEFORMAT_END
  1
CELLSTYLE_BEGIN
 90
        1
 91
        1
300
_TITLE
309
CELLSTYLE_END
300
CELLSTYLE
  1
TABLEFORMAT_BEGIN
 90
        5
170
     1
 91
        0
 92
        0
 62
   257
 93
        1
300
CONTENTFORMAT
  1
CONTENTFORMAT_BEGIN
 90
        0
 91
        0
 92
        4
 93
        0
300

 40
0.0
140
1.0
 94
        5
 62
     0
340
11
144
0.18
309
CONTENTFORMAT_END
171
     1
301
MARGIN
  1
CELLMARGIN_BEGIN
 40
0.06
 40
0.06
 40
0.06
 40
0.06
 40
0.06
 40
0.06
309
CELLMARGIN_END
 94
        6
 95
        1
302
GRIDFORMAT
  1
GRIDFORMAT_BEGIN
 90
        0
 91
        1
 62
     0
 92
       -2
340
14
 93
        0
 40
0.045
309
GRIDFORMAT_END
 95
        2
302
GRIDFORMAT
  1
GRIDFORMAT_BEGIN
 90
        0
 91
        1
 62
     0
 92
       -2
340
14
 93
        0
 40
0.045
309
GRIDFORMAT_END
 95
        4
302
GRIDFORMAT
  1
GRIDFORMAT_BEGIN
 90
        0
 91
        1
 62
     0
 92
       -2
340
14
 93
        0
 40
0.045
309
GRIDFORMAT_END
 95
        8
302
GRIDFORMAT
  1
GRIDFORMAT_BEGIN
 90
        0
 91
        1
 62
     0
 92
       -2
340
14
 93
        0
 40
0.045
309
GRIDFORMAT_END
 95
       16
302
GRIDFORMAT
  1
GRIDFORMAT_BEGIN
 90
        0
 91
        1
 62
     0
 92
       -2
340
14
 93
        0
 40
0.045
309
GRIDFORMAT_END
 95
       32
302
GRIDFORMAT
  1
GRIDFORMAT_BEGIN
 90
        0
 91
        1
 62
     0
 92
       -2
340
14
 93
        0
 40
0.045
309
GRIDFORMAT_END
309
TABLEFORMAT_END
  1
CELLSTYLE_BEGIN
 90
        2
 91
        1
300
_HEADER
309
CELLSTYLE_END
300
CELLSTYLE
  1
TABLEFORMAT_BEGIN
 90
        5
170
     1
 91
        0
 92
        0
 62
   257
 93
        1
300
CONTENTFORMAT
  1
CONTENTFORMAT_BEGIN
 90
        0
 91
        0
 92
        4
 93
        0
300

 40
0.0
140
1.0
 94
        2
 62
     0
340
11
144
0.18
309
CONTENTFORMAT_END
171
     1
301
MARGIN
  1
CELLMARGIN_BEGIN
 40
0.06
 40
0.06
 40
0.06
 40
0.06
 40
0.06
 40
0.06
309
CELLMARGIN_END
 94
        6
 95
        1
302
GRIDFORMAT
  1
GRIDFORMAT_BEGIN
 90
        0
 91
        1
 62
     0
 92
       -2
340
14
 93
        0
 40
0.045
309
GRIDFORMAT_END
 95
        2
302
GRIDFORMAT
  1
GRIDFORMAT_BEGIN
 90
        0
 91
        1
 62
     0
 92
       -2
340
14
 93
        0
 40
0.045
309
GRIDFORMAT_END
 95
        4
302
GRIDFORMAT
  1
GRIDFORMAT_BEGIN
 90
        0
 91
        1
 62
     0
 92
       -2
340
14
 93
        0
 40
0.045
309
GRIDFORMAT_END
 95
        8
302
GRIDFORMAT
  1
GRIDFORMAT_BEGIN
 90
        0
 91
        1
 62
     0
 92
       -2
340
14
 93
        0
 40
0.045
309
GRIDFORMAT_END
 95
       16
302
GRIDFORMAT
  1
GRIDFORMAT_BEGIN
 90
        0
 91
        1
 62
     0
 92
       -2
340
14
 93
        0
 40
0.045
309
GRIDFORMAT_END
 95
       32
302
GRIDFORMAT
  1
GRIDFORMAT_BEGIN
 90
        0
 91
        1
 62
     0
 92
       -2
340
14
 93
        0
 40
0.045
309
GRIDFORMAT_END
309
TABLEFORMAT_END
  1
CELLSTYLE_BEGIN
 90
        3
 91
        2
300
_DATA
309
CELLSTYLE_END
  0
ENDSEC
  0
EOF