0
SECTION
  2
HEADER
  9
$ACADVER
  1
AC1027
  9
$ACADMAINTVER
 70
     8
  9
$DWGCODEPAGE
  3
ANSI_1252
  9
$REQUIREDVERSIONS
160
                 0
  9
$COMMENTS
  1
File was created by Cadenas
  9
$CUSTOMPROPERTYTAG
  1
NN
  9
$CUSTOMPROPERTY
  1
S-2000 Flange Bearing - Round Labyrinth Seal
  9
$CUSTOMPROPERTYTAG
  1
NT
  9
$CUSTOMPROPERTY
  1
S-2000 3 & 4 Bolt Round Flange Bearing -Inch
  9
$CUSTOMPROPERTYTAG
  1
NB
  9
$CUSTOMPROPERTY
  1
070497
  9
$CUSTOMPROPERTYTAG
  1
NBSYN
  9
$CUSTOMPROPERTY
  1
$PN.
  9
$CUSTOMPROPERTYTAG
  1
LINA
  9
$CUSTOMPROPERTY
  1
070497
  9
$CUSTOMPROPERTYTAG
  1
SS
  9
$CUSTOMPROPERTY
  1
1-15/16
  9
$CUSTOMPROPERTYTAG
  1
PN
  9
$CUSTOMPROPERTY
  1
070497
  9
$CUSTOMPROPERTYTAG
  1
DESCRIPTION
  9
$CUSTOMPROPERTY
  1
F4R-S2-115L
  9
$CUSTOMPROPERTYTAG
  1
EF
  9
$CUSTOMPROPERTY
  1
Non-Expansion Type
  9
$CUSTOMPROPERTYTAG
  1
ST
  9
$CUSTOMPROPERTY
  1
Labyrinth Seal
  9
$CUSTOMPROPERTYTAG
  1
A
  9
$CUSTOMPROPERTY
  1
2-27/32
  9
$CUSTOMPROPERTYTAG
  1
B
  9
$CUSTOMPROPERTY
  1
6-11/16
  9
$CUSTOMPROPERTYTAG
  1
C
  9
$CUSTOMPROPERTY
  1
3-9/64
  9
$CUSTOMPROPERTYTAG
  1
D
  9
$CUSTOMPROPERTY
  1
4-1/16
  9
$CUSTOMPROPERTYTAG
  1
DD
  9
$CUSTOMPROPERTY
  1
5-3/4
  9
$CUSTOMPROPERTYTAG
  1
E
  9
$CUSTOMPROPERTY
  1
1-59/64
  9
$CUSTOMPROPERTYTAG
  1
F
  9
$CUSTOMPROPERTY
  1
1/2
  9
$CUSTOMPROPERTYTAG
  1
H
  9
$CUSTOMPROPERTY
  1
9/16
  9
$CUSTOMPROPERTYTAG
  1
J
  9
$CUSTOMPROPERTY
  1
4-19/32
  9
$CUSTOMPROPERTYTAG
  1
L
  9
$CUSTOMPROPERTY
  1
3-7/16
  9
$CUSTOMPROPERTYTAG
  1
P
  9
$CUSTOMPROPERTY
  1
19/64
  9
$CUSTOMPROPERTYTAG
  1
X
  9
$CUSTOMPROPERTY
  1
1/4
  9
$CUSTOMPROPERTYTAG
  1
Y
  9
$CUSTOMPROPERTY
  1
0.020
  9
$CUSTOMPROPERTYTAG
  1
Z
  9
$CUSTOMPROPERTY
  1
2-19/64
  9
$CUSTOMPROPERTYTAG
  1
COMPANY
  9
$CUSTOMPROPERTY
  1
baldor
  9
$INSBASE
 10
0.0
 20
0.0
 30
0.0
  9
$EXTMIN
 10
1.000000000000000E+20
 20
1.000000000000000E+20
 30
1.000000000000000E+20
  9
$EXTMAX
 10
-1.000000000000000E+20
 20
-1.000000000000000E+20
 30
-1.000000000000000E+20
  9
$LIMMIN
 10
0.0
 20
0.0
  9
$LIMMAX
 10
12.0
 20
9.0
  9
$ORTHOMODE
 70
     0
  9
$REGENMODE
 70
     1
  9
$FILLMODE
 70
     1
  9
$QTEXTMODE
 70
     0
  9
$MIRRTEXT
 70
     1
  9
$LTSCALE
 40
1.0
  9
$ATTMODE
 70
     1
  9
$TEXTSIZE
 40
0.2
  9
$TRACEWID
 40
0.05
  9
$TEXTSTYLE
  7
Standard
  9
$CLAYER
  8
0
  9
$CELTYPE
  6
ByLayer
  9
$CECOLOR
 62
   256
  9
$CELTSCALE
 40
1.0
  9
$DISPSILH
 70
     0
  9
$DIMSCALE
 40
1.0
  9
$DIMASZ
 40
0.18
  9
$DIMEXO
 40
0.0625
  9
$DIMDLI
 40
0.38
  9
$DIMRND
 40
0.0
  9
$DIMDLE
 40
0.0
  9
$DIMEXE
 40
0.18
  9
$DIMTP
 40
0.0
  9
$DIMTM
 40
0.0
  9
$DIMTXT
 40
0.18
  9
$DIMCEN
 40
0.09
  9
$DIMTSZ
 40
0.0
  9
$DIMTOL
 70
     0
  9
$DIMLIM
 70
     0
  9
$DIMTIH
 70
     1
  9
$DIMTOH
 70
     1
  9
$DIMSE1
 70
     0
  9
$DIMSE2
 70
     0
  9
$DIMTAD
 70
     0
  9
$DIMZIN
 70
     0
  9
$DIMBLK
  1

  9
$DIMASO
 70
     1
  9
$DIMSHO
 70
     1
  9
$DIMPOST
  1

  9
$DIMAPOST
  1

  9
$DIMALT
 70
     0
  9
$DIMALTD
 70
     2
  9
$DIMALTF
 40
25.4
  9
$DIMLFAC
 40
1.0
  9
$DIMTOFL
 70
     0
  9
$DIMTVP
 40
0.0
  9
$DIMTIX
 70
     0
  9
$DIMSOXD
 70
     0
  9
$DIMSAH
 70
     0
  9
$DIMBLK1
  1

  9
$DIMBLK2
  1

  9
$DIMSTYLE
  2
Standard
  9
$DIMCLRD
 70
     0
  9
$DIMCLRE
 70
     0
  9
$DIMCLRT
 70
     0
  9
$DIMTFAC
 40
1.0
  9
$DIMGAP
 40
0.09
  9
$DIMJUST
 70
     0
  9
$DIMSD1
 70
     0
  9
$DIMSD2
 70
     0
  9
$DIMTOLJ
 70
     1
  9
$DIMTZIN
 70
     0
  9
$DIMALTZ
 70
     0
  9
$DIMALTTZ
 70
     0
  9
$DIMUPT
 70
     0
  9
$DIMDEC
 70
     4
  9
$DIMTDEC
 70
     4
  9
$DIMALTU
 70
     2
  9
$DIMALTTD
 70
     2
  9
$DIMTXSTY
  7
Standard
  9
$DIMAUNIT
 70
     0
  9
$DIMADEC
 70
     0
  9
$DIMALTRND
 40
0.0
  9
$DIMAZIN
 70
     0
  9
$DIMDSEP
 70
    46
  9
$DIMATFIT
 70
     3
  9
$DIMFRAC
 70
     0
  9
$DIMLDRBLK
  1

  9
$DIMLUNIT
 70
     2
  9
$DIMLWD
 70
    -2
  9
$DIMLWE
 70
    -2
  9
$DIMTMOVE
 70
     0
  9
$DIMFXL
 40
1.0
  9
$DIMFXLON
 70
     0
  9
$DIMJOGANG
 40
0.7853981633974483
  9
$DIMTFILL
 70
     0
  9
$DIMTFILLCLR
 70
     0
  9
$DIMARCSYM
 70
     0
  9
$DIMLTYPE
  6

  9
$DIMLTEX1
  6

  9
$DIMLTEX2
  6

  9
$DIMTXTDIRECTION
 70
     0
  9
$LUNITS
 70
     2
  9
$LUPREC
 70
     4
  9
$SKETCHINC
 40
0.1
  9
$FILLETRAD
 40
0.5
  9
$AUNITS
 70
     0
  9
$AUPREC
 70
     0
  9
$MENU
  1
.
  9
$ELEVATION
 40
0.0
  9
$PELEVATION
 40
0.0
  9
$THICKNESS
 40
0.0
  9
$LIMCHECK
 70
     0
  9
$CHAMFERA
 40
0.0
  9
$CHAMFERB
 40
0.0
  9
$CHAMFERC
 40
0.0
  9
$CHAMFERD
 40
0.0
  9
$SKPOLY
 70
     0
  9
$TDCREATE
 40
2458168.985759433
  9
$TDUCREATE
 40
2458168.944092766
  9
$TDUPDATE
 40
2458168.985759433
  9
$TDUUPDATE
 40
2458168.944092766
  9
$TDINDWG
 40
0.0000000116
  9
$TDUSRTIMER
 40
0.0000000116
  9
$USRTIMER
 70
     1
  9
$ANGBASE
 50
0.0
  9
$ANGDIR
 70
     0
  9
$PDMODE
 70
     0
  9
$PDSIZE
 40
0.0
  9
$PLINEWID
 40
0.0
  9
$SPLFRAME
 70
     0
  9
$SPLINETYPE
 70
     6
  9
$SPLINESEGS
 70
     8
  9
$HANDSEED
  5
1B7
  9
$SURFTAB1
 70
     6
  9
$SURFTAB2
 70
     6
  9
$SURFTYPE
 70
     6
  9
$SURFU
 70
     6
  9
$SURFV
 70
     6
  9
$UCSBASE
  2

  9
$UCSNAME
  2

  9
$UCSORG
 10
0.0
 20
0.0
 30
0.0
  9
$UCSXDIR
 10
1.0
 20
0.0
 30
0.0
  9
$UCSYDIR
 10
0.0
 20
1.0
 30
0.0
  9
$UCSORTHOREF
  2

  9
$UCSORTHOVIEW
 70
     0
  9
$UCSORGTOP
 10
0.0
 20
0.0
 30
0.0
  9
$UCSORGBOTTOM
 10
0.0
 20
0.0
 30
0.0
  9
$UCSORGLEFT
 10
0.0
 20
0.0
 30
0.0
  9
$UCSORGRIGHT
 10
0.0
 20
0.0
 30
0.0
  9
$UCSORGFRONT
 10
0.0
 20
0.0
 30
0.0
  9
$UCSORGBACK
 10
0.0
 20
0.0
 30
0.0
  9
$PUCSBASE
  2

  9
$PUCSNAME
  2

  9
$PUCSORG
 10
0.0
 20
0.0
 30
0.0
  9
$PUCSXDIR
 10
1.0
 20
0.0
 30
0.0
  9
$PUCSYDIR
 10
0.0
 20
1.0
 30
0.0
  9
$PUCSORTHOREF
  2

  9
$PUCSORTHOVIEW
 70
     0
  9
$PUCSORGTOP
 10
0.0
 20
0.0
 30
0.0
  9
$PUCSORGBOTTOM
 10
0.0
 20
0.0
 30
0.0
  9
$PUCSORGLEFT
 10
0.0
 20
0.0
 30
0.0
  9
$PUCSORGRIGHT
 10
0.0
 20
0.0
 30
0.0
  9
$PUCSORGFRONT
 10
0.0
 20
0.0
 30
0.0
  9
$PUCSORGBACK
 10
0.0
 20
0.0
 30
0.0
  9
$USERI1
 70
     0
  9
$USERI2
 70
     0
  9
$USERI3
 70
     0
  9
$USERI4
 70
     0
  9
$USERI5
 70
     0
  9
$USERR1
 40
0.0
  9
$USERR2
 40
0.0
  9
$USERR3
 40
0.0
  9
$USERR4
 40
0.0
  9
$USERR5
 40
0.0
  9
$WORLDVIEW
 70
     1
  9
$SHADEDGE
 70
     3
  9
$SHADEDIF
 70
    70
  9
$TILEMODE
 70
     1
  9
$MAXACTVP
 70
    64
  9
$PINSBASE
 10
0.0
 20
0.0
 30
0.0
  9
$PLIMCHECK
 70
     0
  9
$PEXTMIN
 10
1.000000000000000E+20
 20
1.000000000000000E+20
 30
1.000000000000000E+20
  9
$PEXTMAX
 10
-1.000000000000000E+20
 20
-1.000000000000000E+20
 30
-1.000000000000000E+20
  9
$PLIMMIN
 10
0.0
 20
0.0
  9
$PLIMMAX
 10
12.0
 20
9.0
  9
$UNITMODE
 70
     0
  9
$VISRETAIN
 70
     1
  9
$PLINEGEN
 70
     0
  9
$PSLTSCALE
 70
     1
  9
$TREEDEPTH
 70
  3020
  9
$CMLSTYLE
  2
Standard
  9
$CMLJUST
 70
     0
  9
$CMLSCALE
 40
1.0
  9
$PROXYGRAPHICS
 70
     1
  9
$MEASUREMENT
 70
     0
  9
$CELWEIGHT
370
    -1
  9
$ENDCAPS
280
     0
  9
$JOINSTYLE
280
     0
  9
$LWDISPLAY
290
     0
  9
$INSUNITS
 70
     1
  9
$HYPERLINKBASE
  1

  9
$STYLESHEET
  1

  9
$XEDIT
290
     1
  9
$CEPSNTYPE
380
     0
  9
$PSTYLEMODE
290
     1
  9
$FINGERPRINTGUID
  2
{58AC62F6-E6B3-4409-9446-D9D7D6263203}
  9
$VERSIONGUID
  2
{FAEB1C32-E019-11D5-929B-00C0DF256EC4}
  9
$EXTNAMES
290
     1
  9
$PSVPSCALE
 40
0.0
  9
$OLESTARTUP
290
     0
  9
$SORTENTS
280
   127
  9
$INDEXCTL
280
     0
  9
$HIDETEXT
280
     1
  9
$XCLIPFRAME
280
     2
  9
$HALOGAP
280
     0
  9
$OBSCOLOR
 70
   257
  9
$OBSLTYPE
280
     0
  9
$INTERSECTIONDISPLAY
280
     0
  9
$INTERSECTIONCOLOR
 70
   257
  9
$DIMASSOC
280
     2
  9
$PROJECTNAME
  1

  9
$CAMERADISPLAY
290
     0
  9
$LENSLENGTH
 40
50.0
  9
$CAMERAHEIGHT
 40
0.0
  9
$STEPSPERSEC
 40
2.0
  9
$STEPSIZE
 40
6.0
  9
$3DDWFPREC
 40
2.0
  9
$PSOLWIDTH
 40
0.25
  9
$PSOLHEIGHT
 40
4.0
  9
$LOFTANG1
 40
1.570796326794897
  9
$LOFTANG2
 40
1.570796326794897
  9
$LOFTMAG1
 40
0.0
  9
$LOFTMAG2
 40
0.0
  9
$LOFTPARAM
 70
     7
  9
$LOFTNORMALS
280
     1
  9
$LATITUDE
 40
37.795
  9
$LONGITUDE
 40
-122.394
  9
$NORTHDIRECTION
 40
0.0
  9
$TIMEZONE
 70
 -8000
  9
$LIGHTGLYPHDISPLAY
280
     1
  9
$TILEMODELIGHTSYNCH
280
     1
  9
$CMATERIAL
347
44
  9
$SOLIDHIST
280
     0
  9
$SHOWHIST
280
     1
  9
$DWFFRAME
280
     2
  9
$DGNFRAME
280
     2
  9
$REALWORLDSCALE
290
     1
  9
$INTERFERECOLOR
 62
   256
  9
$CSHADOW
280
     0
  9
$SHADOWPLANELOCATION
 40
0.0
  0
ENDSEC
  0
SECTION
  2
CLASSES
  0
CLASS
  1
ACDBDICTIONARYWDFLT
  2
AcDbDictionaryWithDefault
  3
ObjectDBX Classes
 90
        0
 91
        4
280
     0
281
     0
  0
CLASS
  1
VISUALSTYLE
  2
AcDbVisualStyle
  3
ObjectDBX Classes
 90
     4095
 91
        4
280
     0
281
     0
  0
CLASS
  1
MATERIAL
  2
AcDbMaterial
  3
ObjectDBX Classes
 90
     1153
 91
        4
280
     0
281
     0
  0
CLASS
  1
SCALE
  2
AcDbScale
  3
ObjectDBX Classes
 90
     1153
 91
        4
280
     0
281
     0
  0
CLASS
  1
TABLESTYLE
  2
AcDbTableStyle
  3
ObjectDBX Classes
 90
     4095
 91
        4
280
     0
281
     0
  0
CLASS
  1
MLEADERSTYLE
  2
AcDbMLeaderStyle
  3
ACDB_MLEADERSTYLE_CLASS
 90
     4095
 91
        4
280
     0
281
     0
  0
CLASS
  1
SUN
  2
AcDbSun
  3
SCENEOE
 90
     1153
 91
        4
280
     0
281
     0
  0
CLASS
  1
DICTIONARYVAR
  2
AcDbDictionaryVar
  3
ObjectDBX Classes
 90
        0
 91
        4
280
     0
281
     0
  0
CLASS
  1
CELLSTYLEMAP
  2
AcDbCellStyleMap
  3
ObjectDBX Classes
 90
     1152
 91
        4
280
     0
281
     0
  0
ENDSEC
  0
SECTION
  2
TABLES
  0
TABLE
  2
VPORT
  5
8
330
0
100
AcDbSymbolTable
 70
     1
  0
VPORT
  5
29
330
8
100
AcDbSymbolTableRecord
100
AcDbViewportTableRecord
  2
*Active
 70
     0
 10
0.0
 20
0.0
 11
1.0
 21
1.0
 12
0.0
 22
-1.34496875
 13
0.0
 23
0.0
 14
0.5
 24
0.5
 15
0.5
 25
0.5
 16
0.0
 26
0.0
 36
1.0
 17
0.0
 27
0.0
 37
0.0
 40
3.953201250000001
 41
1.725500314460337
 42
50.0
 43
0.0
 44
0.0
 50
0.0
 51
0.0
 71
     0
 72
   100
 73
     1
 74
     3
 75
     0
 76
     0
 77
     0
 78
     0
281
     0
 65
     1
110
0.0
120
0.0
130
0.0
111
1.0
121
0.0
131
0.0
112
0.0
122
1.0
132
0.0
 79
     0
146
0.0
348
2F
 60
     3
 61
     5
292
     1
282
     1
141
0.0
142
0.0
 63
   250
361
6D
  0
ENDTAB
  0
TABLE
  2
LTYPE
  5
5
330
0
100
AcDbSymbolTable
 70
     3
  0
LTYPE
  5
14
330
5
100
AcDbSymbolTableRecord
100
AcDbLinetypeTableRecord
  2
ByBlock
 70
     0
  3

 72
    65
 73
     0
 40
0.0
  0
LTYPE
  5
15
330
5
100
AcDbSymbolTableRecord
100
AcDbLinetypeTableRecord
  2
ByLayer
 70
     0
  3

 72
    65
 73
     0
 40
0.0
  0
LTYPE
  5
16
330
5
100
AcDbSymbolTableRecord
100
AcDbLinetypeTableRecord
  2
Continuous
 70
     0
  3
Solid line
 72
    65
 73
     0
 40
0.0
  0
LTYPE
  5
A5
330
5
100
AcDbSymbolTableRecord
100
AcDbLinetypeTableRecord
  2
Dashed
 70
     0
  3

 72
    65
 73
     2
 40
2.0
 49
1.0
 74
     0
 49
-1.0
 74
     0
  0
LTYPE
  5
B9
330
5
100
AcDbSymbolTableRecord
100
AcDbLinetypeTableRecord
  2
Center
 70
     0
  3

 72
    65
 73
     4
 40
1.5
 49
0.45
 74
     0
 49
-0.5
 74
     0
 49
0.05
 74
     0
 49
-0.5
 74
     0
  0
ENDTAB
  0
TABLE
  2
LAYER
  5
2
330
0
100
AcDbSymbolTable
 70
     7
  0
LAYER
  5
10
330
2
100
AcDbSymbolTableRecord
100
AcDbLayerTableRecord
  2
0
 70
     0
 62
     7
  6
Continuous
370
    -3
390
F
347
46
348
0
  0
LAYER
  5
72
330
2
100
AcDbSymbolTableRecord
100
AcDbLayerTableRecord
  2
AM_6
 70
     0
 62
    -2
  6
Continuous
370
    35
390
F
347
46
348
0
  0
LAYER
  5
A6
330
2
100
AcDbSymbolTableRecord
100
AcDbLayerTableRecord
  2
AM_9
 70
     0
 62
     6
  6
Dashed
370
    25
390
F
347
46
348
0
  0
LAYER
  5
BA
330
2
100
AcDbSymbolTableRecord
100
AcDbLayerTableRecord
  2
AM_7
 70
     0
 62
     7
  6
Center
370
    25
390
F
347
46
348
0
  0
LAYER
  5
BC
330
2
100
AcDbSymbolTableRecord
100
AcDbLayerTableRecord
  2
AM_4
 70
     0
 62
     7
  6
Continuous
370
    50
390
F
347
46
348
0
  0
LAYER
  5
D1
330
2
100
AcDbSymbolTableRecord
100
AcDbLayerTableRecord
  2
AM_5
 70
     0
 62
     3
  6
Continuous
370
    25
390
F
347
46
348
0
  0
LAYER
  5
1A6
330
2
100
AcDbSymbolTableRecord
100
AcDbLayerTableRecord
  2
ConnectionPoints
 70
     0
 62
     7
  6
Continuous
370
    50
390
F
347
46
348
0
  0
ENDTAB
  0
TABLE
  2
STYLE
  5
3
330
0
100
AcDbSymbolTable
 70
     1
  0
STYLE
  5
11
330
3
100
AcDbSymbolTableRecord
100
AcDbTextStyleTableRecord
  2
Standard
 70
     0
 40
0.0
 41
1.0
 50
0.0
 71
     0
 42
0.2
  3
txt
  4

  0
ENDTAB
  0
TABLE
  2
VIEW
  5
6
330
0
100
AcDbSymbolTable
 70
     0
  0
ENDTAB
  0
TABLE
  2
UCS
  5
7
330
0
100
AcDbSymbolTable
 70
     0
  0
ENDTAB
  0
TABLE
  2
APPID
  5
9
330
0
100
AcDbSymbolTable
 70
     1
  0
APPID
  5
12
330
9
100
AcDbSymbolTableRecord
100
AcDbRegAppTableRecord
  2
ACAD
 70
     0
  0
ENDTAB
  0
TABLE
  2
DIMSTYLE
  5
A
330
0
100
AcDbSymbolTable
 70
     1
100
AcDbDimStyleTable
  0
DIMSTYLE
105
27
330
A
100
AcDbSymbolTableRecord
100
AcDbDimStyleTableRecord
  2
Standard
 70
     0
178
     0
340
11
  0
ENDTAB
  0
TABLE
  2
BLOCK_RECORD
  5
1
330
0
100
AcDbSymbolTable
 70
     6
  0
BLOCK_RECORD
  5
1F
330
1
100
AcDbSymbolTableRecord
100
AcDbBlockTableRecord
  2
*Model_Space
340
22
 70
     0
280
     1
281
     0
  0
BLOCK_RECORD
  5
1B
330
1
100
AcDbSymbolTableRecord
100
AcDbBlockTableRecord
  2
*Paper_Space
340
1E
 70
     0
280
     1
281
     0
  0
BLOCK_RECORD
  5
23
330
1
100
AcDbSymbolTableRecord
100
AcDbBlockTableRecord
  2
*Paper_Space0
340
26
 70
     0
280
     1
281
     0
  0
BLOCK_RECORD
  5
6E
330
1
100
AcDbSymbolTableRecord
100
AcDbBlockTableRecord
  2
1_070497_4
340
0
102
{BLKREFS
331
6F
102
}
 70
     0
280
     1
281
     0
  0
BLOCK_RECORD
  5
8C
330
1
100
AcDbSymbolTableRecord
100
AcDbBlockTableRecord
  2
2_1_15_16CS2i_0_in_070497_4
340
0
102
{BLKREFS
331
8D
102
}
 70
     0
280
     1
281
     0
  0
BLOCK_RECORD
  5
D3
330
1
100
AcDbSymbolTableRecord
100
AcDbBlockTableRecord
  2
3_070021i_0_in_070497_4
340
0
102
{BLKREFS
331
D4
102
}
 70
     0
280
     1
281
     0
  0
BLOCK_RECORD
  5
129
330
1
100
AcDbSymbolTableRecord
100
AcDbBlockTableRecord
  2
4_405015E_Inch_0_in_070497_4
340
0
102
{BLKREFS
331
12A
102
}
 70
     0
280
     1
281
     0
  0
BLOCK_RECORD
  5
147
330
1
100
AcDbSymbolTableRecord
100
AcDbBlockTableRecord
  2
5_070497H_0_in_070497_4
340
0
102
{BLKREFS
331
148
102
}
 70
     0
280
     1
281
     0
  0
ENDTAB
  0
ENDSEC
  0
SECTION
  2
BLOCKS
  0
BLOCK
  5
20
330
1F
100
AcDbEntity
  8
0
100
AcDbBlockBegin
  2
*Model_Space
 70
     0
 10
0.0
 20
0.0
 30
0.0
  3
*Model_Space
  1

  0
ENDBLK
  5
21
330
1F
100
AcDbEntity
  8
0
100
AcDbBlockEnd
  0
BLOCK
  5
1C
330
1B
100
AcDbEntity
 67
     1
  8
0
100
AcDbBlockBegin
  2
*Paper_Space
 70
     0
 10
0.0
 20
0.0
 30
0.0
  3
*Paper_Space
  1

  0
ENDBLK
  5
1D
330
1B
100
AcDbEntity
 67
     1
  8
0
100
AcDbBlockEnd
  0
BLOCK
  5
24
330
23
100
AcDbEntity
  8
0
100
AcDbBlockBegin
  2
*Paper_Space0
 70
     0
 10
0.0
 20
0.0
 30
0.0
  3
*Paper_Space0
  1

  0
ENDBLK
  5
25
330
23
100
AcDbEntity
  8
0
100
AcDbBlockEnd
  0
BLOCK
  5
70
330
6E
100
AcDbEntity
  8
0
100
AcDbBlockBegin
  2
1_070497_4
 70
     2
 10
0.0
 20
0.0
 30
0.0
  3
1_070497_4
  1

  0
ATTDEF
  5
73
330
6E
100
AcDbEntity
  8
AM_6
100
AcDbText
 10
8.34375
 20
0.09609375
 30
0.0
 40
0.5
  1
S-2000 Flange Bearing - Round Labyrinth Seal
100
AcDbAttributeDefinition
  3

  2
NN
 70
     8
280
     0
  0
ATTDEF
  5
74
330
6E
100
AcDbEntity
  8
AM_6
100
AcDbText
 10
8.34375
 20
-0.40390625
 30
0.0
 40
0.5
  1
S-2000 3 & 4 Bolt Round Flange Bearing -Inch
100
AcDbAttributeDefinition
  3

  2
NT
 70
     8
280
     0
  0
ATTDEF
  5
75
330
6E
100
AcDbEntity
  8
AM_6
100
AcDbText
 10
8.34375
 20
-0.90390625
 30
0.0
 40
0.5
  1
070497
100
AcDbAttributeDefinition
  3

  2
NB
 70
     8
280
     0
  0
ATTDEF
  5
76
330
6E
100
AcDbEntity
  8
AM_6
100
AcDbText
 10
8.34375
 20
-1.40390625
 30
0.0
 40
0.5
  1
$PN.
100
AcDbAttributeDefinition
  3

  2
NBSYN
 70
     8
280
     0
  0
ATTDEF
  5
77
330
6E
100
AcDbEntity
  8
AM_6
100
AcDbText
 10
8.34375
 20
-1.90390625
 30
0.0
 40
0.5
  1
070497
100
AcDbAttributeDefinition
  3

  2
LINA
 70
     8
280
     0
  0
ATTDEF
  5
78
330
6E
100
AcDbEntity
  8
AM_6
100
AcDbText
 10
8.34375
 20
-2.40390625
 30
0.0
 40
0.5
  1
1-15/16
100
AcDbAttributeDefinition
  3

  2
SS
 70
     8
280
     0
  0
ATTDEF
  5
79
330
6E
100
AcDbEntity
  8
AM_6
100
AcDbText
 10
8.34375
 20
-2.90390625
 30
0.0
 40
0.5
  1
070497
100
AcDbAttributeDefinition
  3

  2
PN
 70
     8
280
     0
  0
ATTDEF
  5
7A
330
6E
100
AcDbEntity
  8
AM_6
100
AcDbText
 10
8.34375
 20
-3.40390625
 30
0.0
 40
0.5
  1
F4R-S2-115L
100
AcDbAttributeDefinition
  3

  2
DESCRIPTION
 70
     8
280
     0
  0
ATTDEF
  5
7B
330
6E
100
AcDbEntity
  8
AM_6
100
AcDbText
 10
8.34375
 20
-3.90390625
 30
0.0
 40
0.5
  1
Non-Expansion Type
100
AcDbAttributeDefinition
  3

  2
EF
 70
     8
280
     0
  0
ATTDEF
  5
7C
330
6E
100
AcDbEntity
  8
AM_6
100
AcDbText
 10
8.34375
 20
-4.40390625
 30
0.0
 40
0.5
  1
Labyrinth Seal
100
AcDbAttributeDefinition
  3

  2
ST
 70
     8
280
     0
  0
ATTDEF
  5
7D
330
6E
100
AcDbEntity
  8
AM_6
100
AcDbText
 10
8.34375
 20
-4.90390625
 30
0.0
 40
0.5
  1
2-27/32
100
AcDbAttributeDefinition
  3

  2
A
 70
     8
280
     0
  0
ATTDEF
  5
7E
330
6E
100
AcDbEntity
  8
AM_6
100
AcDbText
 10
8.34375
 20
-5.40390625
 30
0.0
 40
0.5
  1
6-11/16
100
AcDbAttributeDefinition
  3

  2
B
 70
     8
280
     0
  0
ATTDEF
  5
7F
330
6E
100
AcDbEntity
  8
AM_6
100
AcDbText
 10
8.34375
 20
-5.90390625
 30
0.0
 40
0.5
  1
3-9/64
100
AcDbAttributeDefinition
  3

  2
C
 70
     8
280
     0
  0
ATTDEF
  5
80
330
6E
100
AcDbEntity
  8
AM_6
100
AcDbText
 10
8.34375
 20
-6.40390625
 30
0.0
 40
0.5
  1
4-1/16
100
AcDbAttributeDefinition
  3

  2
D
 70
     8
280
     0
  0
ATTDEF
  5
81
330
6E
100
AcDbEntity
  8
AM_6
100
AcDbText
 10
8.34375
 20
-6.90390625
 30
0.0
 40
0.5
  1
5-3/4
100
AcDbAttributeDefinition
  3

  2
DD
 70
     8
280
     0
  0
ATTDEF
  5
82
330
6E
100
AcDbEntity
  8
AM_6
100
AcDbText
 10
8.34375
 20
-7.40390625
 30
0.0
 40
0.5
  1
1-59/64
100
AcDbAttributeDefinition
  3

  2
E
 70
     8
280
     0
  0
ATTDEF
  5
83
330
6E
100
AcDbEntity
  8
AM_6
100
AcDbText
 10
8.34375
 20
-7.90390625
 30
0.0
 40
0.5
  1
1/2
100
AcDbAttributeDefinition
  3

  2
F
 70
     8
280
     0
  0
ATTDEF
  5
84
330
6E
100
AcDbEntity
  8
AM_6
100
AcDbText
 10
8.34375
 20
-8.40390625
 30
0.0
 40
0.5
  1
9/16
100
AcDbAttributeDefinition
  3

  2
H
 70
     8
280
     0
  0
ATTDEF
  5
85
330
6E
100
AcDbEntity
  8
AM_6
100
AcDbText
 10
8.34375
 20
-8.90390625
 30
0.0
 40
0.5
  1
4-19/32
100
AcDbAttributeDefinition
  3

  2
J
 70
     8
280
     0
  0
ATTDEF
  5
86
330
6E
100
AcDbEntity
  8
AM_6
100
AcDbText
 10
8.34375
 20
-9.40390625
 30
0.0
 40
0.5
  1
3-7/16
100
AcDbAttributeDefinition
  3

  2
L
 70
     8
280
     0
  0
ATTDEF
  5
87
330
6E
100
AcDbEntity
  8
AM_6
100
AcDbText
 10
8.34375
 20
-9.90390625
 30
0.0
 40
0.5
  1
19/64
100
AcDbAttributeDefinition
  3

  2
P
 70
     8
280
     0
  0
ATTDEF
  5
88
330
6E
100
AcDbEntity
  8
AM_6
100
AcDbText
 10
8.34375
 20
-10.40390625
 30
0.0
 40
0.5
  1
1/4
100
AcDbAttributeDefinition
  3

  2
X
 70
     8
280
     0
  0
ATTDEF
  5
89
330
6E
100
AcDbEntity
  8
AM_6
100
AcDbText
 10
8.34375
 20
-10.90390625
 30
0.0
 40
0.5
  1
0.020
100
AcDbAttributeDefinition
  3

  2
Y
 70
     8
280
     0
  0
ATTDEF
  5
8A
330
6E
100
AcDbEntity
  8
AM_6
100
AcDbText
 10
8.34375
 20
-11.40390625
 30
0.0
 40
0.5
  1
2-19/64
100
AcDbAttributeDefinition
  3

  2
Z
 70
     8
280
     0
  0
ATTDEF
  5
8B
330
6E
100
AcDbEntity
  8
AM_6
100
AcDbText
 10
8.34375
 20
-11.90390625
 30
0.0
 40
0.5
  1
baldor
100
AcDbAttributeDefinition
  3

  2
COMPANY
 70
     8
280
     0
  0
INSERT
  5
8D
330
6E
100
AcDbEntity
  8
0
100
AcDbBlockReference
  2
2_1_15_16CS2i_0_in_070497_4
 10
0.0
 20
0.0
 30
0.0
  0
INSERT
  5
D4
330
6E
100
AcDbEntity
  8
0
100
AcDbBlockReference
  2
3_070021i_0_in_070497_4
 10
0.0
 20
0.0
 30
0.0
  0
INSERT
  5
12A
330
6E
100
AcDbEntity
  8
0
100
AcDbBlockReference
  2
4_405015E_Inch_0_in_070497_4
 10
0.0
 20
0.0
 30
0.0
  0
INSERT
  5
148
330
6E
100
AcDbEntity
  8
0
100
AcDbBlockReference
  2
5_070497H_0_in_070497_4
 10
0.0
 20
0.0
 30
0.0
  0
ENDBLK
  5
71
330
6E
100
AcDbEntity
  8
0
100
AcDbBlockEnd
  0
BLOCK
  5
8E
330
8C
100
AcDbEntity
  8
0
100
AcDbBlockBegin
  2
2_1_15_16CS2i_0_in_070497_4
 70
     2
 10
0.0
 20
0.0
 30
0.0
  3
2_1_15_16CS2i_0_in_070497_4
  1

  0
ATTDEF
  5
90
330
8C
100
AcDbEntity
  8
AM_6
100
AcDbText
 10
6.71875
 20
-2.506625
 30
0.0
 40
0.5
  1
S-2000 Collar -Inch
100
AcDbAttributeDefinition
  3

  2
NN
 70
     8
280
     0
  0
ATTDEF
  5
91
330
8C
100
AcDbEntity
  8
AM_6
100
AcDbText
 10
6.71875
 20
-3.006625
 30
0.0
 40
0.5
  1
S-2000 Bearings
100
AcDbAttributeDefinition
  3

  2
NT
 70
     8
280
     0
  0
ATTDEF
  5
92
330
8C
100
AcDbEntity
  8
AM_6
100
AcDbText
 10
6.71875
 20
-3.506625
 30
0.0
 40
0.5
  1
1-15/16CS2i
100
AcDbAttributeDefinition
  3

  2
NB
 70
     8
280
     0
  0
ATTDEF
  5
93
330
8C
100
AcDbEntity
  8
AM_6
100
AcDbText
 10
6.71875
 20
-4.006625
 30
0.0
 40
0.5
  1
$BORE.CS2i
100
AcDbAttributeDefinition
  3

  2
NBSYN
 70
     8
280
     0
  0
ATTDEF
  5
94
330
8C
100
AcDbEntity
  8
AM_6
100
AcDbText
 10
6.71875
 20
-4.506625
 30
0.0
 40
0.5
  1
1-15/16CS2i
100
AcDbAttributeDefinition
  3

  2
LINA
 70
     8
280
     0
  0
ATTDEF
  5
95
330
8C
100
AcDbEntity
  8
AM_6
100
AcDbText
 10
6.71875
 20
-5.006625
 30
0.0
 40
0.5
  1
1-15/16
100
AcDbAttributeDefinition
  3

  2
BORE
 70
     8
280
     0
  0
ATTDEF
  5
96
330
8C
100
AcDbEntity
  8
AM_6
100
AcDbText
 10
6.71875
 20
-5.506625
 30
0.0
 40
0.5
  1
1.937500
100
AcDbAttributeDefinition
  3

  2
BORE1
 70
     8
280
     0
  0
ATTDEF
  5
97
330
8C
100
AcDbEntity
  8
AM_6
100
AcDbText
 10
6.71875
 20
-6.006625
 30
0.0
 40
0.5
  1
3-7/16
100
AcDbAttributeDefinition
  3

  2
L1
 70
     8
280
     0
  0
ATTDEF
  5
98
330
8C
100
AcDbEntity
  8
AM_6
100
AcDbText
 10
6.71875
 20
-6.506625
 30
0.0
 40
0.5
  1
3.43750
100
AcDbAttributeDefinition
  3

  2
L
 70
     8
280
     0
  0
ATTDEF
  5
99
330
8C
100
AcDbEntity
  8
AM_6
100
AcDbText
 10
6.71875
 20
-7.006625
 30
0.0
 40
0.5
  1
3.34375
100
AcDbAttributeDefinition
  3

  2
L2
 70
     8
280
     0
  0
ATTDEF
  5
9A
330
8C
100
AcDbEntity
  8
AM_6
100
AcDbText
 10
6.71875
 20
-7.506625
 30
0.0
 40
0.5
  1
3.50
100
AcDbAttributeDefinition
  3

  2
A
 70
     8
280
     0
  0
ATTDEF
  5
9B
330
8C
100
AcDbEntity
  8
AM_6
100
AcDbText
 10
6.71875
 20
-8.006625
 30
0.0
 40
0.5
  1
1.62
100
AcDbAttributeDefinition
  3

  2
B
 70
     8
280
     0
  0
ATTDEF
  5
9C
330
8C
100
AcDbEntity
  8
AM_6
100
AcDbText
 10
6.71875
 20
-8.506625
 30
0.0
 40
0.5
  1
2.31
100
AcDbAttributeDefinition
  3

  2
C
 70
     8
280
     0
  0
ATTDEF
  5
9D
330
8C
100
AcDbEntity
  8
AM_6
100
AcDbText
 10
6.71875
 20
-9.006625
 30
0.0
 40
0.5
  1
3.50
100
AcDbAttributeDefinition
  3

  2
D
 70
     8
280
     0
  0
ATTDEF
  5
9E
330
8C
100
AcDbEntity
  8
AM_6
100
AcDbText
 10
6.71875
 20
-9.506625
 30
0.0
 40
0.5
  1
0.41
100
AcDbAttributeDefinition
  3

  2
E
 70
     8
280
     0
  0
ATTDEF
  5
9F
330
8C
100
AcDbEntity
  8
AM_6
100
AcDbText
 10
6.71875
 20
-10.006625
 30
0.0
 40
0.5
  1
0.317
100
AcDbAttributeDefinition
  3

  2
F
 70
     8
280
     0
  0
ATTDEF
  5
A0
330
8C
100
AcDbEntity
  8
AM_6
100
AcDbText
 10
6.71875
 20
-10.506625
 30
0.0
 40
0.5
  1
3/8-16
100
AcDbAttributeDefinition
  3

  2
CS
 70
     8
280
     0
  0
ATTDEF
  5
A1
330
8C
100
AcDbEntity
  8
AM_6
100
AcDbText
 10
6.71875
 20
-11.006625
 30
0.0
 40
0.5
  1
0.3750
100
AcDbAttributeDefinition
  3

  2
NDM
 70
     8
280
     0
  0
ATTDEF
  5
A2
330
8C
100
AcDbEntity
  8
AM_6
100
AcDbText
 10
6.71875
 20
-11.506625
 30
0.0
 40
0.5
  1
0.3070
100
AcDbAttributeDefinition
  3

  2
KDM
 70
     8
280
     0
  0
ATTDEF
  5
A3
330
8C
100
AcDbEntity
  8
AM_6
100
AcDbText
 10
6.71875
 20
-12.006625
 30
0.0
 40
0.5
  1
1
100
AcDbAttributeDefinition
  3

  2
DD
 70
     8
280
     0
  0
ATTDEF
  5
A4
330
8C
100
AcDbEntity
  8
AM_6
100
AcDbText
 10
6.71875
 20
-12.506625
 30
0.0
 40
0.5
  1
baldor
100
AcDbAttributeDefinition
  3

  2
COMPANY
 70
     8
280
     0
  0
LINE
  5
A7
330
8C
100
AcDbEntity
  8
AM_9
100
AcDbLine
 10
1.08508614371301
 20
-2.687702735467822
 30
0.0
 11
1.076997389759955
 21
-2.677613741167169
 31
0.0
  0
LINE
  5
A8
330
8C
100
AcDbEntity
  8
AM_9
100
AcDbLine
 10
1.077120261777039
 20
-2.969483002214163
 30
0.0
 11
1.08508614371301
 21
-2.959547264532177
 31
0.0
  0
LWPOLYLINE
  5
A9
330
8C
100
AcDbEntity
  8
AM_9
100
AcDbPolyline
 90
       26
 70
     0
 43
0.0
 10
1.076987415272908
 20
-2.677601300147691
 10
1.076852235758493
 20
-2.677433271443683
 10
1.066433355219567
 20
-2.667515951590958
 10
1.054569711275849
 20
-2.662056658753938
 10
1.041676102772174
 20
-2.661503450119003
 10
1.0278006900604
 20
-2.666131840884039
 10
1.014038820784716
 20
-2.675691241238508
 10
1.000232460804837
 20
-2.690541029846858
 10
0.9880164549976764
 20
-2.709097928206744
 10
0.9769926350917173
 20
-2.732365925088391
 10
0.9689390062781561
 20
-2.756671936794463
 10
0.9631497418277855
 20
-2.784240795223777
 10
0.9605459597630555
 20
-2.809866475393425
 10
0.9605148356925725
 20
-2.836772638067584
 10
0.9628511797623118
 20
-2.860992107552379
 10
0.9674605839073526
 20
-2.884837472618771
 10
0.9739598523998705
 20
-2.906769407544131
 10
0.9822865829736409
 20
-2.927062085965838
 10
0.9923881345119101
 20
-2.945490204321786
 10
1.003775738539055
 20
-2.961070301954541
 10
1.016435119259722
 20
-2.973581911315492
 10
1.029653900797198
 20
-2.982029421512373
 10
1.04297701153993
 20
-2.985913666070024
 10
1.056026013204927
 20
-2.984801650013289
 10
1.067946624900906
 20
-2.978629028025169
 10
1.076985482552214
 20
-2.969651110284997
  0
LWPOLYLINE
  5
AA
330
8C
100
AcDbEntity
  8
AM_9
100
AcDbPolyline
 90
        7
 70
     0
 43
0.0
 10
1.108937853387737
 20
-2.823625
 10
1.108531573686354
 20
-2.80300954202744
 10
1.106903610330475
 20
-2.778044242035971
 10
1.104175694201755
 20
-2.755257726441653
 10
1.100216007379131
 20
-2.733703384257335
 10
1.096179993962825
 20
-2.717961269731259
 10
1.091418091293067
 20
-2.703895700757612
  0
LWPOLYLINE
  5
AB
330
8C
100
AcDbEntity
  8
AM_9
100
AcDbPolyline
 90
        8
 70
     0
 43
0.0
 10
1.081446643050289
 20
-2.963423319279774
 10
1.088017197696329
 20
-2.951360662291486
 10
1.095791412491812
 20
-2.930597829888135
 10
1.101438235353859
 20
-2.907742593857733
 10
1.105650976577941
 20
-2.881036069580451
 10
1.107963513355072
 20
-2.855416914499064
 10
1.108920889922899
 20
-2.827849615848441
 10
1.108937853387737
 20
-2.823625
  0
LWPOLYLINE
  5
AC
330
8C
100
AcDbEntity
  8
AM_9
100
AcDbPolyline
 90
        3
 70
     0
 43
0.0
 10
1.076985482552214
 20
-2.969651110284997
 10
1.07891168616397
 20
-2.967129583658788
 10
1.081446643050289
 20
-2.963423319279774
  0
LINE
  5
AD
330
8C
100
AcDbEntity
  8
AM_9
100
AcDbLine
 10
1.054806317942603
 20
-2.977275
 30
0.0
 11
1.515191928641145
 21
-2.977275
 31
0.0
  0
LINE
  5
AE
330
8C
100
AcDbEntity
  8
AM_9
100
AcDbLine
 10
1.527037990378052
 20
-2.669975
 30
0.0
 11
1.054806317942603
 21
-2.669975
 31
0.0
  0
ELLIPSE
  5
AF
330
8C
100
AcDbEntity
  8
AM_9
100
AcDbEllipse
 10
1.527037990378107
 20
-2.82362500000009
 30
0.0
 11
-2.822504710336629E-17
 21
-0.1536500000000962
 31
0.0
210
0.0
220
0.0
230
1.0
 40
0.4226182617408073
 41
3.455777870013298
 42
4.71238898038469
  0
LINE
  5
B0
330
8C
100
AcDbEntity
  8
AM_9
100
AcDbLine
 10
1.518989257133123
 20
-2.659974191975397
 30
0.0
 11
1.496758164607646
 21
-2.68770273546782
 31
0.0
  0
LWPOLYLINE
  5
B1
330
8C
100
AcDbEntity
  8
AM_9
100
AcDbPolyline
 90
       39
 70
     0
 43
0.0
 10
-0.1218661424184465
 20
-2.706613104473679
 10
-0.1391103719975643
 20
-2.724338367160157
 10
-0.1538241570126183
 20
-2.744921829177464
 10
-0.1659591348966734
 20
-2.769748368754636
 10
-0.173643560517859
 20
-2.797301700585799
 10
-0.1759834116462795
 20
-2.822722550752589
 10
-0.1738155228219684
 20
-2.848969761521261
 10
-0.1677103660053227
 20
-2.872692654958649
 10
-0.1575987202424182
 20
-2.895711348440226
 10
-0.1438821518135295
 20
-2.916947772457577
 10
-0.1266166456928774
 20
-2.936254049811224
 10
-0.105504820089655
 20
-2.953500588346392
 10
-0.0813558454577697
 20
-2.967597487909666
 10
-0.0539914003972061
 20
-2.978231359131617
 10
-0.0244872070150616
 20
-2.98453201089962
 10
0.0061185726449097
 20
-2.986025986662971
 10
0.0374137059144485
 20
-2.98238212012805
 10
0.0671175628243077
 20
-2.973756994249787
 10
0.0957253333484078
 20
-2.959823885410672
 10
0.1203013277651083
 20
-2.942010052348584
 10
0.1419776755493766
 20
-2.919396329989636
 10
0.1577445699724264
 20
-2.895440148278001
 10
0.1692317451698796
 20
-2.868048654001466
 10
0.1747996578234413
 20
-2.842388695572541
 10
0.1757512957912935
 20
-2.815266036554752
 10
0.1723446896408934
 20
-2.790864733160896
 10
0.1647554934992659
 20
-2.766703803751199
 10
0.1535827526292065
 20
-2.74452254678549
 10
0.1387143058527731
 20
-2.723867928870742
 10
0.1200516691142442
 20
-2.705023942507808
 10
0.0981529894304415
 20
-2.688912017588641
 10
0.0726576953317616
 20
-2.675720250353041
 10
0.044658099968931
 20
-2.666483838042087
 10
0.0147106004738815
 20
-2.661698151141624
 10
-0.0164706900634701
 20
-2.661843821511385
 10
-0.0469582668698165
 20
-2.667060477134437
 10
-0.0769691017304316
 20
-2.677600947194301
 10
-0.1002663144367957
 20
-2.690249464030878
 10
-0.1218661424184465
 20
-2.706613104473679
  0
LINE
  5
B2
330
8C
100
AcDbEntity
  8
AM_9
100
AcDbLine
 10
1.082141000940917
 20
-2.68492491956701
 30
0.0
 11
1.076987415272908
 21
-2.677601300147691
 31
0.0
  0
LWPOLYLINE
  5
B3
330
8C
100
AcDbEntity
  8
AM_9
100
AcDbPolyline
 90
        3
 70
     0
 43
0.0
 10
1.091418091293067
 20
-2.703895700757612
 10
1.084706544248227
 20
-2.689322940871768
 10
1.082141000940917
 20
-2.68492491956701
  0
LINE
  5
B4
330
8C
100
AcDbEntity
  8
AM_9
100
AcDbLine
 10
1.155
 20
-3.140625
 30
0.0
 11
1.155
 21
-2.506625
 31
0.0
  0
LINE
  5
B5
330
8C
100
AcDbEntity
  8
AM_9
100
AcDbLine
 10
-1.155
 20
-2.506625
 30
0.0
 11
-1.155
 21
-3.140625
 31
0.0
  0
LINE
  5
B6
330
8C
100
AcDbEntity
  8
AM_9
100
AcDbLine
 10
0.15365
 20
-2.823625
 30
0.0
 11
-0.15365
 21
-2.823625
 31
0.0
  0
LINE
  5
B7
330
8C
100
AcDbEntity
  8
AM_9
100
AcDbLine
 10
1.573756133159429
 20
-2.823625
 30
0.0
 11
1.473993545755674
 21
-2.823625
 31
0.0
  0
ELLIPSE
  5
B8
330
8C
100
AcDbEntity
  8
AM_9
100
AcDbEllipse
 10
1.054806317942603
 20
-2.823624999999999
 30
0.0
 11
-2.822504710334875E-17
 21
-0.1536500000000007
 31
0.0
210
0.0
220
0.0
230
1.0
 40
0.4226182617406999
 41
0.0
 42
6.283185307179586
  0
LINE
  5
BB
330
8C
100
AcDbEntity
  8
AM_7
100
AcDbLine
 10
-0.1613324999999999
 20
-2.823624999999999
 30
0.0
 11
0.1613324999999998
 21
-2.823624999999999
 31
0.0
  0
LWPOLYLINE
  5
BD
330
8C
100
AcDbEntity
  8
AM_4
100
AcDbPolyline
 90
       11
 70
     0
 43
0.0
 10
1.515239359973537
 20
-2.977274999337828
 10
1.507763524485459
 20
-2.9762775561079
 10
1.496825682913613
 20
-2.971308169774434
 10
1.485781387980508
 20
-2.961982698273059
 10
1.475596212073436
 20
-2.94906132591728
 10
1.466073414835014
 20
-2.93218701614388
 10
1.458065204018592
 20
-2.912689101384342
 10
1.451470006097114
 20
-2.890059647229059
 10
1.446920439769674
 20
-2.866192847797085
 10
1.444350174859911
 20
-2.84039782237596
 10
1.443885541326512
 20
-2.823625
  0
ELLIPSE
  5
BE
330
8C
100
AcDbEntity
  8
AM_4
100
AcDbEllipse
 10
1.527037990378054
 20
-2.823625000000003
 30
0.0
 11
-2.822504710334933E-17
 21
-0.1536500000000038
 31
0.0
210
0.0
220
0.0
230
1.0
 40
0.4226182617406972
 41
1.570796326794897
 42
3.455777870012771
  0
LWPOLYLINE
  5
BF
330
8C
100
AcDbEntity
  8
AM_4
100
AcDbPolyline
 90
       14
 70
     0
 43
0.0
 10
1.519214587403795
 20
-2.659693142204742
 10
1.524082392913208
 20
-2.654049811512153
 10
1.537457204063934
 20
-2.642655813820807
 10
1.549962202317716
 20
-2.637101048069602
 10
1.562639184269448
 20
-2.636532654116658
 10
1.573981224267625
 20
-2.640786980617995
 10
1.58478731941901
 20
-2.649836959468603
 10
1.594302752563509
 20
-2.662976993982014
 10
1.602820377984683
 20
-2.680424729506365
 10
1.61006030727036
 20
-2.701638923217217
 10
1.615985871747971
 20
-2.726467373331685
 10
1.620454305709338
 20
-2.754350531611538
 10
1.623369631490096
 20
-2.78481070963239
 10
1.624643131723091
 20
-2.823625
  0
LINE
  5
C0
330
8C
100
AcDbEntity
  8
AM_4
100
AcDbLine
 10
-1.566208333333333
 20
-3.140625
 30
0.0
 11
1.56620833332003
 21
-3.140625
 31
0.0
  0
ARC
  5
C1
330
8C
100
AcDbEntity
  8
AM_4
100
AcDbCircle
 10
1.566208333333333
 20
-3.034958333333333
 30
0.0
 40
0.1056666666666666
100
AcDbArc
 50
270.0
 51
0.0
  0
ARC
  5
C2
330
8C
100
AcDbEntity
  8
AM_4
100
AcDbCircle
 10
-1.566208333333333
 20
-3.034958333333333
 30
0.0
 40
0.1056666666666666
100
AcDbArc
 50
180.0
 51
270.0
  0
LWPOLYLINE
  5
C3
330
8C
100
AcDbEntity
  8
AM_4
100
AcDbPolyline
 90
       20
 70
     0
 43
0.0
 10
0.15365
 20
-2.823625
 10
0.1515412694445523
 20
-2.848993605699438
 10
0.1450312307038234
 20
-2.874362211398877
 10
0.1346708348373996
 20
-2.897598567875274
 10
0.1201655527325503
 20
-2.919377610598775
 10
0.1026765235323728
 20
-2.937930966665376
 10
0.0817333511065433
 20
-2.953732577861147
 10
0.0590450685483378
 20
-2.965477043975834
 10
0.0339867986220785
 20
-2.973468985596427
 10
0.0087460581217331
 20
-2.977025876683711
 10
-0.0174791193635276
 20
-2.9762775561079
 10
-0.0424028756734224
 20
-2.971308169774434
 10
-0.0668241709906001
 20
-2.961982698273059
 10
-0.0887358475497578
 20
-2.94906132591728
 10
-0.1087318313594313
 20
-2.93218701614388
 10
-0.1252034677818453
 20
-2.912689101384342
 10
-0.1385451556264255
 20
-2.890059647229059
 10
-0.1476357031138611
 20
-2.866192847797086
 10
-0.1527317744594899
 20
-2.84039782237596
 10
-0.15365
 20
-2.823625
  0
LINE
  5
C4
330
8C
100
AcDbEntity
  8
AM_4
100
AcDbLine
 10
-1.671875
 20
-3.034958333333333
 30
0.0
 11
1.671875
 21
-3.034958333333333
 31
0.0
  0
LWPOLYLINE
  5
C5
330
8C
100
AcDbEntity
  8
AM_4
100
AcDbPolyline
 90
       11
 70
     0
 43
0.0
 10
1.573756133159429
 20
-2.823625
 10
1.573040111895658
 20
-2.848993605699439
 10
1.570814229013893
 20
-2.874362211398877
 10
1.567223944472651
 20
-2.897598567875274
 10
1.562098591303606
 20
-2.919377610598775
 10
1.555766119136369
 20
-2.937930966665376
 10
1.547963579992137
 20
-2.953732577861147
 10
1.539241610099909
 20
-2.965477043975834
 10
1.529283655734509
 20
-2.973468985596427
 10
1.518908841976538
 20
-2.977025876683711
 10
1.515239359973537
 20
-2.977274999337828
  0
LINE
  5
C6
330
8C
100
AcDbEntity
  8
AM_4
100
AcDbLine
 10
1.671875
 20
-3.034958333333333
 30
0.0
 11
1.671875
 21
-2.823625
 31
0.0
  0
LINE
  5
C7
330
8C
100
AcDbEntity
  8
AM_4
100
AcDbLine
 10
-1.671875
 20
-2.823625
 30
0.0
 11
-1.671875
 21
-3.034958333333333
 31
0.0
  0
LINE
  5
C8
330
8C
100
AcDbEntity
  8
AM_4
100
AcDbLine
 10
-1.71875
 20
-2.506625
 30
0.0
 11
1.71875
 21
-2.506625
 31
0.0
  0
LINE
  5
C9
330
8C
100
AcDbEntity
  8
AM_4
100
AcDbLine
 10
1.573756133159429
 20
-2.823625
 30
0.0
 11
1.71875
 21
-2.823625
 31
0.0
  0
LINE
  5
CA
330
8C
100
AcDbEntity
  8
AM_4
100
AcDbLine
 10
0.15365
 20
-2.823625
 30
0.0
 11
1.473993545755674
 21
-2.823625
 31
0.0
  0
LWPOLYLINE
  5
CB
330
8C
100
AcDbEntity
  8
AM_4
100
AcDbPolyline
 90
        8
 70
     0
 43
0.0
 10
1.473993545755674
 20
-2.823625
 10
1.474713448494082
 20
-2.800252529797446
 10
1.476901296848806
 20
-2.776880059594891
 10
1.482183170539372
 20
-2.746122135914977
 10
1.490192371020866
 20
-2.716735789565218
 10
1.499967354236372
 20
-2.691748123540388
 10
1.511842231730635
 20
-2.669952849004654
 10
1.519214587403795
 20
-2.659693142204742
  0
LINE
  5
CC
330
8C
100
AcDbEntity
  8
AM_4
100
AcDbLine
 10
1.71875
 20
-2.823625
 30
0.0
 11
1.71875
 21
-2.506625
 31
0.0
  0
LINE
  5
CD
330
8C
100
AcDbEntity
  8
AM_4
100
AcDbLine
 10
-1.71875
 20
-2.506625
 30
0.0
 11
-1.71875
 21
-2.823625
 31
0.0
  0
LINE
  5
CE
330
8C
100
AcDbEntity
  8
AM_4
100
AcDbLine
 10
-1.71875
 20
-2.823625
 30
0.0
 11
-0.15365
 21
-2.823625
 31
0.0
  0
LWPOLYLINE
  5
CF
330
8C
100
AcDbEntity
  8
AM_4
100
AcDbPolyline
 90
       20
 70
     0
 43
0.0
 10
-0.1782336444086849
 20
-2.823625
 10
-0.1768404770250377
 20
-2.800252529797446
 10
-0.172594104448499
 20
-2.776880059594891
 10
-0.1622643682690862
 20
-2.746122135914977
 10
-0.1463833419380951
 20
-2.716735789565219
 10
-0.1266290430121704
 20
-2.691748123540388
 10
-0.1020456390273909
 20
-2.669952849004654
 10
-0.0759816788828216
 20
-2.654049811512153
 10
-0.0465835641519924
 20
-2.642655813820807
 10
-0.0181428954258231
 20
-2.637101048069602
 10
0.011733938982014
 20
-2.636532654116658
 10
0.0394569760159933
 20
-2.640786980617995
 10
0.0668434714206103
 20
-2.649836959468603
 10
0.0918356627371703
 20
-2.662976993982014
 10
0.1149820182676184
 20
-2.680424729506365
 10
0.1352928976098358
 20
-2.701638923217217
 10
0.1523940596023233
 20
-2.726467373331685
 10
0.1655979895872318
 20
-2.754350531611538
 10
0.1743647230742378
 20
-2.78481070963239
 10
0.1782336444086846
 20
-2.823625
  0
ARC
  5
D0
330
8C
100
AcDbEntity
  8
AM_4
100
AcDbCircle
 10
0.0
 20
-2.823624999999999
 30
0.0
 40
0.15365
100
AcDbArc
 50
0.0
 51
180.0
  0
CIRCLE
  5
D2
330
8C
100
AcDbEntity
  8
AM_5
100
AcDbCircle
 10
0.0000000000000004
 20
-2.823624999999999
 30
0.0
 40
0.1875000000000003
  0
ENDBLK
  5
8F
330
8C
100
AcDbEntity
  8
0
100
AcDbBlockEnd
  0
BLOCK
  5
D5
330
D3
100
AcDbEntity
  8
0
100
AcDbBlockBegin
  2
3_070021i_0_in_070497_4
 70
     2
 10
0.0
 20
0.0
 30
0.0
  3
3_070021i_0_in_070497_4
  1

  0
ATTDEF
  5
D7
330
D3
100
AcDbEntity
  8
AM_6
100
AcDbText
 10
6.77165
 20
-0.2968750000000001
 30
0.0
 40
0.5
  1
S-2000 Insert -Inch
100
AcDbAttributeDefinition
  3

  2
NN
 70
     8
280
     0
  0
ATTDEF
  5
D8
330
D3
100
AcDbEntity
  8
AM_6
100
AcDbText
 10
6.77165
 20
-0.7968750000000001
 30
0.0
 40
0.5
  1
S-2000 Bearings
100
AcDbAttributeDefinition
  3

  2
NT
 70
     8
280
     0
  0
ATTDEF
  5
D9
330
D3
100
AcDbEntity
  8
AM_6
100
AcDbText
 10
6.77165
 20
-1.296875
 30
0.0
 40
0.5
  1
070021i
100
AcDbAttributeDefinition
  3

  2
NB
 70
     8
280
     0
  0
ATTDEF
  5
DA
330
D3
100
AcDbEntity
  8
AM_6
100
AcDbText
 10
6.77165
 20
-1.796875
 30
0.0
 40
0.5
  1
$PN.i
100
AcDbAttributeDefinition
  3

  2
NBSYN
 70
     8
280
     0
  0
ATTDEF
  5
DB
330
D3
100
AcDbEntity
  8
AM_6
100
AcDbText
 10
6.77165
 20
-2.296875
 30
0.0
 40
0.5
  1
070021i
100
AcDbAttributeDefinition
  3

  2
LINA
 70
     8
280
     0
  0
ATTDEF
  5
DC
330
D3
100
AcDbEntity
  8
AM_6
100
AcDbText
 10
6.77165
 20
-2.796875
 30
0.0
 40
0.5
  1
1-15/16
100
AcDbAttributeDefinition
  3

  2
SS
 70
     8
280
     0
  0
ATTDEF
  5
DD
330
D3
100
AcDbEntity
  8
AM_6
100
AcDbText
 10
6.77165
 20
-3.296875
 30
0.0
 40
0.5
  1
2.31
100
AcDbAttributeDefinition
  3

  2
CC
 70
     8
280
     0
  0
ATTDEF
  5
DE
330
D3
100
AcDbEntity
  8
AM_6
100
AcDbText
 10
6.77165
 20
-3.796875
 30
0.0
 40
0.5
  1
1.937500
100
AcDbAttributeDefinition
  3

  2
SS1
 70
     8
280
     0
  0
ATTDEF
  5
DF
330
D3
100
AcDbEntity
  8
AM_6
100
AcDbText
 10
6.77165
 20
-4.296875
 30
0.0
 40
0.5
  1
070021
100
AcDbAttributeDefinition
  3

  2
PN
 70
     8
280
     0
  0
ATTDEF
  5
E0
330
D3
100
AcDbEntity
  8
AM_6
100
AcDbText
 10
6.77165
 20
-4.796875
 30
0.0
 40
0.5
  1
INS-S2-115L
100
AcDbAttributeDefinition
  3

  2
DESCRIPTION
 70
     8
280
     0
  0
ATTDEF
  5
E1
330
D3
100
AcDbEntity
  8
AM_6
100
AcDbText
 10
6.77165
 20
-5.296875
 30
0.0
 40
0.5
  1
Labyrinth Seal
100
AcDbAttributeDefinition
  3

  2
ST
 70
     8
280
     0
  0
ATTDEF
  5
E2
330
D3
100
AcDbEntity
  8
AM_6
100
AcDbText
 10
6.77165
 20
-5.796875
 30
0.0
 40
0.5
  1
2
100
AcDbAttributeDefinition
  3

  2
ST1
 70
     8
280
     0
  0
ATTDEF
  5
E3
330
D3
100
AcDbEntity
  8
AM_6
100
AcDbText
 10
6.77165
 20
-6.296875
 30
0.0
 40
0.5
  1
3.5433
100
AcDbAttributeDefinition
  3

  2
A
 70
     8
280
     0
  0
ATTDEF
  5
E4
330
D3
100
AcDbEntity
  8
AM_6
100
AcDbText
 10
6.77165
 20
-6.796875
 30
0.0
 40
0.5
  1
61/64
100
AcDbAttributeDefinition
  3

  2
B
 70
     8
280
     0
  0
ATTDEF
  5
E5
330
D3
100
AcDbEntity
  8
AM_6
100
AcDbText
 10
6.77165
 20
-7.296875
 30
0.0
 40
0.5
  1
2-27/32
100
AcDbAttributeDefinition
  3

  2
C
 70
     8
280
     0
  0
ATTDEF
  5
E6
330
D3
100
AcDbEntity
  8
AM_6
100
AcDbText
 10
6.77165
 20
-7.796875
 30
0.0
 40
0.5
  1
0.977
100
AcDbAttributeDefinition
  3

  2
D
 70
     8
280
     0
  0
ATTDEF
  5
E7
330
D3
100
AcDbEntity
  8
AM_6
100
AcDbText
 10
6.77165
 20
-8.296875
 30
0.0
 40
0.5
  1
3-11/32
100
AcDbAttributeDefinition
  3

  2
E
 70
     8
280
     0
  0
ATTDEF
  5
E8
330
D3
100
AcDbEntity
  8
AM_6
100
AcDbText
 10
6.77165
 20
-8.796875
 30
0.0
 40
0.5
  1
0.53125
100
AcDbAttributeDefinition
  3

  2
F
 70
     8
280
     0
  0
ATTDEF
  5
E9
330
D3
100
AcDbEntity
  8
AM_6
100
AcDbText
 10
6.77165
 20
-9.296875
 30
0.0
 40
0.5
  1
1
100
AcDbAttributeDefinition
  3

  2
DD
 70
     8
280
     0
  0
ATTDEF
  5
EA
330
D3
100
AcDbEntity
  8
AM_6
100
AcDbText
 10
6.77165
 20
-9.796875
 30
0.0
 40
0.5
  1
baldor
100
AcDbAttributeDefinition
  3

  2
COMPANY
 70
     8
280
     0
  0
LINE
  5
EB
330
D3
100
AcDbEntity
  8
AM_9
100
AcDbLine
 10
1.046785494027331
 20
-2.618625
 30
0.0
 11
0.8778514735323312
 21
-2.618625
 31
0.0
  0
LINE
  5
EC
330
D3
100
AcDbEntity
  8
AM_9
100
AcDbLine
 10
0.8779175601227214
 20
-3.028624999999999
 30
0.0
 11
1.046785494027331
 21
-3.028624999999999
 31
0.0
  0
LWPOLYLINE
  5
ED
330
D3
100
AcDbEntity
  8
AM_9
100
AcDbPolyline
 90
       21
 70
     0
 43
0.0
 10
0.8779917248000181
 20
-2.618625000500865
 10
0.8686600272509438
 20
-2.619761064059495
 10
0.8534299311188637
 20
-2.62609634857059
 10
0.8379451662994553
 20
-2.637746992397568
 10
0.8226810723867076
 20
-2.65457196560148
 10
0.8083735677259102
 20
-2.675972258118033
 10
0.7954399579495606
 20
-2.701966342376678
 10
0.7847821503469808
 20
-2.731423434943482
 10
0.7769891968686357
 20
-2.763671348718526
 10
0.7724840240243986
 20
-2.797685385800203
 10
0.7715842496352304
 20
-2.831815842116226
 10
0.7741583931103473
 20
-2.86571107677644
 10
0.780034860592613
 20
-2.898035510139437
 10
0.7888423747892611
 20
-2.928309066716186
 10
0.8003440937032912
 20
-2.956073712124415
 10
0.8138239919235123
 20
-2.980183288531905
 10
0.828942236635851
 20
-3.000248180344152
 10
0.8447884082803124
 20
-3.015303285948384
 10
0.8605962753457657
 20
-3.024778715279822
 10
0.8758747940761308
 20
-3.028564807045838
 10
0.8779767602753128
 20
-3.028624998916321
  0
LINE
  5
EE
330
D3
100
AcDbEntity
  8
AM_9
100
AcDbLine
 10
0.944418277045671
 20
-2.847652705242115
 30
0.0
 11
0.94473916165808
 21
-2.823625
 31
0.0
  0
LWPOLYLINE
  5
EF
330
D3
100
AcDbEntity
  8
AM_9
100
AcDbPolyline
 90
       11
 70
     0
 43
0.0
 10
0.8779767602753128
 20
-3.028624998916321
 10
0.8898217297964296
 20
-3.026549362693866
 10
0.9024068296472313
 20
-3.019008226411992
 10
0.9133292775253236
 20
-3.006142528997691
 10
0.9225499414332596
 20
-2.988382328877598
 10
0.9301512452456988
 20
-2.965717169532938
 10
0.9360460839572847
 20
-2.939094681517259
 10
0.940368684971874
 20
-2.908797214352253
 10
0.9431752866390828
 20
-2.876007986684229
 10
0.9443502577865401
 20
-2.850044867213706
 10
0.944418277045671
 20
-2.847652705242115
  0
LWPOLYLINE
  5
F0
330
D3
100
AcDbEntity
  8
AM_9
100
AcDbPolyline
 90
       12
 70
     0
 43
0.0
 10
0.943528677941797
 20
-2.823625
 10
0.9436760816826892
 20
-2.814029582061243
 10
0.9462636383494186
 20
-2.780062555419073
 10
0.9520253790500312
 20
-2.747585575943976
 10
0.9606178153233742
 20
-2.717217745364521
 10
0.9717845859103307
 20
-2.689543559939227
 10
0.9848882345298692
 20
-2.665594404785717
 10
0.9995452976131667
 20
-2.645870335435469
 10
1.014971602783868
 20
-2.631180624917102
 10
1.030474736511694
 20
-2.622066907098632
 10
1.045575929214714
 20
-2.618644874684364
 10
1.046778995239891
 20
-2.618625000576729
  0
LWPOLYLINE
  5
F1
330
D3
100
AcDbEntity
  8
AM_9
100
AcDbPolyline
 90
       11
 70
     0
 43
0.0
 10
1.046792319612884
 20
-3.028624999363772
 10
1.037212380740092
 20
-3.027419998115517
 10
1.022073626267102
 20
-3.020923212665202
 10
1.006831899331695
 20
-3.009045443226722
 10
0.9919710612922389
 20
-2.99196151427101
 10
0.9781609653212456
 20
-2.970264899355452
 10
0.9658545939737122
 20
-2.944106352391878
 10
0.9558004459324831
 20
-2.914525303144283
 10
0.9485317704945353
 20
-2.88225000327932
 10
0.9443991701300949
 20
-2.848270425831918
 10
0.943528677941797
 20
-2.823625
  0
LWPOLYLINE
  5
F2
330
D3
100
AcDbEntity
  8
AM_9
100
AcDbPolyline
 90
        4
 70
     0
 43
0.0
 10
1.114354141148905
 20
-2.762552759755831
 10
1.115210699933459
 20
-2.774060264890734
 10
1.116404845571592
 20
-2.798651989680055
 10
1.116802165255484
 20
-2.823625
  0
LWPOLYLINE
  5
F3
330
D3
100
AcDbEntity
  8
AM_9
100
AcDbPolyline
 90
        9
 70
     0
 43
0.0
 10
1.046778995239891
 20
-2.618625000576729
 10
1.05957968897145
 20
-2.621032761293979
 10
1.072357626657006
 20
-2.628988953789169
 10
1.083608099732247
 20
-2.642327571434621
 10
1.093234560244893
 20
-2.660601360126783
 10
1.101246283655223
 20
-2.683691196985514
 10
1.107543787395097
 20
-2.710698889191244
 10
1.112189287714433
 20
-2.741185959345697
 10
1.114354141148905
 20
-2.762552759755831
  0
LWPOLYLINE
  5
F4
330
D3
100
AcDbEntity
  8
AM_9
100
AcDbPolyline
 90
       11
 70
     0
 43
0.0
 10
0.9445409473906804
 20
-2.804716809955871
 10
0.9440918520117886
 20
-2.789645758055889
 10
0.9421279883788914
 20
-2.756635007254816
 10
0.9387699821893257
 20
-2.725564613290677
 10
0.933920640395688
 20
-2.697211626444858
 10
0.927344397168786
 20
-2.672036888553895
 10
0.9190215336726001
 20
-2.651090047962213
 10
0.9087707654745032
 20
-2.634879046756649
 10
0.8967527428801372
 20
-2.62404699397038
 10
0.8833222917013552
 20
-2.619048780560767
 10
0.8779917248000181
 20
-2.618625000500865
  0
LINE
  5
F5
330
D3
100
AcDbEntity
  8
AM_9
100
AcDbLine
 10
0.94473916165808
 20
-2.823625
 30
0.0
 11
0.9445409473906804
 21
-2.804716809955871
 31
0.0
  0
LINE
  5
F6
330
D3
100
AcDbEntity
  8
AM_9
100
AcDbLine
 10
-0.96875
 20
-0.2968750000000001
 30
0.0
 11
-0.96875
 21
-3.140625
 31
0.0
  0
LINE
  5
F7
330
D3
100
AcDbEntity
  8
AM_9
100
AcDbLine
 10
0.96875
 20
-3.140625
 30
0.0
 11
0.96875
 21
-0.2968750000000001
 31
0.0
  0
LWPOLYLINE
  5
F8
330
D3
100
AcDbEntity
  8
AM_9
100
AcDbPolyline
 90
       10
 70
     0
 43
0.0
 10
1.11454741336009
 20
-2.882323089709277
 10
1.113809380737061
 20
-2.890873002252065
 10
1.110009442682595
 20
-2.922072523479572
 10
1.104606423986586
 20
-2.950530193923415
 10
1.097442290854296
 20
-2.97566695531181
 10
1.088549139716656
 20
-2.996549449120014
 10
1.077839767615082
 20
-3.01262430775001
 10
1.065507167045844
 20
-3.023330549264893
 10
1.051886068210213
 20
-3.028238652474625
 10
1.046792319612884
 20
-3.028624999363772
  0
LWPOLYLINE
  5
F9
330
D3
100
AcDbEntity
  8
AM_9
100
AcDbPolyline
 90
        3
 70
     0
 43
0.0
 10
1.116802165255484
 20
-2.823625
 10
1.116055710871377
 20
-2.85773343538501
 10
1.11454741336009
 20
-2.882323089709277
  0
LWPOLYLINE
  5
FA
330
D3
100
AcDbEntity
  8
AM_9
100
AcDbPolyline
 90
       21
 70
     0
 43
0.0
 10
-0.205
 20
-2.823625
 10
-0.2047980003563593
 20
-2.814526700706359
 10
-0.2003180306965243
 20
-2.780062555419073
 10
-0.190549195096018
 20
-2.748020739218879
 10
-0.1752212777060494
 20
-2.717217745364521
 10
-0.1553738176201073
 20
-2.689894013320945
 10
-0.130580745043898
 20
-2.665594404785717
 10
-0.1025237405266751
 20
-2.646103500940255
 10
-0.0706410822323171
 20
-2.631180624917102
 10
-0.0377943961290886
 20
-2.622139060983806
 10
-0.0028545096927904
 20
-2.618644874684364
 10
0.0307098913801232
 20
-2.620938289603336
 10
0.0643568917476232
 20
-2.628988953789169
 10
0.095236302073934
 20
-2.642089750620486
 10
0.1242911615622268
 20
-2.660601360126783
 10
0.1494672277504474
 20
-2.683323368403657
 10
0.1710926459483536
 20
-2.710698889191244
 10
0.1874844207229777
 20
-2.740711840693594
 10
0.1989179153157106
 20
-2.774060264890733
 10
0.2034495371294953
 20
-2.798459828794659
 10
0.2049999999999999
 20
-2.823625
  0
LWPOLYLINE
  5
FB
330
D3
100
AcDbEntity
  8
AM_9
100
AcDbPolyline
 90
       20
 70
     0
 43
0.0
 10
0.2049999999999999
 20
-2.823625
 10
0.2022237042195514
 20
-2.857249001126032
 10
0.1936561545448694
 20
-2.890873002252065
 10
0.1800385435420809
 20
-2.92166133428095
 10
0.1609971172265528
 20
-2.950530193923415
 10
0.1378522813137548
 20
-2.975354194740476
 10
0.1101005671944506
 20
-2.996549449120014
 10
0.0798223260686158
 20
-3.012446069430812
 10
0.0462892384124774
 20
-3.023330549264893
 10
0.0127289676164413
 20
-3.028229431485292
 10
-0.0221945656208091
 20
-3.027419998115517
 10
-0.0551308921996137
 20
-3.021072675917633
 10
-0.0874314544863926
 20
-3.009045443226722
 10
-0.1165818286953598
 20
-2.992247884621411
 10
-0.1432541095990719
 20
-2.970264899355452
 10
-0.1655592266691508
 20
-2.944518103462161
 10
-0.1837447547231688
 20
-2.914525303144283
 10
-0.1962895823481186
 20
-2.882746906782521
 10
-0.2035131518736895
 20
-2.848270425831918
 10
-0.205
 20
-2.823625
  0
LINE
  5
FC
330
D3
100
AcDbEntity
  8
AM_9
100
AcDbLine
 10
-1.155
 20
-2.506625
 30
0.0
 11
-1.155
 21
-3.140625
 31
0.0
  0
LINE
  5
FD
330
D3
100
AcDbEntity
  8
AM_9
100
AcDbLine
 10
1.155
 20
-3.140625
 30
0.0
 11
1.155
 21
-2.506625
 31
0.0
  0
LINE
  5
FE
330
D3
100
AcDbEntity
  8
AM_9
100
AcDbLine
 10
-1.155
 20
-0.2968750000000001
 30
0.0
 11
-1.155
 21
-0.5723749999999994
 31
0.0
  0
LINE
  5
FF
330
D3
100
AcDbEntity
  8
AM_9
100
AcDbLine
 10
1.155
 20
-0.5723749999999994
 30
0.0
 11
1.155
 21
-0.2968750000000001
 31
0.0
  0
LINE
  5
100
330
D3
100
AcDbEntity
  8
AM_9
100
AcDbLine
 10
1.155
 20
-0.2968750000000001
 30
0.0
 11
-1.155
 21
-0.2968750000000001
 31
0.0
  0
LINE
  5
101
330
D3
100
AcDbEntity
  8
AM_9
100
AcDbLine
 10
1.3220075
 20
-0.5723749999999994
 30
0.0
 11
-1.3220075
 21
-0.5723749999999994
 31
0.0
  0
ARC
  5
102
330
D3
100
AcDbEntity
  8
AM_9
100
AcDbCircle
 10
-1.3220075
 20
-0.6676874999999991
 30
0.0
 40
0.0953124999999997
100
AcDbArc
 50
90.0
 51
180.0
  0
ARC
  5
103
330
D3
100
AcDbEntity
  8
AM_9
100
AcDbCircle
 10
1.3220075
 20
-0.6676874999999991
 30
0.0
 40
0.0953124999999997
100
AcDbArc
 50
0.0
 51
90.0
  0
ARC
  5
104
330
D3
100
AcDbEntity
  8
AM_9
100
AcDbCircle
 10
-1.322007499999996
 20
-1.8800625
 30
0.0
 40
0.0953125000000035
100
AcDbArc
 50
180.0
 51
206.0202337511549
  0
ARC
  5
105
330
D3
100
AcDbEntity
  8
AM_9
100
AcDbCircle
 10
1.322007499999996
 20
-1.8800625
 30
0.0
 40
0.0953125000000035
100
AcDbArc
 50
333.9797662488451
 51
0.0
  0
LINE
  5
106
330
D3
100
AcDbEntity
  8
AM_9
100
AcDbLine
 10
-1.41732
 20
-0.6676874999999999
 30
0.0
 11
-1.41732
 21
-0.7973125
 31
0.0
  0
LINE
  5
107
330
D3
100
AcDbEntity
  8
AM_9
100
AcDbLine
 10
1.41732
 20
-0.7973125
 30
0.0
 11
1.41732
 21
-0.6676874999999999
 31
0.0
  0
LINE
  5
108
330
D3
100
AcDbEntity
  8
AM_9
100
AcDbLine
 10
1.41732
 20
-0.6676874999999999
 30
0.0
 11
-1.41732
 21
-0.6676874999999999
 31
0.0
  0
LINE
  5
109
330
D3
100
AcDbEntity
  8
AM_9
100
AcDbLine
 10
-1.41732
 20
-1.7504375
 30
0.0
 11
-1.41732
 21
-1.8800625
 31
0.0
  0
LINE
  5
10A
330
D3
100
AcDbEntity
  8
AM_9
100
AcDbLine
 10
1.41732
 20
-1.8800625
 30
0.0
 11
1.41732
 21
-1.7504375
 31
0.0
  0
LINE
  5
10B
330
D3
100
AcDbEntity
  8
AM_9
100
AcDbLine
 10
1.41732
 20
-1.8800625
 30
0.0
 11
-1.41732
 21
-1.8800625
 31
0.0
  0
LINE
  5
10C
330
D3
100
AcDbEntity
  8
AM_9
100
AcDbLine
 10
-1.700784
 20
-1.226218749999999
 30
0.0
 11
-1.700784
 21
-1.32153125
 31
0.0
  0
LINE
  5
10D
330
D3
100
AcDbEntity
  8
AM_9
100
AcDbLine
 10
1.700784
 20
-1.32153125
 30
0.0
 11
1.700784
 21
-1.226218749999999
 31
0.0
  0
LINE
  5
10E
330
D3
100
AcDbEntity
  8
AM_9
100
AcDbLine
 10
-0.1499033021650966
 20
-1.7504375
 30
0.0
 11
-1.6763375
 21
-1.7504375
 31
0.0
  0
LINE
  5
10F
330
D3
100
AcDbEntity
  8
AM_9
100
AcDbLine
 10
0.1484277219761113
 20
-1.7504375
 30
0.0
 11
-0.1485590474872658
 21
-1.7504375
 31
0.0
  0
LINE
  5
110
330
D3
100
AcDbEntity
  8
AM_9
100
AcDbLine
 10
1.6763375
 20
-1.7504375
 30
0.0
 11
0.1499033021650966
 21
-1.7504375
 31
0.0
  0
ARC
  5
111
330
D3
100
AcDbEntity
  8
AM_9
100
AcDbCircle
 10
-1.6763375
 20
-1.655124999999999
 30
0.0
 40
0.0953125000000004
100
AcDbArc
 50
179.9999991462263
 51
270.0
  0
ARC
  5
112
330
D3
100
AcDbEntity
  8
AM_9
100
AcDbCircle
 10
1.6763375
 20
-1.655124999999999
 30
0.0
 40
0.0953125000000004
100
AcDbArc
 50
270.0
 51
0.0000008537736463
  0
LINE
  5
113
330
D3
100
AcDbEntity
  8
AM_9
100
AcDbLine
 10
1.676337499999999
 20
-0.7973125
 30
0.0
 11
-1.676337499999999
 21
-0.7973125
 31
0.0
  0
ARC
  5
114
330
D3
100
AcDbEntity
  8
AM_9
100
AcDbCircle
 10
-1.676337499999999
 20
-0.8926250000000007
 30
0.0
 40
0.0953125000000007
100
AcDbArc
 50
90.0
 51
180.0
  0
ARC
  5
115
330
D3
100
AcDbEntity
  8
AM_9
100
AcDbCircle
 10
1.676337499999999
 20
-0.8926250000000007
 30
0.0
 40
0.0953125000000006
100
AcDbArc
 50
0.0
 51
90.0
  0
LINE
  5
116
330
D3
100
AcDbEntity
  8
AM_9
100
AcDbLine
 10
1.700784
 20
-1.226218749999999
 30
0.0
 11
1.77165
 21
-1.185304245823607
 31
0.0
  0
LINE
  5
117
330
D3
100
AcDbEntity
  8
AM_9
100
AcDbLine
 10
-1.77165
 20
-1.185304245823607
 30
0.0
 11
-1.700784
 21
-1.226218749999999
 31
0.0
  0
LINE
  5
118
330
D3
100
AcDbEntity
  8
AM_9
100
AcDbLine
 10
1.700784
 20
-1.226218749999999
 30
0.0
 11
-1.700784
 21
-1.226218749999999
 31
0.0
  0
LINE
  5
119
330
D3
100
AcDbEntity
  8
AM_9
100
AcDbLine
 10
-1.700784
 20
-1.32153125
 30
0.0
 11
-1.77165
 21
-1.362445754176392
 31
0.0
  0
LINE
  5
11A
330
D3
100
AcDbEntity
  8
AM_9
100
AcDbLine
 10
1.77165
 20
-1.362445754176392
 30
0.0
 11
1.700784
 21
-1.32153125
 31
0.0
  0
LINE
  5
11B
330
D3
100
AcDbEntity
  8
AM_9
100
AcDbLine
 10
1.700784
 20
-1.32153125
 30
0.0
 11
-1.700784
 21
-1.32153125
 31
0.0
  0
LINE
  5
11C
330
D3
100
AcDbEntity
  8
AM_9
100
AcDbLine
 10
-1.77165
 20
-0.8926249999999999
 30
0.0
 11
-1.77165
 21
-1.185304245823607
 31
0.0
  0
LINE
  5
11D
330
D3
100
AcDbEntity
  8
AM_9
100
AcDbLine
 10
1.77165
 20
-1.185304245823607
 30
0.0
 11
1.77165
 21
-0.8926249999999999
 31
0.0
  0
LINE
  5
11E
330
D3
100
AcDbEntity
  8
AM_9
100
AcDbLine
 10
1.77165
 20
-0.8926249999999999
 30
0.0
 11
-1.77165
 21
-0.8926249999999999
 31
0.0
  0
LINE
  5
11F
330
D3
100
AcDbEntity
  8
AM_9
100
AcDbLine
 10
1.77165
 20
-1.185304245823607
 30
0.0
 11
-1.77165
 21
-1.185304245823607
 31
0.0
  0
LINE
  5
120
330
D3
100
AcDbEntity
  8
AM_9
100
AcDbLine
 10
-1.77165
 20
-1.362445754176392
 30
0.0
 11
-1.77165
 21
-1.655125
 31
0.0
  0
LINE
  5
121
330
D3
100
AcDbEntity
  8
AM_9
100
AcDbLine
 10
1.77165
 20
-1.655125
 30
0.0
 11
1.77165
 21
-1.362445754176392
 31
0.0
  0
LINE
  5
122
330
D3
100
AcDbEntity
  8
AM_9
100
AcDbLine
 10
1.77165
 20
-1.362445754176392
 30
0.0
 11
-1.77165
 21
-1.362445754176392
 31
0.0
  0
LINE
  5
123
330
D3
100
AcDbEntity
  8
AM_9
100
AcDbLine
 10
1.77165
 20
-1.655125
 30
0.0
 11
-1.77165
 21
-1.655125
 31
0.0
  0
LINE
  5
124
330
D3
100
AcDbEntity
  8
AM_4
100
AcDbLine
 10
-1.155
 20
-1.975375
 30
0.0
 11
-1.155
 21
-2.506625
 31
0.0
  0
LINE
  5
125
330
D3
100
AcDbEntity
  8
AM_4
100
AcDbLine
 10
1.155
 20
-2.506625
 30
0.0
 11
1.155
 21
-1.975375
 31
0.0
  0
LINE
  5
126
330
D3
100
AcDbEntity
  8
AM_4
100
AcDbLine
 10
1.3220075
 20
-1.975375
 30
0.0
 11
-1.3220075
 21
-1.975375
 31
0.0
  0
ARC
  5
127
330
D3
100
AcDbEntity
  8
AM_4
100
AcDbCircle
 10
-1.322007500000002
 20
-1.880062500000002
 30
0.0
 40
0.0953124999999975
100
AcDbArc
 50
206.0202337511548
 51
270.0
  0
ARC
  5
128
330
D3
100
AcDbEntity
  8
AM_4
100
AcDbCircle
 10
1.322007500000002
 20
-1.880062500000003
 30
0.0
 40
0.0953124999999972
100
AcDbArc
 50
270.0
 51
333.9797662488452
  0
ENDBLK
  5
D6
330
D3
100
AcDbEntity
  8
0
100
AcDbBlockEnd
  0
BLOCK
  5
12B
330
129
100
AcDbEntity
  8
0
100
AcDbBlockBegin
  2
4_405015E_Inch_0_in_070497_4
 70
     2
 10
0.0
 20
0.0
 30
0.0
  3
4_405015E_Inch_0_in_070497_4
  1

  0
ATTDEF
  5
12D
330
129
100
AcDbEntity
  8
AM_6
100
AcDbText
 10
5.229687500000001
 20
-0.9895967572295384
 30
0.0
 40
0.5
  1
405015E -Inch
100
AcDbAttributeDefinition
  3

  2
NN
 70
     8
280
     0
  0
ATTDEF
  5
12E
330
129
100
AcDbEntity
  8
AM_6
100
AcDbText
 10
5.229687500000001
 20
-1.489596757229538
 30
0.0
 40
0.5
  1
Grease Fitting
100
AcDbAttributeDefinition
  3

  2
NT
 70
     8
280
     0
  0
ATTDEF
  5
12F
330
129
100
AcDbEntity
  8
AM_6
100
AcDbText
 10
5.229687500000001
 20
-1.989596757229538
 30
0.0
 40
0.5
  1
405015E-Inch
100
AcDbAttributeDefinition
  3

  2
NB
 70
     8
280
     0
  0
ATTDEF
  5
130
330
129
100
AcDbEntity
  8
AM_6
100
AcDbText
 10
5.229687500000001
 20
-2.489596757229538
 30
0.0
 40
0.5
  1
$MN.-Inch
100
AcDbAttributeDefinition
  3

  2
NBSYN
 70
     8
280
     0
  0
ATTDEF
  5
131
330
129
100
AcDbEntity
  8
AM_6
100
AcDbText
 10
5.229687500000001
 20
-2.989596757229538
 30
0.0
 40
0.5
  1
405015E
100
AcDbAttributeDefinition
  3

  2
LINA
 70
     8
280
     0
  0
ATTDEF
  5
132
330
129
100
AcDbEntity
  8
AM_6
100
AcDbText
 10
5.229687500000001
 20
-3.489596757229538
 30
0.0
 40
0.5
  1
405015E
100
AcDbAttributeDefinition
  3

  2
MN
 70
     8
280
     0
  0
ATTDEF
  5
133
330
129
100
AcDbEntity
  8
AM_6
100
AcDbText
 10
5.229687500000001
 20
-3.989596757229538
 30
0.0
 40
0.5
  1
1/8 x 27PTF
100
AcDbAttributeDefinition
  3

  2
T
 70
     8
280
     0
  0
ATTDEF
  5
134
330
129
100
AcDbEntity
  8
AM_6
100
AcDbText
 10
5.229687500000001
 20
-4.489596757229538
 30
0.0
 40
0.5
  1
baldor
100
AcDbAttributeDefinition
  3

  2
COMPANY
 70
     8
280
     0
  0
CIRCLE
  5
135
330
129
100
AcDbEntity
  8
AM_9
100
AcDbCircle
 10
0.0
 20
-1.2421875
 30
0.0
 40
0.161902872472269
  0
CIRCLE
  5
136
330
129
100
AcDbEntity
  8
AM_9
100
AcDbCircle
 10
0.0
 20
-1.2421875
 30
0.0
 40
0.1986176267812154
  0
CIRCLE
  5
137
330
129
100
AcDbEntity
  8
AM_9
100
AcDbCircle
 10
0.0
 20
-1.2421875
 30
0.0
 40
0.2057518972230696
  0
CIRCLE
  5
138
330
129
100
AcDbEntity
  8
AM_9
100
AcDbCircle
 10
0.0
 20
-1.2421875
 30
0.0
 40
0.1188200907348975
  0
CIRCLE
  5
139
330
129
100
AcDbEntity
  8
AM_9
100
AcDbCircle
 10
0.0
 20
-1.2421875
 30
0.0
 40
0.105
  0
LINE
  5
13A
330
129
100
AcDbEntity
  8
AM_7
100
AcDbLine
 10
-0.2296875
 20
-1.2421875
 30
0.0
 11
0.2296875000000003
 21
-1.2421875
 31
0.0
  0
LINE
  5
13B
330
129
100
AcDbEntity
  8
AM_4
100
AcDbLine
 10
0.0
 20
-0.9895967572295384
 30
0.0
 11
-0.21875
 21
-1.115892128614769
 31
0.0
  0
LINE
  5
13C
330
129
100
AcDbEntity
  8
AM_4
100
AcDbLine
 10
-0.21875
 20
-1.115892128614769
 30
0.0
 11
-0.21875
 21
-1.36848287138523
 31
0.0
  0
LINE
  5
13D
330
129
100
AcDbEntity
  8
AM_4
100
AcDbLine
 10
0.0
 20
-1.494778242770461
 30
0.0
 11
0.21875
 21
-1.36848287138523
 31
0.0
  0
LINE
  5
13E
330
129
100
AcDbEntity
  8
AM_4
100
AcDbLine
 10
0.21875
 20
-1.36848287138523
 30
0.0
 11
0.21875
 21
-1.115892128614769
 31
0.0
  0
LINE
  5
13F
330
129
100
AcDbEntity
  8
AM_4
100
AcDbLine
 10
0.21875
 20
-1.115892128614769
 30
0.0
 11
0.0
 21
-0.9895967572295384
 31
0.0
  0
LINE
  5
140
330
129
100
AcDbEntity
  8
AM_4
100
AcDbLine
 10
-0.21875
 20
-1.36848287138523
 30
0.0
 11
0.0
 21
-1.494778242770461
 31
0.0
  0
CIRCLE
  5
141
330
129
100
AcDbEntity
  8
AM_4
100
AcDbCircle
 10
0.0
 20
-1.2421875
 30
0.0
 40
0.21375
  0
CIRCLE
  5
142
330
129
100
AcDbEntity
  8
AM_4
100
AcDbCircle
 10
0.0
 20
-1.2421875
 30
0.0
 40
0.1725340532830154
  0
CIRCLE
  5
143
330
129
100
AcDbEntity
  8
AM_4
100
AcDbCircle
 10
0.0
 20
-1.2421875
 30
0.0
 40
0.135
  0
CIRCLE
  5
144
330
129
100
AcDbEntity
  8
AM_4
100
AcDbCircle
 10
0.0
 20
-1.2421875
 30
0.0
 40
0.1026779019331875
  0
ARC
  5
145
330
129
100
AcDbEntity
  8
AM_5
100
AcDbCircle
 10
-0.0000000000000001
 20
-1.2421875
 30
0.0
 40
0.2025000050000003
100
AcDbArc
 50
75.00000000000001
 51
15.00000000000007
  0
CIRCLE
  5
146
330
129
100
AcDbEntity
  8
AM_4
100
AcDbCircle
 10
0.0000000000000002
 20
-1.2421875
 30
0.0
 40
0.2187500000000001
  0
ENDBLK
  5
12C
330
129
100
AcDbEntity
  8
0
100
AcDbBlockEnd
  0
BLOCK
  5
149
330
147
100
AcDbEntity
  8
0
100
AcDbBlockBegin
  2
5_070497H_0_in_070497_4
 70
     2
 10
0.0
 20
0.0
 30
0.0
  3
5_070497H_0_in_070497_4
  1

  0
ATTDEF
  5
14B
330
147
100
AcDbEntity
  8
AM_6
100
AcDbText
 10
8.34375
 20
0.09609375
 30
0.0
 40
0.5
  1
F3&4R-S2 -(Labyrinth Seal)-Housing
100
AcDbAttributeDefinition
  3

  2
NN
 70
     8
280
     0
  0
ATTDEF
  5
14C
330
147
100
AcDbEntity
  8
AM_6
100
AcDbText
 10
8.34375
 20
-0.40390625
 30
0.0
 40
0.5
  1
S-2000 3 & 4 Bolt Round Flange Bearing -Inch
100
AcDbAttributeDefinition
  3

  2
NT
 70
     8
280
     0
  0
ATTDEF
  5
14D
330
147
100
AcDbEntity
  8
AM_6
100
AcDbText
 10
8.34375
 20
-0.90390625
 30
0.0
 40
0.5
  1
070497H
100
AcDbAttributeDefinition
  3

  2
NB
 70
     8
280
     0
  0
ATTDEF
  5
14E
330
147
100
AcDbEntity
  8
AM_6
100
AcDbText
 10
8.34375
 20
-1.40390625
 30
0.0
 40
0.5
  1
$PN.H
100
AcDbAttributeDefinition
  3

  2
NBSYN
 70
     8
280
     0
  0
ATTDEF
  5
14F
330
147
100
AcDbEntity
  8
AM_6
100
AcDbText
 10
8.34375
 20
-1.90390625
 30
0.0
 40
0.5
  1
070497
100
AcDbAttributeDefinition
  3

  2
LINA
 70
     8
280
     0
  0
ATTDEF
  5
150
330
147
100
AcDbEntity
  8
AM_6
100
AcDbText
 10
8.34375
 20
-2.40390625
 30
0.0
 40
0.5
  1
1-15/16
100
AcDbAttributeDefinition
  3

  2
SS
 70
     8
280
     0
  0
ATTDEF
  5
151
330
147
100
AcDbEntity
  8
AM_6
100
AcDbText
 10
8.34375
 20
-2.90390625
 30
0.0
 40
0.5
  1
070497
100
AcDbAttributeDefinition
  3

  2
PN
 70
     8
280
     0
  0
ATTDEF
  5
152
330
147
100
AcDbEntity
  8
AM_6
100
AcDbText
 10
8.34375
 20
-3.40390625
 30
0.0
 40
0.5
  1
F4R-S2-115L
100
AcDbAttributeDefinition
  3

  2
DESCRIPTION
 70
     8
280
     0
  0
ATTDEF
  5
153
330
147
100
AcDbEntity
  8
AM_6
100
AcDbText
 10
8.34375
 20
-3.90390625
 30
0.0
 40
0.5
  1
Non-Expansion Type
100
AcDbAttributeDefinition
  3

  2
EF
 70
     8
280
     0
  0
ATTDEF
  5
154
330
147
100
AcDbEntity
  8
AM_6
100
AcDbText
 10
8.34375
 20
-4.40390625
 30
0.0
 40
0.5
  1
2-27/32
100
AcDbAttributeDefinition
  3

  2
A
 70
     8
280
     0
  0
ATTDEF
  5
155
330
147
100
AcDbEntity
  8
AM_6
100
AcDbText
 10
8.34375
 20
-4.90390625
 30
0.0
 40
0.5
  1
6-11/16
100
AcDbAttributeDefinition
  3

  2
B
 70
     8
280
     0
  0
ATTDEF
  5
156
330
147
100
AcDbEntity
  8
AM_6
100
AcDbText
 10
8.34375
 20
-5.40390625
 30
0.0
 40
0.5
  1
3-9/64
100
AcDbAttributeDefinition
  3

  2
C
 70
     8
280
     0
  0
ATTDEF
  5
157
330
147
100
AcDbEntity
  8
AM_6
100
AcDbText
 10
8.34375
 20
-5.90390625
 30
0.0
 40
0.5
  1
5-3/4
100
AcDbAttributeDefinition
  3

  2
DD
 70
     8
280
     0
  0
ATTDEF
  5
158
330
147
100
AcDbEntity
  8
AM_6
100
AcDbText
 10
8.34375
 20
-6.40390625
 30
0.0
 40
0.5
  1
1-59/64
100
AcDbAttributeDefinition
  3

  2
E
 70
     8
280
     0
  0
ATTDEF
  5
159
330
147
100
AcDbEntity
  8
AM_6
100
AcDbText
 10
8.34375
 20
-6.90390625
 30
0.0
 40
0.5
  1
1/2
100
AcDbAttributeDefinition
  3

  2
F
 70
     8
280
     0
  0
ATTDEF
  5
15A
330
147
100
AcDbEntity
  8
AM_6
100
AcDbText
 10
8.34375
 20
-7.40390625
 30
0.0
 40
0.5
  1
9/16
100
AcDbAttributeDefinition
  3

  2
H
 70
     8
280
     0
  0
ATTDEF
  5
15B
330
147
100
AcDbEntity
  8
AM_6
100
AcDbText
 10
8.34375
 20
-7.90390625
 30
0.0
 40
0.5
  1
4-19/32
100
AcDbAttributeDefinition
  3

  2
J
 70
     8
280
     0
  0
ATTDEF
  5
15C
330
147
100
AcDbEntity
  8
AM_6
100
AcDbText
 10
8.34375
 20
-8.40390625
 30
0.0
 40
0.5
  1
3-7/16
100
AcDbAttributeDefinition
  3

  2
L
 70
     8
280
     0
  0
ATTDEF
  5
15D
330
147
100
AcDbEntity
  8
AM_6
100
AcDbText
 10
8.34375
 20
-8.90390625
 30
0.0
 40
0.5
  1
19/64
100
AcDbAttributeDefinition
  3

  2
P
 70
     8
280
     0
  0
ATTDEF
  5
15E
330
147
100
AcDbEntity
  8
AM_6
100
AcDbText
 10
8.34375
 20
-9.40390625
 30
0.0
 40
0.5
  1
1/4
100
AcDbAttributeDefinition
  3

  2
X
 70
     8
280
     0
  0
ATTDEF
  5
15F
330
147
100
AcDbEntity
  8
AM_6
100
AcDbText
 10
8.34375
 20
-9.90390625
 30
0.0
 40
0.5
  1
0.020
100
AcDbAttributeDefinition
  3

  2
Y
 70
     8
280
     0
  0
ATTDEF
  5
160
330
147
100
AcDbEntity
  8
AM_6
100
AcDbText
 10
8.34375
 20
-10.40390625
 30
0.0
 40
0.5
  1
2-19/64
100
AcDbAttributeDefinition
  3

  2
Z
 70
     8
280
     0
  0
ATTDEF
  5
161
330
147
100
AcDbEntity
  8
AM_6
100
AcDbText
 10
8.34375
 20
-10.90390625
 30
0.0
 40
0.5
  1
baldor
100
AcDbAttributeDefinition
  3

  2
COMPANY
 70
     8
280
     0
  0
LINE
  5
162
330
147
100
AcDbEntity
  8
AM_9
100
AcDbLine
 10
2.062787424943457
 20
-0.5625
 30
0.0
 11
2.062787424943457
 21
-0.4821428571428571
 31
0.0
  0
LINE
  5
163
330
147
100
AcDbEntity
  8
AM_9
100
AcDbLine
 10
2.026617833801255
 20
-0.4821428571428571
 30
0.0
 11
2.026617833801255
 21
-0.5732053907295112
 31
0.0
  0
LINE
  5
164
330
147
100
AcDbEntity
  8
AM_9
100
AcDbLine
 10
-2.062787424943458
 20
-0.5625
 30
0.0
 11
-2.062787424943458
 21
-0.4821428571428571
 31
0.0
  0
LINE
  5
165
330
147
100
AcDbEntity
  8
AM_9
100
AcDbLine
 10
-2.026617833801255
 20
-0.5731898178453945
 30
0.0
 11
-2.026617833801255
 21
-0.4821428571428571
 31
0.0
  0
LINE
  5
166
330
147
100
AcDbEntity
  8
AM_9
100
AcDbLine
 10
1.77165
 20
-1.921875
 30
0.0
 11
1.77165
 21
-0.0803571428571428
 31
0.0
  0
LINE
  5
167
330
147
100
AcDbEntity
  8
AM_9
100
AcDbLine
 10
-1.77165
 20
-0.0803571428571428
 30
0.0
 11
-1.77165
 21
-1.921875
 31
0.0
  0
LINE
  5
168
330
147
100
AcDbEntity
  8
AM_9
100
AcDbLine
 10
-1.9780125
 20
-0.0803571428571429
 30
0.0
 11
1.978012499997079
 21
-0.0803571428571429
 31
0.0
  0
ARC
  5
169
330
147
100
AcDbEntity
  8
AM_9
100
AcDbCircle
 10
1.9780125
 20
-0.0241071428571427
 30
0.0
 40
0.0562500000000002
100
AcDbArc
 50
270.0
 51
0.0
  0
ARC
  5
16A
330
147
100
AcDbEntity
  8
AM_9
100
AcDbCircle
 10
-1.9780125
 20
-0.0241071428571428
 30
0.0
 40
0.0562500000000001
100
AcDbArc
 50
180.0
 51
270.0
  0
LINE
  5
16B
330
147
100
AcDbEntity
  8
AM_9
100
AcDbLine
 10
-2.0342625
 20
-0.0241071428571432
 30
0.0
 11
2.0342625
 21
-0.0241071428571432
 31
0.0
  0
LINE
  5
16C
330
147
100
AcDbEntity
  8
AM_9
100
AcDbLine
 10
2.0342625
 20
-0.0241071428571432
 30
0.0
 11
2.0342625
 21
0.0
 31
0.0
  0
LINE
  5
16D
330
147
100
AcDbEntity
  8
AM_9
100
AcDbLine
 10
-2.0342625
 20
0.0
 30
0.0
 11
-2.0342625
 21
-0.0241071428571432
 31
0.0
  0
LINE
  5
16E
330
147
100
AcDbEntity
  8
AM_9
100
AcDbLine
 10
2.060046360204153
 20
-0.4821428571428571
 30
0.0
 11
2.633794421800918
 21
-0.482142857142857
 31
0.0
  0
LINE
  5
16F
330
147
100
AcDbEntity
  8
AM_9
100
AcDbLine
 10
-2.633794421800918
 20
-0.482142857142857
 30
0.0
 11
-2.060046360204152
 21
-0.4821428571428571
 31
0.0
  0
LINE
  5
170
330
147
100
AcDbEntity
  8
AM_9
100
AcDbLine
 10
-1.782931995911324
 20
-0.5624999999999999
 30
0.0
 11
-1.782931995911324
 21
0.0000000000000001
 31
0.0
  0
LINE
  5
171
330
147
100
AcDbEntity
  8
AM_9
100
AcDbLine
 10
-2.282931995911324
 20
0.0000000000000001
 30
0.0
 11
-2.282931995911324
 21
-0.5624999999999999
 31
0.0
  0
LINE
  5
172
330
147
100
AcDbEntity
  8
AM_9
100
AcDbLine
 10
2.282931995911324
 20
-0.5624999999999999
 30
0.0
 11
2.282931995911324
 21
0.0000000000000001
 31
0.0
  0
LINE
  5
173
330
147
100
AcDbEntity
  8
AM_9
100
AcDbLine
 10
1.782931995911324
 20
0.0000000000000001
 30
0.0
 11
1.782931995911324
 21
-0.5624999999999999
 31
0.0
  0
LINE
  5
174
330
147
100
AcDbEntity
  8
AM_9
100
AcDbLine
 10
2.048265466638201
 20
-0.5624999999999999
 30
0.0
 11
2.048265466638201
 21
-0.4821428571428571
 31
0.0
  0
LINE
  5
175
330
147
100
AcDbEntity
  8
AM_9
100
AcDbLine
 10
-2.048265466638201
 20
-0.5624999999999999
 30
0.0
 11
-2.048265466638201
 21
-0.4821428571428571
 31
0.0
  0
LINE
  5
176
330
147
100
AcDbEntity
  8
AM_9
100
AcDbLine
 10
2.296875
 20
-0.5624999999999999
 30
0.0
 11
2.296875
 21
-0.4821428571428572
 31
0.0
  0
LINE
  5
177
330
147
100
AcDbEntity
  8
AM_9
100
AcDbLine
 10
-2.296875
 20
-0.4821428571428572
 30
0.0
 11
-2.296875
 21
-0.5624999999999999
 31
0.0
  0
LINE
  5
178
330
147
100
AcDbEntity
  8
AM_7
100
AcDbLine
 10
0.0
 20
-3.2828125
 30
0.0
 11
0.0
 21
0.09609375
 31
0.0
  0
LINE
  5
179
330
147
100
AcDbEntity
  8
AM_7
100
AcDbLine
 10
-2.032931995911324
 20
0.0296052631578946
 30
0.0
 11
-2.032931995911324
 21
-0.6217105263157896
 31
0.0
  0
LINE
  5
17A
330
147
100
AcDbEntity
  8
AM_7
100
AcDbLine
 10
2.032931995911324
 20
0.0296052631578949
 30
0.0
 11
2.032931995911324
 21
-0.6217105263157894
 31
0.0
  0
LINE
  5
17B
330
147
100
AcDbEntity
  8
AM_7
100
AcDbLine
 10
-0.5249999999999999
 20
-1.2734375
 30
0.0
 11
0.5249999999999995
 21
-1.2734375
 31
0.0
  0
LWPOLYLINE
  5
17C
330
147
100
AcDbEntity
  8
AM_4
100
AcDbPolyline
 90
        5
 70
     0
 43
0.0
 10
2.026617836768392
 20
-0.573091380676493
 10
2.027429798814609
 20
-0.5800677394457964
 10
2.034300284745501
 20
-0.5979898156129785
 10
2.048052807199468
 20
-0.6184895373841803
 10
2.048265466638201
 20
-0.6187499999999989
  0
LWPOLYLINE
  5
17D
330
147
100
AcDbEntity
  8
AM_4
100
AcDbPolyline
 90
        4
 70
     0
 43
0.0
 10
-2.026617836060848
 20
-0.573089844163466
 10
-2.026639183036963
 20
-0.5720756513840245
 10
-2.028165572181108
 20
-0.5659141180948296
 10
-2.033914899300315
 20
-0.5624999999999918
  0
LWPOLYLINE
  5
17E
330
147
100
AcDbEntity
  8
AM_4
100
AcDbPolyline
 90
        7
 70
     0
 43
0.0
 10
-1.18337967196889
 20
-0.5624999999999999
 10
-1.154682010863852
 20
-0.5659141180948553
 10
-1.133175957330399
 20
-0.5719395866347594
 10
-1.11184504893304
 20
-0.5800677394451039
 10
-1.074949020950597
 20
-0.5979898156125444
 10
-1.039767875406581
 20
-0.6184895373841561
 10
-1.039347556788583
 20
-0.6187499999999998
  0
LWPOLYLINE
  5
17F
330
147
100
AcDbEntity
  8
AM_4
100
AcDbPolyline
 90
        5
 70
     0
 43
0.0
 10
-2.048265466638201
 20
-0.61875
 10
-2.048052807199475
 20
-0.6184895373841506
 10
-2.034626942958511
 20
-0.5986036666282858
 10
-2.027429798814428
 20
-0.5800677394449453
 10
-2.026617836060848
 20
-0.573089844163466
  0
LWPOLYLINE
  5
180
330
147
100
AcDbEntity
  8
AM_4
100
AcDbPolyline
 90
        7
 70
     0
 43
0.0
 10
1.039347556788581
 20
-0.6187499999999998
 10
1.039767875406579
 20
-0.6184895373841519
 10
1.073817346584341
 20
-0.5986036666283078
 10
1.111845048933327
 20
-0.5800677394449822
 10
1.132770766081289
 20
-0.5720756513840443
 10
1.154682010863942
 20
-0.5659141180948356
 10
1.18337967196889
 20
-0.5624999999999999
  0
LWPOLYLINE
  5
181
330
147
100
AcDbEntity
  8
AM_4
100
AcDbPolyline
 90
        4
 70
     0
 43
0.0
 10
2.033914899300315
 20
-0.5624999999999918
 10
2.02816557218103
 20
-0.5659141180949683
 10
2.026645514507261
 20
-0.5719395866351213
 10
2.026617836768392
 20
-0.573091380676493
  0
LINE
  5
182
330
147
100
AcDbEntity
  8
AM_4
100
AcDbLine
 10
2.048265466638201
 20
-0.6187499999999999
 30
0.0
 11
2.048265466638201
 21
-0.5624999999999999
 31
0.0
  0
LINE
  5
183
330
147
100
AcDbEntity
  8
AM_4
100
AcDbLine
 10
1.039347556788581
 20
-0.6187499999999998
 30
0.0
 11
2.048265466638201
 21
-0.6187499999999999
 31
0.0
  0
LINE
  5
184
330
147
100
AcDbEntity
  8
AM_4
100
AcDbLine
 10
1.039347556788581
 20
-0.6187499999999998
 30
0.0
 11
1.039347556788583
 21
-0.482142857142857
 31
0.0
  0
LINE
  5
185
330
147
100
AcDbEntity
  8
AM_4
100
AcDbLine
 10
-1.039347556788583
 20
-0.6187499999999998
 30
0.0
 11
-1.039347556788583
 21
-0.482142857142857
 31
0.0
  0
LINE
  5
186
330
147
100
AcDbEntity
  8
AM_4
100
AcDbLine
 10
-2.048265466638201
 20
-0.6187499999999999
 30
0.0
 11
-1.039347556788583
 21
-0.6187499999999998
 31
0.0
  0
LINE
  5
187
330
147
100
AcDbEntity
  8
AM_4
100
AcDbLine
 10
-2.048265466638201
 20
-0.6187499999999999
 30
0.0
 11
-2.048265466638201
 21
-0.5624999999999999
 31
0.0
  0
LINE
  5
188
330
147
100
AcDbEntity
  8
AM_4
100
AcDbLine
 10
2.296875
 20
-1.865625
 30
0.0
 11
2.296875
 21
-0.5624999999999999
 31
0.0
  0
LINE
  5
189
330
147
100
AcDbEntity
  8
AM_4
100
AcDbLine
 10
-2.296875
 20
-0.5624999999999999
 30
0.0
 11
-2.296875
 21
-1.865625
 31
0.0
  0
LINE
  5
18A
330
147
100
AcDbEntity
  8
AM_4
100
AcDbLine
 10
-2.240625
 20
-1.921875
 30
0.0
 11
2.240624999996655
 21
-1.921875
 31
0.0
  0
LINE
  5
18B
330
147
100
AcDbEntity
  8
AM_4
100
AcDbLine
 10
-2.296875
 20
-1.865625
 30
0.0
 11
2.296875
 21
-1.865625
 31
0.0
  0
ARC
  5
18C
330
147
100
AcDbEntity
  8
AM_4
100
AcDbCircle
 10
2.240625
 20
-1.865625
 30
0.0
 40
0.0562500000000001
100
AcDbArc
 50
270.0
 51
0.0
  0
ARC
  5
18D
330
147
100
AcDbEntity
  8
AM_4
100
AcDbCircle
 10
-2.240625
 20
-1.865625
 30
0.0
 40
0.0562499999999999
100
AcDbArc
 50
180.0
 51
270.0
  0
CIRCLE
  5
18E
330
147
100
AcDbEntity
  8
AM_4
100
AcDbCircle
 10
0.0
 20
-1.2734375
 30
0.0
 40
0.3999999999999999
  0
LWPOLYLINE
  5
18F
330
147
100
AcDbEntity
  8
AM_4
100
AcDbPolyline
 90
        7
 70
     0
 43
0.0
 10
-2.600035236974493
 20
-0.5624999999999999
 10
-2.602696856135985
 20
-0.5623251654476968
 10
-2.614200844121493
 20
-0.5573135435887467
 10
-2.623979636149335
 20
-0.5459120195149567
 10
-2.630667233515788
 20
-0.5299021447981531
 10
-2.633635364369642
 20
-0.5117060501043073
 10
-2.633794421800918
 20
-0.5062500000000002
  0
LINE
  5
190
330
147
100
AcDbEntity
  8
AM_4
100
AcDbLine
 10
-2.600035236974493
 20
-0.5624999999999999
 30
0.0
 11
-1.18337967196889
 21
-0.5624999999999999
 31
0.0
  0
LWPOLYLINE
  5
191
330
147
100
AcDbEntity
  8
AM_4
100
AcDbPolyline
 90
        6
 70
     0
 43
0.0
 10
-2.060046360204152
 20
-0.5062500000000002
 10
-2.057511908587508
 20
-0.5242541623511274
 10
-2.050261453963907
 20
-0.5402298209591181
 10
-2.03898263398551
 20
-0.5527414820189889
 10
-2.024452930725008
 20
-0.5605412957507743
 10
-2.011833247685054
 20
-0.5624999999999999
  0
LINE
  5
192
330
147
100
AcDbEntity
  8
AM_4
100
AcDbLine
 10
-1.244563855806369
 20
-0.5624999999999999
 30
0.0
 11
-1.244563855806369
 21
-0.482142857142857
 31
0.0
  0
LINE
  5
193
330
147
100
AcDbEntity
  8
AM_4
100
AcDbLine
 10
1.18337967196889
 20
-0.5624999999999999
 30
0.0
 11
2.600035236974493
 21
-0.5624999999999999
 31
0.0
  0
LWPOLYLINE
  5
194
330
147
100
AcDbEntity
  8
AM_4
100
AcDbPolyline
 90
        6
 70
     0
 43
0.0
 10
2.633794421800918
 20
-0.5062500000000002
 10
2.632019779673716
 20
-0.5242541623511274
 10
2.626942956690823
 20
-0.540229820959118
 10
2.619045441919839
 20
-0.552741482018989
 10
2.608871634168885
 20
-0.5605412957507742
 10
2.600035236974493
 20
-0.5624999999999999
  0
LINE
  5
195
330
147
100
AcDbEntity
  8
AM_4
100
AcDbLine
 10
1.244563855806369
 20
-0.5624999999999999
 30
0.0
 11
1.244563855806369
 21
-0.482142857142857
 31
0.0
  0
LWPOLYLINE
  5
196
330
147
100
AcDbEntity
  8
AM_4
100
AcDbPolyline
 90
        7
 70
     0
 43
0.0
 10
2.011833247685054
 20
-0.5624999999999999
 10
2.015634433785246
 20
-0.5623251654476968
 10
2.032063831296334
 20
-0.5573135435887469
 10
2.046029393639243
 20
-0.5459120195149565
 10
2.055580272488037
 20
-0.5299021447981536
 10
2.059819202650717
 20
-0.5117060501043071
 10
2.060046360204152
 20
-0.5062500000000002
  0
LINE
  5
197
330
147
100
AcDbEntity
  8
AM_4
100
AcDbLine
 10
-2.060046360204152
 20
-0.482142857142857
 30
0.0
 11
2.060046360204153
 21
-0.482142857142857
 31
0.0
  0
LINE
  5
198
330
147
100
AcDbEntity
  8
AM_4
100
AcDbLine
 10
-3.34375
 20
0.0
 30
0.0
 11
3.34375
 21
0.0
 31
0.0
  0
LINE
  5
199
330
147
100
AcDbEntity
  8
AM_4
100
AcDbLine
 10
0.2498252511800483
 20
-0.4821428571428569
 30
0.0
 11
0.2498252511800483
 21
0.0000000000000002
 31
0.0
  0
LINE
  5
19A
330
147
100
AcDbEntity
  8
AM_4
100
AcDbLine
 10
2.060046360204152
 20
-0.5062500000000002
 30
0.0
 11
2.060046360204153
 21
-0.482142857142857
 31
0.0
  0
LINE
  5
19B
330
147
100
AcDbEntity
  8
AM_4
100
AcDbLine
 10
2.060046360204152
 20
-0.5062500000000002
 30
0.0
 11
2.633794421800918
 21
-0.5062500000000002
 31
0.0
  0
LINE
  5
19C
330
147
100
AcDbEntity
  8
AM_4
100
AcDbLine
 10
2.633794421800918
 20
-0.482142857142857
 30
0.0
 11
2.633794421800918
 21
-0.5062500000000002
 31
0.0
  0
LINE
  5
19D
330
147
100
AcDbEntity
  8
AM_4
100
AcDbLine
 10
2.633794421800918
 20
-0.482142857142857
 30
0.0
 11
3.34375
 21
-0.4821428571428572
 31
0.0
  0
LINE
  5
19E
330
147
100
AcDbEntity
  8
AM_4
100
AcDbLine
 10
-2.633794421800918
 20
-0.5062500000000002
 30
0.0
 11
-2.633794421800918
 21
-0.482142857142857
 31
0.0
  0
LINE
  5
19F
330
147
100
AcDbEntity
  8
AM_4
100
AcDbLine
 10
-2.633794421800918
 20
-0.5062500000000002
 30
0.0
 11
-2.060046360204152
 21
-0.5062500000000002
 31
0.0
  0
LINE
  5
1A0
330
147
100
AcDbEntity
  8
AM_4
100
AcDbLine
 10
-2.060046360204152
 20
-0.482142857142857
 30
0.0
 11
-2.060046360204152
 21
-0.5062500000000002
 31
0.0
  0
LINE
  5
1A1
330
147
100
AcDbEntity
  8
AM_4
100
AcDbLine
 10
-0.2498252511800426
 20
-0.4821428571428569
 30
0.0
 11
-0.2498252511800452
 21
0.0000000000000002
 31
0.0
  0
LINE
  5
1A2
330
147
100
AcDbEntity
  8
AM_4
100
AcDbLine
 10
3.34375
 20
-0.4821428571428572
 30
0.0
 11
3.34375
 21
0.0
 31
0.0
  0
LINE
  5
1A3
330
147
100
AcDbEntity
  8
AM_4
100
AcDbLine
 10
-3.34375
 20
0.0
 30
0.0
 11
-3.34375
 21
-0.4821428571428572
 31
0.0
  0
LINE
  5
1A4
330
147
100
AcDbEntity
  8
AM_4
100
AcDbLine
 10
-3.34375
 20
-0.4821428571428572
 30
0.0
 11
-2.633794421800918
 21
-0.482142857142857
 31
0.0
  0
CIRCLE
  5
1A5
330
147
100
AcDbEntity
  8
AM_4
100
AcDbCircle
 10
-0.0000000000000002
 20
-1.2734375
 30
0.0
 40
0.4999999999999997
  0
ENDBLK
  5
14A
330
147
100
AcDbEntity
  8
0
100
AcDbBlockEnd
  0
ENDSEC
  0
SECTION
  2
ENTITIES
  0
INSERT
  5
6F
330
1F
100
AcDbEntity
  8
0
100
AcDbBlockReference
  2
1_070497_4
 10
0.0
 20
0.0
 30
0.0
  0
POINT
  5
1A7
330
1F
100
AcDbEntity
  8
ConnectionPoints
100
AcDbPoint
 10
0.0
 20
-3.140625
 30
0.0000000000000002
  0
POINT
  5
1A8
330
1F
100
AcDbEntity
  8
ConnectionPoints
100
AcDbPoint
 10
0.0
 20
0.5928750000000003
 30
0.0
  0
POINT
  5
1A9
330
1F
100
AcDbEntity
  8
ConnectionPoints
100
AcDbPoint
 10
0.0
 20
-3.140625
 30
0.0000000000000002
  0
POINT
  5
1AA
330
1F
100
AcDbEntity
  8
ConnectionPoints
100
AcDbPoint
 10
0.0
 20
-1.2421875
 30
2.396875
  0
POINT
  5
1AB
330
1F
100
AcDbEntity
  8
ConnectionPoints
100
AcDbPoint
 10
0.0
 20
-1.2421875
 30
2.396875
  0
POINT
  5
1AC
330
1F
100
AcDbEntity
  8
ConnectionPoints
100
AcDbPoint
 10
0.0
 20
-2.890625
 30
0.0000000000000002
  0
POINT
  5
1AD
330
1F
100
AcDbEntity
  8
ConnectionPoints
100
AcDbPoint
 10
0.0
 20
-3.140625
 30
0.0000000000000002
  0
ENDSEC
  0
SECTION
  2
OBJECTS
  0
DICTIONARY
  5
C
330
0
100
AcDbDictionary
281
     1
  3
ACAD_DETAILVIEWSTYLE
350
1B5
  3
ACAD_GROUP
350
D
  3
ACAD_LAYOUT
350
1A
  3
ACAD_MATERIAL
350
43
  3
ACAD_MLEADERSTYLE
350
6B
  3
ACAD_MLINESTYLE
350
17
  3
ACAD_PLOTSETTINGS
350
19
  3
ACAD_PLOTSTYLENAME
350
E
  3
ACAD_SCALELIST
350
47
  3
ACAD_SECTIONVIEWSTYLE
350
1B6
  3
ACAD_TABLESTYLE
350
69
  3
ACAD_VISUALSTYLE
350
2A
  3
ACDB_RECOMPOSE_DATA
350
1B2
  3
AcDbVariableDictionary
350
1AE
  0
SUN
  5
6D
330
29
100
AcDbSun
 90
        1
290
     0
 63
     7
421
 16777215
 40
1.0
291
     1
 91
  2455826
 92
 54000000
292
     0
 70
     2
 71
   256
280
     1
  0
DICTIONARY
  5
1B5
102
{ACAD_REACTORS
330
C
102
}
330
C
100
AcDbDictionary
281
     1
  0
DICTIONARY
  5
D
102
{ACAD_REACTORS
330
C
102
}
330
C
100
AcDbDictionary
281
     1
  0
DICTIONARY
  5
1A
102
{ACAD_REACTORS
330
C
102
}
330
C
100
AcDbDictionary
281
     1
  3
Layout1
350
1E
  3
Layout2
350
26
  3
Model
350
22
  0
DICTIONARY
  5
43
102
{ACAD_REACTORS
330
C
102
}
330
C
100
AcDbDictionary
281
     1
  3
ByBlock
350
45
  3
ByLayer
350
44
  3
Global
350
46
  0
DICTIONARY
  5
6B
102
{ACAD_REACTORS
330
C
102
}
330
C
100
AcDbDictionary
281
     1
  3
Standard
350
6C
  0
DICTIONARY
  5
17
102
{ACAD_REACTORS
330
C
102
}
330
C
100
AcDbDictionary
281
     1
  3
Standard
350
18
  0
DICTIONARY
  5
19
102
{ACAD_REACTORS
330
C
102
}
330
C
100
AcDbDictionary
281
     1
  0
ACDBDICTIONARYWDFLT
  5
E
102
{ACAD_REACTORS
330
C
102
}
330
C
100
AcDbDictionary
281
     1
  3
Normal
350
F
100
AcDbDictionaryWithDefault
340
F
  0
DICTIONARY
  5
47
102
{ACAD_REACTORS
330
C
102
}
330
C
100
AcDbDictionary
281
     1
  3
A0
350
48
  3
A1
350
49
  3
A2
350
4A
  3
A3
350
4B
  3
A4
350
4C
  3
A5
350
4D
  3
A6
350
4E
  3
A7
350
4F
  3
A8
350
50
  3
A9
350
51
  3
B0
350
52
  3
B1
350
53
  3
B2
350
54
  3
B3
350
55
  3
B4
350
56
  3
B5
350
57
  3
B6
350
58
  3
B7
350
59
  3
B8
350
5A
  3
B9
350
5B
  3
C0
350
5C
  3
C1
350
5D
  3
C2
350
5E
  3
C3
350
5F
  3
C4
350
60
  3
C5
350
61
  3
C6
350
62
  3
C7
350
63
  3
C8
350
64
  3
C9
350
65
  3
D0
350
66
  3
D1
350
67
  3
D2
350
68
  0
DICTIONARY
  5
1B6
102
{ACAD_REACTORS
330
C
102
}
330
C
100
AcDbDictionary
281
     1
  0
DICTIONARY
  5
69
102
{ACAD_REACTORS
330
C
102
}
330
C
100
AcDbDictionary
281
     1
  3
Standard
350
6A
  0
DICTIONARY
  5
2A
102
{ACAD_REACTORS
330
C
102
}
330
C
100
AcDbDictionary
281
     1
  3
2dWireframe
350
2F
  3
Basic
350
32
  3
Brighten
350
36
  3
ColorChange
350
3A
  3
Conceptual
350
34
  3
Dim
350
35
  3
EdgeColorOff
350
3D
  3
Facepattern
350
39
  3
Flat
350
2B
  3
FlatWithEdges
350
2C
  3
Gouraud
350
2D
  3
GouraudWithEdges
350
2E
  3
Hidden
350
31
  3
JitterOff
350
3B
  3
Linepattern
350
38
  3
OverhangOff
350
3C
  3
Realistic
350
33
  3
Shaded
350
42
  3
Shaded with edges
350
41
  3
Shades of Gray
350
3E
  3
Sketchy
350
3F
  3
Thicken
350
37
  3
Wireframe
350
30
  3
X-Ray
350
40
  0
XRECORD
  5
1B2
102
{ACAD_REACTORS
330
C
102
}
330
C
100
AcDbXrecord
280
     1
 90
        1
330
6A
  0
DICTIONARY
  5
1AE
102
{ACAD_REACTORS
330
C
102
}
330
C
100
AcDbDictionary
281
     1
  3
CANNOSCALE
350
1AF
  3
CMLEADERSTYLE
350
1B4
  3
CTABLESTYLE
350
1B3
  0
LAYOUT
  5
1E
102
{ACAD_REACTORS
330
1A
102
}
330
1A
100
AcDbPlotSettings
  1

  2
none_device
  4

  6

 40
0.0
 41
0.0
 42
0.0
 43
0.0
 44
0.0
 45
0.0
 46
0.0
 47
0.0
 48
0.0
 49
0.0
140
0.0
141
0.0
142
1.0
143
1.0
 70
   688
 72
     0
 73
     0
 74
     5
  7

 75
    16
 76
     0
 77
     2
 78
   300
147
1.0
148
0.0
149
0.0
100
AcDbLayout
  1
Layout1
 70
     1
 71
     1
 10
0.0
 20
0.0
 11
12.0
 21
9.0
 12
0.0
 22
0.0
 32
0.0
 14
1.000000000000000E+20
 24
1.000000000000000E+20
 34
1.000000000000000E+20
 15
-1.000000000000000E+20
 25
-1.000000000000000E+20
 35
-1.000000000000000E+20
146
0.0
 13
0.0
 23
0.0
 33
0.0
 16
1.0
 26
0.0
 36
0.0
 17
0.0
 27
1.0
 37
0.0
 76
     0
330
1B
  0
LAYOUT
  5
26
102
{ACAD_REACTORS
330
1A
102
}
330
1A
100
AcDbPlotSettings
  1

  2
none_device
  4

  6

 40
0.0
 41
0.0
 42
0.0
 43
0.0
 44
0.0
 45
0.0
 46
0.0
 47
0.0
 48
0.0
 49
0.0
140
0.0
141
0.0
142
1.0
143
1.0
 70
   688
 72
     0
 73
     0
 74
     5
  7

 75
    16
 76
     0
 77
     2
 78
   300
147
1.0
148
0.0
149
0.0
100
AcDbLayout
  1
Layout2
 70
     1
 71
     2
 10
0.0
 20
0.0
 11
0.0
 21
0.0
 12
0.0
 22
0.0
 32
0.0
 14
0.0
 24
0.0
 34
0.0
 15
0.0
 25
0.0
 35
0.0
146
0.0
 13
0.0
 23
0.0
 33
0.0
 16
1.0
 26
0.0
 36
0.0
 17
0.0
 27
1.0
 37
0.0
 76
     0
330
23
  0
LAYOUT
  5
22
102
{ACAD_REACTORS
330
1A
102
}
330
1A
100
AcDbPlotSettings
  1

  2
none_device
  4
Letter_(8.50_x_11.00_Inches)
  6

 40
6.35
 41
6.35
 42
6.35000508
 43
6.35000508
 44
215.9
 45
279.4
 46
0.0
 47
0.0
 48
0.0
 49
0.0
140
0.0
141
0.0
142
1.0
143
1.0
 70
  1712
 72
     0
 73
     0
 74
     0
  7

 75
     0
 76
     0
 77
     2
 78
   300
147
1.0
148
0.0
149
0.0
100
AcDbLayout
  1
Model
 70
     1
 71
     0
 10
0.0
 20
0.0
 11
12.0
 21
9.0
 12
0.0
 22
0.0
 32
0.0
 14
1.000000000000000E+20
 24
1.000000000000000E+20
 34
1.000000000000000E+20
 15
-1.000000000000000E+20
 25
-1.000000000000000E+20
 35
-1.000000000000000E+20
146
0.0
 13
0.0
 23
0.0
 33
0.0
 16
1.0
 26
0.0
 36
0.0
 17
0.0
 27
1.0
 37
0.0
 76
     0
330
1F
331
29
  0
MATERIAL
  5
45
102
{ACAD_REACTORS
330
43
102
}
330
43
100
AcDbMaterial
  1
ByBlock
 72
     1
 94
      127
  0
MATERIAL
  5
44
102
{ACAD_REACTORS
330
43
102
}
330
43
100
AcDbMaterial
  1
ByLayer
 72
     1
 94
      127
  0
MATERIAL
  5
46
102
{ACAD_REACTORS
330
43
102
}
330
43
100
AcDbMaterial
  1
Global
 72
     1
 94
      127
  0
MLEADERSTYLE
  5
6C
102
{ACAD_REACTORS
330
6B
102
}
330
6B
100
AcDbMLeaderStyle
179
     2
170
     2
171
     1
172
     0
 90
        2
 40
0.0
 41
0.0
173
     1
 91
-1056964608
340
14
 92
       -2
290
     1
 42
0.09
291
     1
 43
0.36
  3
Standard
341
0
 44
0.18
300

342
11
174
     1
178
     6
175
     1
176
     0
 93
-1056964608
 45
0.18
292
     0
297
     0
 46
0.18
343
0
 94
-1056964608
 47
1.0
 49
1.0
140
1.0
293
     1
141
0.0
294
     1
177
     0
142
1.0
295
     0
296
     0
143
0.125
271
     0
272
     9
273
     9
298
     0
  0
MLINESTYLE
  5
18
102
{ACAD_REACTORS
330
17
102
}
330
17
100
AcDbMlineStyle
  2
Standard
 70
     0
  3

 62
   256
 51
90.0
 52
90.0
 71
     2
 49
0.5
 62
   256
  6
BYLAYER
 49
-0.5
 62
   256
  6
BYLAYER
  0
ACDBPLACEHOLDER
  5
F
102
{ACAD_REACTORS
330
E
102
}
330
E
  0
SCALE
  5
48
102
{ACAD_REACTORS
330
47
102
}
330
47
100
AcDbScale
 70
     0
300
1:1
140
1.0
141
1.0
290
     1
  0
SCALE
  5
49
102
{ACAD_REACTORS
330
47
102
}
330
47
100
AcDbScale
 70
     0
300
1:2
140
1.0
141
2.0
290
     0
  0
SCALE
  5
4A
102
{ACAD_REACTORS
330
47
102
}
330
47
100
AcDbScale
 70
     0
300
1:4
140
1.0
141
4.0
290
     0
  0
SCALE
  5
4B
102
{ACAD_REACTORS
330
47
102
}
330
47
100
AcDbScale
 70
     0
300
1:5
140
1.0
141
5.0
290
     0
  0
SCALE
  5
4C
102
{ACAD_REACTORS
330
47
102
}
330
47
100
AcDbScale
 70
     0
300
1:8
140
1.0
141
8.0
290
     0
  0
SCALE
  5
4D
102
{ACAD_REACTORS
330
47
102
}
330
47
100
AcDbScale
 70
     0
300
1:10
140
1.0
141
10.0
290
     0
  0
SCALE
  5
4E
102
{ACAD_REACTORS
330
47
102
}
330
47
100
AcDbScale
 70
     0
300
1:16
140
1.0
141
16.0
290
     0
  0
SCALE
  5
4F
102
{ACAD_REACTORS
330
47
102
}
330
47
100
AcDbScale
 70
     0
300
1:20
140
1.0
141
20.0
290
     0
  0
SCALE
  5
50
102
{ACAD_REACTORS
330
47
102
}
330
47
100
AcDbScale
 70
     0
300
1:30
140
1.0
141
30.0
290
     0
  0
SCALE
  5
51
102
{ACAD_REACTORS
330
47
102
}
330
47
100
AcDbScale
 70
     0
300
1:40
140
1.0
141
40.0
290
     0
  0
SCALE
  5
52
102
{ACAD_REACTORS
330
47
102
}
330
47
100
AcDbScale
 70
     0
300
1:50
140
1.0
141
50.0
290
     0
  0
SCALE
  5
53
102
{ACAD_REACTORS
330
47
102
}
330
47
100
AcDbScale
 70
     0
300
1:100
140
1.0
141
100.0
290
     0
  0
SCALE
  5
54
102
{ACAD_REACTORS
330
47
102
}
330
47
100
AcDbScale
 70
     0
300
2:1
140
2.0
141
1.0
290
     0
  0
SCALE
  5
55
102
{ACAD_REACTORS
330
47
102
}
330
47
100
AcDbScale
 70
     0
300
4:1
140
4.0
141
1.0
290
     0
  0
SCALE
  5
56
102
{ACAD_REACTORS
330
47
102
}
330
47
100
AcDbScale
 70
     0
300
8:1
140
8.0
141
1.0
290
     0
  0
SCALE
  5
57
102
{ACAD_REACTORS
330
47
102
}
330
47
100
AcDbScale
 70
     0
300
10:1
140
10.0
141
1.0
290
     0
  0
SCALE
  5
58
102
{ACAD_REACTORS
330
47
102
}
330
47
100
AcDbScale
 70
     0
300
100:1
140
100.0
141
1.0
290
     0
  0
SCALE
  5
59
102
{ACAD_REACTORS
330
47
102
}
330
47
100
AcDbScale
 70
     0
300
1/128" = 1'-0"
140
0.0078125
141
12.0
290
     0
  0
SCALE
  5
5A
102
{ACAD_REACTORS
330
47
102
}
330
47
100
AcDbScale
 70
     0
300
1/64" = 1'-0"
140
0.015625
141
12.0
290
     0
  0
SCALE
  5
5B
102
{ACAD_REACTORS
330
47
102
}
330
47
100
AcDbScale
 70
     0
300
1/32" = 1'-0"
140
0.03125
141
12.0
290
     0
  0
SCALE
  5
5C
102
{ACAD_REACTORS
330
47
102
}
330
47
100
AcDbScale
 70
     0
300
1/16" = 1'-0"
140
0.0625
141
12.0
290
     0
  0
SCALE
  5
5D
102
{ACAD_REACTORS
330
47
102
}
330
47
100
AcDbScale
 70
     0
300
3/32" = 1'-0"
140
0.09375
141
12.0
290
     0
  0
SCALE
  5
5E
102
{ACAD_REACTORS
330
47
102
}
330
47
100
AcDbScale
 70
     0
300
1/8" = 1'-0"
140
0.125
141
12.0
290
     0
  0
SCALE
  5
5F
102
{ACAD_REACTORS
330
47
102
}
330
47
100
AcDbScale
 70
     0
300
3/16" = 1'-0"
140
0.1875
141
12.0
290
     0
  0
SCALE
  5
60
102
{ACAD_REACTORS
330
47
102
}
330
47
100
AcDbScale
 70
     0
300
1/4" = 1'-0"
140
0.25
141
12.0
290
     0
  0
SCALE
  5
61
102
{ACAD_REACTORS
330
47
102
}
330
47
100
AcDbScale
 70
     0
300
3/8" = 1'-0"
140
0.375
141
12.0
290
     0
  0
SCALE
  5
62
102
{ACAD_REACTORS
330
47
102
}
330
47
100
AcDbScale
 70
     0
300
1/2" = 1'-0"
140
0.5
141
12.0
290
     0
  0
SCALE
  5
63
102
{ACAD_REACTORS
330
47
102
}
330
47
100
AcDbScale
 70
     0
300
3/4" = 1'-0"
140
0.75
141
12.0
290
     0
  0
SCALE
  5
64
102
{ACAD_REACTORS
330
47
102
}
330
47
100
AcDbScale
 70
     0
300
1" = 1'-0"
140
1.0
141
12.0
290
     0
  0
SCALE
  5
65
102
{ACAD_REACTORS
330
47
102
}
330
47
100
AcDbScale
 70
     0
300
1-1/2" = 1'-0"
140
1.5
141
12.0
290
     0
  0
SCALE
  5
66
102
{ACAD_REACTORS
330
47
102
}
330
47
100
AcDbScale
 70
     0
300
3" = 1'-0"
140
3.0
141
12.0
290
     0
  0
SCALE
  5
67
102
{ACAD_REACTORS
330
47
102
}
330
47
100
AcDbScale
 70
     0
300
6" = 1'-0"
140
6.0
141
12.0
290
     0
  0
SCALE
  5
68
102
{ACAD_REACTORS
330
47
102
}
330
47
100
AcDbScale
 70
     0
300
1'-0" = 1'-0"
140
12.0
141
12.0
290
     0
  0
TABLESTYLE
  5
6A
102
{ACAD_REACTORS
330
69
102
}
102
{ACAD_XDICTIONARY
360
1B0
102
}
330
69
100
AcDbTableStyle
  3
Standard
 70
     0
 71
     0
 40
0.06
 41
0.06
280
     0
281
     0
  7
Standard
140
0.18
170
     2
 62
     0
 63
   257
283
     0
 90
        4
 91
        0
  1

274
    -2
284
     1
 64
     0
275
    -2
285
     1
 65
     0
276
    -2
286
     1
 66
     0
277
    -2
287
     1
 67
     0
278
    -2
288
     1
 68
     0
279
    -2
289
     1
 69
     0
  7
Standard
140
0.25
170
     5
 62
     0
 63
   257
283
     0
 90
        4
 91
        0
  1

274
    -2
284
     1
 64
     0
275
    -2
285
     1
 65
     0
276
    -2
286
     1
 66
     0
277
    -2
287
     1
 67
     0
278
    -2
288
     1
 68
     0
279
    -2
289
     1
 69
     0
  7
Standard
140
0.18
170
     5
 62
     0
 63
   257
283
     0
 90
        4
 91
        0
  1

274
    -2
284
     1
 64
     0
275
    -2
285
     1
 65
     0
276
    -2
286
     1
 66
     0
277
    -2
287
     1
 67
     0
278
    -2
288
     1
 68
     0
279
    -2
289
     1
 69
     0
  0
VISUALSTYLE
  5
2F
102
{ACAD_REACTORS
330
2A
102
}
330
2A
100
AcDbVisualStyle
  2
2dWireframe
 70
     4
177
     3
291
     0
 70
    58
 90
        0
176
     1
 90
        2
176
     1
 90
        0
176
     1
 90
        0
176
     1
 40
0.6
176
     1
 40
30.0
176
     1
 62
     7
420
 16777215
176
     1
 90
        1
176
     1
 90
        4
176
     1
 62
     7
176
     1
 62
   257
176
     1
 90
        1
176
     1
 90
        1
176
     1
 40
1.0
176
     1
 90
        0
176
     1
 62
   257
176
     1
 40
1.0
176
     1
 90
        1
176
     1
 90
        6
176
     1
 90
        2
176
     1
 62
     7
176
     1
 90
        5
176
     1
 90
        0
176
     1
 90
        0
176
     1
290
     0
176
     1
 90
        1
176
     1
 40
0.0
176
     1
 90
        0
176
     1
290
     1
176
     1
290
     1
176
     1
290
     0
176
     1
290
     0
176
     1
290
     0
176
     1
290
     0
176
     1
290
     0
176
     1
290
     0
176
     1
290
     0
176
     1
 90
       50
176
     1
 40
0.0
176
     1
 40
1.0
176
     1
 90
        0
176
     1
 62
    18
420
        0
176
     1
 90
       50
176
     1
 90
        3
176
     1
 62
     5
420
      255
176
     1
290
     0
176
     1
 90
       50
176
     1
 90
       50
176
     1
 90
       50
176
     1
290
     0
176
     1
 90
       50
176
     1
 62
   256
176
     0
 40
1.0
176
     0
 90
        2
176
     1
  1
strokes_ogs.tif
176
     1
290
     0
176
     1
 40
1.0
176
     1
 40
1.0
176
     1
  0
VISUALSTYLE
  5
32
102
{ACAD_REACTORS
330
2A
102
}
330
2A
100
AcDbVisualStyle
  2
Basic
 70
     7
177
     3
291
     1
 70
    58
 90
        1
176
     1
 90
        0
176
     1
 90
        1
176
     1
 90
        0
176
     1
 40
0.6
176
     1
 40
30.0
176
     1
 62
     7
420
 16777215
176
     1
 90
        0
176
     1
 90
        4
176
     1
 62
     7
176
     1
 62
   257
176
     1
 90
        1
176
     1
 90
        1
176
     1
 40
1.0
176
     1
 90
        8
176
     1
 62
     7
176
     1
 40
1.0
176
     1
 90
        1
176
     1
 90
        6
176
     1
 90
        2
176
     1
 62
     7
176
     1
 90
        5
176
     1
 90
        0
176
     1
 90
        0
176
     1
290
     0
176
     1
 90
        1
176
     1
 40
0.0
176
     1
 90
        0
176
     1
290
     0
176
     1
290
     1
176
     1
290
     1
176
     1
290
     0
176
     1
290
     0
176
     1
290
     0
176
     1
290
     0
176
     1
290
     0
176
     1
290
     0
176
     1
 90
       50
176
     1
 40
0.0
176
     1
 40
1.0
176
     1
 90
        0
176
     1
 62
    18
420
        0
176
     1
 90
       50
176
     1
 90
        3
176
     1
 62
     5
420
      255
176
     1
290
     0
176
     1
 90
       50
176
     1
 90
       50
176
     1
 90
       50
176
     1
290
     0
176
     1
 90
       50
176
     1
 62
   256
176
     0
 40
1.0
176
     0
 90
        2
176
     1
  1
strokes_ogs.tif
176
     1
290
     0
176
     1
 40
1.0
176
     1
 40
1.0
176
     1
  0
VISUALSTYLE
  5
36
102
{ACAD_REACTORS
330
2A
102
}
330
2A
100
AcDbVisualStyle
  2
Brighten
 70
    12
177
     3
291
     1
 70
    58
 90
        2
176
     1
 90
        2
176
     1
 90
        0
176
     1
 90
        0
176
     1
 40
0.6
176
     1
 40
30.0
176
     1
 62
     7
420
 16777215
176
     1
 90
        1
176
     1
 90
        4
176
     1
 62
     7
176
     1
 62
   257
176
     1
 90
        1
176
     1
 90
        1
176
     1
 40
1.0
176
     1
 90
        8
176
     1
 62
     7
176
     1
 40
1.0
176
     1
 90
        1
176
     1
 90
        6
176
     1
 90
        2
176
     1
 62
     7
176
     1
 90
        5
176
     1
 90
        0
176
     1
 90
        0
176
     1
290
     0
176
     1
 90
        1
176
     1
 40
50.0
176
     1
 90
        0
176
     1
290
     0
176
     1
290
     1
176
     1
290
     1
176
     1
290
     0
176
     1
290
     0
176
     1
290
     0
176
     1
290
     0
176
     1
290
     0
176
     1
290
     0
176
     1
 90
       50
176
     1
 40
0.0
176
     1
 40
1.0
176
     1
 90
        0
176
     1
 62
    18
420
        0
176
     1
 90
       50
176
     1
 90
        3
176
     1
 62
     5
420
      255
176
     1
290
     0
176
     1
 90
       50
176
     1
 90
       50
176
     1
 90
       50
176
     1
290
     0
176
     1
 90
       50
176
     1
 62
   256
176
     0
 40
1.0
176
     0
 90
        2
176
     1
  1
strokes_ogs.tif
176
     1
290
     0
176
     1
 40
1.0
176
     1
 40
1.0
176
     1
  0
VISUALSTYLE
  5
3A
102
{ACAD_REACTORS
330
2A
102
}
330
2A
100
AcDbVisualStyle
  2
ColorChange
 70
    16
177
     3
291
     1
 70
    58
 90
        2
176
     1
 90
        2
176
     1
 90
        3
176
     1
 90
        0
176
     1
 40
0.6
176
     1
 40
30.0
176
     1
 62
     8
420
  8421504
176
     1
 90
        1
176
     1
 90
        4
176
     1
 62
     7
176
     1
 62
   257
176
     1
 90
        1
176
     1
 90
        1
176
     1
 40
1.0
176
     1
 90
        8
176
     1
 62
     8
420
  8421504
176
     1
 40
1.0
176
     1
 90
        1
176
     1
 90
        6
176
     1
 90
        2
176
     1
 62
     7
176
     1
 90
        5
176
     1
 90
        0
176
     1
 90
        0
176
     1
290
     0
176
     1
 90
        1
176
     1
 40
0.0
176
     1
 90
        0
176
     1
290
     0
176
     1
290
     1
176
     1
290
     1
176
     1
290
     0
176
     1
290
     0
176
     1
290
     0
176
     1
290
     0
176
     1
290
     0
176
     1
290
     0
176
     1
 90
       50
176
     1
 40
0.0
176
     1
 40
1.0
176
     1
 90
        0
176
     1
 62
    18
420
        0
176
     1
 90
       50
176
     1
 90
        3
176
     1
 62
     5
420
      255
176
     1
290
     0
176
     1
 90
       50
176
     1
 90
       50
176
     1
 90
       50
176
     1
290
     0
176
     1
 90
       50
176
     1
 62
   256
176
     0
 40
1.0
176
     0
 90
        2
176
     1
  1
strokes_ogs.tif
176
     1
290
     0
176
     1
 40
1.0
176
     1
 40
1.0
176
     1
  0
VISUALSTYLE
  5
34
102
{ACAD_REACTORS
330
2A
102
}
330
2A
100
AcDbVisualStyle
  2
Conceptual
 70
     9
177
     3
291
     0
 70
    58
 90
        3
176
     1
 90
        2
176
     1
 90
        0
176
     1
 90
        0
176
     1
 40
0.6
176
     1
 40
30.0
176
     1
 62
     7
420
 16777215
176
     1
 90
        2
176
     1
 90
        2
176
     1
 62
     7
176
     1
 62
   257
176
     1
 90
        1
176
     1
 90
        1
176
     1
 40
179.0
176
     1
 90
        8
176
     1
 62
     7
176
     1
 40
1.0
176
     1
 90
        1
176
     1
 90
        6
176
     1
 90
        2
176
     1
 62
     7
176
     1
 90
        3
176
     1
 90
        0
176
     1
 90
        0
176
     1
290
     0
176
     1
 90
        1
176
     1
 40
0.0
176
     1
 90
        0
176
     1
290
     0
176
     1
290
     1
176
     1
290
     1
176
     1
290
     0
176
     1
290
     0
176
     1
290
     0
176
     1
290
     0
176
     1
290
     0
176
     1
290
     0
176
     1
 90
       50
176
     1
 40
0.0
176
     1
 40
1.0
176
     1
 90
        0
176
     1
 62
    18
420
        0
176
     1
 90
       50
176
     1
 90
        3
176
     1
 62
     5
420
      255
176
     1
290
     0
176
     1
 90
       50
176
     1
 90
       50
176
     1
 90
       50
176
     1
290
     0
176
     1
 90
       50
176
     1
 62
   256
176
     0
 40
1.0
176
     0
 90
        2
176
     1
  1
strokes_ogs.tif
176
     1
290
     0
176
     1
 40
1.0
176
     1
 40
1.0
176
     1
  0
VISUALSTYLE
  5
35
102
{ACAD_REACTORS
330
2A
102
}
330
2A
100
AcDbVisualStyle
  2
Dim
 70
    11
177
     3
291
     1
 70
    58
 90
        2
176
     1
 90
        2
176
     1
 90
        0
176
     1
 90
        0
176
     1
 40
0.6
176
     1
 40
30.0
176
     1
 62
     7
420
 16777215
176
     1
 90
        1
176
     1
 90
        4
176
     1
 62
     7
176
     1
 62
   257
176
     1
 90
        1
176
     1
 90
        1
176
     1
 40
1.0
176
     1
 90
        8
176
     1
 62
     7
176
     1
 40
1.0
176
     1
 90
        1
176
     1
 90
        6
176
     1
 90
        2
176
     1
 62
     7
176
     1
 90
        5
176
     1
 90
        0
176
     1
 90
        0
176
     1
290
     0
176
     1
 90
        1
176
     1
 40
-50.0
176
     1
 90
        0
176
     1
290
     0
176
     1
290
     1
176
     1
290
     1
176
     1
290
     0
176
     1
290
     0
176
     1
290
     0
176
     1
290
     0
176
     1
290
     0
176
     1
290
     0
176
     1
 90
       50
176
     1
 40
0.0
176
     1
 40
1.0
176
     1
 90
        0
176
     1
 62
    18
420
        0
176
     1
 90
       50
176
     1
 90
        3
176
     1
 62
     5
420
      255
176
     1
290
     0
176
     1
 90
       50
176
     1
 90
       50
176
     1
 90
       50
176
     1
290
     0
176
     1
 90
       50
176
     1
 62
   256
176
     0
 40
1.0
176
     0
 90
        2
176
     1
  1
strokes_ogs.tif
176
     1
290
     0
176
     1
 40
1.0
176
     1
 40
1.0
176
     1
  0
VISUALSTYLE
  5
3D
102
{ACAD_REACTORS
330
2A
102
}
330
2A
100
AcDbVisualStyle
  2
EdgeColorOff
 70
    22
177
     3
291
     1
 70
    58
 90
        2
176
     0
 90
        2
176
     0
 90
        0
176
     0
 90
        0
176
     0
 40
0.6
176
     0
 40
30.0
176
     0
 62
     7
420
 16777215
176
     0
 90
        1
176
     0
 90
        4
176
     0
 62
     7
176
     0
 62
   257
176
     0
 90
        1
176
     0
 90
        1
176
     0
 40
1.0
176
     0
 90
        8
176
     2
 62
     7
176
     0
 40
1.0
176
     0
 90
        1
176
     0
 90
        6
176
     0
 90
        2
176
     0
 62
     7
176
     0
 90
        5
176
     0
 90
        0
176
     0
 90
        0
176
     0
290
     0
176
     0
 90
        1
176
     0
 40
0.0
176
     0
 90
        0
176
     0
290
     0
176
     0
290
     1
176
     0
290
     1
176
     0
290
     0
176
     0
290
     0
176
     0
290
     0
176
     0
290
     0
176
     0
290
     0
176
     0
290
     0
176
     0
 90
       50
176
     0
 40
0.0
176
     0
 40
1.0
176
     0
 90
        0
176
     0
 62
    18
420
        0
176
     0
 90
       50
176
     0
 90
        3
176
     0
 62
     5
420
      255
176
     0
290
     0
176
     0
 90
       50
176
     0
 90
       50
176
     0
 90
       50
176
     0
290
     0
176
     0
 90
       50
176
     0
 62
   256
176
     0
 40
1.0
176
     0
 90
        2
176
     0
  1
strokes_ogs.tif
176
     0
290
     0
176
     0
 40
1.0
176
     0
 40
1.0
176
     0
  0
VISUALSTYLE
  5
39
102
{ACAD_REACTORS
330
2A
102
}
330
2A
100
AcDbVisualStyle
  2
Facepattern
 70
    15
177
     3
291
     1
 70
    58
 90
        2
176
     1
 90
        2
176
     1
 90
        0
176
     1
 90
        0
176
     1
 40
0.6
176
     1
 40
30.0
176
     1
 62
     7
420
 16777215
176
     1
 90
        1
176
     1
 90
        4
176
     1
 62
     7
176
     1
 62
   257
176
     1
 90
        1
176
     1
 90
        1
176
     1
 40
1.0
176
     1
 90
        8
176
     1
 62
     7
176
     1
 40
1.0
176
     1
 90
        1
176
     1
 90
        6
176
     1
 90
        2
176
     1
 62
     7
176
     1
 90
        5
176
     1
 90
        0
176
     1
 90
        0
176
     1
290
     0
176
     1
 90
        1
176
     1
 40
0.0
176
     1
 90
        0
176
     1
290
     0
176
     1
290
     1
176
     1
290
     1
176
     1
290
     0
176
     1
290
     0
176
     1
290
     0
176
     1
290
     0
176
     1
290
     0
176
     1
290
     0
176
     1
 90
       50
176
     1
 40
0.0
176
     1
 40
1.0
176
     1
 90
        0
176
     1
 62
    18
420
        0
176
     1
 90
       50
176
     1
 90
        3
176
     1
 62
     5
420
      255
176
     1
290
     0
176
     1
 90
       50
176
     1
 90
       50
176
     1
 90
       50
176
     1
290
     0
176
     1
 90
       50
176
     1
 62
   256
176
     0
 40
1.0
176
     0
 90
        2
176
     1
  1
strokes_ogs.tif
176
     1
290
     0
176
     1
 40
1.0
176
     1
 40
1.0
176
     1
  0
VISUALSTYLE
  5
2B
102
{ACAD_REACTORS
330
2A
102
}
330
2A
100
AcDbVisualStyle
  2
Flat
 70
     0
177
     3
291
     1
 70
    58
 90
        2
176
     1
 90
        1
176
     1
 90
        1
176
     1
 90
        2
176
     1
 40
0.6
176
     1
 40
30.0
176
     1
 62
     7
420
 16777215
176
     1
 90
        0
176
     1
 90
        0
176
     1
 62
     7
176
     1
 62
   257
176
     1
 90
        1
176
     1
 90
        1
176
     1
 40
1.0
176
     1
 90
        8
176
     1
 62
     7
176
     1
 40
1.0
176
     1
 90
        1
176
     1
 90
        6
176
     1
 90
        2
176
     1
 62
     7
176
     1
 90
        5
176
     1
 90
        0
176
     1
 90
        0
176
     1
290
     0
176
     1
 90
       13
176
     1
 40
0.0
176
     1
 90
        0
176
     1
290
     0
176
     1
290
     1
176
     1
290
     1
176
     1
290
     0
176
     1
290
     0
176
     1
290
     0
176
     1
290
     0
176
     1
290
     0
176
     1
290
     0
176
     1
 90
       50
176
     1
 40
0.0
176
     1
 40
1.0
176
     1
 90
        0
176
     1
 62
    18
420
        0
176
     1
 90
       50
176
     1
 90
        3
176
     1
 62
     5
420
      255
176
     1
290
     0
176
     1
 90
       50
176
     1
 90
       50
176
     1
 90
       50
176
     1
290
     0
176
     1
 90
       50
176
     1
 62
   256
176
     0
 40
1.0
176
     0
 90
        2
176
     1
  1
strokes_ogs.tif
176
     1
290
     0
176
     1
 40
1.0
176
     1
 40
1.0
176
     1
  0
VISUALSTYLE
  5
2C
102
{ACAD_REACTORS
330
2A
102
}
330
2A
100
AcDbVisualStyle
  2
FlatWithEdges
 70
     1
177
     3
291
     1
 70
    58
 90
        2
176
     1
 90
        1
176
     1
 90
        1
176
     1
 90
        2
176
     1
 40
0.6
176
     1
 40
30.0
176
     1
 62
     7
420
 16777215
176
     1
 90
        1
176
     1
 90
        0
176
     1
 62
     7
176
     1
 62
   257
176
     1
 90
        1
176
     1
 90
        1
176
     1
 40
1.0
176
     1
 90
        0
176
     1
 62
   257
176
     1
 40
1.0
176
     1
 90
        1
176
     1
 90
        6
176
     1
 90
        2
176
     1
 62
     7
176
     1
 90
        5
176
     1
 90
        0
176
     1
 90
        0
176
     1
290
     0
176
     1
 90
       13
176
     1
 40
0.0
176
     1
 90
        0
176
     1
290
     0
176
     1
290
     1
176
     1
290
     1
176
     1
290
     0
176
     1
290
     0
176
     1
290
     0
176
     1
290
     0
176
     1
290
     0
176
     1
290
     0
176
     1
 90
       50
176
     1
 40
0.0
176
     1
 40
1.0
176
     1
 90
        0
176
     1
 62
    18
420
        0
176
     1
 90
       50
176
     1
 90
        3
176
     1
 62
     5
420
      255
176
     1
290
     0
176
     1
 90
       50
176
     1
 90
       50
176
     1
 90
       50
176
     1
290
     0
176
     1
 90
       50
176
     1
 62
   256
176
     0
 40
1.0
176
     0
 90
        2
176
     1
  1
strokes_ogs.tif
176
     1
290
     0
176
     1
 40
1.0
176
     1
 40
1.0
176
     1
  0
VISUALSTYLE
  5
2D
102
{ACAD_REACTORS
330
2A
102
}
330
2A
100
AcDbVisualStyle
  2
Gouraud
 70
     2
177
     3
291
     1
 70
    58
 90
        2
176
     1
 90
        2
176
     1
 90
        1
176
     1
 90
        2
176
     1
 40
0.6
176
     1
 40
30.0
176
     1
 62
     7
420
 16777215
176
     1
 90
        0
176
     1
 90
        0
176
     1
 62
     7
176
     1
 62
   257
176
     1
 90
        1
176
     1
 90
        1
176
     1
 40
1.0
176
     1
 90
        0
176
     1
 62
     7
176
     1
 40
1.0
176
     1
 90
        1
176
     1
 90
        6
176
     1
 90
        2
176
     1
 62
     7
176
     1
 90
        5
176
     1
 90
        0
176
     1
 90
        0
176
     1
290
     0
176
     1
 90
       13
176
     1
 40
0.0
176
     1
 90
        0
176
     1
290
     0
176
     1
290
     1
176
     1
290
     1
176
     1
290
     0
176
     1
290
     0
176
     1
290
     0
176
     1
290
     0
176
     1
290
     0
176
     1
290
     0
176
     1
 90
       50
176
     1
 40
0.0
176
     1
 40
1.0
176
     1
 90
        0
176
     1
 62
    18
420
        0
176
     1
 90
       50
176
     1
 90
        3
176
     1
 62
     5
420
      255
176
     1
290
     0
176
     1
 90
       50
176
     1
 90
       50
176
     1
 90
       50
176
     1
290
     0
176
     1
 90
       50
176
     1
 62
   256
176
     0
 40
1.0
176
     0
 90
        2
176
     1
  1
strokes_ogs.tif
176
     1
290
     0
176
     1
 40
1.0
176
     1
 40
1.0
176
     1
  0
VISUALSTYLE
  5
2E
102
{ACAD_REACTORS
330
2A
102
}
330
2A
100
AcDbVisualStyle
  2
GouraudWithEdges
 70
     3
177
     3
291
     1
 70
    58
 90
        2
176
     1
 90
        2
176
     1
 90
        1
176
     1
 90
        2
176
     1
 40
0.6
176
     1
 40
30.0
176
     1
 62
     7
420
 16777215
176
     1
 90
        1
176
     1
 90
        0
176
     1
 62
     7
176
     1
 62
   257
176
     1
 90
        1
176
     1
 90
        1
176
     1
 40
1.0
176
     1
 90
        0
176
     1
 62
   257
176
     1
 40
1.0
176
     1
 90
        1
176
     1
 90
        6
176
     1
 90
        2
176
     1
 62
     7
176
     1
 90
        5
176
     1
 90
        0
176
     1
 90
        0
176
     1
290
     0
176
     1
 90
       13
176
     1
 40
0.0
176
     1
 90
        0
176
     1
290
     0
176
     1
290
     1
176
     1
290
     1
176
     1
290
     0
176
     1
290
     0
176
     1
290
     0
176
     1
290
     0
176
     1
290
     0
176
     1
290
     0
176
     1
 90
       50
176
     1
 40
0.0
176
     1
 40
1.0
176
     1
 90
        0
176
     1
 62
    18
420
        0
176
     1
 90
       50
176
     1
 90
        3
176
     1
 62
     5
420
      255
176
     1
290
     0
176
     1
 90
       50
176
     1
 90
       50
176
     1
 90
       50
176
     1
290
     0
176
     1
 90
       50
176
     1
 62
   256
176
     0
 40
1.0
176
     0
 90
        2
176
     1
  1
strokes_ogs.tif
176
     1
290
     0
176
     1
 40
1.0
176
     1
 40
1.0
176
     1
  0
VISUALSTYLE
  5
31
102
{ACAD_REACTORS
330
2A
102
}
330
2A
100
AcDbVisualStyle
  2
Hidden
 70
     6
177
     3
291
     0
 70
    58
 90
        1
176
     1
 90
        2
176
     1
 90
        2
176
     1
 90
        0
176
     1
 40
0.6
176
     1
 40
30.0
176
     1
 62
     7
420
 16777215
176
     1
 90
        2
176
     1
 90
        2
176
     1
 62
     7
176
     1
 62
   257
176
     1
 90
        2
176
     1
 90
        1
176
     1
 40
40.0
176
     1
 90
        0
176
     1
 62
   257
176
     1
 40
1.0
176
     1
 90
        1
176
     1
 90
        6
176
     1
 90
        2
176
     1
 62
     7
176
     1
 90
        3
176
     1
 90
        0
176
     1
 90
        0
176
     1
290
     0
176
     1
 90
        1
176
     1
 40
0.0
176
     1
 90
        0
176
     1
290
     0
176
     1
290
     1
176
     1
290
     1
176
     1
290
     0
176
     1
290
     0
176
     1
290
     0
176
     1
290
     0
176
     1
290
     0
176
     1
290
     0
176
     1
 90
       50
176
     1
 40
0.0
176
     1
 40
1.0
176
     1
 90
        0
176
     1
 62
    18
420
        0
176
     1
 90
       50
176
     1
 90
        3
176
     1
 62
     5
420
      255
176
     1
290
     0
176
     1
 90
       50
176
     1
 90
       50
176
     1
 90
       50
176
     1
290
     0
176
     1
 90
       50
176
     1
 62
   256
176
     0
 40
1.0
176
     0
 90
        2
176
     1
  1
strokes_ogs.tif
176
     1
290
     0
176
     1
 40
1.0
176
     1
 40
1.0
176
     1
  0
VISUALSTYLE
  5
3B
102
{ACAD_REACTORS
330
2A
102
}
330
2A
100
AcDbVisualStyle
  2
JitterOff
 70
    20
177
     3
291
     1
 70
    58
 90
        2
176
     0
 90
        2
176
     0
 90
        0
176
     0
 90
        0
176
     0
 40
0.6
176
     0
 40
30.0
176
     0
 62
     7
420
 16777215
176
     0
 90
        1
176
     0
 90
        4
176
     0
 62
     7
176
     0
 62
   257
176
     0
 90
        1
176
     0
 90
        1
176
     0
 40
1.0
176
     0
 90
       10
176
     2
 62
     7
176
     0
 40
1.0
176
     0
 90
        1
176
     0
 90
        6
176
     0
 90
        2
176
     0
 62
     7
176
     0
 90
        5
176
     0
 90
        0
176
     0
 90
        0
176
     0
290
     0
176
     0
 90
        1
176
     0
 40
0.0
176
     0
 90
        0
176
     0
290
     0
176
     0
290
     1
176
     0
290
     1
176
     0
290
     0
176
     0
290
     0
176
     0
290
     0
176
     0
290
     0
176
     0
290
     0
176
     0
290
     0
176
     0
 90
       50
176
     0
 40
0.0
176
     0
 40
1.0
176
     0
 90
        0
176
     0
 62
    18
420
        0
176
     0
 90
       50
176
     0
 90
        3
176
     0
 62
     5
420
      255
176
     0
290
     0
176
     0
 90
       50
176
     0
 90
       50
176
     0
 90
       50
176
     0
290
     0
176
     0
 90
       50
176
     0
 62
   256
176
     0
 40
1.0
176
     0
 90
        2
176
     0
  1
strokes_ogs.tif
176
     0
290
     0
176
     0
 40
1.0
176
     0
 40
1.0
176
     0
  0
VISUALSTYLE
  5
38
102
{ACAD_REACTORS
330
2A
102
}
330
2A
100
AcDbVisualStyle
  2
Linepattern
 70
    14
177
     3
291
     1
 70
    58
 90
        2
176
     1
 90
        2
176
     1
 90
        0
176
     1
 90
        0
176
     1
 40
0.6
176
     1
 40
30.0
176
     1
 62
     7
420
 16777215
176
     1
 90
        1
176
     1
 90
        4
176
     1
 62
     7
176
     1
 62
   257
176
     1
 90
        7
176
     1
 90
        7
176
     1
 40
1.0
176
     1
 90
        8
176
     1
 62
     7
176
     1
 40
1.0
176
     1
 90
        1
176
     1
 90
        6
176
     1
 90
        2
176
     1
 62
     7
176
     1
 90
        5
176
     1
 90
        0
176
     1
 90
        0
176
     1
290
     0
176
     1
 90
        1
176
     1
 40
0.0
176
     1
 90
        0
176
     1
290
     0
176
     1
290
     1
176
     1
290
     1
176
     1
290
     0
176
     1
290
     0
176
     1
290
     0
176
     1
290
     0
176
     1
290
     0
176
     1
290
     0
176
     1
 90
       50
176
     1
 40
0.0
176
     1
 40
1.0
176
     1
 90
        0
176
     1
 62
    18
420
        0
176
     1
 90
       50
176
     1
 90
        3
176
     1
 62
     5
420
      255
176
     1
290
     0
176
     1
 90
       50
176
     1
 90
       50
176
     1
 90
       50
176
     1
290
     0
176
     1
 90
       50
176
     1
 62
   256
176
     0
 40
1.0
176
     0
 90
        2
176
     1
  1
strokes_ogs.tif
176
     1
290
     0
176
     1
 40
1.0
176
     1
 40
1.0
176
     1
  0
VISUALSTYLE
  5
3C
102
{ACAD_REACTORS
330
2A
102
}
330
2A
100
AcDbVisualStyle
  2
OverhangOff
 70
    21
177
     3
291
     1
 70
    58
 90
        2
176
     0
 90
        2
176
     0
 90
        0
176
     0
 90
        0
176
     0
 40
0.6
176
     0
 40
30.0
176
     0
 62
     7
420
 16777215
176
     0
 90
        1
176
     0
 90
        4
176
     0
 62
     7
176
     0
 62
   257
176
     0
 90
        1
176
     0
 90
        1
176
     0
 40
1.0
176
     0
 90
        9
176
     2
 62
     7
176
     0
 40
1.0
176
     0
 90
        1
176
     0
 90
        6
176
     0
 90
        2
176
     0
 62
     7
176
     0
 90
        5
176
     0
 90
        0
176
     0
 90
        0
176
     0
290
     0
176
     0
 90
        1
176
     0
 40
0.0
176
     0
 90
        0
176
     0
290
     0
176
     0
290
     1
176
     0
290
     1
176
     0
290
     0
176
     0
290
     0
176
     0
290
     0
176
     0
290
     0
176
     0
290
     0
176
     0
290
     0
176
     0
 90
       50
176
     0
 40
0.0
176
     0
 40
1.0
176
     0
 90
        0
176
     0
 62
    18
420
        0
176
     0
 90
       50
176
     0
 90
        3
176
     0
 62
     5
420
      255
176
     0
290
     0
176
     0
 90
       50
176
     0
 90
       50
176
     0
 90
       50
176
     0
290
     0
176
     0
 90
       50
176
     0
 62
   256
176
     0
 40
1.0
176
     0
 90
        2
176
     0
  1
strokes_ogs.tif
176
     0
290
     0
176
     0
 40
1.0
176
     0
 40
1.0
176
     0
  0
VISUALSTYLE
  5
33
102
{ACAD_REACTORS
330
2A
102
}
330
2A
100
AcDbVisualStyle
  2
Realistic
 70
     8
177
     3
291
     0
 70
    58
 90
        2
176
     1
 90
        3
176
     1
 90
        0
176
     1
 90
        2
176
     1
 40
0.6
176
     1
 40
30.0
176
     1
 62
     7
420
 16777215
176
     1
 90
        0
176
     1
 90
        0
176
     1
 62
     7
176
     1
 62
   257
176
     1
 90
        1
176
     1
 90
        1
176
     1
 40
1.0
176
     1
 90
        8
176
     1
 62
   257
176
     1
 40
1.0
176
     1
 90
        1
176
     1
 90
        6
176
     1
 90
        2
176
     1
 62
     7
176
     1
 90
        3
176
     1
 90
        0
176
     1
 90
        0
176
     1
290
     0
176
     1
 90
       13
176
     1
 40
0.0
176
     1
 90
        0
176
     1
290
     0
176
     1
290
     1
176
     1
290
     1
176
     1
290
     0
176
     1
290
     0
176
     1
290
     0
176
     1
290
     0
176
     1
290
     0
176
     1
290
     0
176
     1
 90
       50
176
     1
 40
0.0
176
     1
 40
1.0
176
     1
 90
        0
176
     1
 62
    18
420
        0
176
     1
 90
       50
176
     1
 90
        3
176
     1
 62
     5
420
      255
176
     1
290
     0
176
     1
 90
       50
176
     1
 90
       50
176
     1
 90
       50
176
     1
290
     0
176
     1
 90
       50
176
     1
 62
   256
176
     0
 40
1.0
176
     0
 90
        2
176
     1
  1
strokes_ogs.tif
176
     1
290
     0
176
     1
 40
1.0
176
     1
 40
1.0
176
     1
  0
VISUALSTYLE
  5
42
102
{ACAD_REACTORS
330
2A
102
}
330
2A
100
AcDbVisualStyle
  2
Shaded
 70
    27
177
     3
291
     0
 70
    58
 90
        2
176
     1
 90
        2
176
     1
 90
        1
176
     1
 90
        2
176
     1
 40
0.6
176
     1
 40
30.0
176
     1
 62
     7
420
 16777215
176
     1
 90
        0
176
     1
 90
        4
176
     1
 62
     7
176
     1
 62
   257
176
     1
 90
        1
176
     1
 90
        1
176
     1
 40
1.0
176
     1
 90
        8
176
     1
 62
   257
176
     1
 40
1.0
176
     1
 90
        1
176
     1
 90
        6
176
     1
 90
        2
176
     1
 62
     8
420
  7895160
176
     1
 90
        3
176
     1
 90
        0
176
     1
 90
        0
176
     1
290
     0
176
     1
 90
        5
176
     1
 40
0.0
176
     1
 90
        0
176
     1
290
     0
176
     1
290
     1
176
     1
290
     1
176
     1
290
     0
176
     1
290
     0
176
     1
290
     0
176
     1
290
     0
176
     1
290
     0
176
     1
290
     0
176
     1
 90
       50
176
     1
 40
0.0
176
     1
 40
1.0
176
     1
 90
        0
176
     1
 62
    18
420
        0
176
     1
 90
       50
176
     1
 90
        3
176
     1
 62
     5
420
      255
176
     1
290
     0
176
     1
 90
       50
176
     1
 90
       50
176
     1
 90
       50
176
     1
290
     0
176
     1
 90
       50
176
     1
 62
   256
176
     0
 40
1.0
176
     0
 90
        2
176
     1
  1
strokes_ogs.tif
176
     1
290
     0
176
     1
 40
1.0
176
     1
 40
1.0
176
     1
  0
VISUALSTYLE
  5
41
102
{ACAD_REACTORS
330
2A
102
}
330
2A
100
AcDbVisualStyle
  2
Shaded with edges
 70
    26
177
     3
291
     0
 70
    58
 90
        2
176
     1
 90
        2
176
     1
 90
        1
176
     1
 90
        2
176
     1
 40
0.6
176
     1
 40
30.0
176
     1
 62
     7
420
 16777215
176
     1
 90
        1
176
     1
 90
       10
176
     1
 62
     7
176
     1
 62
   257
176
     1
 90
        2
176
     1
 90
        1
176
     1
 40
1.0
176
     1
 90
        8
176
     1
 62
   257
176
     1
 40
1.0
176
     1
 90
        1
176
     1
 90
        6
176
     1
 90
        2
176
     1
 62
     7
176
     1
 90
        3
176
     1
 90
        0
176
     1
 90
        0
176
     1
290
     0
176
     1
 90
        5
176
     1
 40
0.0
176
     1
 90
        0
176
     1
290
     0
176
     1
290
     1
176
     1
290
     1
176
     1
290
     0
176
     1
290
     0
176
     1
290
     0
176
     1
290
     0
176
     1
290
     0
176
     1
290
     0
176
     1
 90
       50
176
     1
 40
0.0
176
     1
 40
1.0
176
     1
 90
        0
176
     1
 62
    18
420
        0
176
     1
 90
       50
176
     1
 90
        3
176
     1
 62
     5
420
      255
176
     1
290
     0
176
     1
 90
       50
176
     1
 90
       50
176
     1
 90
       50
176
     1
290
     0
176
     1
 90
       50
176
     1
 62
   256
176
     0
 40
1.0
176
     0
 90
        2
176
     1
  1
strokes_ogs.tif
176
     1
290
     0
176
     1
 40
1.0
176
     1
 40
1.0
176
     1
  0
VISUALSTYLE
  5
3E
102
{ACAD_REACTORS
330
2A
102
}
330
2A
100
AcDbVisualStyle
  2
Shades of Gray
 70
    23
177
     3
291
     0
 70
    58
 90
        2
176
     1
 90
        2
176
     1
 90
        3
176
     1
 90
        0
176
     1
 40
0.6
176
     1
 40
30.0
176
     1
 62
     7
420
 16777215
176
     1
 90
        2
176
     1
 90
        2
176
     1
 62
     7
176
     1
 62
     7
176
     1
 90
        1
176
     1
 90
        1
176
     1
 40
40.0
176
     1
 90
        8
176
     1
 62
     7
176
     1
 40
1.0
176
     1
 90
        1
176
     1
 90
        6
176
     1
 90
        2
176
     1
 62
     7
176
     1
 90
        3
176
     1
 90
        0
176
     1
 90
        0
176
     1
290
     0
176
     1
 90
        1
176
     1
 40
0.0
176
     1
 90
        0
176
     1
290
     0
176
     1
290
     1
176
     1
290
     1
176
     1
290
     0
176
     1
290
     0
176
     1
290
     0
176
     1
290
     0
176
     1
290
     0
176
     1
290
     0
176
     1
 90
       50
176
     1
 40
0.0
176
     1
 40
1.0
176
     1
 90
        0
176
     1
 62
    18
420
        0
176
     1
 90
       50
176
     1
 90
        3
176
     1
 62
     5
420
      255
176
     1
290
     0
176
     1
 90
       50
176
     1
 90
       50
176
     1
 90
       50
176
     1
290
     0
176
     1
 90
       50
176
     1
 62
   256
176
     0
 40
1.0
176
     0
 90
        2
176
     1
  1
strokes_ogs.tif
176
     1
290
     0
176
     1
 40
1.0
176
     1
 40
1.0
176
     1
  0
VISUALSTYLE
  5
3F
102
{ACAD_REACTORS
330
2A
102
}
330
2A
100
AcDbVisualStyle
  2
Sketchy
 70
    24
177
     3
291
     0
 70
    58
 90
        1
176
     1
 90
        2
176
     1
 90
        2
176
     1
 90
        0
176
     1
 40
0.6
176
     1
 40
30.0
176
     1
 62
     7
420
 16777215
176
     1
 90
        2
176
     1
 90
        2
176
     1
 62
     7
176
     1
 62
     7
176
     1
 90
        1
176
     1
 90
        1
176
     1
 40
40.0
176
     1
 90
       11
176
     1
 62
     7
176
     1
 40
1.0
176
     1
 90
        1
176
     1
 90
        6
176
     1
 90
        2
176
     1
 62
     7
176
     1
 90
        6
176
     1
 90
        0
176
     1
 90
        0
176
     1
290
     0
176
     1
 90
        1
176
     1
 40
0.0
176
     1
 90
        0
176
     1
290
     0
176
     1
290
     1
176
     1
290
     1
176
     1
290
     0
176
     1
290
     0
176
     1
290
     0
176
     1
290
     0
176
     1
290
     0
176
     1
290
     0
176
     1
 90
       50
176
     1
 40
0.0
176
     1
 40
1.0
176
     1
 90
        0
176
     1
 62
    18
420
        0
176
     1
 90
       50
176
     1
 90
        3
176
     1
 62
     5
420
      255
176
     1
290
     0
176
     1
 90
       50
176
     1
 90
       50
176
     1
 90
       50
176
     1
290
     0
176
     1
 90
       50
176
     1
 62
   256
176
     0
 40
1.0
176
     0
 90
        2
176
     1
  1
strokes_ogs.tif
176
     1
290
     0
176
     1
 40
1.0
176
     1
 40
1.0
176
     1
  0
VISUALSTYLE
  5
37
102
{ACAD_REACTORS
330
2A
102
}
330
2A
100
AcDbVisualStyle
  2
Thicken
 70
    13
177
     3
291
     1
 70
    58
 90
        2
176
     1
 90
        2
176
     1
 90
        0
176
     1
 90
        0
176
     1
 40
0.6
176
     1
 40
30.0
176
     1
 62
     7
420
 16777215
176
     1
 90
        1
176
     1
 90
        4
176
     1
 62
     7
176
     1
 62
   257
176
     1
 90
        1
176
     1
 90
        1
176
     1
 40
1.0
176
     1
 90
       12
176
     1
 62
     7
176
     1
 40
1.0
176
     1
 90
        1
176
     1
 90
        6
176
     1
 90
        2
176
     1
 62
     7
176
     1
 90
        5
176
     1
 90
        0
176
     1
 90
        0
176
     1
290
     0
176
     1
 90
        1
176
     1
 40
0.0
176
     1
 90
        0
176
     1
290
     0
176
     1
290
     1
176
     1
290
     1
176
     1
290
     0
176
     1
290
     0
176
     1
290
     0
176
     1
290
     0
176
     1
290
     0
176
     1
290
     0
176
     1
 90
       50
176
     1
 40
0.0
176
     1
 40
1.0
176
     1
 90
        0
176
     1
 62
    18
420
        0
176
     1
 90
       50
176
     1
 90
        3
176
     1
 62
     5
420
      255
176
     1
290
     0
176
     1
 90
       50
176
     1
 90
       50
176
     1
 90
       50
176
     1
290
     0
176
     1
 90
       50
176
     1
 62
   256
176
     0
 40
1.0
176
     0
 90
        2
176
     1
  1
strokes_ogs.tif
176
     1
290
     0
176
     1
 40
1.0
176
     1
 40
1.0
176
     1
  0
VISUALSTYLE
  5
30
102
{ACAD_REACTORS
330
2A
102
}
330
2A
100
AcDbVisualStyle
  2
Wireframe
 70
     5
177
     3
291
     0
 70
    58
 90
        0
176
     1
 90
        2
176
     1
 90
        0
176
     1
 90
        0
176
     1
 40
0.6
176
     1
 40
30.0
176
     1
 62
     7
420
 16777215
176
     1
 90
        1
176
     1
 90
        4
176
     1
 62
     7
176
     1
 62
   257
176
     1
 90
        1
176
     1
 90
        1
176
     1
 40
1.0
176
     1
 90
        0
176
     1
 62
   257
176
     1
 40
1.0
176
     1
 90
        1
176
     1
 90
        6
176
     1
 90
        2
176
     1
 62
     7
176
     1
 90
        3
176
     1
 90
        0
176
     1
 90
        0
176
     1
290
     0
176
     1
 90
        1
176
     1
 40
0.0
176
     1
 90
        0
176
     1
290
     0
176
     1
290
     1
176
     1
290
     1
176
     1
290
     0
176
     1
290
     0
176
     1
290
     0
176
     1
290
     0
176
     1
290
     0
176
     1
290
     0
176
     1
 90
       50
176
     1
 40
0.0
176
     1
 40
1.0
176
     1
 90
        0
176
     1
 62
    18
420
        0
176
     1
 90
       50
176
     1
 90
        3
176
     1
 62
     5
420
      255
176
     1
290
     0
176
     1
 90
       50
176
     1
 90
       50
176
     1
 90
       50
176
     1
290
     0
176
     1
 90
       50
176
     1
 62
   256
176
     0
 40
1.0
176
     0
 90
        2
176
     1
  1
strokes_ogs.tif
176
     1
290
     0
176
     1
 40
1.0
176
     1
 40
1.0
176
     1
  0
VISUALSTYLE
  5
40
102
{ACAD_REACTORS
330
2A
102
}
330
2A
100
AcDbVisualStyle
  2
X-Ray
 70
    25
177
     3
291
     0
 70
    58
 90
        2
176
     1
 90
        2
176
     1
 90
        1
176
     1
 90
        1
176
     1
 40
0.5
176
     1
 40
30.0
176
     1
 62
     7
420
 16777215
176
     1
 90
        1
176
     1
 90
        0
176
     1
 62
     7
176
     1
 62
   257
176
     1
 90
        1
176
     1
 90
        1
176
     1
 40
1.0
176
     1
 90
        8
176
     1
 62
     7
176
     1
 40
1.0
176
     1
 90
        1
176
     1
 90
        6
176
     1
 90
        2
176
     1
 62
     7
176
     1
 90
        3
176
     1
 90
        0
176
     1
 90
        0
176
     1
290
     0
176
     1
 90
       13
176
     1
 40
0.0
176
     1
 90
        0
176
     1
290
     0
176
     1
290
     1
176
     1
290
     1
176
     1
290
     0
176
     1
290
     0
176
     1
290
     0
176
     1
290
     0
176
     1
290
     0
176
     1
290
     0
176
     1
 90
       50
176
     1
 40
0.0
176
     1
 40
1.0
176
     1
 90
        0
176
     1
 62
    18
420
        0
176
     1
 90
       50
176
     1
 90
        3
176
     1
 62
     5
420
      255
176
     1
290
     0
176
     1
 90
       50
176
     1
 90
       50
176
     1
 90
       50
176
     1
290
     0
176
     1
 90
       50
176
     1
 62
   256
176
     0
 40
1.0
176
     0
 90
        2
176
     1
  1
strokes_ogs.tif
176
     1
290
     0
176
     1
 40
1.0
176
     1
 40
1.0
176
     1
  0
DICTIONARYVAR
  5
1AF
102
{ACAD_REACTORS
330
1AE
102
}
330
1AE
100
DictionaryVariables
280
     0
  1
1:1
  0
DICTIONARYVAR
  5
1B4
102
{ACAD_REACTORS
330
1AE
102
}
330
1AE
100
DictionaryVariables
280
     0
  1
Standard
  0
DICTIONARYVAR
  5
1B3
102
{ACAD_REACTORS
330
1AE
102
}
330
1AE
100
DictionaryVariables
280
     0
  1
Standard
  0
DICTIONARY
  5
1B0
330
6A
100
AcDbDictionary
280
     1
281
     1
  3
ACAD_ROUNDTRIP_2008_TABLESTYLE_CELLSTYLEMAP
360
1B1
  0
CELLSTYLEMAP
  5
1B1
102
{ACAD_REACTORS
330
1B0
102
}
330
1B0
100
AcDbCellStyleMap
 90
        3
300
CELLSTYLE
  1
TABLEFORMAT_BEGIN
 90
        5
170
     1
 91
        0
 92
    32768
 62
   257
 93
        1
300
CONTENTFORMAT
  1
CONTENTFORMAT_BEGIN
 90
        0
 91
        0
 92
        4
 93
        0
300

 40
0.0
140
1.0
 94
        5
 62
     0
340
11
144
0.25
309
CONTENTFORMAT_END
171
     1
301
MARGIN
  1
CELLMARGIN_BEGIN
 40
0.06
 40
0.06
 40
0.06
 40
0.06
 40
0.06
 40
0.06
309
CELLMARGIN_END
 94
        6
 95
        1
302
GRIDFORMAT
  1
GRIDFORMAT_BEGIN
 90
        0
 91
        1
 62
     0
 92
       -2
340
14
 93
        0
 40
0.045
309
GRIDFORMAT_END
 95
        2
302
GRIDFORMAT
  1
GRIDFORMAT_BEGIN
 90
        0
 91
        1
 62
     0
 92
       -2
340
14
 93
        0
 40
0.045
309
GRIDFORMAT_END
 95
        4
302
GRIDFORMAT
  1
GRIDFORMAT_BEGIN
 90
        0
 91
        1
 62
     0
 92
       -2
340
14
 93
        0
 40
0.045
309
GRIDFORMAT_END
 95
        8
302
GRIDFORMAT
  1
GRIDFORMAT_BEGIN
 90
        0
 91
        1
 62
     0
 92
       -2
340
14
 93
        0
 40
0.045
309
GRIDFORMAT_END
 95
       16
302
GRIDFORMAT
  1
GRIDFORMAT_BEGIN
 90
        0
 91
        1
 62
     0
 92
       -2
340
14
 93
        0
 40
0.045
309
GRIDFORMAT_END
 95
       32
302
GRIDFORMAT
  1
GRIDFORMAT_BEGIN
 90
        0
 91
        1
 62
     0
 92
       -2
340
14
 93
        0
 40
0.045
309
GRIDFORMAT_END
309
TABLEFORMAT_END
  1
CELLSTYLE_BEGIN
 90
        1
 91
        1
300
_TITLE
309
CELLSTYLE_END
300
CELLSTYLE
  1
TABLEFORMAT_BEGIN
 90
        5
170
     1
 91
        0
 92
        0
 62
   257
 93
        1
300
CONTENTFORMAT
  1
CONTENTFORMAT_BEGIN
 90
        0
 91
        0
 92
        4
 93
        0
300

 40
0.0
140
1.0
 94
        5
 62
     0
340
11
144
0.18
309
CONTENTFORMAT_END
171
     1
301
MARGIN
  1
CELLMARGIN_BEGIN
 40
0.06
 40
0.06
 40
0.06
 40
0.06
 40
0.06
 40
0.06
309
CELLMARGIN_END
 94
        6
 95
        1
302
GRIDFORMAT
  1
GRIDFORMAT_BEGIN
 90
        0
 91
        1
 62
     0
 92
       -2
340
14
 93
        0
 40
0.045
309
GRIDFORMAT_END
 95
        2
302
GRIDFORMAT
  1
GRIDFORMAT_BEGIN
 90
        0
 91
        1
 62
     0
 92
       -2
340
14
 93
        0
 40
0.045
309
GRIDFORMAT_END
 95
        4
302
GRIDFORMAT
  1
GRIDFORMAT_BEGIN
 90
        0
 91
        1
 62
     0
 92
       -2
340
14
 93
        0
 40
0.045
309
GRIDFORMAT_END
 95
        8
302
GRIDFORMAT
  1
GRIDFORMAT_BEGIN
 90
        0
 91
        1
 62
     0
 92
       -2
340
14
 93
        0
 40
0.045
309
GRIDFORMAT_END
 95
       16
302
GRIDFORMAT
  1
GRIDFORMAT_BEGIN
 90
        0
 91
        1
 62
     0
 92
       -2
340
14
 93
        0
 40
0.045
309
GRIDFORMAT_END
 95
       32
302
GRIDFORMAT
  1
GRIDFORMAT_BEGIN
 90
        0
 91
        1
 62
     0
 92
       -2
340
14
 93
        0
 40
0.045
309
GRIDFORMAT_END
309
TABLEFORMAT_END
  1
CELLSTYLE_BEGIN
 90
        2
 91
        1
300
_HEADER
309
CELLSTYLE_END
300
CELLSTYLE
  1
TABLEFORMAT_BEGIN
 90
        5
170
     1
 91
        0
 92
        0
 62
   257
 93
        1
300
CONTENTFORMAT
  1
CONTENTFORMAT_BEGIN
 90
        0
 91
        0
 92
        4
 93
        0
300

 40
0.0
140
1.0
 94
        2
 62
     0
340
11
144
0.18
309
CONTENTFORMAT_END
171
     1
301
MARGIN
  1
CELLMARGIN_BEGIN
 40
0.06
 40
0.06
 40
0.06
 40
0.06
 40
0.06
 40
0.06
309
CELLMARGIN_END
 94
        6
 95
        1
302
GRIDFORMAT
  1
GRIDFORMAT_BEGIN
 90
        0
 91
        1
 62
     0
 92
       -2
340
14
 93
        0
 40
0.045
309
GRIDFORMAT_END
 95
        2
302
GRIDFORMAT
  1
GRIDFORMAT_BEGIN
 90
        0
 91
        1
 62
     0
 92
       -2
340
14
 93
        0
 40
0.045
309
GRIDFORMAT_END
 95
        4
302
GRIDFORMAT
  1
GRIDFORMAT_BEGIN
 90
        0
 91
        1
 62
     0
 92
       -2
340
14
 93
        0
 40
0.045
309
GRIDFORMAT_END
 95
        8
302
GRIDFORMAT
  1
GRIDFORMAT_BEGIN
 90
        0
 91
        1
 62
     0
 92
       -2
340
14
 93
        0
 40
0.045
309
GRIDFORMAT_END
 95
       16
302
GRIDFORMAT
  1
GRIDFORMAT_BEGIN
 90
        0
 91
        1
 62
     0
 92
       -2
340
14
 93
        0
 40
0.045
309
GRIDFORMAT_END
 95
       32
302
GRIDFORMAT
  1
GRIDFORMAT_BEGIN
 90
        0
 91
        1
 62
     0
 92
       -2
340
14
 93
        0
 40
0.045
309
GRIDFORMAT_END
309
TABLEFORMAT_END
  1
CELLSTYLE_BEGIN
 90
        3
 91
        2
300
_DATA
309
CELLSTYLE_END
  0
ENDSEC
  0
EOF