0
SECTION
  2
HEADER
  9
$ACADVER
  1
AC1027
  9
$ACADMAINTVER
 70
     8
  9
$DWGCODEPAGE
  3
ANSI_1252
  9
$REQUIREDVERSIONS
160
                 0
  9
$COMMENTS
  1
File was created by Cadenas
  9
$CUSTOMPROPERTYTAG
  1
NN
  9
$CUSTOMPROPERTY
  1
S-2000 Flange Bearing - Round Labyrinth Seal
  9
$CUSTOMPROPERTYTAG
  1
NT
  9
$CUSTOMPROPERTY
  1
S-2000 3 & 4 Bolt Round Flange Bearing -Inch
  9
$CUSTOMPROPERTYTAG
  1
NB
  9
$CUSTOMPROPERTY
  1
070496
  9
$CUSTOMPROPERTYTAG
  1
NBSYN
  9
$CUSTOMPROPERTY
  1
$PN.
  9
$CUSTOMPROPERTYTAG
  1
LINA
  9
$CUSTOMPROPERTY
  1
070496
  9
$CUSTOMPROPERTYTAG
  1
SS
  9
$CUSTOMPROPERTY
  1
1-3/4
  9
$CUSTOMPROPERTYTAG
  1
PN
  9
$CUSTOMPROPERTY
  1
070496
  9
$CUSTOMPROPERTYTAG
  1
DESCRIPTION
  9
$CUSTOMPROPERTY
  1
F4R-S2-112L
  9
$CUSTOMPROPERTYTAG
  1
EF
  9
$CUSTOMPROPERTY
  1
Non-Expansion Type
  9
$CUSTOMPROPERTYTAG
  1
ST
  9
$CUSTOMPROPERTY
  1
Labyrinth Seal
  9
$CUSTOMPROPERTYTAG
  1
A
  9
$CUSTOMPROPERTY
  1
2-43/64
  9
$CUSTOMPROPERTYTAG
  1
B
  9
$CUSTOMPROPERTY
  1
6-3/8
  9
$CUSTOMPROPERTYTAG
  1
C
  9
$CUSTOMPROPERTY
  1
2-31/32
  9
$CUSTOMPROPERTYTAG
  1
D
  9
$CUSTOMPROPERTY
  1
3-57/64
  9
$CUSTOMPROPERTYTAG
  1
DD
  9
$CUSTOMPROPERTY
  1
5-1/2
  9
$CUSTOMPROPERTYTAG
  1
E
  9
$CUSTOMPROPERTY
  1
1-57/64
  9
$CUSTOMPROPERTYTAG
  1
F
  9
$CUSTOMPROPERTY
  1
1/2
  9
$CUSTOMPROPERTYTAG
  1
H
  9
$CUSTOMPROPERTY
  1
1/2
  9
$CUSTOMPROPERTYTAG
  1
J
  9
$CUSTOMPROPERTY
  1
4-11/32
  9
$CUSTOMPROPERTYTAG
  1
L
  9
$CUSTOMPROPERTY
  1
3-3/16
  9
$CUSTOMPROPERTYTAG
  1
P
  9
$CUSTOMPROPERTY
  1
19/64
  9
$CUSTOMPROPERTYTAG
  1
X
  9
$CUSTOMPROPERTY
  1
1/4
  9
$CUSTOMPROPERTYTAG
  1
Y
  9
$CUSTOMPROPERTY
  1
0.020
  9
$CUSTOMPROPERTYTAG
  1
Z
  9
$CUSTOMPROPERTY
  1
2-5/64
  9
$CUSTOMPROPERTYTAG
  1
COMPANY
  9
$CUSTOMPROPERTY
  1
baldor
  9
$INSBASE
 10
0.0
 20
0.0
 30
0.0
  9
$EXTMIN
 10
1.000000000000000E+20
 20
1.000000000000000E+20
 30
1.000000000000000E+20
  9
$EXTMAX
 10
-1.000000000000000E+20
 20
-1.000000000000000E+20
 30
-1.000000000000000E+20
  9
$LIMMIN
 10
0.0
 20
0.0
  9
$LIMMAX
 10
12.0
 20
9.0
  9
$ORTHOMODE
 70
     0
  9
$REGENMODE
 70
     1
  9
$FILLMODE
 70
     1
  9
$QTEXTMODE
 70
     0
  9
$MIRRTEXT
 70
     1
  9
$LTSCALE
 40
1.0
  9
$ATTMODE
 70
     1
  9
$TEXTSIZE
 40
0.2
  9
$TRACEWID
 40
0.05
  9
$TEXTSTYLE
  7
Standard
  9
$CLAYER
  8
0
  9
$CELTYPE
  6
ByLayer
  9
$CECOLOR
 62
   256
  9
$CELTSCALE
 40
1.0
  9
$DISPSILH
 70
     0
  9
$DIMSCALE
 40
1.0
  9
$DIMASZ
 40
0.18
  9
$DIMEXO
 40
0.0625
  9
$DIMDLI
 40
0.38
  9
$DIMRND
 40
0.0
  9
$DIMDLE
 40
0.0
  9
$DIMEXE
 40
0.18
  9
$DIMTP
 40
0.0
  9
$DIMTM
 40
0.0
  9
$DIMTXT
 40
0.18
  9
$DIMCEN
 40
0.09
  9
$DIMTSZ
 40
0.0
  9
$DIMTOL
 70
     0
  9
$DIMLIM
 70
     0
  9
$DIMTIH
 70
     1
  9
$DIMTOH
 70
     1
  9
$DIMSE1
 70
     0
  9
$DIMSE2
 70
     0
  9
$DIMTAD
 70
     0
  9
$DIMZIN
 70
     0
  9
$DIMBLK
  1

  9
$DIMASO
 70
     1
  9
$DIMSHO
 70
     1
  9
$DIMPOST
  1

  9
$DIMAPOST
  1

  9
$DIMALT
 70
     0
  9
$DIMALTD
 70
     2
  9
$DIMALTF
 40
25.4
  9
$DIMLFAC
 40
1.0
  9
$DIMTOFL
 70
     0
  9
$DIMTVP
 40
0.0
  9
$DIMTIX
 70
     0
  9
$DIMSOXD
 70
     0
  9
$DIMSAH
 70
     0
  9
$DIMBLK1
  1

  9
$DIMBLK2
  1

  9
$DIMSTYLE
  2
Standard
  9
$DIMCLRD
 70
     0
  9
$DIMCLRE
 70
     0
  9
$DIMCLRT
 70
     0
  9
$DIMTFAC
 40
1.0
  9
$DIMGAP
 40
0.09
  9
$DIMJUST
 70
     0
  9
$DIMSD1
 70
     0
  9
$DIMSD2
 70
     0
  9
$DIMTOLJ
 70
     1
  9
$DIMTZIN
 70
     0
  9
$DIMALTZ
 70
     0
  9
$DIMALTTZ
 70
     0
  9
$DIMUPT
 70
     0
  9
$DIMDEC
 70
     4
  9
$DIMTDEC
 70
     4
  9
$DIMALTU
 70
     2
  9
$DIMALTTD
 70
     2
  9
$DIMTXSTY
  7
Standard
  9
$DIMAUNIT
 70
     0
  9
$DIMADEC
 70
     0
  9
$DIMALTRND
 40
0.0
  9
$DIMAZIN
 70
     0
  9
$DIMDSEP
 70
    46
  9
$DIMATFIT
 70
     3
  9
$DIMFRAC
 70
     0
  9
$DIMLDRBLK
  1

  9
$DIMLUNIT
 70
     2
  9
$DIMLWD
 70
    -2
  9
$DIMLWE
 70
    -2
  9
$DIMTMOVE
 70
     0
  9
$DIMFXL
 40
1.0
  9
$DIMFXLON
 70
     0
  9
$DIMJOGANG
 40
0.7853981633974483
  9
$DIMTFILL
 70
     0
  9
$DIMTFILLCLR
 70
     0
  9
$DIMARCSYM
 70
     0
  9
$DIMLTYPE
  6

  9
$DIMLTEX1
  6

  9
$DIMLTEX2
  6

  9
$DIMTXTDIRECTION
 70
     0
  9
$LUNITS
 70
     2
  9
$LUPREC
 70
     4
  9
$SKETCHINC
 40
0.1
  9
$FILLETRAD
 40
0.5
  9
$AUNITS
 70
     0
  9
$AUPREC
 70
     0
  9
$MENU
  1
.
  9
$ELEVATION
 40
0.0
  9
$PELEVATION
 40
0.0
  9
$THICKNESS
 40
0.0
  9
$LIMCHECK
 70
     0
  9
$CHAMFERA
 40
0.0
  9
$CHAMFERB
 40
0.0
  9
$CHAMFERC
 40
0.0
  9
$CHAMFERD
 40
0.0
  9
$SKPOLY
 70
     0
  9
$TDCREATE
 40
2458168.958734039
  9
$TDUCREATE
 40
2458168.917067373
  9
$TDUPDATE
 40
2458168.958734039
  9
$TDUUPDATE
 40
2458168.917067373
  9
$TDINDWG
 40
0.0000000116
  9
$TDUSRTIMER
 40
0.0000000116
  9
$USRTIMER
 70
     1
  9
$ANGBASE
 50
0.0
  9
$ANGDIR
 70
     0
  9
$PDMODE
 70
     0
  9
$PDSIZE
 40
0.0
  9
$PLINEWID
 40
0.0
  9
$SPLFRAME
 70
     0
  9
$SPLINETYPE
 70
     6
  9
$SPLINESEGS
 70
     8
  9
$HANDSEED
  5
1B3
  9
$SURFTAB1
 70
     6
  9
$SURFTAB2
 70
     6
  9
$SURFTYPE
 70
     6
  9
$SURFU
 70
     6
  9
$SURFV
 70
     6
  9
$UCSBASE
  2

  9
$UCSNAME
  2

  9
$UCSORG
 10
0.0
 20
0.0
 30
0.0
  9
$UCSXDIR
 10
1.0
 20
0.0
 30
0.0
  9
$UCSYDIR
 10
0.0
 20
1.0
 30
0.0
  9
$UCSORTHOREF
  2

  9
$UCSORTHOVIEW
 70
     0
  9
$UCSORGTOP
 10
0.0
 20
0.0
 30
0.0
  9
$UCSORGBOTTOM
 10
0.0
 20
0.0
 30
0.0
  9
$UCSORGLEFT
 10
0.0
 20
0.0
 30
0.0
  9
$UCSORGRIGHT
 10
0.0
 20
0.0
 30
0.0
  9
$UCSORGFRONT
 10
0.0
 20
0.0
 30
0.0
  9
$UCSORGBACK
 10
0.0
 20
0.0
 30
0.0
  9
$PUCSBASE
  2

  9
$PUCSNAME
  2

  9
$PUCSORG
 10
0.0
 20
0.0
 30
0.0
  9
$PUCSXDIR
 10
1.0
 20
0.0
 30
0.0
  9
$PUCSYDIR
 10
0.0
 20
1.0
 30
0.0
  9
$PUCSORTHOREF
  2

  9
$PUCSORTHOVIEW
 70
     0
  9
$PUCSORGTOP
 10
0.0
 20
0.0
 30
0.0
  9
$PUCSORGBOTTOM
 10
0.0
 20
0.0
 30
0.0
  9
$PUCSORGLEFT
 10
0.0
 20
0.0
 30
0.0
  9
$PUCSORGRIGHT
 10
0.0
 20
0.0
 30
0.0
  9
$PUCSORGFRONT
 10
0.0
 20
0.0
 30
0.0
  9
$PUCSORGBACK
 10
0.0
 20
0.0
 30
0.0
  9
$USERI1
 70
     0
  9
$USERI2
 70
     0
  9
$USERI3
 70
     0
  9
$USERI4
 70
     0
  9
$USERI5
 70
     0
  9
$USERR1
 40
0.0
  9
$USERR2
 40
0.0
  9
$USERR3
 40
0.0
  9
$USERR4
 40
0.0
  9
$USERR5
 40
0.0
  9
$WORLDVIEW
 70
     1
  9
$SHADEDGE
 70
     3
  9
$SHADEDIF
 70
    70
  9
$TILEMODE
 70
     1
  9
$MAXACTVP
 70
    64
  9
$PINSBASE
 10
0.0
 20
0.0
 30
0.0
  9
$PLIMCHECK
 70
     0
  9
$PEXTMIN
 10
1.000000000000000E+20
 20
1.000000000000000E+20
 30
1.000000000000000E+20
  9
$PEXTMAX
 10
-1.000000000000000E+20
 20
-1.000000000000000E+20
 30
-1.000000000000000E+20
  9
$PLIMMIN
 10
0.0
 20
0.0
  9
$PLIMMAX
 10
12.0
 20
9.0
  9
$UNITMODE
 70
     0
  9
$VISRETAIN
 70
     1
  9
$PLINEGEN
 70
     0
  9
$PSLTSCALE
 70
     1
  9
$TREEDEPTH
 70
  3020
  9
$CMLSTYLE
  2
Standard
  9
$CMLJUST
 70
     0
  9
$CMLSCALE
 40
1.0
  9
$PROXYGRAPHICS
 70
     1
  9
$MEASUREMENT
 70
     0
  9
$CELWEIGHT
370
    -1
  9
$ENDCAPS
280
     0
  9
$JOINSTYLE
280
     0
  9
$LWDISPLAY
290
     0
  9
$INSUNITS
 70
     1
  9
$HYPERLINKBASE
  1

  9
$STYLESHEET
  1

  9
$XEDIT
290
     1
  9
$CEPSNTYPE
380
     0
  9
$PSTYLEMODE
290
     1
  9
$FINGERPRINTGUID
  2
{89379503-36D9-4206-8CD8-944FAC4C34C6}
  9
$VERSIONGUID
  2
{FAEB1C32-E019-11D5-929B-00C0DF256EC4}
  9
$EXTNAMES
290
     1
  9
$PSVPSCALE
 40
0.0
  9
$OLESTARTUP
290
     0
  9
$SORTENTS
280
   127
  9
$INDEXCTL
280
     0
  9
$HIDETEXT
280
     1
  9
$XCLIPFRAME
280
     2
  9
$HALOGAP
280
     0
  9
$OBSCOLOR
 70
   257
  9
$OBSLTYPE
280
     0
  9
$INTERSECTIONDISPLAY
280
     0
  9
$INTERSECTIONCOLOR
 70
   257
  9
$DIMASSOC
280
     2
  9
$PROJECTNAME
  1

  9
$CAMERADISPLAY
290
     0
  9
$LENSLENGTH
 40
50.0
  9
$CAMERAHEIGHT
 40
0.0
  9
$STEPSPERSEC
 40
2.0
  9
$STEPSIZE
 40
6.0
  9
$3DDWFPREC
 40
2.0
  9
$PSOLWIDTH
 40
0.25
  9
$PSOLHEIGHT
 40
4.0
  9
$LOFTANG1
 40
1.570796326794897
  9
$LOFTANG2
 40
1.570796326794897
  9
$LOFTMAG1
 40
0.0
  9
$LOFTMAG2
 40
0.0
  9
$LOFTPARAM
 70
     7
  9
$LOFTNORMALS
280
     1
  9
$LATITUDE
 40
37.795
  9
$LONGITUDE
 40
-122.394
  9
$NORTHDIRECTION
 40
0.0
  9
$TIMEZONE
 70
 -8000
  9
$LIGHTGLYPHDISPLAY
280
     1
  9
$TILEMODELIGHTSYNCH
280
     1
  9
$CMATERIAL
347
44
  9
$SOLIDHIST
280
     0
  9
$SHOWHIST
280
     1
  9
$DWFFRAME
280
     2
  9
$DGNFRAME
280
     2
  9
$REALWORLDSCALE
290
     1
  9
$INTERFERECOLOR
 62
   256
  9
$CSHADOW
280
     0
  9
$SHADOWPLANELOCATION
 40
0.0
  0
ENDSEC
  0
SECTION
  2
CLASSES
  0
CLASS
  1
ACDBDICTIONARYWDFLT
  2
AcDbDictionaryWithDefault
  3
ObjectDBX Classes
 90
        0
 91
        4
280
     0
281
     0
  0
CLASS
  1
VISUALSTYLE
  2
AcDbVisualStyle
  3
ObjectDBX Classes
 90
     4095
 91
        4
280
     0
281
     0
  0
CLASS
  1
MATERIAL
  2
AcDbMaterial
  3
ObjectDBX Classes
 90
     1153
 91
        4
280
     0
281
     0
  0
CLASS
  1
SCALE
  2
AcDbScale
  3
ObjectDBX Classes
 90
     1153
 91
        4
280
     0
281
     0
  0
CLASS
  1
TABLESTYLE
  2
AcDbTableStyle
  3
ObjectDBX Classes
 90
     4095
 91
        4
280
     0
281
     0
  0
CLASS
  1
MLEADERSTYLE
  2
AcDbMLeaderStyle
  3
ACDB_MLEADERSTYLE_CLASS
 90
     4095
 91
        4
280
     0
281
     0
  0
CLASS
  1
SUN
  2
AcDbSun
  3
SCENEOE
 90
     1153
 91
        4
280
     0
281
     0
  0
CLASS
  1
DICTIONARYVAR
  2
AcDbDictionaryVar
  3
ObjectDBX Classes
 90
        0
 91
        4
280
     0
281
     0
  0
CLASS
  1
CELLSTYLEMAP
  2
AcDbCellStyleMap
  3
ObjectDBX Classes
 90
     1152
 91
        4
280
     0
281
     0
  0
ENDSEC
  0
SECTION
  2
TABLES
  0
TABLE
  2
VPORT
  5
8
330
0
100
AcDbSymbolTable
 70
     1
  0
VPORT
  5
29
330
8
100
AcDbSymbolTableRecord
100
AcDbViewportTableRecord
  2
*Active
 70
     0
 10
0.0
 20
0.0
 11
1.0
 21
1.0
 12
0.0
 22
-1.33290625
 13
0.0
 23
0.0
 14
0.5
 24
0.5
 15
0.5
 25
0.5
 16
0.0
 26
0.0
 36
1.0
 17
0.0
 27
0.0
 37
0.0
 40
3.608058750000001
 41
1.802215665141262
 42
50.0
 43
0.0
 44
0.0
 50
0.0
 51
0.0
 71
     0
 72
   100
 73
     1
 74
     3
 75
     0
 76
     0
 77
     0
 78
     0
281
     0
 65
     1
110
0.0
120
0.0
130
0.0
111
1.0
121
0.0
131
0.0
112
0.0
122
1.0
132
0.0
 79
     0
146
0.0
348
2F
 60
     3
 61
     5
292
     1
282
     1
141
0.0
142
0.0
 63
   250
361
6D
  0
ENDTAB
  0
TABLE
  2
LTYPE
  5
5
330
0
100
AcDbSymbolTable
 70
     3
  0
LTYPE
  5
14
330
5
100
AcDbSymbolTableRecord
100
AcDbLinetypeTableRecord
  2
ByBlock
 70
     0
  3

 72
    65
 73
     0
 40
0.0
  0
LTYPE
  5
15
330
5
100
AcDbSymbolTableRecord
100
AcDbLinetypeTableRecord
  2
ByLayer
 70
     0
  3

 72
    65
 73
     0
 40
0.0
  0
LTYPE
  5
16
330
5
100
AcDbSymbolTableRecord
100
AcDbLinetypeTableRecord
  2
Continuous
 70
     0
  3
Solid line
 72
    65
 73
     0
 40
0.0
  0
LTYPE
  5
A5
330
5
100
AcDbSymbolTableRecord
100
AcDbLinetypeTableRecord
  2
Dashed
 70
     0
  3

 72
    65
 73
     2
 40
2.0
 49
1.0
 74
     0
 49
-1.0
 74
     0
  0
LTYPE
  5
BB
330
5
100
AcDbSymbolTableRecord
100
AcDbLinetypeTableRecord
  2
Center
 70
     0
  3

 72
    65
 73
     4
 40
1.5
 49
0.45
 74
     0
 49
-0.5
 74
     0
 49
0.05
 74
     0
 49
-0.5
 74
     0
  0
ENDTAB
  0
TABLE
  2
LAYER
  5
2
330
0
100
AcDbSymbolTable
 70
     7
  0
LAYER
  5
10
330
2
100
AcDbSymbolTableRecord
100
AcDbLayerTableRecord
  2
0
 70
     0
 62
     7
  6
Continuous
370
    -3
390
F
347
46
348
0
  0
LAYER
  5
72
330
2
100
AcDbSymbolTableRecord
100
AcDbLayerTableRecord
  2
AM_6
 70
     0
 62
    -2
  6
Continuous
370
    35
390
F
347
46
348
0
  0
LAYER
  5
A6
330
2
100
AcDbSymbolTableRecord
100
AcDbLayerTableRecord
  2
AM_9
 70
     0
 62
     6
  6
Dashed
370
    25
390
F
347
46
348
0
  0
LAYER
  5
B8
330
2
100
AcDbSymbolTableRecord
100
AcDbLayerTableRecord
  2
AM_5
 70
     0
 62
     3
  6
Continuous
370
    25
390
F
347
46
348
0
  0
LAYER
  5
BC
330
2
100
AcDbSymbolTableRecord
100
AcDbLayerTableRecord
  2
AM_7
 70
     0
 62
     7
  6
Center
370
    25
390
F
347
46
348
0
  0
LAYER
  5
BE
330
2
100
AcDbSymbolTableRecord
100
AcDbLayerTableRecord
  2
AM_4
 70
     0
 62
     7
  6
Continuous
370
    50
390
F
347
46
348
0
  0
LAYER
  5
1A2
330
2
100
AcDbSymbolTableRecord
100
AcDbLayerTableRecord
  2
ConnectionPoints
 70
     0
 62
     7
  6
Continuous
370
    50
390
F
347
46
348
0
  0
ENDTAB
  0
TABLE
  2
STYLE
  5
3
330
0
100
AcDbSymbolTable
 70
     1
  0
STYLE
  5
11
330
3
100
AcDbSymbolTableRecord
100
AcDbTextStyleTableRecord
  2
Standard
 70
     0
 40
0.0
 41
1.0
 50
0.0
 71
     0
 42
0.2
  3
txt
  4

  0
ENDTAB
  0
TABLE
  2
VIEW
  5
6
330
0
100
AcDbSymbolTable
 70
     0
  0
ENDTAB
  0
TABLE
  2
UCS
  5
7
330
0
100
AcDbSymbolTable
 70
     0
  0
ENDTAB
  0
TABLE
  2
APPID
  5
9
330
0
100
AcDbSymbolTable
 70
     1
  0
APPID
  5
12
330
9
100
AcDbSymbolTableRecord
100
AcDbRegAppTableRecord
  2
ACAD
 70
     0
  0
ENDTAB
  0
TABLE
  2
DIMSTYLE
  5
A
330
0
100
AcDbSymbolTable
 70
     1
100
AcDbDimStyleTable
  0
DIMSTYLE
105
27
330
A
100
AcDbSymbolTableRecord
100
AcDbDimStyleTableRecord
  2
Standard
 70
     0
178
     0
340
11
  0
ENDTAB
  0
TABLE
  2
BLOCK_RECORD
  5
1
330
0
100
AcDbSymbolTable
 70
     6
  0
BLOCK_RECORD
  5
1F
330
1
100
AcDbSymbolTableRecord
100
AcDbBlockTableRecord
  2
*Model_Space
340
22
 70
     0
280
     1
281
     0
  0
BLOCK_RECORD
  5
1B
330
1
100
AcDbSymbolTableRecord
100
AcDbBlockTableRecord
  2
*Paper_Space
340
1E
 70
     0
280
     1
281
     0
  0
BLOCK_RECORD
  5
23
330
1
100
AcDbSymbolTableRecord
100
AcDbBlockTableRecord
  2
*Paper_Space0
340
26
 70
     0
280
     1
281
     0
  0
BLOCK_RECORD
  5
6E
330
1
100
AcDbSymbolTableRecord
100
AcDbBlockTableRecord
  2
1_070496_4
340
0
102
{BLKREFS
331
6F
102
}
 70
     0
280
     1
281
     0
  0
BLOCK_RECORD
  5
8C
330
1
100
AcDbSymbolTableRecord
100
AcDbBlockTableRecord
  2
2_1_3_4CS2i_0_in_070496_4
340
0
102
{BLKREFS
331
8D
102
}
 70
     0
280
     1
281
     0
  0
BLOCK_RECORD
  5
D4
330
1
100
AcDbSymbolTableRecord
100
AcDbBlockTableRecord
  2
3_070020i_0_in_070496_4
340
0
102
{BLKREFS
331
D5
102
}
 70
     0
280
     1
281
     0
  0
BLOCK_RECORD
  5
126
330
1
100
AcDbSymbolTableRecord
100
AcDbBlockTableRecord
  2
4_405015E_Inch_0_in_070496_4
340
0
102
{BLKREFS
331
127
102
}
 70
     0
280
     1
281
     0
  0
BLOCK_RECORD
  5
143
330
1
100
AcDbSymbolTableRecord
100
AcDbBlockTableRecord
  2
5_070496H_0_in_070496_4
340
0
102
{BLKREFS
331
144
102
}
 70
     0
280
     1
281
     0
  0
ENDTAB
  0
ENDSEC
  0
SECTION
  2
BLOCKS
  0
BLOCK
  5
20
330
1F
100
AcDbEntity
  8
0
100
AcDbBlockBegin
  2
*Model_Space
 70
     0
 10
0.0
 20
0.0
 30
0.0
  3
*Model_Space
  1

  0
ENDBLK
  5
21
330
1F
100
AcDbEntity
  8
0
100
AcDbBlockEnd
  0
BLOCK
  5
1C
330
1B
100
AcDbEntity
 67
     1
  8
0
100
AcDbBlockBegin
  2
*Paper_Space
 70
     0
 10
0.0
 20
0.0
 30
0.0
  3
*Paper_Space
  1

  0
ENDBLK
  5
1D
330
1B
100
AcDbEntity
 67
     1
  8
0
100
AcDbBlockEnd
  0
BLOCK
  5
24
330
23
100
AcDbEntity
  8
0
100
AcDbBlockBegin
  2
*Paper_Space0
 70
     0
 10
0.0
 20
0.0
 30
0.0
  3
*Paper_Space0
  1

  0
ENDBLK
  5
25
330
23
100
AcDbEntity
  8
0
100
AcDbBlockEnd
  0
BLOCK
  5
70
330
6E
100
AcDbEntity
  8
0
100
AcDbBlockBegin
  2
1_070496_4
 70
     2
 10
0.0
 20
0.0
 30
0.0
  3
1_070496_4
  1

  0
ATTDEF
  5
73
330
6E
100
AcDbEntity
  8
AM_6
100
AcDbText
 10
8.1875
 20
0.09453125
 30
0.0
 40
0.5
  1
S-2000 Flange Bearing - Round Labyrinth Seal
100
AcDbAttributeDefinition
  3

  2
NN
 70
     8
280
     0
  0
ATTDEF
  5
74
330
6E
100
AcDbEntity
  8
AM_6
100
AcDbText
 10
8.1875
 20
-0.40546875
 30
0.0
 40
0.5
  1
S-2000 3 & 4 Bolt Round Flange Bearing -Inch
100
AcDbAttributeDefinition
  3

  2
NT
 70
     8
280
     0
  0
ATTDEF
  5
75
330
6E
100
AcDbEntity
  8
AM_6
100
AcDbText
 10
8.1875
 20
-0.90546875
 30
0.0
 40
0.5
  1
070496
100
AcDbAttributeDefinition
  3

  2
NB
 70
     8
280
     0
  0
ATTDEF
  5
76
330
6E
100
AcDbEntity
  8
AM_6
100
AcDbText
 10
8.1875
 20
-1.40546875
 30
0.0
 40
0.5
  1
$PN.
100
AcDbAttributeDefinition
  3

  2
NBSYN
 70
     8
280
     0
  0
ATTDEF
  5
77
330
6E
100
AcDbEntity
  8
AM_6
100
AcDbText
 10
8.1875
 20
-1.90546875
 30
0.0
 40
0.5
  1
070496
100
AcDbAttributeDefinition
  3

  2
LINA
 70
     8
280
     0
  0
ATTDEF
  5
78
330
6E
100
AcDbEntity
  8
AM_6
100
AcDbText
 10
8.1875
 20
-2.40546875
 30
0.0
 40
0.5
  1
1-3/4
100
AcDbAttributeDefinition
  3

  2
SS
 70
     8
280
     0
  0
ATTDEF
  5
79
330
6E
100
AcDbEntity
  8
AM_6
100
AcDbText
 10
8.1875
 20
-2.90546875
 30
0.0
 40
0.5
  1
070496
100
AcDbAttributeDefinition
  3

  2
PN
 70
     8
280
     0
  0
ATTDEF
  5
7A
330
6E
100
AcDbEntity
  8
AM_6
100
AcDbText
 10
8.1875
 20
-3.40546875
 30
0.0
 40
0.5
  1
F4R-S2-112L
100
AcDbAttributeDefinition
  3

  2
DESCRIPTION
 70
     8
280
     0
  0
ATTDEF
  5
7B
330
6E
100
AcDbEntity
  8
AM_6
100
AcDbText
 10
8.1875
 20
-3.90546875
 30
0.0
 40
0.5
  1
Non-Expansion Type
100
AcDbAttributeDefinition
  3

  2
EF
 70
     8
280
     0
  0
ATTDEF
  5
7C
330
6E
100
AcDbEntity
  8
AM_6
100
AcDbText
 10
8.1875
 20
-4.40546875
 30
0.0
 40
0.5
  1
Labyrinth Seal
100
AcDbAttributeDefinition
  3

  2
ST
 70
     8
280
     0
  0
ATTDEF
  5
7D
330
6E
100
AcDbEntity
  8
AM_6
100
AcDbText
 10
8.1875
 20
-4.90546875
 30
0.0
 40
0.5
  1
2-43/64
100
AcDbAttributeDefinition
  3

  2
A
 70
     8
280
     0
  0
ATTDEF
  5
7E
330
6E
100
AcDbEntity
  8
AM_6
100
AcDbText
 10
8.1875
 20
-5.40546875
 30
0.0
 40
0.5
  1
6-3/8
100
AcDbAttributeDefinition
  3

  2
B
 70
     8
280
     0
  0
ATTDEF
  5
7F
330
6E
100
AcDbEntity
  8
AM_6
100
AcDbText
 10
8.1875
 20
-5.90546875
 30
0.0
 40
0.5
  1
2-31/32
100
AcDbAttributeDefinition
  3

  2
C
 70
     8
280
     0
  0
ATTDEF
  5
80
330
6E
100
AcDbEntity
  8
AM_6
100
AcDbText
 10
8.1875
 20
-6.40546875
 30
0.0
 40
0.5
  1
3-57/64
100
AcDbAttributeDefinition
  3

  2
D
 70
     8
280
     0
  0
ATTDEF
  5
81
330
6E
100
AcDbEntity
  8
AM_6
100
AcDbText
 10
8.1875
 20
-6.90546875
 30
0.0
 40
0.5
  1
5-1/2
100
AcDbAttributeDefinition
  3

  2
DD
 70
     8
280
     0
  0
ATTDEF
  5
82
330
6E
100
AcDbEntity
  8
AM_6
100
AcDbText
 10
8.1875
 20
-7.40546875
 30
0.0
 40
0.5
  1
1-57/64
100
AcDbAttributeDefinition
  3

  2
E
 70
     8
280
     0
  0
ATTDEF
  5
83
330
6E
100
AcDbEntity
  8
AM_6
100
AcDbText
 10
8.1875
 20
-7.90546875
 30
0.0
 40
0.5
  1
1/2
100
AcDbAttributeDefinition
  3

  2
F
 70
     8
280
     0
  0
ATTDEF
  5
84
330
6E
100
AcDbEntity
  8
AM_6
100
AcDbText
 10
8.1875
 20
-8.40546875
 30
0.0
 40
0.5
  1
1/2
100
AcDbAttributeDefinition
  3

  2
H
 70
     8
280
     0
  0
ATTDEF
  5
85
330
6E
100
AcDbEntity
  8
AM_6
100
AcDbText
 10
8.1875
 20
-8.90546875
 30
0.0
 40
0.5
  1
4-11/32
100
AcDbAttributeDefinition
  3

  2
J
 70
     8
280
     0
  0
ATTDEF
  5
86
330
6E
100
AcDbEntity
  8
AM_6
100
AcDbText
 10
8.1875
 20
-9.40546875
 30
0.0
 40
0.5
  1
3-3/16
100
AcDbAttributeDefinition
  3

  2
L
 70
     8
280
     0
  0
ATTDEF
  5
87
330
6E
100
AcDbEntity
  8
AM_6
100
AcDbText
 10
8.1875
 20
-9.90546875
 30
0.0
 40
0.5
  1
19/64
100
AcDbAttributeDefinition
  3

  2
P
 70
     8
280
     0
  0
ATTDEF
  5
88
330
6E
100
AcDbEntity
  8
AM_6
100
AcDbText
 10
8.1875
 20
-10.40546875
 30
0.0
 40
0.5
  1
1/4
100
AcDbAttributeDefinition
  3

  2
X
 70
     8
280
     0
  0
ATTDEF
  5
89
330
6E
100
AcDbEntity
  8
AM_6
100
AcDbText
 10
8.1875
 20
-10.90546875
 30
0.0
 40
0.5
  1
0.020
100
AcDbAttributeDefinition
  3

  2
Y
 70
     8
280
     0
  0
ATTDEF
  5
8A
330
6E
100
AcDbEntity
  8
AM_6
100
AcDbText
 10
8.1875
 20
-11.40546875
 30
0.0
 40
0.5
  1
2-5/64
100
AcDbAttributeDefinition
  3

  2
Z
 70
     8
280
     0
  0
ATTDEF
  5
8B
330
6E
100
AcDbEntity
  8
AM_6
100
AcDbText
 10
8.1875
 20
-11.90546875
 30
0.0
 40
0.5
  1
baldor
100
AcDbAttributeDefinition
  3

  2
COMPANY
 70
     8
280
     0
  0
INSERT
  5
8D
330
6E
100
AcDbEntity
  8
0
100
AcDbBlockReference
  2
2_1_3_4CS2i_0_in_070496_4
 10
0.0
 20
0.0
 30
0.0
  0
INSERT
  5
D5
330
6E
100
AcDbEntity
  8
0
100
AcDbBlockReference
  2
3_070020i_0_in_070496_4
 10
0.0
 20
0.0
 30
0.0
  0
INSERT
  5
127
330
6E
100
AcDbEntity
  8
0
100
AcDbBlockReference
  2
4_405015E_Inch_0_in_070496_4
 10
0.0
 20
0.0
 30
0.0
  0
INSERT
  5
144
330
6E
100
AcDbEntity
  8
0
100
AcDbBlockReference
  2
5_070496H_0_in_070496_4
 10
0.0
 20
0.0
 30
0.0
  0
ENDBLK
  5
71
330
6E
100
AcDbEntity
  8
0
100
AcDbBlockEnd
  0
BLOCK
  5
8E
330
8C
100
AcDbEntity
  8
0
100
AcDbBlockBegin
  2
2_1_3_4CS2i_0_in_070496_4
 70
     2
 10
0.0
 20
0.0
 30
0.0
  3
2_1_3_4CS2i_0_in_070496_4
  1

  0
ATTDEF
  5
90
330
8C
100
AcDbEntity
  8
AM_6
100
AcDbText
 10
6.59375
 20
-2.33475
 30
0.0
 40
0.5
  1
S-2000 Collar -Inch
100
AcDbAttributeDefinition
  3

  2
NN
 70
     8
280
     0
  0
ATTDEF
  5
91
330
8C
100
AcDbEntity
  8
AM_6
100
AcDbText
 10
6.59375
 20
-2.83475
 30
0.0
 40
0.5
  1
S-2000 Bearings
100
AcDbAttributeDefinition
  3

  2
NT
 70
     8
280
     0
  0
ATTDEF
  5
92
330
8C
100
AcDbEntity
  8
AM_6
100
AcDbText
 10
6.59375
 20
-3.33475
 30
0.0
 40
0.5
  1
1-3/4CS2i
100
AcDbAttributeDefinition
  3

  2
NB
 70
     8
280
     0
  0
ATTDEF
  5
93
330
8C
100
AcDbEntity
  8
AM_6
100
AcDbText
 10
6.59375
 20
-3.83475
 30
0.0
 40
0.5
  1
$BORE.CS2i
100
AcDbAttributeDefinition
  3

  2
NBSYN
 70
     8
280
     0
  0
ATTDEF
  5
94
330
8C
100
AcDbEntity
  8
AM_6
100
AcDbText
 10
6.59375
 20
-4.33475
 30
0.0
 40
0.5
  1
1-3/4CS2i
100
AcDbAttributeDefinition
  3

  2
LINA
 70
     8
280
     0
  0
ATTDEF
  5
95
330
8C
100
AcDbEntity
  8
AM_6
100
AcDbText
 10
6.59375
 20
-4.83475
 30
0.0
 40
0.5
  1
1-3/4
100
AcDbAttributeDefinition
  3

  2
BORE
 70
     8
280
     0
  0
ATTDEF
  5
96
330
8C
100
AcDbEntity
  8
AM_6
100
AcDbText
 10
6.59375
 20
-5.33475
 30
0.0
 40
0.5
  1
1.750000
100
AcDbAttributeDefinition
  3

  2
BORE1
 70
     8
280
     0
  0
ATTDEF
  5
97
330
8C
100
AcDbEntity
  8
AM_6
100
AcDbText
 10
6.59375
 20
-5.83475
 30
0.0
 40
0.5
  1
3-3/16
100
AcDbAttributeDefinition
  3

  2
L1
 70
     8
280
     0
  0
ATTDEF
  5
98
330
8C
100
AcDbEntity
  8
AM_6
100
AcDbText
 10
6.59375
 20
-6.33475
 30
0.0
 40
0.5
  1
3.18750
100
AcDbAttributeDefinition
  3

  2
L
 70
     8
280
     0
  0
ATTDEF
  5
99
330
8C
100
AcDbEntity
  8
AM_6
100
AcDbText
 10
6.59375
 20
-6.83475
 30
0.0
 40
0.5
  1
3.09375
100
AcDbAttributeDefinition
  3

  2
L2
 70
     8
280
     0
  0
ATTDEF
  5
9A
330
8C
100
AcDbEntity
  8
AM_6
100
AcDbText
 10
6.59375
 20
-7.33475
 30
0.0
 40
0.5
  1
3.50
100
AcDbAttributeDefinition
  3

  2
A
 70
     8
280
     0
  0
ATTDEF
  5
9B
330
8C
100
AcDbEntity
  8
AM_6
100
AcDbText
 10
6.59375
 20
-7.83475
 30
0.0
 40
0.5
  1
1.62
100
AcDbAttributeDefinition
  3

  2
B
 70
     8
280
     0
  0
ATTDEF
  5
9C
330
8C
100
AcDbEntity
  8
AM_6
100
AcDbText
 10
6.59375
 20
-8.33475
 30
0.0
 40
0.5
  1
2.31
100
AcDbAttributeDefinition
  3

  2
C
 70
     8
280
     0
  0
ATTDEF
  5
9D
330
8C
100
AcDbEntity
  8
AM_6
100
AcDbText
 10
6.59375
 20
-8.83475
 30
0.0
 40
0.5
  1
3.50
100
AcDbAttributeDefinition
  3

  2
D
 70
     8
280
     0
  0
ATTDEF
  5
9E
330
8C
100
AcDbEntity
  8
AM_6
100
AcDbText
 10
6.59375
 20
-9.33475
 30
0.0
 40
0.5
  1
0.41
100
AcDbAttributeDefinition
  3

  2
E
 70
     8
280
     0
  0
ATTDEF
  5
9F
330
8C
100
AcDbEntity
  8
AM_6
100
AcDbText
 10
6.59375
 20
-9.83475
 30
0.0
 40
0.5
  1
0.317
100
AcDbAttributeDefinition
  3

  2
F
 70
     8
280
     0
  0
ATTDEF
  5
A0
330
8C
100
AcDbEntity
  8
AM_6
100
AcDbText
 10
6.59375
 20
-10.33475
 30
0.0
 40
0.5
  1
3/8-16
100
AcDbAttributeDefinition
  3

  2
CS
 70
     8
280
     0
  0
ATTDEF
  5
A1
330
8C
100
AcDbEntity
  8
AM_6
100
AcDbText
 10
6.59375
 20
-10.83475
 30
0.0
 40
0.5
  1
0.3750
100
AcDbAttributeDefinition
  3

  2
NDM
 70
     8
280
     0
  0
ATTDEF
  5
A2
330
8C
100
AcDbEntity
  8
AM_6
100
AcDbText
 10
6.59375
 20
-11.33475
 30
0.0
 40
0.5
  1
0.3070
100
AcDbAttributeDefinition
  3

  2
KDM
 70
     8
280
     0
  0
ATTDEF
  5
A3
330
8C
100
AcDbEntity
  8
AM_6
100
AcDbText
 10
6.59375
 20
-11.83475
 30
0.0
 40
0.5
  1
1
100
AcDbAttributeDefinition
  3

  2
DD
 70
     8
280
     0
  0
ATTDEF
  5
A4
330
8C
100
AcDbEntity
  8
AM_6
100
AcDbText
 10
6.59375
 20
-12.33475
 30
0.0
 40
0.5
  1
baldor
100
AcDbAttributeDefinition
  3

  2
COMPANY
 70
     8
280
     0
  0
LINE
  5
A7
330
8C
100
AcDbEntity
  8
AM_9
100
AcDbLine
 10
1.08508614371301
 20
-2.515827735467823
 30
0.0
 11
1.076997333078978
 21
-2.505738670469747
 31
0.0
  0
LINE
  5
A8
330
8C
100
AcDbEntity
  8
AM_9
100
AcDbLine
 10
1.077118752485536
 20
-2.797609884733209
 30
0.0
 11
1.08508614371301
 21
-2.787672264532177
 31
0.0
  0
LWPOLYLINE
  5
A9
330
8C
100
AcDbEntity
  8
AM_9
100
AcDbPolyline
 90
       26
 70
     0
 43
0.0
 10
1.076987422341317
 20
-2.505726308963633
 10
1.076852235758493
 20
-2.505558271443683
 10
1.066278981138374
 20
-2.495551432537048
 10
1.054569711275849
 20
-2.490181658753938
 10
1.041481947595278
 20
-2.489672827735139
 10
1.0278006900604
 20
-2.49425684088404
 10
1.013830421402534
 20
-2.504014255474738
 10
1.000232460804837
 20
-2.518666029846858
 10
0.987830224755597
 20
-2.537578571350549
 10
0.9769926350917173
 20
-2.560490925088392
 10
0.9688299740288342
 20
-2.585259356111882
 10
0.9631497418277855
 20
-2.612365795223778
 10
0.9605386608941846
 20
-2.638421165229202
 10
0.9605148356925725
 20
-2.664897638067584
 10
0.962909491879545
 20
-2.689447315440199
 10
0.9674605839073527
 20
-2.712962472618771
 10
0.9740576435160457
 20
-2.73515029802289
 10
0.9822865829736409
 20
-2.755187085965838
 10
0.9925219865207319
 20
-2.773814809653994
 10
1.003775738539055
 20
-2.789195301954541
 10
1.016601818437457
 20
-2.801830868890706
 10
1.029653900797198
 20
-2.810154421512373
 10
1.043155529328197
 20
-2.814042849706191
 10
1.056026013204927
 20
-2.812926650013289
 10
1.068107647222918
 20
-2.806608942332216
 10
1.076985474286909
 20
-2.79777612059274
  0
LWPOLYLINE
  5
AA
330
8C
100
AcDbEntity
  8
AM_9
100
AcDbPolyline
 90
        7
 70
     0
 43
0.0
 10
1.108937853387737
 20
-2.65175
 10
1.108513499617112
 20
-2.630771520915244
 10
1.106903610330475
 20
-2.606169242035971
 10
1.104130104245032
 20
-2.583105322039371
 10
1.100216007379131
 20
-2.561828384257335
 10
1.096179993962825
 20
-2.546086269731259
 10
1.091418091293067
 20
-2.532020700757612
  0
LWPOLYLINE
  5
AB
330
8C
100
AcDbEntity
  8
AM_9
100
AcDbPolyline
 90
        8
 70
     0
 43
0.0
 10
1.080473929602027
 20
-2.793025320013494
 10
1.088143681974203
 20
-2.779182303738319
 10
1.095791412491812
 20
-2.758722829888135
 10
1.101517109163569
 20
-2.735428283758052
 10
1.105650976577941
 20
-2.709161069580451
 10
1.107986640313107
 20
-2.683086514347769
 10
1.108920889922899
 20
-2.655974615848441
 10
1.108937853387737
 20
-2.65175
  0
LWPOLYLINE
  5
AC
330
8C
100
AcDbEntity
  8
AM_9
100
AcDbPolyline
 90
        3
 70
     0
 43
0.0
 10
1.076985474286909
 20
-2.79777612059274
 10
1.07891168616397
 20
-2.795254583658788
 10
1.080473929602027
 20
-2.793025320013494
  0
LINE
  5
AD
330
8C
100
AcDbEntity
  8
AM_9
100
AcDbLine
 10
1.054806317942603
 20
-2.8054
 30
0.0
 11
1.401900044268623
 21
-2.8054
 31
0.0
  0
LINE
  5
AE
330
8C
100
AcDbEntity
  8
AM_9
100
AcDbLine
 10
1.41374951699847
 20
-2.4981
 30
0.0
 11
1.054806317942603
 21
-2.4981
 31
0.0
  0
ELLIPSE
  5
AF
330
8C
100
AcDbEntity
  8
AM_9
100
AcDbEllipse
 10
1.413749516998489
 20
-2.651749999999978
 30
0.0
 11
-2.822504710334427E-17
 21
-0.1536499999999763
 31
0.0
210
0.0
220
0.0
230
1.0
 40
0.4226182617407584
 41
3.456698974528202
 42
4.71238898038469
  0
LINE
  5
B0
330
8C
100
AcDbEntity
  8
AM_9
100
AcDbLine
 10
1.405575759531479
 20
-2.488255133010463
 30
0.0
 11
1.383469691228065
 21
-2.51582773546782
 31
0.0
  0
LWPOLYLINE
  5
B1
330
8C
100
AcDbEntity
  8
AM_9
100
AcDbPolyline
 90
       39
 70
     0
 43
0.0
 10
-0.1218661424184465
 20
-2.534738104473679
 10
-0.1391103719975643
 20
-2.552463367160157
 10
-0.1538241570126183
 20
-2.573046829177464
 10
-0.1659591348966734
 20
-2.597873368754636
 10
-0.173643560517859
 20
-2.625426700585799
 10
-0.1759834116462795
 20
-2.650847550752589
 10
-0.1738155228219684
 20
-2.677094761521261
 10
-0.1677103660053227
 20
-2.700817654958649
 10
-0.1575987202424182
 20
-2.723836348440226
 10
-0.1438821518135295
 20
-2.745072772457577
 10
-0.1266166456928774
 20
-2.764379049811224
 10
-0.105504820089655
 20
-2.781625588346392
 10
-0.0813558454577697
 20
-2.795722487909666
 10
-0.0539914003972061
 20
-2.806356359131617
 10
-0.0244872070150616
 20
-2.81265701089962
 10
0.0061185726449097
 20
-2.814150986662971
 10
0.0374137059144485
 20
-2.81050712012805
 10
0.0671175628243077
 20
-2.801881994249787
 10
0.0957253333484078
 20
-2.787948885410672
 10
0.1203013277651083
 20
-2.770135052348584
 10
0.1419776755493766
 20
-2.747521329989636
 10
0.1577445699724264
 20
-2.723565148278001
 10
0.1692317451698796
 20
-2.696173654001466
 10
0.1747996578234413
 20
-2.670513695572541
 10
0.1757512957912935
 20
-2.643391036554752
 10
0.1723446896408934
 20
-2.618989733160896
 10
0.1647554934992659
 20
-2.594828803751199
 10
0.1535827526292065
 20
-2.572647546785491
 10
0.1387143058527731
 20
-2.551992928870743
 10
0.1200516691142442
 20
-2.533148942507808
 10
0.0981529894304415
 20
-2.517037017588642
 10
0.0726576953317616
 20
-2.503845250353041
 10
0.044658099968931
 20
-2.494608838042087
 10
0.0147106004738815
 20
-2.489823151141624
 10
-0.0164706900634701
 20
-2.489968821511385
 10
-0.0469582668698165
 20
-2.495185477134437
 10
-0.0769691017304316
 20
-2.505725947194301
 10
-0.1002663144367957
 20
-2.518374464030878
 10
-0.1218661424184465
 20
-2.534738104473679
  0
LINE
  5
B2
330
8C
100
AcDbEntity
  8
AM_9
100
AcDbLine
 10
1.08163782929995
 20
-2.512250356221258
 30
0.0
 11
1.076987422341317
 21
-2.505726308963633
 31
0.0
  0
LWPOLYLINE
  5
B3
330
8C
100
AcDbEntity
  8
AM_9
100
AcDbPolyline
 90
        3
 70
     0
 43
0.0
 10
1.091418091293067
 20
-2.532020700757612
 10
1.084631795879397
 20
-2.517323278082185
 10
1.08163782929995
 20
-2.512250356221258
  0
LINE
  5
B4
330
8C
100
AcDbEntity
  8
AM_9
100
AcDbLine
 10
1.155
 20
-2.96875
 30
0.0
 11
1.155
 21
-2.33475
 31
0.0
  0
LINE
  5
B5
330
8C
100
AcDbEntity
  8
AM_9
100
AcDbLine
 10
-1.155
 20
-2.33475
 30
0.0
 11
-1.155
 21
-2.96875
 31
0.0
  0
LINE
  5
B6
330
8C
100
AcDbEntity
  8
AM_9
100
AcDbLine
 10
0.15365
 20
-2.65175
 30
0.0
 11
-0.15365
 21
-2.65175
 31
0.0
  0
LINE
  5
B7
330
8C
100
AcDbEntity
  8
AM_9
100
AcDbLine
 10
1.45994700025129
 20
-2.65175
 30
0.0
 11
1.360387117872622
 21
-2.65175
 31
0.0
  0
ARC
  5
B9
330
8C
100
AcDbEntity
  8
AM_5
100
AcDbCircle
 10
-0.0000000000000001
 20
-2.651749999999999
 30
0.0
 40
0.1874999999999997
100
AcDbArc
 50
74.99999999999983
 51
14.9999999999998
  0
ELLIPSE
  5
BA
330
8C
100
AcDbEntity
  8
AM_9
100
AcDbEllipse
 10
1.054806317942603
 20
-2.651749999999999
 30
0.0
 11
-2.822504710334875E-17
 21
-0.1536500000000007
 31
0.0
210
0.0
220
0.0
230
1.0
 40
0.4226182617406999
 41
0.0
 42
6.283185307179586
  0
LINE
  5
BD
330
8C
100
AcDbEntity
  8
AM_7
100
AcDbLine
 10
-0.1613324999999999
 20
-2.65175
 30
0.0
 11
0.1613324999999999
 21
-2.65175
 31
0.0
  0
LWPOLYLINE
  5
BF
330
8C
100
AcDbEntity
  8
AM_4
100
AcDbPolyline
 90
       11
 70
     0
 43
0.0
 10
1.401950830982299
 20
-2.805399999349988
 10
1.394490991122567
 20
-2.804408534076903
 10
1.383369094674004
 20
-2.799335901088831
 10
1.372432139549704
 20
-2.790146532813431
 10
1.36203553641872
 20
-2.777021578952377
 10
1.352565912852262
 20
-2.760395976773056
 10
1.344365117463561
 20
-2.740598421808835
 10
1.337784061046145
 20
-2.718289226919943
 10
1.33312326541401
 20
-2.69406071224137
 10
1.330553232356618
 20
-2.66862808327275
 10
1.330076408418372
 20
-2.65175
  0
ELLIPSE
  5
C0
330
8C
100
AcDbEntity
  8
AM_4
100
AcDbEllipse
 10
1.413749516998468
 20
-2.651749999999984
 30
0.0
 11
-2.822504710334565E-17
 21
-0.1536499999999839
 31
0.0
210
0.0
220
0.0
230
1.0
 40
0.4226182617406958
 41
1.570796326794897
 42
3.456698974527926
  0
LWPOLYLINE
  5
C1
330
8C
100
AcDbEntity
  8
AM_4
100
AcDbPolyline
 90
       14
 70
     0
 43
0.0
 10
1.405806144327733
 20
-2.487967779489193
 10
1.411065081615269
 20
-2.481902014308103
 10
1.424498021109015
 20
-2.47059446029423
 10
1.436965368567408
 20
-2.465160059662534
 10
1.44956718883083
 20
-2.464698610984433
 10
1.460924741008912
 20
-2.469129306305625
 10
1.471417375813209
 20
-2.478083662700012
 10
1.480880287705092
 20
-2.491415296806328
 10
1.489112668336569
 20
-2.508575130476645
 10
1.496289142016458
 20
-2.530047976494898
 10
1.502003837324872
 20
-2.554491430863775
 10
1.50638045228294
 20
-2.58237462812713
 10
1.509231885205595
 20
-2.612825362996881
 10
1.510481085524808
 20
-2.65175
  0
LINE
  5
C2
330
8C
100
AcDbEntity
  8
AM_4
100
AcDbLine
 10
-1.441208333333333
 20
-2.96875
 30
0.0
 11
1.441208333323723
 21
-2.96875
 31
0.0
  0
ARC
  5
C3
330
8C
100
AcDbEntity
  8
AM_4
100
AcDbCircle
 10
1.441208333333333
 20
-2.863083333333334
 30
0.0
 40
0.1056666666666661
100
AcDbArc
 50
270.0
 51
0.0
  0
ARC
  5
C4
330
8C
100
AcDbEntity
  8
AM_4
100
AcDbCircle
 10
-1.441208333333333
 20
-2.863083333333334
 30
0.0
 40
0.1056666666666664
100
AcDbArc
 50
180.0
 51
270.0
  0
LWPOLYLINE
  5
C5
330
8C
100
AcDbEntity
  8
AM_4
100
AcDbPolyline
 90
       20
 70
     0
 43
0.0
 10
0.15365
 20
-2.65175
 10
0.1515429857412936
 20
-2.677108351141469
 10
0.1450384039127006
 20
-2.702466702282939
 10
0.1346874892830125
 20
-2.725693239925218
 10
0.1201966104825361
 20
-2.747463621436604
 10
0.1027162293125786
 20
-2.766020288070897
 10
0.0817817384961612
 20
-2.781827168436838
 10
0.059093102092448
 20
-2.793582040756281
 10
0.0340302300031545
 20
-2.801584128108159
 10
0.0087950505958282
 20
-2.805148075558388
 10
-0.0174268319981304
 20
-2.804408534076903
 10
-0.042335686920639
 20
-2.799452444505694
 10
-0.0667437053602878
 20
-2.790146532813431
 10
-0.0886518342549671
 20
-2.777245716194736
 10
-0.1086479370767272
 20
-2.760395976773056
 10
-0.1251351603917477
 20
-2.740910047856266
 10
-0.1384949594060965
 20
-2.718289226919943
 10
-0.1476045895415114
 20
-2.694425609501001
 10
-0.15272017812011
 20
-2.66862808327275
 10
-0.15365
 20
-2.65175
  0
LINE
  5
C6
330
8C
100
AcDbEntity
  8
AM_4
100
AcDbLine
 10
-1.546875
 20
-2.863083333333333
 30
0.0
 11
1.546875
 21
-2.863083333333333
 31
0.0
  0
LWPOLYLINE
  5
C7
330
8C
100
AcDbEntity
  8
AM_4
100
AcDbPolyline
 90
       11
 70
     0
 43
0.0
 10
1.459947000251289
 20
-2.65175
 10
1.45922141883046
 20
-2.67747172922563
 10
1.457064638058309
 20
-2.702466702282939
 10
1.453476807961021
 20
-2.726007803082138
 10
1.44850344764054
 20
-2.747463621436604
 10
1.442156133257138
 20
-2.766255596223206
 10
1.434546633111727
 20
-2.781827168436838
 10
1.425756567273633
 20
-2.793711270949998
 10
1.415987363347649
 20
-2.801584128108159
 10
1.405480264471376
 20
-2.805153338142889
 10
1.401950830982299
 20
-2.805399999349988
  0
LINE
  5
C8
330
8C
100
AcDbEntity
  8
AM_4
100
AcDbLine
 10
1.546875
 20
-2.863083333333333
 30
0.0
 11
1.546875
 21
-2.65175
 31
0.0
  0
LINE
  5
C9
330
8C
100
AcDbEntity
  8
AM_4
100
AcDbLine
 10
-1.546875
 20
-2.65175
 30
0.0
 11
-1.546875
 21
-2.863083333333333
 31
0.0
  0
LINE
  5
CA
330
8C
100
AcDbEntity
  8
AM_4
100
AcDbLine
 10
-1.59375
 20
-2.33475
 30
0.0
 11
1.59375
 21
-2.33475
 31
0.0
  0
LINE
  5
CB
330
8C
100
AcDbEntity
  8
AM_4
100
AcDbLine
 10
1.45994700025129
 20
-2.65175
 30
0.0
 11
1.59375
 21
-2.65175
 31
0.0
  0
LINE
  5
CC
330
8C
100
AcDbEntity
  8
AM_4
100
AcDbLine
 10
0.15365
 20
-2.65175
 30
0.0
 11
1.360387117872622
 21
-2.65175
 31
0.0
  0
LWPOLYLINE
  5
CD
330
8C
100
AcDbEntity
  8
AM_4
100
AcDbPolyline
 90
        8
 70
     0
 43
0.0
 10
1.360387117872622
 20
-2.65175
 10
1.361133463918558
 20
-2.628122918002793
 10
1.36334541798274
 20
-2.60483976840654
 10
1.368709847839755
 20
-2.574008094221128
 10
1.376837262773466
 20
-2.54455409400446
 10
1.386736060451187
 20
-2.519540569531892
 10
1.398746476592377
 20
-2.497736520263102
 10
1.405806144327733
 20
-2.487967779489193
  0
LINE
  5
CE
330
8C
100
AcDbEntity
  8
AM_4
100
AcDbLine
 10
1.59375
 20
-2.65175
 30
0.0
 11
1.59375
 21
-2.33475
 31
0.0
  0
LINE
  5
CF
330
8C
100
AcDbEntity
  8
AM_4
100
AcDbLine
 10
-1.59375
 20
-2.33475
 30
0.0
 11
-1.59375
 21
-2.65175
 31
0.0
  0
LINE
  5
D0
330
8C
100
AcDbEntity
  8
AM_4
100
AcDbLine
 10
-1.59375
 20
-2.65175
 30
0.0
 11
-0.15365
 21
-2.65175
 31
0.0
  0
LWPOLYLINE
  5
D1
330
8C
100
AcDbEntity
  8
AM_4
100
AcDbPolyline
 90
       20
 70
     0
 43
0.0
 10
-0.1775762919401221
 20
-2.65175
 10
-0.1761779760191284
 20
-2.62829488420327
 10
-0.1719154792278824
 20
-2.60483976840654
 10
-0.1615586229274693
 20
-2.574008094221128
 10
-0.1456341476866549
 20
-2.54455409400446
 10
-0.1258401168910071
 20
-2.519540569531892
 10
-0.1011951738397487
 20
-2.497736520263102
 10
-0.0751425386490346
 20
-2.481902014308103
 10
-0.045749959908176
 20
-2.47059446029423
 10
-0.0174532274234996
 20
-2.465160059662534
 10
0.0122614224205757
 20
-2.464698610984433
 10
0.0397424632460691
 20
-2.469017451963367
 10
0.0668721701800026
 20
-2.478083662700012
 10
0.0916444673633975
 20
-2.491202205658949
 10
0.1145764756623943
 20
-2.508575130476645
 10
0.1347683681486584
 20
-2.52974294464296
 10
0.1517678614477458
 20
-2.554491430863774
 10
0.164945758512766
 20
-2.58237462812713
 10
0.1736983237963723
 20
-2.612825362996881
 10
0.1775762919401219
 20
-2.65175
  0
ARC
  5
D2
330
8C
100
AcDbEntity
  8
AM_4
100
AcDbCircle
 10
-0.0000000000000001
 20
-2.65175
 30
0.0
 40
0.1536500000000001
100
AcDbArc
 50
0.0
 51
180.0
  0
CIRCLE
  5
D3
330
8C
100
AcDbEntity
  8
AM_5
100
AcDbCircle
 10
0.0000000000000004
 20
-2.651749999999999
 30
0.0
 40
0.1875000000000003
  0
ENDBLK
  5
8F
330
8C
100
AcDbEntity
  8
0
100
AcDbBlockEnd
  0
BLOCK
  5
D6
330
D4
100
AcDbEntity
  8
0
100
AcDbBlockBegin
  2
3_070020i_0_in_070496_4
 70
     2
 10
0.0
 20
0.0
 30
0.0
  3
3_070020i_0_in_070496_4
  1

  0
ATTDEF
  5
D8
330
D4
100
AcDbEntity
  8
AM_6
100
AcDbText
 10
6.673249999999999
 20
-0.3125000000000003
 30
0.0
 40
0.5
  1
S-2000 Insert -Inch
100
AcDbAttributeDefinition
  3

  2
NN
 70
     8
280
     0
  0
ATTDEF
  5
D9
330
D4
100
AcDbEntity
  8
AM_6
100
AcDbText
 10
6.673249999999999
 20
-0.8125000000000002
 30
0.0
 40
0.5
  1
S-2000 Bearings
100
AcDbAttributeDefinition
  3

  2
NT
 70
     8
280
     0
  0
ATTDEF
  5
DA
330
D4
100
AcDbEntity
  8
AM_6
100
AcDbText
 10
6.673249999999999
 20
-1.3125
 30
0.0
 40
0.5
  1
070020i
100
AcDbAttributeDefinition
  3

  2
NB
 70
     8
280
     0
  0
ATTDEF
  5
DB
330
D4
100
AcDbEntity
  8
AM_6
100
AcDbText
 10
6.673249999999999
 20
-1.8125
 30
0.0
 40
0.5
  1
$PN.i
100
AcDbAttributeDefinition
  3

  2
NBSYN
 70
     8
280
     0
  0
ATTDEF
  5
DC
330
D4
100
AcDbEntity
  8
AM_6
100
AcDbText
 10
6.673249999999999
 20
-2.3125
 30
0.0
 40
0.5
  1
070020i
100
AcDbAttributeDefinition
  3

  2
LINA
 70
     8
280
     0
  0
ATTDEF
  5
DD
330
D4
100
AcDbEntity
  8
AM_6
100
AcDbText
 10
6.673249999999999
 20
-2.8125
 30
0.0
 40
0.5
  1
1-3/4
100
AcDbAttributeDefinition
  3

  2
SS
 70
     8
280
     0
  0
ATTDEF
  5
DE
330
D4
100
AcDbEntity
  8
AM_6
100
AcDbText
 10
6.673249999999999
 20
-3.3125
 30
0.0
 40
0.5
  1
2.31
100
AcDbAttributeDefinition
  3

  2
CC
 70
     8
280
     0
  0
ATTDEF
  5
DF
330
D4
100
AcDbEntity
  8
AM_6
100
AcDbText
 10
6.673249999999999
 20
-3.8125
 30
0.0
 40
0.5
  1
1.750000
100
AcDbAttributeDefinition
  3

  2
SS1
 70
     8
280
     0
  0
ATTDEF
  5
E0
330
D4
100
AcDbEntity
  8
AM_6
100
AcDbText
 10
6.673249999999999
 20
-4.3125
 30
0.0
 40
0.5
  1
070020
100
AcDbAttributeDefinition
  3

  2
PN
 70
     8
280
     0
  0
ATTDEF
  5
E1
330
D4
100
AcDbEntity
  8
AM_6
100
AcDbText
 10
6.673249999999999
 20
-4.8125
 30
0.0
 40
0.5
  1
INS-S2-112L
100
AcDbAttributeDefinition
  3

  2
DESCRIPTION
 70
     8
280
     0
  0
ATTDEF
  5
E2
330
D4
100
AcDbEntity
  8
AM_6
100
AcDbText
 10
6.673249999999999
 20
-5.3125
 30
0.0
 40
0.5
  1
Labyrinth Seal
100
AcDbAttributeDefinition
  3

  2
ST
 70
     8
280
     0
  0
ATTDEF
  5
E3
330
D4
100
AcDbEntity
  8
AM_6
100
AcDbText
 10
6.673249999999999
 20
-5.8125
 30
0.0
 40
0.5
  1
2
100
AcDbAttributeDefinition
  3

  2
ST1
 70
     8
280
     0
  0
ATTDEF
  5
E4
330
D4
100
AcDbEntity
  8
AM_6
100
AcDbText
 10
6.673249999999999
 20
-6.3125
 30
0.0
 40
0.5
  1
3.3465
100
AcDbAttributeDefinition
  3

  2
A
 70
     8
280
     0
  0
ATTDEF
  5
E5
330
D4
100
AcDbEntity
  8
AM_6
100
AcDbText
 10
6.673249999999999
 20
-6.8125
 30
0.0
 40
0.5
  1
61/64
100
AcDbAttributeDefinition
  3

  2
B
 70
     8
280
     0
  0
ATTDEF
  5
E6
330
D4
100
AcDbEntity
  8
AM_6
100
AcDbText
 10
6.673249999999999
 20
-7.3125
 30
0.0
 40
0.5
  1
2-21/32
100
AcDbAttributeDefinition
  3

  2
C
 70
     8
280
     0
  0
ATTDEF
  5
E7
330
D4
100
AcDbEntity
  8
AM_6
100
AcDbText
 10
6.673249999999999
 20
-7.8125
 30
0.0
 40
0.5
  1
0.954
100
AcDbAttributeDefinition
  3

  2
D
 70
     8
280
     0
  0
ATTDEF
  5
E8
330
D4
100
AcDbEntity
  8
AM_6
100
AcDbText
 10
6.673249999999999
 20
-8.3125
 30
0.0
 40
0.5
  1
3-3/32
100
AcDbAttributeDefinition
  3

  2
E
 70
     8
280
     0
  0
ATTDEF
  5
E9
330
D4
100
AcDbEntity
  8
AM_6
100
AcDbText
 10
6.673249999999999
 20
-8.8125
 30
0.0
 40
0.5
  1
0.43750
100
AcDbAttributeDefinition
  3

  2
F
 70
     8
280
     0
  0
ATTDEF
  5
EA
330
D4
100
AcDbEntity
  8
AM_6
100
AcDbText
 10
6.673249999999999
 20
-9.3125
 30
0.0
 40
0.5
  1
1
100
AcDbAttributeDefinition
  3

  2
DD
 70
     8
280
     0
  0
ATTDEF
  5
EB
330
D4
100
AcDbEntity
  8
AM_6
100
AcDbText
 10
6.673249999999999
 20
-9.8125
 30
0.0
 40
0.5
  1
baldor
100
AcDbAttributeDefinition
  3

  2
COMPANY
 70
     8
280
     0
  0
LINE
  5
EC
330
D4
100
AcDbEntity
  8
AM_9
100
AcDbLine
 10
1.046785494027331
 20
-2.44675
 30
0.0
 11
0.7928690515927604
 21
-2.44675
 31
0.0
  0
LINE
  5
ED
330
D4
100
AcDbEntity
  8
AM_9
100
AcDbLine
 10
0.7929252549517951
 20
-2.85675
 30
0.0
 11
1.046785494027331
 21
-2.85675
 31
0.0
  0
LWPOLYLINE
  5
EE
330
D4
100
AcDbEntity
  8
AM_9
100
AcDbPolyline
 90
       21
 70
     0
 43
0.0
 10
0.7930247549326368
 20
-2.446750000404329
 10
0.7838866201270205
 20
-2.447835243870969
 10
0.7686099934655335
 20
-2.454049946916134
 10
0.752978694390576
 20
-2.46553144024101
 10
0.7374589579190651
 20
-2.48216104759553
 10
0.7228287634079884
 20
-2.503336703523211
 10
0.7094687258278779
 20
-2.529201651611343
 10
0.6983931489074418
 20
-2.558558645768286
 10
0.6902259113375827
 20
-2.590787173249019
 10
0.685447292940775
 20
-2.624829855212846
 10
0.6844089856270322
 20
-2.658881175064668
 10
0.686953445305646
 20
-2.692726616006929
 10
0.6928820299587914
 20
-2.724931533153509
 10
0.7018062421159188
 20
-2.75512881725037
 10
0.713508210478185
 20
-2.782952826845427
 10
0.7272192139804999
 20
-2.807175372334274
 10
0.7426435337499969
 20
-2.827496559178011
 10
0.7587760818068358
 20
-2.842828244620993
 10
0.7748028722872327
 20
-2.852580910443485
 10
0.7902208063709172
 20
-2.856644726283833
 10
0.7930097208847193
 20
-2.856749998743439
  0
LWPOLYLINE
  5
EF
330
D4
100
AcDbEntity
  8
AM_9
100
AcDbPolyline
 90
       11
 70
     0
 43
0.0
 10
0.7930097208847193
 20
-2.856749998743439
 10
0.8041465506760788
 20
-2.854908574870382
 10
0.8166228949421968
 20
-2.847676574539399
 10
0.8273431100057728
 20
-2.835164969582889
 10
0.836309079154737
 20
-2.817790722800626
 10
0.8436484571969832
 20
-2.795455056527176
 10
0.8492805638303597
 20
-2.769136850912133
 10
0.853388189427079
 20
-2.738991101982319
 10
0.856046054484121
 20
-2.706274555685126
 10
0.8572035055222111
 20
-2.679272712911754
 10
0.8575845740478432
 20
-2.65175
  0
LWPOLYLINE
  5
F0
330
D4
100
AcDbEntity
  8
AM_9
100
AcDbPolyline
 90
       12
 70
     0
 43
0.0
 10
0.943528677941797
 20
-2.65175
 10
0.9436760816826892
 20
-2.642154582061244
 10
0.9462636383494186
 20
-2.608187555419073
 10
0.9520253790500312
 20
-2.575710575943977
 10
0.9606178153233742
 20
-2.545342745364521
 10
0.9717845859103306
 20
-2.517668559939227
 10
0.9848882345298692
 20
-2.493719404785717
 10
0.9995452976131668
 20
-2.473995335435469
 10
1.014971602783868
 20
-2.459305624917103
 10
1.030474736511694
 20
-2.450191907098632
 10
1.045575929214714
 20
-2.446769874684364
 10
1.046778995239891
 20
-2.44675000057673
  0
LWPOLYLINE
  5
F1
330
D4
100
AcDbEntity
  8
AM_9
100
AcDbPolyline
 90
       11
 70
     0
 43
0.0
 10
1.046792319612884
 20
-2.856749999363772
 10
1.037212380740092
 20
-2.855544998115517
 10
1.022073626267102
 20
-2.849048212665202
 10
1.006831899331695
 20
-2.837170443226722
 10
0.9919710612922389
 20
-2.820086514271011
 10
0.9781609653212456
 20
-2.798389899355452
 10
0.9658545939737122
 20
-2.772231352391878
 10
0.9558004459324831
 20
-2.742650303144283
 10
0.9485317704945353
 20
-2.71037500327932
 10
0.9443991701300949
 20
-2.676395425831918
 10
0.943528677941797
 20
-2.65175
  0
LWPOLYLINE
  5
F2
330
D4
100
AcDbEntity
  8
AM_9
100
AcDbPolyline
 90
        4
 70
     0
 43
0.0
 10
1.114477019830195
 20
-2.592174603353719
 10
1.115210699933459
 20
-2.602185264890734
 10
1.116404845571592
 20
-2.626776989680055
 10
1.116802165255484
 20
-2.65175
  0
LWPOLYLINE
  5
F3
330
D4
100
AcDbEntity
  8
AM_9
100
AcDbPolyline
 90
        9
 70
     0
 43
0.0
 10
1.046778995239891
 20
-2.44675000057673
 10
1.05957968897145
 20
-2.449157761293979
 10
1.072357626657006
 20
-2.45711395378917
 10
1.083608099732247
 20
-2.470452571434621
 10
1.093234560244893
 20
-2.488726360126783
 10
1.101246283655223
 20
-2.511816196985514
 10
1.107543787395097
 20
-2.538823889191245
 10
1.112189287714433
 20
-2.569310959345697
 10
1.114477019830195
 20
-2.592174603353719
  0
LWPOLYLINE
  5
F4
330
D4
100
AcDbEntity
  8
AM_9
100
AcDbPolyline
 90
       11
 70
     0
 43
0.0
 10
0.8575845740478432
 20
-2.65175
 10
0.8570039307593145
 20
-2.617869444254735
 10
0.8552299502507873
 20
-2.584957142944052
 10
0.8521689357535284
 20
-2.553985507777246
 10
0.8476921784454567
 20
-2.525712824048849
 10
0.8415132550082791
 20
-2.500509995897258
 10
0.8335770122571118
 20
-2.479514809448744
 10
0.8236372310797183
 20
-2.463199269584921
 10
0.8118324855950141
 20
-2.45227054827736
 10
0.7985350753855323
 20
-2.447203454993401
 10
0.7930247549326368
 20
-2.446750000404329
  0
LINE
  5
F5
330
D4
100
AcDbEntity
  8
AM_9
100
AcDbLine
 10
-0.8750000000000001
 20
-0.3125000000000003
 30
0.0
 11
-0.8750000000000001
 21
-2.96875
 31
0.0
  0
LINE
  5
F6
330
D4
100
AcDbEntity
  8
AM_9
100
AcDbLine
 10
0.8750000000000001
 20
-2.96875
 30
0.0
 11
0.8750000000000001
 21
-0.3125000000000003
 31
0.0
  0
LWPOLYLINE
  5
F7
330
D4
100
AcDbEntity
  8
AM_9
100
AcDbPolyline
 90
       10
 70
     0
 43
0.0
 10
1.11428492766132
 20
-2.71364701130408
 10
1.113809380737061
 20
-2.718998002252065
 10
1.110009442682595
 20
-2.750197523479572
 10
1.104606423986586
 20
-2.778655193923415
 10
1.097442290854296
 20
-2.80379195531181
 10
1.088549139716656
 20
-2.824674449120014
 10
1.077839767615082
 20
-2.84074930775001
 10
1.065507167045844
 20
-2.851455549264894
 10
1.051886068210213
 20
-2.856363652474625
 10
1.046792319612884
 20
-2.856749999363772
  0
LWPOLYLINE
  5
F8
330
D4
100
AcDbEntity
  8
AM_9
100
AcDbPolyline
 90
        3
 70
     0
 43
0.0
 10
1.116802165255484
 20
-2.65175
 10
1.116055710871377
 20
-2.68585843538501
 10
1.11428492766132
 20
-2.71364701130408
  0
LWPOLYLINE
  5
F9
330
D4
100
AcDbEntity
  8
AM_9
100
AcDbPolyline
 90
       21
 70
     0
 43
0.0
 10
-0.205
 20
-2.65175
 10
-0.2047980003563593
 20
-2.642651700706359
 10
-0.2003180306965243
 20
-2.608187555419073
 10
-0.190549195096018
 20
-2.57614573921888
 10
-0.1752212777060494
 20
-2.545342745364521
 10
-0.1553738176201073
 20
-2.518019013320945
 10
-0.1305807450438981
 20
-2.493719404785717
 10
-0.1025237405266752
 20
-2.474228500940256
 10
-0.0706410822323171
 20
-2.459305624917103
 10
-0.0377943961290886
 20
-2.450264060983806
 10
-0.0028545096927904
 20
-2.446769874684364
 10
0.0307098913801233
 20
-2.449063289603337
 10
0.0643568917476233
 20
-2.45711395378917
 10
0.095236302073934
 20
-2.470214750620486
 10
0.1242911615622268
 20
-2.488726360126783
 10
0.1494672277504474
 20
-2.511448368403658
 10
0.1710926459483536
 20
-2.538823889191245
 10
0.1874844207229779
 20
-2.568836840693594
 10
0.1989179153157107
 20
-2.602185264890734
 10
0.2034495371294953
 20
-2.626584828794659
 10
0.2049999999999999
 20
-2.65175
  0
LWPOLYLINE
  5
FA
330
D4
100
AcDbEntity
  8
AM_9
100
AcDbPolyline
 90
       20
 70
     0
 43
0.0
 10
0.2049999999999999
 20
-2.65175
 10
0.2022237042195514
 20
-2.685374001126033
 10
0.1936561545448694
 20
-2.718998002252065
 10
0.1800385435420809
 20
-2.749786334280951
 10
0.1609971172265528
 20
-2.778655193923415
 10
0.1378522813137548
 20
-2.803479194740476
 10
0.1101005671944506
 20
-2.824674449120014
 10
0.0798223260686158
 20
-2.840571069430812
 10
0.0462892384124774
 20
-2.851455549264894
 10
0.0127289676164413
 20
-2.856354431485292
 10
-0.0221945656208091
 20
-2.855544998115517
 10
-0.0551308921996137
 20
-2.849197675917633
 10
-0.0874314544863926
 20
-2.837170443226722
 10
-0.1165818286953598
 20
-2.820372884621412
 10
-0.1432541095990719
 20
-2.798389899355452
 10
-0.1655592266691508
 20
-2.772643103462161
 10
-0.1837447547231688
 20
-2.742650303144283
 10
-0.1962895823481186
 20
-2.710871906782522
 10
-0.2035131518736895
 20
-2.676395425831918
 10
-0.205
 20
-2.65175
  0
LINE
  5
FB
330
D4
100
AcDbEntity
  8
AM_9
100
AcDbLine
 10
-1.155
 20
-2.33475
 30
0.0
 11
-1.155
 21
-2.96875
 31
0.0
  0
LINE
  5
FC
330
D4
100
AcDbEntity
  8
AM_9
100
AcDbLine
 10
1.155
 20
-2.96875
 30
0.0
 11
1.155
 21
-2.33475
 31
0.0
  0
LINE
  5
FD
330
D4
100
AcDbEntity
  8
AM_9
100
AcDbLine
 10
-1.155
 20
-0.3125000000000003
 30
0.0
 11
-1.155
 21
-0.6357499999999999
 31
0.0
  0
LINE
  5
FE
330
D4
100
AcDbEntity
  8
AM_9
100
AcDbLine
 10
1.155
 20
-0.6357499999999999
 30
0.0
 11
1.155
 21
-0.3125000000000003
 31
0.0
  0
LINE
  5
FF
330
D4
100
AcDbEntity
  8
AM_9
100
AcDbLine
 10
1.155
 20
-0.3125000000000003
 30
0.0
 11
-1.155
 21
-0.3125000000000003
 31
0.0
  0
ARC
  5
100
330
D4
100
AcDbEntity
  8
AM_9
100
AcDbCircle
 10
-1.2432875
 20
-1.8019375
 30
0.0
 40
0.0953124999999999
100
AcDbArc
 50
180.0
 51
248.5116083194981
  0
ARC
  5
101
330
D4
100
AcDbEntity
  8
AM_9
100
AcDbCircle
 10
1.2432875
 20
-1.8019375
 30
0.0
 40
0.0953125
100
AcDbArc
 50
291.4883916805019
 51
0.0
  0
LINE
  5
102
330
D4
100
AcDbEntity
  8
AM_9
100
AcDbLine
 10
-1.3386
 20
-0.7310624999999998
 30
0.0
 11
-1.3386
 21
-0.7899374999999998
 31
0.0
  0
LINE
  5
103
330
D4
100
AcDbEntity
  8
AM_9
100
AcDbLine
 10
1.3386
 20
-0.7899374999999998
 30
0.0
 11
1.3386
 21
-0.7310624999999998
 31
0.0
  0
LINE
  5
104
330
D4
100
AcDbEntity
  8
AM_9
100
AcDbLine
 10
1.2432875
 20
-0.6357499999999999
 30
0.0
 11
-1.2432875
 21
-0.6357499999999999
 31
0.0
  0
ARC
  5
105
330
D4
100
AcDbEntity
  8
AM_9
100
AcDbCircle
 10
-1.2432875
 20
-0.7310624999999996
 30
0.0
 40
0.0953124999999997
100
AcDbArc
 50
90.0
 51
180.0
  0
ARC
  5
106
330
D4
100
AcDbEntity
  8
AM_9
100
AcDbCircle
 10
1.243287500000001
 20
-0.7310624999999993
 30
0.0
 40
0.0953124999999995
100
AcDbArc
 50
0.0000008537736463
 51
90.0
  0
LINE
  5
107
330
D4
100
AcDbEntity
  8
AM_9
100
AcDbLine
 10
1.3386
 20
-0.7310624999999998
 30
0.0
 11
-1.3386
 21
-0.7310624999999998
 31
0.0
  0
LINE
  5
108
330
D4
100
AcDbEntity
  8
AM_9
100
AcDbLine
 10
-1.3386
 20
-1.7430625
 30
0.0
 11
-1.3386
 21
-1.8019375
 31
0.0
  0
LINE
  5
109
330
D4
100
AcDbEntity
  8
AM_9
100
AcDbLine
 10
1.3386
 20
-1.8019375
 30
0.0
 11
1.3386
 21
-1.7430625
 31
0.0
  0
LINE
  5
10A
330
D4
100
AcDbEntity
  8
AM_9
100
AcDbLine
 10
1.3386
 20
-1.8019375
 30
0.0
 11
-1.3386
 21
-1.8019375
 31
0.0
  0
LINE
  5
10B
330
D4
100
AcDbEntity
  8
AM_9
100
AcDbLine
 10
-1.60632
 20
-1.218843749999998
 30
0.0
 11
-1.60632
 21
-1.314156250000002
 31
0.0
  0
LINE
  5
10C
330
D4
100
AcDbEntity
  8
AM_9
100
AcDbLine
 10
1.60632
 20
-1.314156250000002
 30
0.0
 11
1.60632
 21
-1.218843749999998
 31
0.0
  0
LINE
  5
10D
330
D4
100
AcDbEntity
  8
AM_9
100
AcDbLine
 10
1.60632
 20
-1.218843749999998
 30
0.0
 11
1.67325
 21
-1.180201696483137
 31
0.0
  0
LINE
  5
10E
330
D4
100
AcDbEntity
  8
AM_9
100
AcDbLine
 10
-1.67325
 20
-1.180201696483137
 30
0.0
 11
-1.60632
 21
-1.218843749999998
 31
0.0
  0
LINE
  5
10F
330
D4
100
AcDbEntity
  8
AM_9
100
AcDbLine
 10
1.60632
 20
-1.218843749999998
 30
0.0
 11
-1.60632
 21
-1.218843749999998
 31
0.0
  0
LINE
  5
110
330
D4
100
AcDbEntity
  8
AM_9
100
AcDbLine
 10
1.577937501420267
 20
-0.7899374999999998
 30
0.0
 11
-1.577937501420267
 21
-0.7899374999999998
 31
0.0
  0
ARC
  5
111
330
D4
100
AcDbEntity
  8
AM_9
100
AcDbCircle
 10
-1.5779375
 20
-0.8852500000000001
 30
0.0
 40
0.0953125000000002
100
AcDbArc
 50
90.0
 51
179.9999991462263
  0
ARC
  5
112
330
D4
100
AcDbEntity
  8
AM_9
100
AcDbCircle
 10
1.5779375
 20
-0.8852500000000001
 30
0.0
 40
0.0953125000000004
100
AcDbArc
 50
0.0000008537736463
 51
90.0
  0
LINE
  5
113
330
D4
100
AcDbEntity
  8
AM_9
100
AcDbLine
 10
1.5779375
 20
-1.7430625
 30
0.0
 11
-1.5779375
 21
-1.7430625
 31
0.0
  0
ARC
  5
114
330
D4
100
AcDbEntity
  8
AM_9
100
AcDbCircle
 10
-1.5779375
 20
-1.64775
 30
0.0
 40
0.0953124999999995
100
AcDbArc
 50
179.9999991462263
 51
270.0
  0
ARC
  5
115
330
D4
100
AcDbEntity
  8
AM_9
100
AcDbCircle
 10
1.5779375
 20
-1.64775
 30
0.0
 40
0.0953124999999995
100
AcDbArc
 50
270.0
 51
0.0000008537736463
  0
LINE
  5
116
330
D4
100
AcDbEntity
  8
AM_9
100
AcDbLine
 10
-1.60632
 20
-1.314156250000002
 30
0.0
 11
-1.67325
 21
-1.352798303516864
 31
0.0
  0
LINE
  5
117
330
D4
100
AcDbEntity
  8
AM_9
100
AcDbLine
 10
1.67325
 20
-1.352798303516864
 30
0.0
 11
1.60632
 21
-1.314156250000002
 31
0.0
  0
LINE
  5
118
330
D4
100
AcDbEntity
  8
AM_9
100
AcDbLine
 10
1.60632
 20
-1.314156250000002
 30
0.0
 11
-1.60632
 21
-1.314156250000002
 31
0.0
  0
LINE
  5
119
330
D4
100
AcDbEntity
  8
AM_9
100
AcDbLine
 10
-1.67325
 20
-0.8852500000000001
 30
0.0
 11
-1.67325
 21
-1.180201696483137
 31
0.0
  0
LINE
  5
11A
330
D4
100
AcDbEntity
  8
AM_9
100
AcDbLine
 10
1.67325
 20
-1.180201696483137
 30
0.0
 11
1.67325
 21
-0.8852500000000001
 31
0.0
  0
LINE
  5
11B
330
D4
100
AcDbEntity
  8
AM_9
100
AcDbLine
 10
1.67325
 20
-0.8852500000000001
 30
0.0
 11
-1.67325
 21
-0.8852500000000001
 31
0.0
  0
LINE
  5
11C
330
D4
100
AcDbEntity
  8
AM_9
100
AcDbLine
 10
1.67325
 20
-1.180201696483137
 30
0.0
 11
-1.67325
 21
-1.180201696483137
 31
0.0
  0
LINE
  5
11D
330
D4
100
AcDbEntity
  8
AM_9
100
AcDbLine
 10
-1.67325
 20
-1.352798303516864
 30
0.0
 11
-1.67325
 21
-1.64775
 31
0.0
  0
LINE
  5
11E
330
D4
100
AcDbEntity
  8
AM_9
100
AcDbLine
 10
1.67325
 20
-1.64775
 30
0.0
 11
1.67325
 21
-1.352798303516864
 31
0.0
  0
LINE
  5
11F
330
D4
100
AcDbEntity
  8
AM_9
100
AcDbLine
 10
1.67325
 20
-1.352798303516864
 30
0.0
 11
-1.67325
 21
-1.352798303516864
 31
0.0
  0
LINE
  5
120
330
D4
100
AcDbEntity
  8
AM_9
100
AcDbLine
 10
1.67325
 20
-1.64775
 30
0.0
 11
-1.67325
 21
-1.64775
 31
0.0
  0
LINE
  5
121
330
D4
100
AcDbEntity
  8
AM_4
100
AcDbLine
 10
-1.155
 20
-1.89725
 30
0.0
 11
-1.155
 21
-2.33475
 31
0.0
  0
LINE
  5
122
330
D4
100
AcDbEntity
  8
AM_4
100
AcDbLine
 10
1.155
 20
-2.33475
 30
0.0
 11
1.155
 21
-1.89725
 31
0.0
  0
LINE
  5
123
330
D4
100
AcDbEntity
  8
AM_4
100
AcDbLine
 10
1.2432875
 20
-1.89725
 30
0.0
 11
-1.2432875
 21
-1.89725
 31
0.0
  0
ARC
  5
124
330
D4
100
AcDbEntity
  8
AM_4
100
AcDbCircle
 10
-1.2432875
 20
-1.801937500000001
 30
0.0
 40
0.0953124999999995
100
AcDbArc
 50
248.5116083194982
 51
270.0
  0
ARC
  5
125
330
D4
100
AcDbEntity
  8
AM_4
100
AcDbCircle
 10
1.243287500000001
 20
-1.801937500000001
 30
0.0
 40
0.0953124999999995
100
AcDbArc
 50
270.0
 51
291.4883916805018
  0
ENDBLK
  5
D7
330
D4
100
AcDbEntity
  8
0
100
AcDbBlockEnd
  0
BLOCK
  5
128
330
126
100
AcDbEntity
  8
0
100
AcDbBlockBegin
  2
4_405015E_Inch_0_in_070496_4
 70
     2
 10
0.0
 20
0.0
 30
0.0
  3
4_405015E_Inch_0_in_070496_4
  1

  0
ATTDEF
  5
12A
330
126
100
AcDbEntity
  8
AM_6
100
AcDbText
 10
5.21875
 20
-0.9427217572295387
 30
0.0
 40
0.5
  1
405015E -Inch
100
AcDbAttributeDefinition
  3

  2
NN
 70
     8
280
     0
  0
ATTDEF
  5
12B
330
126
100
AcDbEntity
  8
AM_6
100
AcDbText
 10
5.21875
 20
-1.442721757229539
 30
0.0
 40
0.5
  1
Grease Fitting
100
AcDbAttributeDefinition
  3

  2
NT
 70
     8
280
     0
  0
ATTDEF
  5
12C
330
126
100
AcDbEntity
  8
AM_6
100
AcDbText
 10
5.21875
 20
-1.942721757229539
 30
0.0
 40
0.5
  1
405015E-Inch
100
AcDbAttributeDefinition
  3

  2
NB
 70
     8
280
     0
  0
ATTDEF
  5
12D
330
126
100
AcDbEntity
  8
AM_6
100
AcDbText
 10
5.21875
 20
-2.442721757229539
 30
0.0
 40
0.5
  1
$MN.-Inch
100
AcDbAttributeDefinition
  3

  2
NBSYN
 70
     8
280
     0
  0
ATTDEF
  5
12E
330
126
100
AcDbEntity
  8
AM_6
100
AcDbText
 10
5.21875
 20
-2.942721757229539
 30
0.0
 40
0.5
  1
405015E
100
AcDbAttributeDefinition
  3

  2
LINA
 70
     8
280
     0
  0
ATTDEF
  5
12F
330
126
100
AcDbEntity
  8
AM_6
100
AcDbText
 10
5.21875
 20
-3.442721757229539
 30
0.0
 40
0.5
  1
405015E
100
AcDbAttributeDefinition
  3

  2
MN
 70
     8
280
     0
  0
ATTDEF
  5
130
330
126
100
AcDbEntity
  8
AM_6
100
AcDbText
 10
5.21875
 20
-3.942721757229539
 30
0.0
 40
0.5
  1
1/8 x 27PTF
100
AcDbAttributeDefinition
  3

  2
T
 70
     8
280
     0
  0
ATTDEF
  5
131
330
126
100
AcDbEntity
  8
AM_6
100
AcDbText
 10
5.21875
 20
-4.442721757229538
 30
0.0
 40
0.5
  1
baldor
100
AcDbAttributeDefinition
  3

  2
COMPANY
 70
     8
280
     0
  0
CIRCLE
  5
132
330
126
100
AcDbEntity
  8
AM_9
100
AcDbCircle
 10
0.0
 20
-1.1953125
 30
0.0
 40
0.161902872472269
  0
CIRCLE
  5
133
330
126
100
AcDbEntity
  8
AM_9
100
AcDbCircle
 10
0.0
 20
-1.1953125
 30
0.0
 40
0.1986176267812154
  0
CIRCLE
  5
134
330
126
100
AcDbEntity
  8
AM_9
100
AcDbCircle
 10
0.0
 20
-1.1953125
 30
0.0
 40
0.2057518972230696
  0
CIRCLE
  5
135
330
126
100
AcDbEntity
  8
AM_9
100
AcDbCircle
 10
0.0
 20
-1.1953125
 30
0.0
 40
0.1188200907348975
  0
CIRCLE
  5
136
330
126
100
AcDbEntity
  8
AM_9
100
AcDbCircle
 10
0.0
 20
-1.1953125
 30
0.0
 40
0.105
  0
LINE
  5
137
330
126
100
AcDbEntity
  8
AM_4
100
AcDbLine
 10
0.0
 20
-0.9427217572295387
 30
0.0
 11
-0.21875
 21
-1.069017128614769
 31
0.0
  0
LINE
  5
138
330
126
100
AcDbEntity
  8
AM_4
100
AcDbLine
 10
-0.21875
 20
-1.069017128614769
 30
0.0
 11
-0.21875
 21
-1.32160787138523
 31
0.0
  0
LINE
  5
139
330
126
100
AcDbEntity
  8
AM_4
100
AcDbLine
 10
0.0
 20
-1.447903242770461
 30
0.0
 11
0.21875
 21
-1.32160787138523
 31
0.0
  0
LINE
  5
13A
330
126
100
AcDbEntity
  8
AM_4
100
AcDbLine
 10
0.21875
 20
-1.32160787138523
 30
0.0
 11
0.21875
 21
-1.069017128614769
 31
0.0
  0
LINE
  5
13B
330
126
100
AcDbEntity
  8
AM_4
100
AcDbLine
 10
0.21875
 20
-1.069017128614769
 30
0.0
 11
0.0
 21
-0.9427217572295387
 31
0.0
  0
LINE
  5
13C
330
126
100
AcDbEntity
  8
AM_4
100
AcDbLine
 10
-0.21875
 20
-1.32160787138523
 30
0.0
 11
0.0
 21
-1.447903242770461
 31
0.0
  0
CIRCLE
  5
13D
330
126
100
AcDbEntity
  8
AM_4
100
AcDbCircle
 10
0.0
 20
-1.1953125
 30
0.0
 40
0.21375
  0
CIRCLE
  5
13E
330
126
100
AcDbEntity
  8
AM_4
100
AcDbCircle
 10
0.0
 20
-1.1953125
 30
0.0
 40
0.1725340532830154
  0
CIRCLE
  5
13F
330
126
100
AcDbEntity
  8
AM_4
100
AcDbCircle
 10
0.0
 20
-1.1953125
 30
0.0
 40
0.135
  0
CIRCLE
  5
140
330
126
100
AcDbEntity
  8
AM_4
100
AcDbCircle
 10
0.0
 20
-1.1953125
 30
0.0
 40
0.1026779019331875
  0
ARC
  5
141
330
126
100
AcDbEntity
  8
AM_5
100
AcDbCircle
 10
-0.0000000000000001
 20
-1.1953125
 30
0.0
 40
0.2025000050000003
100
AcDbArc
 50
75.00000000000001
 51
15.00000000000007
  0
CIRCLE
  5
142
330
126
100
AcDbEntity
  8
AM_4
100
AcDbCircle
 10
0.0000000000000002
 20
-1.1953125
 30
0.0
 40
0.2187500000000001
  0
ENDBLK
  5
129
330
126
100
AcDbEntity
  8
0
100
AcDbBlockEnd
  0
BLOCK
  5
145
330
143
100
AcDbEntity
  8
0
100
AcDbBlockBegin
  2
5_070496H_0_in_070496_4
 70
     2
 10
0.0
 20
0.0
 30
0.0
  3
5_070496H_0_in_070496_4
  1

  0
ATTDEF
  5
147
330
143
100
AcDbEntity
  8
AM_6
100
AcDbText
 10
8.1875
 20
0.09453125
 30
0.0
 40
0.5
  1
F3&4R-S2 -(Labyrinth Seal)-Housing
100
AcDbAttributeDefinition
  3

  2
NN
 70
     8
280
     0
  0
ATTDEF
  5
148
330
143
100
AcDbEntity
  8
AM_6
100
AcDbText
 10
8.1875
 20
-0.40546875
 30
0.0
 40
0.5
  1
S-2000 3 & 4 Bolt Round Flange Bearing -Inch
100
AcDbAttributeDefinition
  3

  2
NT
 70
     8
280
     0
  0
ATTDEF
  5
149
330
143
100
AcDbEntity
  8
AM_6
100
AcDbText
 10
8.1875
 20
-0.90546875
 30
0.0
 40
0.5
  1
070496H
100
AcDbAttributeDefinition
  3

  2
NB
 70
     8
280
     0
  0
ATTDEF
  5
14A
330
143
100
AcDbEntity
  8
AM_6
100
AcDbText
 10
8.1875
 20
-1.40546875
 30
0.0
 40
0.5
  1
$PN.H
100
AcDbAttributeDefinition
  3

  2
NBSYN
 70
     8
280
     0
  0
ATTDEF
  5
14B
330
143
100
AcDbEntity
  8
AM_6
100
AcDbText
 10
8.1875
 20
-1.90546875
 30
0.0
 40
0.5
  1
070496
100
AcDbAttributeDefinition
  3

  2
LINA
 70
     8
280
     0
  0
ATTDEF
  5
14C
330
143
100
AcDbEntity
  8
AM_6
100
AcDbText
 10
8.1875
 20
-2.40546875
 30
0.0
 40
0.5
  1
1-3/4
100
AcDbAttributeDefinition
  3

  2
SS
 70
     8
280
     0
  0
ATTDEF
  5
14D
330
143
100
AcDbEntity
  8
AM_6
100
AcDbText
 10
8.1875
 20
-2.90546875
 30
0.0
 40
0.5
  1
070496
100
AcDbAttributeDefinition
  3

  2
PN
 70
     8
280
     0
  0
ATTDEF
  5
14E
330
143
100
AcDbEntity
  8
AM_6
100
AcDbText
 10
8.1875
 20
-3.40546875
 30
0.0
 40
0.5
  1
F4R-S2-112L
100
AcDbAttributeDefinition
  3

  2
DESCRIPTION
 70
     8
280
     0
  0
ATTDEF
  5
14F
330
143
100
AcDbEntity
  8
AM_6
100
AcDbText
 10
8.1875
 20
-3.90546875
 30
0.0
 40
0.5
  1
Non-Expansion Type
100
AcDbAttributeDefinition
  3

  2
EF
 70
     8
280
     0
  0
ATTDEF
  5
150
330
143
100
AcDbEntity
  8
AM_6
100
AcDbText
 10
8.1875
 20
-4.40546875
 30
0.0
 40
0.5
  1
2-43/64
100
AcDbAttributeDefinition
  3

  2
A
 70
     8
280
     0
  0
ATTDEF
  5
151
330
143
100
AcDbEntity
  8
AM_6
100
AcDbText
 10
8.1875
 20
-4.90546875
 30
0.0
 40
0.5
  1
6-3/8
100
AcDbAttributeDefinition
  3

  2
B
 70
     8
280
     0
  0
ATTDEF
  5
152
330
143
100
AcDbEntity
  8
AM_6
100
AcDbText
 10
8.1875
 20
-5.40546875
 30
0.0
 40
0.5
  1
2-31/32
100
AcDbAttributeDefinition
  3

  2
C
 70
     8
280
     0
  0
ATTDEF
  5
153
330
143
100
AcDbEntity
  8
AM_6
100
AcDbText
 10
8.1875
 20
-5.90546875
 30
0.0
 40
0.5
  1
5-1/2
100
AcDbAttributeDefinition
  3

  2
DD
 70
     8
280
     0
  0
ATTDEF
  5
154
330
143
100
AcDbEntity
  8
AM_6
100
AcDbText
 10
8.1875
 20
-6.40546875
 30
0.0
 40
0.5
  1
1-57/64
100
AcDbAttributeDefinition
  3

  2
E
 70
     8
280
     0
  0
ATTDEF
  5
155
330
143
100
AcDbEntity
  8
AM_6
100
AcDbText
 10
8.1875
 20
-6.90546875
 30
0.0
 40
0.5
  1
1/2
100
AcDbAttributeDefinition
  3

  2
F
 70
     8
280
     0
  0
ATTDEF
  5
156
330
143
100
AcDbEntity
  8
AM_6
100
AcDbText
 10
8.1875
 20
-7.40546875
 30
0.0
 40
0.5
  1
1/2
100
AcDbAttributeDefinition
  3

  2
H
 70
     8
280
     0
  0
ATTDEF
  5
157
330
143
100
AcDbEntity
  8
AM_6
100
AcDbText
 10
8.1875
 20
-7.90546875
 30
0.0
 40
0.5
  1
4-11/32
100
AcDbAttributeDefinition
  3

  2
J
 70
     8
280
     0
  0
ATTDEF
  5
158
330
143
100
AcDbEntity
  8
AM_6
100
AcDbText
 10
8.1875
 20
-8.40546875
 30
0.0
 40
0.5
  1
3-3/16
100
AcDbAttributeDefinition
  3

  2
L
 70
     8
280
     0
  0
ATTDEF
  5
159
330
143
100
AcDbEntity
  8
AM_6
100
AcDbText
 10
8.1875
 20
-8.90546875
 30
0.0
 40
0.5
  1
19/64
100
AcDbAttributeDefinition
  3

  2
P
 70
     8
280
     0
  0
ATTDEF
  5
15A
330
143
100
AcDbEntity
  8
AM_6
100
AcDbText
 10
8.1875
 20
-9.40546875
 30
0.0
 40
0.5
  1
1/4
100
AcDbAttributeDefinition
  3

  2
X
 70
     8
280
     0
  0
ATTDEF
  5
15B
330
143
100
AcDbEntity
  8
AM_6
100
AcDbText
 10
8.1875
 20
-9.90546875
 30
0.0
 40
0.5
  1
0.020
100
AcDbAttributeDefinition
  3

  2
Y
 70
     8
280
     0
  0
ATTDEF
  5
15C
330
143
100
AcDbEntity
  8
AM_6
100
AcDbText
 10
8.1875
 20
-10.40546875
 30
0.0
 40
0.5
  1
2-5/64
100
AcDbAttributeDefinition
  3

  2
Z
 70
     8
280
     0
  0
ATTDEF
  5
15D
330
143
100
AcDbEntity
  8
AM_6
100
AcDbText
 10
8.1875
 20
-10.90546875
 30
0.0
 40
0.5
  1
baldor
100
AcDbAttributeDefinition
  3

  2
COMPANY
 70
     8
280
     0
  0
LINE
  5
15E
330
143
100
AcDbEntity
  8
AM_9
100
AcDbLine
 10
-1.969719660648547
 20
-0.5
 30
0.0
 11
-1.969719660648547
 21
-0.4285714285714285
 31
0.0
  0
LINE
  5
15F
330
143
100
AcDbEntity
  8
AM_9
100
AcDbLine
 10
-1.933550069506346
 20
-0.5088070217228524
 30
0.0
 11
-1.933550069506346
 21
-0.4285714285714285
 31
0.0
  0
LINE
  5
160
330
143
100
AcDbEntity
  8
AM_9
100
AcDbLine
 10
1.969719660648549
 20
-0.5
 30
0.0
 11
1.969719660648549
 21
-0.4285714285714285
 31
0.0
  0
LINE
  5
161
330
143
100
AcDbEntity
  8
AM_9
100
AcDbLine
 10
1.933550069506347
 20
-0.4285714285714285
 30
0.0
 11
1.933550069506347
 21
-0.5091121811568753
 31
0.0
  0
LINE
  5
162
330
143
100
AcDbEntity
  8
AM_9
100
AcDbLine
 10
1.67325
 20
-1.890625
 30
0.0
 11
1.67325
 21
-0.0714285714285714
 31
0.0
  0
LINE
  5
163
330
143
100
AcDbEntity
  8
AM_9
100
AcDbLine
 10
-1.67325
 20
-0.0714285714285714
 30
0.0
 11
-1.67325
 21
-1.890625
 31
0.0
  0
LINE
  5
164
330
143
100
AcDbEntity
  8
AM_9
100
AcDbLine
 10
-1.8725625
 20
-0.0714285714285714
 30
0.0
 11
1.872562499995344
 21
-0.0714285714285714
 31
0.0
  0
ARC
  5
165
330
143
100
AcDbEntity
  8
AM_9
100
AcDbCircle
 10
1.8725625
 20
-0.0214285714285714
 30
0.0
 40
0.05
100
AcDbArc
 50
270.0
 51
0.0
  0
ARC
  5
166
330
143
100
AcDbEntity
  8
AM_9
100
AcDbCircle
 10
-1.8725625
 20
-0.0214285714285714
 30
0.0
 40
0.05
100
AcDbArc
 50
180.0
 51
270.0
  0
LINE
  5
167
330
143
100
AcDbEntity
  8
AM_9
100
AcDbLine
 10
-1.9225625
 20
-0.0214285714285712
 30
0.0
 11
1.9225625
 21
-0.0214285714285712
 31
0.0
  0
LINE
  5
168
330
143
100
AcDbEntity
  8
AM_9
100
AcDbLine
 10
1.9225625
 20
-0.0214285714285712
 30
0.0
 11
1.9225625
 21
0.0
 31
0.0
  0
LINE
  5
169
330
143
100
AcDbEntity
  8
AM_9
100
AcDbLine
 10
-1.9225625
 20
0.0
 30
0.0
 11
-1.9225625
 21
-0.0214285714285712
 31
0.0
  0
LINE
  5
16A
330
143
100
AcDbEntity
  8
AM_9
100
AcDbLine
 10
1.94470726265615
 20
-0.4285714285714285
 30
0.0
 11
2.525523690756519
 21
-0.4285714285714284
 31
0.0
  0
LINE
  5
16B
330
143
100
AcDbEntity
  8
AM_9
100
AcDbLine
 10
-2.525523690756519
 20
-0.4285714285714284
 30
0.0
 11
-1.944707262656149
 21
-0.4285714285714285
 31
0.0
  0
LINE
  5
16C
330
143
100
AcDbEntity
  8
AM_9
100
AcDbLine
 10
-1.953645979323993
 20
-0.5499999999999998
 30
0.0
 11
-1.953645979323993
 21
-0.4285714285714286
 31
0.0
  0
LINE
  5
16D
330
143
100
AcDbEntity
  8
AM_9
100
AcDbLine
 10
1.953645979323994
 20
-0.5499999999999998
 30
0.0
 11
1.953645988673268
 21
-0.4285714285714286
 31
0.0
  0
LINE
  5
16E
330
143
100
AcDbEntity
  8
AM_9
100
AcDbLine
 10
2.171875
 20
-0.5
 30
0.0
 11
2.171875
 21
-0.4285714285714285
 31
0.0
  0
LINE
  5
16F
330
143
100
AcDbEntity
  8
AM_9
100
AcDbLine
 10
-2.171875
 20
-0.4285714285714285
 30
0.0
 11
-2.171875
 21
-0.5
 31
0.0
  0
LINE
  5
170
330
143
100
AcDbEntity
  8
AM_9
100
AcDbLine
 10
2.194543648263006
 20
-0.4999999999999999
 30
0.0
 11
2.194543648263006
 21
0.0000000000000001
 31
0.0
  0
LINE
  5
171
330
143
100
AcDbEntity
  8
AM_9
100
AcDbLine
 10
1.694543648263006
 20
0.0000000000000001
 30
0.0
 11
1.694543648263006
 21
-0.4999999999999999
 31
0.0
  0
LINE
  5
172
330
143
100
AcDbEntity
  8
AM_9
100
AcDbLine
 10
-1.694543648263005
 20
-0.4999999999999999
 30
0.0
 11
-1.694543648263005
 21
0.0000000000000001
 31
0.0
  0
LINE
  5
173
330
143
100
AcDbEntity
  8
AM_9
100
AcDbLine
 10
-2.194543648263005
 20
0.0000000000000001
 30
0.0
 11
-2.194543648263005
 21
-0.4999999999999999
 31
0.0
  0
LINE
  5
174
330
143
100
AcDbEntity
  8
AM_7
100
AcDbLine
 10
0.0
 20
-3.1015625
 30
0.0
 11
0.0
 21
0.09453125
 31
0.0
  0
LINE
  5
175
330
143
100
AcDbEntity
  8
AM_7
100
AcDbLine
 10
-1.944543648263006
 20
0.0263157894736841
 30
0.0
 11
-1.944543648263006
 21
-0.5526315789473685
 31
0.0
  0
LINE
  5
176
330
143
100
AcDbEntity
  8
AM_7
100
AcDbLine
 10
1.944543648263005
 20
0.0263157894736841
 30
0.0
 11
1.944543648263005
 21
-0.5526315789473685
 31
0.0
  0
LINE
  5
177
330
143
100
AcDbEntity
  8
AM_7
100
AcDbLine
 10
-0.5250000000000001
 20
-1.1953125
 30
0.0
 11
0.5250000000000004
 21
-1.1953125
 31
0.0
  0
LWPOLYLINE
  5
178
330
143
100
AcDbEntity
  8
AM_4
100
AcDbPolyline
 90
        4
 70
     0
 43
0.0
 10
-1.933550072021447
 20
-0.508696439756567
 10
-1.933582944687619
 20
-0.507549710923516
 10
-1.934887353977824
 20
-0.5026257176171127
 10
-1.939390532563765
 20
-0.4999999999999986
  0
LWPOLYLINE
  5
179
330
143
100
AcDbEntity
  8
AM_4
100
AcDbPolyline
 90
        6
 70
     0
 43
0.0
 10
1.933550109239895
 20
-0.5087268558864374
 10
1.933960688316089
 20
-0.5131749863955845
 10
1.937449535406995
 20
-0.5244602806227672
 10
1.943936040548453
 20
-0.5367105902965922
 10
1.953438546501475
 20
-0.5497512979193263
 10
1.953645979323993
 20
-0.5499999999999993
  0
LWPOLYLINE
  5
17A
330
143
100
AcDbEntity
  8
AM_4
100
AcDbPolyline
 90
        5
 70
     0
 43
0.0
 10
-1.953645979323994
 20
-0.5499999999999997
 10
-1.95343854650138
 20
-0.5497512979197513
 10
-1.940686370051847
 20
-0.5311452670297798
 10
-1.934120151660025
 20
-0.5140462719768684
 10
-1.933550072021447
 20
-0.508696439756567
  0
LWPOLYLINE
  5
17B
330
143
100
AcDbEntity
  8
AM_4
100
AcDbPolyline
 90
        4
 70
     0
 43
0.0
 10
1.939390532563962
 20
-0.4999999999999999
 10
1.936002589279888
 20
-0.5012465434089158
 10
1.93404880395433
 20
-0.5046341289066528
 10
1.933550109239895
 20
-0.5087268558864374
  0
LWPOLYLINE
  5
17C
330
143
100
AcDbEntity
  8
AM_4
100
AcDbPolyline
 90
        7
 70
     0
 43
0.0
 10
0.9488458268318387
 20
-0.5499999999999997
 10
0.9492742213987447
 20
-0.5497512979196217
 10
0.9832725875706534
 20
-0.5311452670275083
 10
1.021131565351174
 20
-0.5140462719731387
 10
1.039847711502302
 20
-0.5075497109217002
 10
1.059311067363906
 20
-0.5026257176167425
 10
1.084201493186132
 20
-0.4999999999999998
  0
LWPOLYLINE
  5
17D
330
143
100
AcDbEntity
  8
AM_4
100
AcDbPolyline
 90
        8
 70
     0
 43
0.0
 10
-1.084201493186925
 20
-0.4999999999999998
 10
-1.067446436449642
 20
-0.5012465434089158
 10
-1.050336976279547
 20
-0.5046341289066528
 10
-1.02341222838806
 20
-0.5131749863955843
 10
-0.9969204059352572
 20
-0.5244602806227666
 10
-0.9726092945035881
 20
-0.536710590296592
 10
-0.9492742213986436
 20
-0.5497512979194015
 10
-0.9488458268318394
 20
-0.5499999999999997
  0
LINE
  5
17E
330
143
100
AcDbEntity
  8
AM_4
100
AcDbLine
 10
1.953645979323993
 20
-0.5499999999999997
 30
0.0
 11
1.953645979323993
 21
-0.5
 31
0.0
  0
LINE
  5
17F
330
143
100
AcDbEntity
  8
AM_4
100
AcDbLine
 10
0.9488458268318387
 20
-0.5499999999999997
 30
0.0
 11
1.953645979323993
 21
-0.5499999999999997
 31
0.0
  0
LINE
  5
180
330
143
100
AcDbEntity
  8
AM_4
100
AcDbLine
 10
0.9488458268318387
 20
-0.5499999999999997
 30
0.0
 11
0.9488458075819539
 21
-0.4285714285714284
 31
0.0
  0
LINE
  5
181
330
143
100
AcDbEntity
  8
AM_4
100
AcDbLine
 10
-0.9488458268318407
 20
-0.5499999999999997
 30
0.0
 11
-0.9488458268318407
 21
-0.4285714285714284
 31
0.0
  0
LINE
  5
182
330
143
100
AcDbEntity
  8
AM_4
100
AcDbLine
 10
-1.953645979323994
 20
-0.5499999999999997
 30
0.0
 11
-0.9488458268318407
 21
-0.5499999999999997
 31
0.0
  0
LINE
  5
183
330
143
100
AcDbEntity
  8
AM_4
100
AcDbLine
 10
-1.953645979323994
 20
-0.5499999999999997
 30
0.0
 11
-1.953645989933994
 21
-0.5
 31
0.0
  0
LINE
  5
184
330
143
100
AcDbEntity
  8
AM_4
100
AcDbLine
 10
2.171875
 20
-1.840625
 30
0.0
 11
2.171875
 21
-0.5
 31
0.0
  0
LINE
  5
185
330
143
100
AcDbEntity
  8
AM_4
100
AcDbLine
 10
-2.171875
 20
-0.5
 30
0.0
 11
-2.171875
 21
-1.840625
 31
0.0
  0
LINE
  5
186
330
143
100
AcDbEntity
  8
AM_4
100
AcDbLine
 10
-2.121875
 20
-1.890625
 30
0.0
 11
2.121874999998756
 21
-1.890625
 31
0.0
  0
LINE
  5
187
330
143
100
AcDbEntity
  8
AM_4
100
AcDbLine
 10
-2.171875
 20
-1.840625
 30
0.0
 11
2.171875
 21
-1.840625
 31
0.0
  0
ARC
  5
188
330
143
100
AcDbEntity
  8
AM_4
100
AcDbCircle
 10
2.121875
 20
-1.840625
 30
0.0
 40
0.0499999999999998
100
AcDbArc
 50
270.0
 51
0.0
  0
ARC
  5
189
330
143
100
AcDbEntity
  8
AM_4
100
AcDbCircle
 10
-2.121875
 20
-1.840625
 30
0.0
 40
0.0499999999999998
100
AcDbArc
 50
180.0
 51
270.0
  0
CIRCLE
  5
18A
330
143
100
AcDbEntity
  8
AM_4
100
AcDbCircle
 10
0.0
 20
-1.1953125
 30
0.0
 40
0.3999999999999999
  0
LWPOLYLINE
  5
18B
330
143
100
AcDbEntity
  8
AM_4
100
AcDbPolyline
 90
        7
 70
     0
 43
0.0
 10
-2.4954455530527
 20
-0.5
 10
-2.497760950210575
 20
-0.4998518522950501
 10
-2.508037358713186
 20
-0.4954121322368666
 10
-2.516776924857051
 20
-0.4852586084237275
 10
-2.52274437833608
 20
-0.4709992468450129
 10
-2.525383566780213
 20
-0.4548225681094702
 10
-2.525523690756518
 20
-0.4499999999999998
  0
LINE
  5
18C
330
143
100
AcDbEntity
  8
AM_4
100
AcDbLine
 10
-2.4954455530527
 20
-0.5
 30
0.0
 11
-1.084201493186925
 21
-0.4999999999999998
 31
0.0
  0
LWPOLYLINE
  5
18D
330
143
100
AcDbEntity
  8
AM_4
100
AcDbPolyline
 90
        6
 70
     0
 43
0.0
 10
-1.944707262656149
 20
-0.4499999999999998
 10
-1.942457322311401
 20
-0.4659754409916178
 10
-1.936023576371167
 20
-0.480151385060348
 10
-1.926010687181929
 20
-0.4912697101354536
 10
-1.913086377416038
 20
-0.4982299116505562
 10
-1.901751230247927
 20
-0.5
  0
LINE
  5
18E
330
143
100
AcDbEntity
  8
AM_4
100
AcDbLine
 10
-1.150936844918218
 20
-0.4999999999999999
 30
0.0
 11
-1.150936844918218
 21
-0.4285714285714284
 31
0.0
  0
LINE
  5
18F
330
143
100
AcDbEntity
  8
AM_4
100
AcDbLine
 10
1.084201493186132
 20
-0.4999999999999998
 30
0.0
 11
2.495445553052701
 21
-0.5
 31
0.0
  0
LWPOLYLINE
  5
190
330
143
100
AcDbEntity
  8
AM_4
100
AcDbPolyline
 90
        6
 70
     0
 43
0.0
 10
2.525523690756519
 20
-0.4499999999999998
 10
2.523948265566604
 20
-0.4659754409916176
 10
2.519443308160326
 20
-0.4801513850603479
 10
2.512432207670763
 20
-0.4912697101354535
 10
2.503382508546528
 20
-0.4982299116505561
 10
2.495445553052701
 20
-0.5
  0
LINE
  5
191
330
143
100
AcDbEntity
  8
AM_4
100
AcDbLine
 10
1.150936844918217
 20
-0.4999999999999999
 30
0.0
 11
1.150936844918217
 21
-0.4285714285714284
 31
0.0
  0
LWPOLYLINE
  5
192
330
143
100
AcDbEntity
  8
AM_4
100
AcDbPolyline
 90
        7
 70
     0
 43
0.0
 10
1.901751230247927
 20
-0.5
 10
1.905057960083762
 20
-0.4998518522950501
 10
1.919734192403236
 20
-0.4954121322368664
 10
1.932215586371386
 20
-0.4852586084237271
 10
1.940737993162787
 20
-0.4709992468450121
 10
1.944507144878692
 20
-0.4548225681094697
 10
1.944707262656149
 20
-0.4499999999999998
  0
LINE
  5
193
330
143
100
AcDbEntity
  8
AM_4
100
AcDbLine
 10
-3.1875
 20
0.0
 30
0.0
 11
3.1875
 21
0.0
 31
0.0
  0
LINE
  5
194
330
143
100
AcDbEntity
  8
AM_4
100
AcDbLine
 10
0.2498076922792336
 20
-0.4285714285714283
 30
0.0
 11
0.2498076922792336
 21
0.0000000000000002
 31
0.0
  0
LINE
  5
195
330
143
100
AcDbEntity
  8
AM_4
100
AcDbLine
 10
1.944707262656149
 20
-0.4499999999999998
 30
0.0
 11
1.94470726265615
 21
-0.4285714285714284
 31
0.0
  0
LINE
  5
196
330
143
100
AcDbEntity
  8
AM_4
100
AcDbLine
 10
1.944707262656149
 20
-0.4499999999999998
 30
0.0
 11
2.525523690756519
 21
-0.4499999999999998
 31
0.0
  0
LINE
  5
197
330
143
100
AcDbEntity
  8
AM_4
100
AcDbLine
 10
2.525523690756519
 20
-0.4285714285714284
 30
0.0
 11
2.525523690756519
 21
-0.4499999999999998
 31
0.0
  0
LINE
  5
198
330
143
100
AcDbEntity
  8
AM_4
100
AcDbLine
 10
2.525523690756519
 20
-0.4285714285714284
 30
0.0
 11
3.1875
 21
-0.4285714285714285
 31
0.0
  0
LINE
  5
199
330
143
100
AcDbEntity
  8
AM_4
100
AcDbLine
 10
-2.525523690756518
 20
-0.4499999999999998
 30
0.0
 11
-2.525523690756519
 21
-0.4285714285714284
 31
0.0
  0
LINE
  5
19A
330
143
100
AcDbEntity
  8
AM_4
100
AcDbLine
 10
-2.525523690756518
 20
-0.4499999999999998
 30
0.0
 11
-1.944707262656149
 21
-0.4499999999999998
 31
0.0
  0
LINE
  5
19B
330
143
100
AcDbEntity
  8
AM_4
100
AcDbLine
 10
-1.944707262656149
 20
-0.4285714285714284
 30
0.0
 11
-1.944707262656149
 21
-0.4499999999999998
 31
0.0
  0
LINE
  5
19C
330
143
100
AcDbEntity
  8
AM_4
100
AcDbLine
 10
-1.944707262656149
 20
-0.4285714285714284
 30
0.0
 11
1.94470726265615
 21
-0.4285714285714284
 31
0.0
  0
LINE
  5
19D
330
143
100
AcDbEntity
  8
AM_4
100
AcDbLine
 10
-0.2498076922792342
 20
-0.4285714285714283
 30
0.0
 11
-0.2498076922792326
 21
0.0000000000000002
 31
0.0
  0
LINE
  5
19E
330
143
100
AcDbEntity
  8
AM_4
100
AcDbLine
 10
3.1875
 20
-0.4285714285714285
 30
0.0
 11
3.1875
 21
0.0
 31
0.0
  0
LINE
  5
19F
330
143
100
AcDbEntity
  8
AM_4
100
AcDbLine
 10
-3.1875
 20
0.0
 30
0.0
 11
-3.1875
 21
-0.4285714285714285
 31
0.0
  0
LINE
  5
1A0
330
143
100
AcDbEntity
  8
AM_4
100
AcDbLine
 10
-3.1875
 20
-0.4285714285714285
 30
0.0
 11
-2.525523690756519
 21
-0.4285714285714284
 31
0.0
  0
CIRCLE
  5
1A1
330
143
100
AcDbEntity
  8
AM_4
100
AcDbCircle
 10
0.0000000000000001
 20
-1.1953125
 30
0.0
 40
0.5000000000000002
  0
ENDBLK
  5
146
330
143
100
AcDbEntity
  8
0
100
AcDbBlockEnd
  0
ENDSEC
  0
SECTION
  2
ENTITIES
  0
INSERT
  5
6F
330
1F
100
AcDbEntity
  8
0
100
AcDbBlockReference
  2
1_070496_4
 10
0.0
 20
0.0
 30
0.0
  0
POINT
  5
1A3
330
1F
100
AcDbEntity
  8
ConnectionPoints
100
AcDbPoint
 10
0.0
 20
-2.96875
 30
0.0000000000000002
  0
POINT
  5
1A4
330
1F
100
AcDbEntity
  8
ConnectionPoints
100
AcDbPoint
 10
0.0
 20
0.4357500000000001
 30
0.0
  0
POINT
  5
1A5
330
1F
100
AcDbEntity
  8
ConnectionPoints
100
AcDbPoint
 10
0.0
 20
-2.96875
 30
0.0000000000000002
  0
POINT
  5
1A6
330
1F
100
AcDbEntity
  8
ConnectionPoints
100
AcDbPoint
 10
0.0
 20
-1.1953125
 30
2.271875
  0
POINT
  5
1A7
330
1F
100
AcDbEntity
  8
ConnectionPoints
100
AcDbPoint
 10
0.0
 20
-1.1953125
 30
2.271875
  0
POINT
  5
1A8
330
1F
100
AcDbEntity
  8
ConnectionPoints
100
AcDbPoint
 10
0.0
 20
-2.71875
 30
0.0000000000000002
  0
POINT
  5
1A9
330
1F
100
AcDbEntity
  8
ConnectionPoints
100
AcDbPoint
 10
0.0
 20
-2.96875
 30
0.0000000000000002
  0
ENDSEC
  0
SECTION
  2
OBJECTS
  0
DICTIONARY
  5
C
330
0
100
AcDbDictionary
281
     1
  3
ACAD_DETAILVIEWSTYLE
350
1B1
  3
ACAD_GROUP
350
D
  3
ACAD_LAYOUT
350
1A
  3
ACAD_MATERIAL
350
43
  3
ACAD_MLEADERSTYLE
350
6B
  3
ACAD_MLINESTYLE
350
17
  3
ACAD_PLOTSETTINGS
350
19
  3
ACAD_PLOTSTYLENAME
350
E
  3
ACAD_SCALELIST
350
47
  3
ACAD_SECTIONVIEWSTYLE
350
1B2
  3
ACAD_TABLESTYLE
350
69
  3
ACAD_VISUALSTYLE
350
2A
  3
ACDB_RECOMPOSE_DATA
350
1AE
  3
AcDbVariableDictionary
350
1AA
  0
SUN
  5
6D
330
29
100
AcDbSun
 90
        1
290
     0
 63
     7
421
 16777215
 40
1.0
291
     1
 91
  2455826
 92
 54000000
292
     0
 70
     2
 71
   256
280
     1
  0
DICTIONARY
  5
1B1
102
{ACAD_REACTORS
330
C
102
}
330
C
100
AcDbDictionary
281
     1
  0
DICTIONARY
  5
D
102
{ACAD_REACTORS
330
C
102
}
330
C
100
AcDbDictionary
281
     1
  0
DICTIONARY
  5
1A
102
{ACAD_REACTORS
330
C
102
}
330
C
100
AcDbDictionary
281
     1
  3
Layout1
350
1E
  3
Layout2
350
26
  3
Model
350
22
  0
DICTIONARY
  5
43
102
{ACAD_REACTORS
330
C
102
}
330
C
100
AcDbDictionary
281
     1
  3
ByBlock
350
45
  3
ByLayer
350
44
  3
Global
350
46
  0
DICTIONARY
  5
6B
102
{ACAD_REACTORS
330
C
102
}
330
C
100
AcDbDictionary
281
     1
  3
Standard
350
6C
  0
DICTIONARY
  5
17
102
{ACAD_REACTORS
330
C
102
}
330
C
100
AcDbDictionary
281
     1
  3
Standard
350
18
  0
DICTIONARY
  5
19
102
{ACAD_REACTORS
330
C
102
}
330
C
100
AcDbDictionary
281
     1
  0
ACDBDICTIONARYWDFLT
  5
E
102
{ACAD_REACTORS
330
C
102
}
330
C
100
AcDbDictionary
281
     1
  3
Normal
350
F
100
AcDbDictionaryWithDefault
340
F
  0
DICTIONARY
  5
47
102
{ACAD_REACTORS
330
C
102
}
330
C
100
AcDbDictionary
281
     1
  3
A0
350
48
  3
A1
350
49
  3
A2
350
4A
  3
A3
350
4B
  3
A4
350
4C
  3
A5
350
4D
  3
A6
350
4E
  3
A7
350
4F
  3
A8
350
50
  3
A9
350
51
  3
B0
350
52
  3
B1
350
53
  3
B2
350
54
  3
B3
350
55
  3
B4
350
56
  3
B5
350
57
  3
B6
350
58
  3
B7
350
59
  3
B8
350
5A
  3
B9
350
5B
  3
C0
350
5C
  3
C1
350
5D
  3
C2
350
5E
  3
C3
350
5F
  3
C4
350
60
  3
C5
350
61
  3
C6
350
62
  3
C7
350
63
  3
C8
350
64
  3
C9
350
65
  3
D0
350
66
  3
D1
350
67
  3
D2
350
68
  0
DICTIONARY
  5
1B2
102
{ACAD_REACTORS
330
C
102
}
330
C
100
AcDbDictionary
281
     1
  0
DICTIONARY
  5
69
102
{ACAD_REACTORS
330
C
102
}
330
C
100
AcDbDictionary
281
     1
  3
Standard
350
6A
  0
DICTIONARY
  5
2A
102
{ACAD_REACTORS
330
C
102
}
330
C
100
AcDbDictionary
281
     1
  3
2dWireframe
350
2F
  3
Basic
350
32
  3
Brighten
350
36
  3
ColorChange
350
3A
  3
Conceptual
350
34
  3
Dim
350
35
  3
EdgeColorOff
350
3D
  3
Facepattern
350
39
  3
Flat
350
2B
  3
FlatWithEdges
350
2C
  3
Gouraud
350
2D
  3
GouraudWithEdges
350
2E
  3
Hidden
350
31
  3
JitterOff
350
3B
  3
Linepattern
350
38
  3
OverhangOff
350
3C
  3
Realistic
350
33
  3
Shaded
350
42
  3
Shaded with edges
350
41
  3
Shades of Gray
350
3E
  3
Sketchy
350
3F
  3
Thicken
350
37
  3
Wireframe
350
30
  3
X-Ray
350
40
  0
XRECORD
  5
1AE
102
{ACAD_REACTORS
330
C
102
}
330
C
100
AcDbXrecord
280
     1
 90
        1
330
6A
  0
DICTIONARY
  5
1AA
102
{ACAD_REACTORS
330
C
102
}
330
C
100
AcDbDictionary
281
     1
  3
CANNOSCALE
350
1AB
  3
CMLEADERSTYLE
350
1B0
  3
CTABLESTYLE
350
1AF
  0
LAYOUT
  5
1E
102
{ACAD_REACTORS
330
1A
102
}
330
1A
100
AcDbPlotSettings
  1

  2
none_device
  4

  6

 40
0.0
 41
0.0
 42
0.0
 43
0.0
 44
0.0
 45
0.0
 46
0.0
 47
0.0
 48
0.0
 49
0.0
140
0.0
141
0.0
142
1.0
143
1.0
 70
   688
 72
     0
 73
     0
 74
     5
  7

 75
    16
 76
     0
 77
     2
 78
   300
147
1.0
148
0.0
149
0.0
100
AcDbLayout
  1
Layout1
 70
     1
 71
     1
 10
0.0
 20
0.0
 11
12.0
 21
9.0
 12
0.0
 22
0.0
 32
0.0
 14
1.000000000000000E+20
 24
1.000000000000000E+20
 34
1.000000000000000E+20
 15
-1.000000000000000E+20
 25
-1.000000000000000E+20
 35
-1.000000000000000E+20
146
0.0
 13
0.0
 23
0.0
 33
0.0
 16
1.0
 26
0.0
 36
0.0
 17
0.0
 27
1.0
 37
0.0
 76
     0
330
1B
  0
LAYOUT
  5
26
102
{ACAD_REACTORS
330
1A
102
}
330
1A
100
AcDbPlotSettings
  1

  2
none_device
  4

  6

 40
0.0
 41
0.0
 42
0.0
 43
0.0
 44
0.0
 45
0.0
 46
0.0
 47
0.0
 48
0.0
 49
0.0
140
0.0
141
0.0
142
1.0
143
1.0
 70
   688
 72
     0
 73
     0
 74
     5
  7

 75
    16
 76
     0
 77
     2
 78
   300
147
1.0
148
0.0
149
0.0
100
AcDbLayout
  1
Layout2
 70
     1
 71
     2
 10
0.0
 20
0.0
 11
0.0
 21
0.0
 12
0.0
 22
0.0
 32
0.0
 14
0.0
 24
0.0
 34
0.0
 15
0.0
 25
0.0
 35
0.0
146
0.0
 13
0.0
 23
0.0
 33
0.0
 16
1.0
 26
0.0
 36
0.0
 17
0.0
 27
1.0
 37
0.0
 76
     0
330
23
  0
LAYOUT
  5
22
102
{ACAD_REACTORS
330
1A
102
}
330
1A
100
AcDbPlotSettings
  1

  2
none_device
  4
Letter_(8.50_x_11.00_Inches)
  6

 40
6.35
 41
6.35
 42
6.35000508
 43
6.35000508
 44
215.9
 45
279.4
 46
0.0
 47
0.0
 48
0.0
 49
0.0
140
0.0
141
0.0
142
1.0
143
1.0
 70
  1712
 72
     0
 73
     0
 74
     0
  7

 75
     0
 76
     0
 77
     2
 78
   300
147
1.0
148
0.0
149
0.0
100
AcDbLayout
  1
Model
 70
     1
 71
     0
 10
0.0
 20
0.0
 11
12.0
 21
9.0
 12
0.0
 22
0.0
 32
0.0
 14
1.000000000000000E+20
 24
1.000000000000000E+20
 34
1.000000000000000E+20
 15
-1.000000000000000E+20
 25
-1.000000000000000E+20
 35
-1.000000000000000E+20
146
0.0
 13
0.0
 23
0.0
 33
0.0
 16
1.0
 26
0.0
 36
0.0
 17
0.0
 27
1.0
 37
0.0
 76
     0
330
1F
331
29
  0
MATERIAL
  5
45
102
{ACAD_REACTORS
330
43
102
}
330
43
100
AcDbMaterial
  1
ByBlock
 72
     1
 94
      127
  0
MATERIAL
  5
44
102
{ACAD_REACTORS
330
43
102
}
330
43
100
AcDbMaterial
  1
ByLayer
 72
     1
 94
      127
  0
MATERIAL
  5
46
102
{ACAD_REACTORS
330
43
102
}
330
43
100
AcDbMaterial
  1
Global
 72
     1
 94
      127
  0
MLEADERSTYLE
  5
6C
102
{ACAD_REACTORS
330
6B
102
}
330
6B
100
AcDbMLeaderStyle
179
     2
170
     2
171
     1
172
     0
 90
        2
 40
0.0
 41
0.0
173
     1
 91
-1056964608
340
14
 92
       -2
290
     1
 42
0.09
291
     1
 43
0.36
  3
Standard
341
0
 44
0.18
300

342
11
174
     1
178
     6
175
     1
176
     0
 93
-1056964608
 45
0.18
292
     0
297
     0
 46
0.18
343
0
 94
-1056964608
 47
1.0
 49
1.0
140
1.0
293
     1
141
0.0
294
     1
177
     0
142
1.0
295
     0
296
     0
143
0.125
271
     0
272
     9
273
     9
298
     0
  0
MLINESTYLE
  5
18
102
{ACAD_REACTORS
330
17
102
}
330
17
100
AcDbMlineStyle
  2
Standard
 70
     0
  3

 62
   256
 51
90.0
 52
90.0
 71
     2
 49
0.5
 62
   256
  6
BYLAYER
 49
-0.5
 62
   256
  6
BYLAYER
  0
ACDBPLACEHOLDER
  5
F
102
{ACAD_REACTORS
330
E
102
}
330
E
  0
SCALE
  5
48
102
{ACAD_REACTORS
330
47
102
}
330
47
100
AcDbScale
 70
     0
300
1:1
140
1.0
141
1.0
290
     1
  0
SCALE
  5
49
102
{ACAD_REACTORS
330
47
102
}
330
47
100
AcDbScale
 70
     0
300
1:2
140
1.0
141
2.0
290
     0
  0
SCALE
  5
4A
102
{ACAD_REACTORS
330
47
102
}
330
47
100
AcDbScale
 70
     0
300
1:4
140
1.0
141
4.0
290
     0
  0
SCALE
  5
4B
102
{ACAD_REACTORS
330
47
102
}
330
47
100
AcDbScale
 70
     0
300
1:5
140
1.0
141
5.0
290
     0
  0
SCALE
  5
4C
102
{ACAD_REACTORS
330
47
102
}
330
47
100
AcDbScale
 70
     0
300
1:8
140
1.0
141
8.0
290
     0
  0
SCALE
  5
4D
102
{ACAD_REACTORS
330
47
102
}
330
47
100
AcDbScale
 70
     0
300
1:10
140
1.0
141
10.0
290
     0
  0
SCALE
  5
4E
102
{ACAD_REACTORS
330
47
102
}
330
47
100
AcDbScale
 70
     0
300
1:16
140
1.0
141
16.0
290
     0
  0
SCALE
  5
4F
102
{ACAD_REACTORS
330
47
102
}
330
47
100
AcDbScale
 70
     0
300
1:20
140
1.0
141
20.0
290
     0
  0
SCALE
  5
50
102
{ACAD_REACTORS
330
47
102
}
330
47
100
AcDbScale
 70
     0
300
1:30
140
1.0
141
30.0
290
     0
  0
SCALE
  5
51
102
{ACAD_REACTORS
330
47
102
}
330
47
100
AcDbScale
 70
     0
300
1:40
140
1.0
141
40.0
290
     0
  0
SCALE
  5
52
102
{ACAD_REACTORS
330
47
102
}
330
47
100
AcDbScale
 70
     0
300
1:50
140
1.0
141
50.0
290
     0
  0
SCALE
  5
53
102
{ACAD_REACTORS
330
47
102
}
330
47
100
AcDbScale
 70
     0
300
1:100
140
1.0
141
100.0
290
     0
  0
SCALE
  5
54
102
{ACAD_REACTORS
330
47
102
}
330
47
100
AcDbScale
 70
     0
300
2:1
140
2.0
141
1.0
290
     0
  0
SCALE
  5
55
102
{ACAD_REACTORS
330
47
102
}
330
47
100
AcDbScale
 70
     0
300
4:1
140
4.0
141
1.0
290
     0
  0
SCALE
  5
56
102
{ACAD_REACTORS
330
47
102
}
330
47
100
AcDbScale
 70
     0
300
8:1
140
8.0
141
1.0
290
     0
  0
SCALE
  5
57
102
{ACAD_REACTORS
330
47
102
}
330
47
100
AcDbScale
 70
     0
300
10:1
140
10.0
141
1.0
290
     0
  0
SCALE
  5
58
102
{ACAD_REACTORS
330
47
102
}
330
47
100
AcDbScale
 70
     0
300
100:1
140
100.0
141
1.0
290
     0
  0
SCALE
  5
59
102
{ACAD_REACTORS
330
47
102
}
330
47
100
AcDbScale
 70
     0
300
1/128" = 1'-0"
140
0.0078125
141
12.0
290
     0
  0
SCALE
  5
5A
102
{ACAD_REACTORS
330
47
102
}
330
47
100
AcDbScale
 70
     0
300
1/64" = 1'-0"
140
0.015625
141
12.0
290
     0
  0
SCALE
  5
5B
102
{ACAD_REACTORS
330
47
102
}
330
47
100
AcDbScale
 70
     0
300
1/32" = 1'-0"
140
0.03125
141
12.0
290
     0
  0
SCALE
  5
5C
102
{ACAD_REACTORS
330
47
102
}
330
47
100
AcDbScale
 70
     0
300
1/16" = 1'-0"
140
0.0625
141
12.0
290
     0
  0
SCALE
  5
5D
102
{ACAD_REACTORS
330
47
102
}
330
47
100
AcDbScale
 70
     0
300
3/32" = 1'-0"
140
0.09375
141
12.0
290
     0
  0
SCALE
  5
5E
102
{ACAD_REACTORS
330
47
102
}
330
47
100
AcDbScale
 70
     0
300
1/8" = 1'-0"
140
0.125
141
12.0
290
     0
  0
SCALE
  5
5F
102
{ACAD_REACTORS
330
47
102
}
330
47
100
AcDbScale
 70
     0
300
3/16" = 1'-0"
140
0.1875
141
12.0
290
     0
  0
SCALE
  5
60
102
{ACAD_REACTORS
330
47
102
}
330
47
100
AcDbScale
 70
     0
300
1/4" = 1'-0"
140
0.25
141
12.0
290
     0
  0
SCALE
  5
61
102
{ACAD_REACTORS
330
47
102
}
330
47
100
AcDbScale
 70
     0
300
3/8" = 1'-0"
140
0.375
141
12.0
290
     0
  0
SCALE
  5
62
102
{ACAD_REACTORS
330
47
102
}
330
47
100
AcDbScale
 70
     0
300
1/2" = 1'-0"
140
0.5
141
12.0
290
     0
  0
SCALE
  5
63
102
{ACAD_REACTORS
330
47
102
}
330
47
100
AcDbScale
 70
     0
300
3/4" = 1'-0"
140
0.75
141
12.0
290
     0
  0
SCALE
  5
64
102
{ACAD_REACTORS
330
47
102
}
330
47
100
AcDbScale
 70
     0
300
1" = 1'-0"
140
1.0
141
12.0
290
     0
  0
SCALE
  5
65
102
{ACAD_REACTORS
330
47
102
}
330
47
100
AcDbScale
 70
     0
300
1-1/2" = 1'-0"
140
1.5
141
12.0
290
     0
  0
SCALE
  5
66
102
{ACAD_REACTORS
330
47
102
}
330
47
100
AcDbScale
 70
     0
300
3" = 1'-0"
140
3.0
141
12.0
290
     0
  0
SCALE
  5
67
102
{ACAD_REACTORS
330
47
102
}
330
47
100
AcDbScale
 70
     0
300
6" = 1'-0"
140
6.0
141
12.0
290
     0
  0
SCALE
  5
68
102
{ACAD_REACTORS
330
47
102
}
330
47
100
AcDbScale
 70
     0
300
1'-0" = 1'-0"
140
12.0
141
12.0
290
     0
  0
TABLESTYLE
  5
6A
102
{ACAD_REACTORS
330
69
102
}
102
{ACAD_XDICTIONARY
360
1AC
102
}
330
69
100
AcDbTableStyle
  3
Standard
 70
     0
 71
     0
 40
0.06
 41
0.06
280
     0
281
     0
  7
Standard
140
0.18
170
     2
 62
     0
 63
   257
283
     0
 90
        4
 91
        0
  1

274
    -2
284
     1
 64
     0
275
    -2
285
     1
 65
     0
276
    -2
286
     1
 66
     0
277
    -2
287
     1
 67
     0
278
    -2
288
     1
 68
     0
279
    -2
289
     1
 69
     0
  7
Standard
140
0.25
170
     5
 62
     0
 63
   257
283
     0
 90
        4
 91
        0
  1

274
    -2
284
     1
 64
     0
275
    -2
285
     1
 65
     0
276
    -2
286
     1
 66
     0
277
    -2
287
     1
 67
     0
278
    -2
288
     1
 68
     0
279
    -2
289
     1
 69
     0
  7
Standard
140
0.18
170
     5
 62
     0
 63
   257
283
     0
 90
        4
 91
        0
  1

274
    -2
284
     1
 64
     0
275
    -2
285
     1
 65
     0
276
    -2
286
     1
 66
     0
277
    -2
287
     1
 67
     0
278
    -2
288
     1
 68
     0
279
    -2
289
     1
 69
     0
  0
VISUALSTYLE
  5
2F
102
{ACAD_REACTORS
330
2A
102
}
330
2A
100
AcDbVisualStyle
  2
2dWireframe
 70
     4
177
     3
291
     0
 70
    58
 90
        0
176
     1
 90
        2
176
     1
 90
        0
176
     1
 90
        0
176
     1
 40
0.6
176
     1
 40
30.0
176
     1
 62
     7
420
 16777215
176
     1
 90
        1
176
     1
 90
        4
176
     1
 62
     7
176
     1
 62
   257
176
     1
 90
        1
176
     1
 90
        1
176
     1
 40
1.0
176
     1
 90
        0
176
     1
 62
   257
176
     1
 40
1.0
176
     1
 90
        1
176
     1
 90
        6
176
     1
 90
        2
176
     1
 62
     7
176
     1
 90
        5
176
     1
 90
        0
176
     1
 90
        0
176
     1
290
     0
176
     1
 90
        1
176
     1
 40
0.0
176
     1
 90
        0
176
     1
290
     1
176
     1
290
     1
176
     1
290
     0
176
     1
290
     0
176
     1
290
     0
176
     1
290
     0
176
     1
290
     0
176
     1
290
     0
176
     1
290
     0
176
     1
 90
       50
176
     1
 40
0.0
176
     1
 40
1.0
176
     1
 90
        0
176
     1
 62
    18
420
        0
176
     1
 90
       50
176
     1
 90
        3
176
     1
 62
     5
420
      255
176
     1
290
     0
176
     1
 90
       50
176
     1
 90
       50
176
     1
 90
       50
176
     1
290
     0
176
     1
 90
       50
176
     1
 62
   256
176
     0
 40
1.0
176
     0
 90
        2
176
     1
  1
strokes_ogs.tif
176
     1
290
     0
176
     1
 40
1.0
176
     1
 40
1.0
176
     1
  0
VISUALSTYLE
  5
32
102
{ACAD_REACTORS
330
2A
102
}
330
2A
100
AcDbVisualStyle
  2
Basic
 70
     7
177
     3
291
     1
 70
    58
 90
        1
176
     1
 90
        0
176
     1
 90
        1
176
     1
 90
        0
176
     1
 40
0.6
176
     1
 40
30.0
176
     1
 62
     7
420
 16777215
176
     1
 90
        0
176
     1
 90
        4
176
     1
 62
     7
176
     1
 62
   257
176
     1
 90
        1
176
     1
 90
        1
176
     1
 40
1.0
176
     1
 90
        8
176
     1
 62
     7
176
     1
 40
1.0
176
     1
 90
        1
176
     1
 90
        6
176
     1
 90
        2
176
     1
 62
     7
176
     1
 90
        5
176
     1
 90
        0
176
     1
 90
        0
176
     1
290
     0
176
     1
 90
        1
176
     1
 40
0.0
176
     1
 90
        0
176
     1
290
     0
176
     1
290
     1
176
     1
290
     1
176
     1
290
     0
176
     1
290
     0
176
     1
290
     0
176
     1
290
     0
176
     1
290
     0
176
     1
290
     0
176
     1
 90
       50
176
     1
 40
0.0
176
     1
 40
1.0
176
     1
 90
        0
176
     1
 62
    18
420
        0
176
     1
 90
       50
176
     1
 90
        3
176
     1
 62
     5
420
      255
176
     1
290
     0
176
     1
 90
       50
176
     1
 90
       50
176
     1
 90
       50
176
     1
290
     0
176
     1
 90
       50
176
     1
 62
   256
176
     0
 40
1.0
176
     0
 90
        2
176
     1
  1
strokes_ogs.tif
176
     1
290
     0
176
     1
 40
1.0
176
     1
 40
1.0
176
     1
  0
VISUALSTYLE
  5
36
102
{ACAD_REACTORS
330
2A
102
}
330
2A
100
AcDbVisualStyle
  2
Brighten
 70
    12
177
     3
291
     1
 70
    58
 90
        2
176
     1
 90
        2
176
     1
 90
        0
176
     1
 90
        0
176
     1
 40
0.6
176
     1
 40
30.0
176
     1
 62
     7
420
 16777215
176
     1
 90
        1
176
     1
 90
        4
176
     1
 62
     7
176
     1
 62
   257
176
     1
 90
        1
176
     1
 90
        1
176
     1
 40
1.0
176
     1
 90
        8
176
     1
 62
     7
176
     1
 40
1.0
176
     1
 90
        1
176
     1
 90
        6
176
     1
 90
        2
176
     1
 62
     7
176
     1
 90
        5
176
     1
 90
        0
176
     1
 90
        0
176
     1
290
     0
176
     1
 90
        1
176
     1
 40
50.0
176
     1
 90
        0
176
     1
290
     0
176
     1
290
     1
176
     1
290
     1
176
     1
290
     0
176
     1
290
     0
176
     1
290
     0
176
     1
290
     0
176
     1
290
     0
176
     1
290
     0
176
     1
 90
       50
176
     1
 40
0.0
176
     1
 40
1.0
176
     1
 90
        0
176
     1
 62
    18
420
        0
176
     1
 90
       50
176
     1
 90
        3
176
     1
 62
     5
420
      255
176
     1
290
     0
176
     1
 90
       50
176
     1
 90
       50
176
     1
 90
       50
176
     1
290
     0
176
     1
 90
       50
176
     1
 62
   256
176
     0
 40
1.0
176
     0
 90
        2
176
     1
  1
strokes_ogs.tif
176
     1
290
     0
176
     1
 40
1.0
176
     1
 40
1.0
176
     1
  0
VISUALSTYLE
  5
3A
102
{ACAD_REACTORS
330
2A
102
}
330
2A
100
AcDbVisualStyle
  2
ColorChange
 70
    16
177
     3
291
     1
 70
    58
 90
        2
176
     1
 90
        2
176
     1
 90
        3
176
     1
 90
        0
176
     1
 40
0.6
176
     1
 40
30.0
176
     1
 62
     8
420
  8421504
176
     1
 90
        1
176
     1
 90
        4
176
     1
 62
     7
176
     1
 62
   257
176
     1
 90
        1
176
     1
 90
        1
176
     1
 40
1.0
176
     1
 90
        8
176
     1
 62
     8
420
  8421504
176
     1
 40
1.0
176
     1
 90
        1
176
     1
 90
        6
176
     1
 90
        2
176
     1
 62
     7
176
     1
 90
        5
176
     1
 90
        0
176
     1
 90
        0
176
     1
290
     0
176
     1
 90
        1
176
     1
 40
0.0
176
     1
 90
        0
176
     1
290
     0
176
     1
290
     1
176
     1
290
     1
176
     1
290
     0
176
     1
290
     0
176
     1
290
     0
176
     1
290
     0
176
     1
290
     0
176
     1
290
     0
176
     1
 90
       50
176
     1
 40
0.0
176
     1
 40
1.0
176
     1
 90
        0
176
     1
 62
    18
420
        0
176
     1
 90
       50
176
     1
 90
        3
176
     1
 62
     5
420
      255
176
     1
290
     0
176
     1
 90
       50
176
     1
 90
       50
176
     1
 90
       50
176
     1
290
     0
176
     1
 90
       50
176
     1
 62
   256
176
     0
 40
1.0
176
     0
 90
        2
176
     1
  1
strokes_ogs.tif
176
     1
290
     0
176
     1
 40
1.0
176
     1
 40
1.0
176
     1
  0
VISUALSTYLE
  5
34
102
{ACAD_REACTORS
330
2A
102
}
330
2A
100
AcDbVisualStyle
  2
Conceptual
 70
     9
177
     3
291
     0
 70
    58
 90
        3
176
     1
 90
        2
176
     1
 90
        0
176
     1
 90
        0
176
     1
 40
0.6
176
     1
 40
30.0
176
     1
 62
     7
420
 16777215
176
     1
 90
        2
176
     1
 90
        2
176
     1
 62
     7
176
     1
 62
   257
176
     1
 90
        1
176
     1
 90
        1
176
     1
 40
179.0
176
     1
 90
        8
176
     1
 62
     7
176
     1
 40
1.0
176
     1
 90
        1
176
     1
 90
        6
176
     1
 90
        2
176
     1
 62
     7
176
     1
 90
        3
176
     1
 90
        0
176
     1
 90
        0
176
     1
290
     0
176
     1
 90
        1
176
     1
 40
0.0
176
     1
 90
        0
176
     1
290
     0
176
     1
290
     1
176
     1
290
     1
176
     1
290
     0
176
     1
290
     0
176
     1
290
     0
176
     1
290
     0
176
     1
290
     0
176
     1
290
     0
176
     1
 90
       50
176
     1
 40
0.0
176
     1
 40
1.0
176
     1
 90
        0
176
     1
 62
    18
420
        0
176
     1
 90
       50
176
     1
 90
        3
176
     1
 62
     5
420
      255
176
     1
290
     0
176
     1
 90
       50
176
     1
 90
       50
176
     1
 90
       50
176
     1
290
     0
176
     1
 90
       50
176
     1
 62
   256
176
     0
 40
1.0
176
     0
 90
        2
176
     1
  1
strokes_ogs.tif
176
     1
290
     0
176
     1
 40
1.0
176
     1
 40
1.0
176
     1
  0
VISUALSTYLE
  5
35
102
{ACAD_REACTORS
330
2A
102
}
330
2A
100
AcDbVisualStyle
  2
Dim
 70
    11
177
     3
291
     1
 70
    58
 90
        2
176
     1
 90
        2
176
     1
 90
        0
176
     1
 90
        0
176
     1
 40
0.6
176
     1
 40
30.0
176
     1
 62
     7
420
 16777215
176
     1
 90
        1
176
     1
 90
        4
176
     1
 62
     7
176
     1
 62
   257
176
     1
 90
        1
176
     1
 90
        1
176
     1
 40
1.0
176
     1
 90
        8
176
     1
 62
     7
176
     1
 40
1.0
176
     1
 90
        1
176
     1
 90
        6
176
     1
 90
        2
176
     1
 62
     7
176
     1
 90
        5
176
     1
 90
        0
176
     1
 90
        0
176
     1
290
     0
176
     1
 90
        1
176
     1
 40
-50.0
176
     1
 90
        0
176
     1
290
     0
176
     1
290
     1
176
     1
290
     1
176
     1
290
     0
176
     1
290
     0
176
     1
290
     0
176
     1
290
     0
176
     1
290
     0
176
     1
290
     0
176
     1
 90
       50
176
     1
 40
0.0
176
     1
 40
1.0
176
     1
 90
        0
176
     1
 62
    18
420
        0
176
     1
 90
       50
176
     1
 90
        3
176
     1
 62
     5
420
      255
176
     1
290
     0
176
     1
 90
       50
176
     1
 90
       50
176
     1
 90
       50
176
     1
290
     0
176
     1
 90
       50
176
     1
 62
   256
176
     0
 40
1.0
176
     0
 90
        2
176
     1
  1
strokes_ogs.tif
176
     1
290
     0
176
     1
 40
1.0
176
     1
 40
1.0
176
     1
  0
VISUALSTYLE
  5
3D
102
{ACAD_REACTORS
330
2A
102
}
330
2A
100
AcDbVisualStyle
  2
EdgeColorOff
 70
    22
177
     3
291
     1
 70
    58
 90
        2
176
     0
 90
        2
176
     0
 90
        0
176
     0
 90
        0
176
     0
 40
0.6
176
     0
 40
30.0
176
     0
 62
     7
420
 16777215
176
     0
 90
        1
176
     0
 90
        4
176
     0
 62
     7
176
     0
 62
   257
176
     0
 90
        1
176
     0
 90
        1
176
     0
 40
1.0
176
     0
 90
        8
176
     2
 62
     7
176
     0
 40
1.0
176
     0
 90
        1
176
     0
 90
        6
176
     0
 90
        2
176
     0
 62
     7
176
     0
 90
        5
176
     0
 90
        0
176
     0
 90
        0
176
     0
290
     0
176
     0
 90
        1
176
     0
 40
0.0
176
     0
 90
        0
176
     0
290
     0
176
     0
290
     1
176
     0
290
     1
176
     0
290
     0
176
     0
290
     0
176
     0
290
     0
176
     0
290
     0
176
     0
290
     0
176
     0
290
     0
176
     0
 90
       50
176
     0
 40
0.0
176
     0
 40
1.0
176
     0
 90
        0
176
     0
 62
    18
420
        0
176
     0
 90
       50
176
     0
 90
        3
176
     0
 62
     5
420
      255
176
     0
290
     0
176
     0
 90
       50
176
     0
 90
       50
176
     0
 90
       50
176
     0
290
     0
176
     0
 90
       50
176
     0
 62
   256
176
     0
 40
1.0
176
     0
 90
        2
176
     0
  1
strokes_ogs.tif
176
     0
290
     0
176
     0
 40
1.0
176
     0
 40
1.0
176
     0
  0
VISUALSTYLE
  5
39
102
{ACAD_REACTORS
330
2A
102
}
330
2A
100
AcDbVisualStyle
  2
Facepattern
 70
    15
177
     3
291
     1
 70
    58
 90
        2
176
     1
 90
        2
176
     1
 90
        0
176
     1
 90
        0
176
     1
 40
0.6
176
     1
 40
30.0
176
     1
 62
     7
420
 16777215
176
     1
 90
        1
176
     1
 90
        4
176
     1
 62
     7
176
     1
 62
   257
176
     1
 90
        1
176
     1
 90
        1
176
     1
 40
1.0
176
     1
 90
        8
176
     1
 62
     7
176
     1
 40
1.0
176
     1
 90
        1
176
     1
 90
        6
176
     1
 90
        2
176
     1
 62
     7
176
     1
 90
        5
176
     1
 90
        0
176
     1
 90
        0
176
     1
290
     0
176
     1
 90
        1
176
     1
 40
0.0
176
     1
 90
        0
176
     1
290
     0
176
     1
290
     1
176
     1
290
     1
176
     1
290
     0
176
     1
290
     0
176
     1
290
     0
176
     1
290
     0
176
     1
290
     0
176
     1
290
     0
176
     1
 90
       50
176
     1
 40
0.0
176
     1
 40
1.0
176
     1
 90
        0
176
     1
 62
    18
420
        0
176
     1
 90
       50
176
     1
 90
        3
176
     1
 62
     5
420
      255
176
     1
290
     0
176
     1
 90
       50
176
     1
 90
       50
176
     1
 90
       50
176
     1
290
     0
176
     1
 90
       50
176
     1
 62
   256
176
     0
 40
1.0
176
     0
 90
        2
176
     1
  1
strokes_ogs.tif
176
     1
290
     0
176
     1
 40
1.0
176
     1
 40
1.0
176
     1
  0
VISUALSTYLE
  5
2B
102
{ACAD_REACTORS
330
2A
102
}
330
2A
100
AcDbVisualStyle
  2
Flat
 70
     0
177
     3
291
     1
 70
    58
 90
        2
176
     1
 90
        1
176
     1
 90
        1
176
     1
 90
        2
176
     1
 40
0.6
176
     1
 40
30.0
176
     1
 62
     7
420
 16777215
176
     1
 90
        0
176
     1
 90
        0
176
     1
 62
     7
176
     1
 62
   257
176
     1
 90
        1
176
     1
 90
        1
176
     1
 40
1.0
176
     1
 90
        8
176
     1
 62
     7
176
     1
 40
1.0
176
     1
 90
        1
176
     1
 90
        6
176
     1
 90
        2
176
     1
 62
     7
176
     1
 90
        5
176
     1
 90
        0
176
     1
 90
        0
176
     1
290
     0
176
     1
 90
       13
176
     1
 40
0.0
176
     1
 90
        0
176
     1
290
     0
176
     1
290
     1
176
     1
290
     1
176
     1
290
     0
176
     1
290
     0
176
     1
290
     0
176
     1
290
     0
176
     1
290
     0
176
     1
290
     0
176
     1
 90
       50
176
     1
 40
0.0
176
     1
 40
1.0
176
     1
 90
        0
176
     1
 62
    18
420
        0
176
     1
 90
       50
176
     1
 90
        3
176
     1
 62
     5
420
      255
176
     1
290
     0
176
     1
 90
       50
176
     1
 90
       50
176
     1
 90
       50
176
     1
290
     0
176
     1
 90
       50
176
     1
 62
   256
176
     0
 40
1.0
176
     0
 90
        2
176
     1
  1
strokes_ogs.tif
176
     1
290
     0
176
     1
 40
1.0
176
     1
 40
1.0
176
     1
  0
VISUALSTYLE
  5
2C
102
{ACAD_REACTORS
330
2A
102
}
330
2A
100
AcDbVisualStyle
  2
FlatWithEdges
 70
     1
177
     3
291
     1
 70
    58
 90
        2
176
     1
 90
        1
176
     1
 90
        1
176
     1
 90
        2
176
     1
 40
0.6
176
     1
 40
30.0
176
     1
 62
     7
420
 16777215
176
     1
 90
        1
176
     1
 90
        0
176
     1
 62
     7
176
     1
 62
   257
176
     1
 90
        1
176
     1
 90
        1
176
     1
 40
1.0
176
     1
 90
        0
176
     1
 62
   257
176
     1
 40
1.0
176
     1
 90
        1
176
     1
 90
        6
176
     1
 90
        2
176
     1
 62
     7
176
     1
 90
        5
176
     1
 90
        0
176
     1
 90
        0
176
     1
290
     0
176
     1
 90
       13
176
     1
 40
0.0
176
     1
 90
        0
176
     1
290
     0
176
     1
290
     1
176
     1
290
     1
176
     1
290
     0
176
     1
290
     0
176
     1
290
     0
176
     1
290
     0
176
     1
290
     0
176
     1
290
     0
176
     1
 90
       50
176
     1
 40
0.0
176
     1
 40
1.0
176
     1
 90
        0
176
     1
 62
    18
420
        0
176
     1
 90
       50
176
     1
 90
        3
176
     1
 62
     5
420
      255
176
     1
290
     0
176
     1
 90
       50
176
     1
 90
       50
176
     1
 90
       50
176
     1
290
     0
176
     1
 90
       50
176
     1
 62
   256
176
     0
 40
1.0
176
     0
 90
        2
176
     1
  1
strokes_ogs.tif
176
     1
290
     0
176
     1
 40
1.0
176
     1
 40
1.0
176
     1
  0
VISUALSTYLE
  5
2D
102
{ACAD_REACTORS
330
2A
102
}
330
2A
100
AcDbVisualStyle
  2
Gouraud
 70
     2
177
     3
291
     1
 70
    58
 90
        2
176
     1
 90
        2
176
     1
 90
        1
176
     1
 90
        2
176
     1
 40
0.6
176
     1
 40
30.0
176
     1
 62
     7
420
 16777215
176
     1
 90
        0
176
     1
 90
        0
176
     1
 62
     7
176
     1
 62
   257
176
     1
 90
        1
176
     1
 90
        1
176
     1
 40
1.0
176
     1
 90
        0
176
     1
 62
     7
176
     1
 40
1.0
176
     1
 90
        1
176
     1
 90
        6
176
     1
 90
        2
176
     1
 62
     7
176
     1
 90
        5
176
     1
 90
        0
176
     1
 90
        0
176
     1
290
     0
176
     1
 90
       13
176
     1
 40
0.0
176
     1
 90
        0
176
     1
290
     0
176
     1
290
     1
176
     1
290
     1
176
     1
290
     0
176
     1
290
     0
176
     1
290
     0
176
     1
290
     0
176
     1
290
     0
176
     1
290
     0
176
     1
 90
       50
176
     1
 40
0.0
176
     1
 40
1.0
176
     1
 90
        0
176
     1
 62
    18
420
        0
176
     1
 90
       50
176
     1
 90
        3
176
     1
 62
     5
420
      255
176
     1
290
     0
176
     1
 90
       50
176
     1
 90
       50
176
     1
 90
       50
176
     1
290
     0
176
     1
 90
       50
176
     1
 62
   256
176
     0
 40
1.0
176
     0
 90
        2
176
     1
  1
strokes_ogs.tif
176
     1
290
     0
176
     1
 40
1.0
176
     1
 40
1.0
176
     1
  0
VISUALSTYLE
  5
2E
102
{ACAD_REACTORS
330
2A
102
}
330
2A
100
AcDbVisualStyle
  2
GouraudWithEdges
 70
     3
177
     3
291
     1
 70
    58
 90
        2
176
     1
 90
        2
176
     1
 90
        1
176
     1
 90
        2
176
     1
 40
0.6
176
     1
 40
30.0
176
     1
 62
     7
420
 16777215
176
     1
 90
        1
176
     1
 90
        0
176
     1
 62
     7
176
     1
 62
   257
176
     1
 90
        1
176
     1
 90
        1
176
     1
 40
1.0
176
     1
 90
        0
176
     1
 62
   257
176
     1
 40
1.0
176
     1
 90
        1
176
     1
 90
        6
176
     1
 90
        2
176
     1
 62
     7
176
     1
 90
        5
176
     1
 90
        0
176
     1
 90
        0
176
     1
290
     0
176
     1
 90
       13
176
     1
 40
0.0
176
     1
 90
        0
176
     1
290
     0
176
     1
290
     1
176
     1
290
     1
176
     1
290
     0
176
     1
290
     0
176
     1
290
     0
176
     1
290
     0
176
     1
290
     0
176
     1
290
     0
176
     1
 90
       50
176
     1
 40
0.0
176
     1
 40
1.0
176
     1
 90
        0
176
     1
 62
    18
420
        0
176
     1
 90
       50
176
     1
 90
        3
176
     1
 62
     5
420
      255
176
     1
290
     0
176
     1
 90
       50
176
     1
 90
       50
176
     1
 90
       50
176
     1
290
     0
176
     1
 90
       50
176
     1
 62
   256
176
     0
 40
1.0
176
     0
 90
        2
176
     1
  1
strokes_ogs.tif
176
     1
290
     0
176
     1
 40
1.0
176
     1
 40
1.0
176
     1
  0
VISUALSTYLE
  5
31
102
{ACAD_REACTORS
330
2A
102
}
330
2A
100
AcDbVisualStyle
  2
Hidden
 70
     6
177
     3
291
     0
 70
    58
 90
        1
176
     1
 90
        2
176
     1
 90
        2
176
     1
 90
        0
176
     1
 40
0.6
176
     1
 40
30.0
176
     1
 62
     7
420
 16777215
176
     1
 90
        2
176
     1
 90
        2
176
     1
 62
     7
176
     1
 62
   257
176
     1
 90
        2
176
     1
 90
        1
176
     1
 40
40.0
176
     1
 90
        0
176
     1
 62
   257
176
     1
 40
1.0
176
     1
 90
        1
176
     1
 90
        6
176
     1
 90
        2
176
     1
 62
     7
176
     1
 90
        3
176
     1
 90
        0
176
     1
 90
        0
176
     1
290
     0
176
     1
 90
        1
176
     1
 40
0.0
176
     1
 90
        0
176
     1
290
     0
176
     1
290
     1
176
     1
290
     1
176
     1
290
     0
176
     1
290
     0
176
     1
290
     0
176
     1
290
     0
176
     1
290
     0
176
     1
290
     0
176
     1
 90
       50
176
     1
 40
0.0
176
     1
 40
1.0
176
     1
 90
        0
176
     1
 62
    18
420
        0
176
     1
 90
       50
176
     1
 90
        3
176
     1
 62
     5
420
      255
176
     1
290
     0
176
     1
 90
       50
176
     1
 90
       50
176
     1
 90
       50
176
     1
290
     0
176
     1
 90
       50
176
     1
 62
   256
176
     0
 40
1.0
176
     0
 90
        2
176
     1
  1
strokes_ogs.tif
176
     1
290
     0
176
     1
 40
1.0
176
     1
 40
1.0
176
     1
  0
VISUALSTYLE
  5
3B
102
{ACAD_REACTORS
330
2A
102
}
330
2A
100
AcDbVisualStyle
  2
JitterOff
 70
    20
177
     3
291
     1
 70
    58
 90
        2
176
     0
 90
        2
176
     0
 90
        0
176
     0
 90
        0
176
     0
 40
0.6
176
     0
 40
30.0
176
     0
 62
     7
420
 16777215
176
     0
 90
        1
176
     0
 90
        4
176
     0
 62
     7
176
     0
 62
   257
176
     0
 90
        1
176
     0
 90
        1
176
     0
 40
1.0
176
     0
 90
       10
176
     2
 62
     7
176
     0
 40
1.0
176
     0
 90
        1
176
     0
 90
        6
176
     0
 90
        2
176
     0
 62
     7
176
     0
 90
        5
176
     0
 90
        0
176
     0
 90
        0
176
     0
290
     0
176
     0
 90
        1
176
     0
 40
0.0
176
     0
 90
        0
176
     0
290
     0
176
     0
290
     1
176
     0
290
     1
176
     0
290
     0
176
     0
290
     0
176
     0
290
     0
176
     0
290
     0
176
     0
290
     0
176
     0
290
     0
176
     0
 90
       50
176
     0
 40
0.0
176
     0
 40
1.0
176
     0
 90
        0
176
     0
 62
    18
420
        0
176
     0
 90
       50
176
     0
 90
        3
176
     0
 62
     5
420
      255
176
     0
290
     0
176
     0
 90
       50
176
     0
 90
       50
176
     0
 90
       50
176
     0
290
     0
176
     0
 90
       50
176
     0
 62
   256
176
     0
 40
1.0
176
     0
 90
        2
176
     0
  1
strokes_ogs.tif
176
     0
290
     0
176
     0
 40
1.0
176
     0
 40
1.0
176
     0
  0
VISUALSTYLE
  5
38
102
{ACAD_REACTORS
330
2A
102
}
330
2A
100
AcDbVisualStyle
  2
Linepattern
 70
    14
177
     3
291
     1
 70
    58
 90
        2
176
     1
 90
        2
176
     1
 90
        0
176
     1
 90
        0
176
     1
 40
0.6
176
     1
 40
30.0
176
     1
 62
     7
420
 16777215
176
     1
 90
        1
176
     1
 90
        4
176
     1
 62
     7
176
     1
 62
   257
176
     1
 90
        7
176
     1
 90
        7
176
     1
 40
1.0
176
     1
 90
        8
176
     1
 62
     7
176
     1
 40
1.0
176
     1
 90
        1
176
     1
 90
        6
176
     1
 90
        2
176
     1
 62
     7
176
     1
 90
        5
176
     1
 90
        0
176
     1
 90
        0
176
     1
290
     0
176
     1
 90
        1
176
     1
 40
0.0
176
     1
 90
        0
176
     1
290
     0
176
     1
290
     1
176
     1
290
     1
176
     1
290
     0
176
     1
290
     0
176
     1
290
     0
176
     1
290
     0
176
     1
290
     0
176
     1
290
     0
176
     1
 90
       50
176
     1
 40
0.0
176
     1
 40
1.0
176
     1
 90
        0
176
     1
 62
    18
420
        0
176
     1
 90
       50
176
     1
 90
        3
176
     1
 62
     5
420
      255
176
     1
290
     0
176
     1
 90
       50
176
     1
 90
       50
176
     1
 90
       50
176
     1
290
     0
176
     1
 90
       50
176
     1
 62
   256
176
     0
 40
1.0
176
     0
 90
        2
176
     1
  1
strokes_ogs.tif
176
     1
290
     0
176
     1
 40
1.0
176
     1
 40
1.0
176
     1
  0
VISUALSTYLE
  5
3C
102
{ACAD_REACTORS
330
2A
102
}
330
2A
100
AcDbVisualStyle
  2
OverhangOff
 70
    21
177
     3
291
     1
 70
    58
 90
        2
176
     0
 90
        2
176
     0
 90
        0
176
     0
 90
        0
176
     0
 40
0.6
176
     0
 40
30.0
176
     0
 62
     7
420
 16777215
176
     0
 90
        1
176
     0
 90
        4
176
     0
 62
     7
176
     0
 62
   257
176
     0
 90
        1
176
     0
 90
        1
176
     0
 40
1.0
176
     0
 90
        9
176
     2
 62
     7
176
     0
 40
1.0
176
     0
 90
        1
176
     0
 90
        6
176
     0
 90
        2
176
     0
 62
     7
176
     0
 90
        5
176
     0
 90
        0
176
     0
 90
        0
176
     0
290
     0
176
     0
 90
        1
176
     0
 40
0.0
176
     0
 90
        0
176
     0
290
     0
176
     0
290
     1
176
     0
290
     1
176
     0
290
     0
176
     0
290
     0
176
     0
290
     0
176
     0
290
     0
176
     0
290
     0
176
     0
290
     0
176
     0
 90
       50
176
     0
 40
0.0
176
     0
 40
1.0
176
     0
 90
        0
176
     0
 62
    18
420
        0
176
     0
 90
       50
176
     0
 90
        3
176
     0
 62
     5
420
      255
176
     0
290
     0
176
     0
 90
       50
176
     0
 90
       50
176
     0
 90
       50
176
     0
290
     0
176
     0
 90
       50
176
     0
 62
   256
176
     0
 40
1.0
176
     0
 90
        2
176
     0
  1
strokes_ogs.tif
176
     0
290
     0
176
     0
 40
1.0
176
     0
 40
1.0
176
     0
  0
VISUALSTYLE
  5
33
102
{ACAD_REACTORS
330
2A
102
}
330
2A
100
AcDbVisualStyle
  2
Realistic
 70
     8
177
     3
291
     0
 70
    58
 90
        2
176
     1
 90
        3
176
     1
 90
        0
176
     1
 90
        2
176
     1
 40
0.6
176
     1
 40
30.0
176
     1
 62
     7
420
 16777215
176
     1
 90
        0
176
     1
 90
        0
176
     1
 62
     7
176
     1
 62
   257
176
     1
 90
        1
176
     1
 90
        1
176
     1
 40
1.0
176
     1
 90
        8
176
     1
 62
   257
176
     1
 40
1.0
176
     1
 90
        1
176
     1
 90
        6
176
     1
 90
        2
176
     1
 62
     7
176
     1
 90
        3
176
     1
 90
        0
176
     1
 90
        0
176
     1
290
     0
176
     1
 90
       13
176
     1
 40
0.0
176
     1
 90
        0
176
     1
290
     0
176
     1
290
     1
176
     1
290
     1
176
     1
290
     0
176
     1
290
     0
176
     1
290
     0
176
     1
290
     0
176
     1
290
     0
176
     1
290
     0
176
     1
 90
       50
176
     1
 40
0.0
176
     1
 40
1.0
176
     1
 90
        0
176
     1
 62
    18
420
        0
176
     1
 90
       50
176
     1
 90
        3
176
     1
 62
     5
420
      255
176
     1
290
     0
176
     1
 90
       50
176
     1
 90
       50
176
     1
 90
       50
176
     1
290
     0
176
     1
 90
       50
176
     1
 62
   256
176
     0
 40
1.0
176
     0
 90
        2
176
     1
  1
strokes_ogs.tif
176
     1
290
     0
176
     1
 40
1.0
176
     1
 40
1.0
176
     1
  0
VISUALSTYLE
  5
42
102
{ACAD_REACTORS
330
2A
102
}
330
2A
100
AcDbVisualStyle
  2
Shaded
 70
    27
177
     3
291
     0
 70
    58
 90
        2
176
     1
 90
        2
176
     1
 90
        1
176
     1
 90
        2
176
     1
 40
0.6
176
     1
 40
30.0
176
     1
 62
     7
420
 16777215
176
     1
 90
        0
176
     1
 90
        4
176
     1
 62
     7
176
     1
 62
   257
176
     1
 90
        1
176
     1
 90
        1
176
     1
 40
1.0
176
     1
 90
        8
176
     1
 62
   257
176
     1
 40
1.0
176
     1
 90
        1
176
     1
 90
        6
176
     1
 90
        2
176
     1
 62
     8
420
  7895160
176
     1
 90
        3
176
     1
 90
        0
176
     1
 90
        0
176
     1
290
     0
176
     1
 90
        5
176
     1
 40
0.0
176
     1
 90
        0
176
     1
290
     0
176
     1
290
     1
176
     1
290
     1
176
     1
290
     0
176
     1
290
     0
176
     1
290
     0
176
     1
290
     0
176
     1
290
     0
176
     1
290
     0
176
     1
 90
       50
176
     1
 40
0.0
176
     1
 40
1.0
176
     1
 90
        0
176
     1
 62
    18
420
        0
176
     1
 90
       50
176
     1
 90
        3
176
     1
 62
     5
420
      255
176
     1
290
     0
176
     1
 90
       50
176
     1
 90
       50
176
     1
 90
       50
176
     1
290
     0
176
     1
 90
       50
176
     1
 62
   256
176
     0
 40
1.0
176
     0
 90
        2
176
     1
  1
strokes_ogs.tif
176
     1
290
     0
176
     1
 40
1.0
176
     1
 40
1.0
176
     1
  0
VISUALSTYLE
  5
41
102
{ACAD_REACTORS
330
2A
102
}
330
2A
100
AcDbVisualStyle
  2
Shaded with edges
 70
    26
177
     3
291
     0
 70
    58
 90
        2
176
     1
 90
        2
176
     1
 90
        1
176
     1
 90
        2
176
     1
 40
0.6
176
     1
 40
30.0
176
     1
 62
     7
420
 16777215
176
     1
 90
        1
176
     1
 90
       10
176
     1
 62
     7
176
     1
 62
   257
176
     1
 90
        2
176
     1
 90
        1
176
     1
 40
1.0
176
     1
 90
        8
176
     1
 62
   257
176
     1
 40
1.0
176
     1
 90
        1
176
     1
 90
        6
176
     1
 90
        2
176
     1
 62
     7
176
     1
 90
        3
176
     1
 90
        0
176
     1
 90
        0
176
     1
290
     0
176
     1
 90
        5
176
     1
 40
0.0
176
     1
 90
        0
176
     1
290
     0
176
     1
290
     1
176
     1
290
     1
176
     1
290
     0
176
     1
290
     0
176
     1
290
     0
176
     1
290
     0
176
     1
290
     0
176
     1
290
     0
176
     1
 90
       50
176
     1
 40
0.0
176
     1
 40
1.0
176
     1
 90
        0
176
     1
 62
    18
420
        0
176
     1
 90
       50
176
     1
 90
        3
176
     1
 62
     5
420
      255
176
     1
290
     0
176
     1
 90
       50
176
     1
 90
       50
176
     1
 90
       50
176
     1
290
     0
176
     1
 90
       50
176
     1
 62
   256
176
     0
 40
1.0
176
     0
 90
        2
176
     1
  1
strokes_ogs.tif
176
     1
290
     0
176
     1
 40
1.0
176
     1
 40
1.0
176
     1
  0
VISUALSTYLE
  5
3E
102
{ACAD_REACTORS
330
2A
102
}
330
2A
100
AcDbVisualStyle
  2
Shades of Gray
 70
    23
177
     3
291
     0
 70
    58
 90
        2
176
     1
 90
        2
176
     1
 90
        3
176
     1
 90
        0
176
     1
 40
0.6
176
     1
 40
30.0
176
     1
 62
     7
420
 16777215
176
     1
 90
        2
176
     1
 90
        2
176
     1
 62
     7
176
     1
 62
     7
176
     1
 90
        1
176
     1
 90
        1
176
     1
 40
40.0
176
     1
 90
        8
176
     1
 62
     7
176
     1
 40
1.0
176
     1
 90
        1
176
     1
 90
        6
176
     1
 90
        2
176
     1
 62
     7
176
     1
 90
        3
176
     1
 90
        0
176
     1
 90
        0
176
     1
290
     0
176
     1
 90
        1
176
     1
 40
0.0
176
     1
 90
        0
176
     1
290
     0
176
     1
290
     1
176
     1
290
     1
176
     1
290
     0
176
     1
290
     0
176
     1
290
     0
176
     1
290
     0
176
     1
290
     0
176
     1
290
     0
176
     1
 90
       50
176
     1
 40
0.0
176
     1
 40
1.0
176
     1
 90
        0
176
     1
 62
    18
420
        0
176
     1
 90
       50
176
     1
 90
        3
176
     1
 62
     5
420
      255
176
     1
290
     0
176
     1
 90
       50
176
     1
 90
       50
176
     1
 90
       50
176
     1
290
     0
176
     1
 90
       50
176
     1
 62
   256
176
     0
 40
1.0
176
     0
 90
        2
176
     1
  1
strokes_ogs.tif
176
     1
290
     0
176
     1
 40
1.0
176
     1
 40
1.0
176
     1
  0
VISUALSTYLE
  5
3F
102
{ACAD_REACTORS
330
2A
102
}
330
2A
100
AcDbVisualStyle
  2
Sketchy
 70
    24
177
     3
291
     0
 70
    58
 90
        1
176
     1
 90
        2
176
     1
 90
        2
176
     1
 90
        0
176
     1
 40
0.6
176
     1
 40
30.0
176
     1
 62
     7
420
 16777215
176
     1
 90
        2
176
     1
 90
        2
176
     1
 62
     7
176
     1
 62
     7
176
     1
 90
        1
176
     1
 90
        1
176
     1
 40
40.0
176
     1
 90
       11
176
     1
 62
     7
176
     1
 40
1.0
176
     1
 90
        1
176
     1
 90
        6
176
     1
 90
        2
176
     1
 62
     7
176
     1
 90
        6
176
     1
 90
        0
176
     1
 90
        0
176
     1
290
     0
176
     1
 90
        1
176
     1
 40
0.0
176
     1
 90
        0
176
     1
290
     0
176
     1
290
     1
176
     1
290
     1
176
     1
290
     0
176
     1
290
     0
176
     1
290
     0
176
     1
290
     0
176
     1
290
     0
176
     1
290
     0
176
     1
 90
       50
176
     1
 40
0.0
176
     1
 40
1.0
176
     1
 90
        0
176
     1
 62
    18
420
        0
176
     1
 90
       50
176
     1
 90
        3
176
     1
 62
     5
420
      255
176
     1
290
     0
176
     1
 90
       50
176
     1
 90
       50
176
     1
 90
       50
176
     1
290
     0
176
     1
 90
       50
176
     1
 62
   256
176
     0
 40
1.0
176
     0
 90
        2
176
     1
  1
strokes_ogs.tif
176
     1
290
     0
176
     1
 40
1.0
176
     1
 40
1.0
176
     1
  0
VISUALSTYLE
  5
37
102
{ACAD_REACTORS
330
2A
102
}
330
2A
100
AcDbVisualStyle
  2
Thicken
 70
    13
177
     3
291
     1
 70
    58
 90
        2
176
     1
 90
        2
176
     1
 90
        0
176
     1
 90
        0
176
     1
 40
0.6
176
     1
 40
30.0
176
     1
 62
     7
420
 16777215
176
     1
 90
        1
176
     1
 90
        4
176
     1
 62
     7
176
     1
 62
   257
176
     1
 90
        1
176
     1
 90
        1
176
     1
 40
1.0
176
     1
 90
       12
176
     1
 62
     7
176
     1
 40
1.0
176
     1
 90
        1
176
     1
 90
        6
176
     1
 90
        2
176
     1
 62
     7
176
     1
 90
        5
176
     1
 90
        0
176
     1
 90
        0
176
     1
290
     0
176
     1
 90
        1
176
     1
 40
0.0
176
     1
 90
        0
176
     1
290
     0
176
     1
290
     1
176
     1
290
     1
176
     1
290
     0
176
     1
290
     0
176
     1
290
     0
176
     1
290
     0
176
     1
290
     0
176
     1
290
     0
176
     1
 90
       50
176
     1
 40
0.0
176
     1
 40
1.0
176
     1
 90
        0
176
     1
 62
    18
420
        0
176
     1
 90
       50
176
     1
 90
        3
176
     1
 62
     5
420
      255
176
     1
290
     0
176
     1
 90
       50
176
     1
 90
       50
176
     1
 90
       50
176
     1
290
     0
176
     1
 90
       50
176
     1
 62
   256
176
     0
 40
1.0
176
     0
 90
        2
176
     1
  1
strokes_ogs.tif
176
     1
290
     0
176
     1
 40
1.0
176
     1
 40
1.0
176
     1
  0
VISUALSTYLE
  5
30
102
{ACAD_REACTORS
330
2A
102
}
330
2A
100
AcDbVisualStyle
  2
Wireframe
 70
     5
177
     3
291
     0
 70
    58
 90
        0
176
     1
 90
        2
176
     1
 90
        0
176
     1
 90
        0
176
     1
 40
0.6
176
     1
 40
30.0
176
     1
 62
     7
420
 16777215
176
     1
 90
        1
176
     1
 90
        4
176
     1
 62
     7
176
     1
 62
   257
176
     1
 90
        1
176
     1
 90
        1
176
     1
 40
1.0
176
     1
 90
        0
176
     1
 62
   257
176
     1
 40
1.0
176
     1
 90
        1
176
     1
 90
        6
176
     1
 90
        2
176
     1
 62
     7
176
     1
 90
        3
176
     1
 90
        0
176
     1
 90
        0
176
     1
290
     0
176
     1
 90
        1
176
     1
 40
0.0
176
     1
 90
        0
176
     1
290
     0
176
     1
290
     1
176
     1
290
     1
176
     1
290
     0
176
     1
290
     0
176
     1
290
     0
176
     1
290
     0
176
     1
290
     0
176
     1
290
     0
176
     1
 90
       50
176
     1
 40
0.0
176
     1
 40
1.0
176
     1
 90
        0
176
     1
 62
    18
420
        0
176
     1
 90
       50
176
     1
 90
        3
176
     1
 62
     5
420
      255
176
     1
290
     0
176
     1
 90
       50
176
     1
 90
       50
176
     1
 90
       50
176
     1
290
     0
176
     1
 90
       50
176
     1
 62
   256
176
     0
 40
1.0
176
     0
 90
        2
176
     1
  1
strokes_ogs.tif
176
     1
290
     0
176
     1
 40
1.0
176
     1
 40
1.0
176
     1
  0
VISUALSTYLE
  5
40
102
{ACAD_REACTORS
330
2A
102
}
330
2A
100
AcDbVisualStyle
  2
X-Ray
 70
    25
177
     3
291
     0
 70
    58
 90
        2
176
     1
 90
        2
176
     1
 90
        1
176
     1
 90
        1
176
     1
 40
0.5
176
     1
 40
30.0
176
     1
 62
     7
420
 16777215
176
     1
 90
        1
176
     1
 90
        0
176
     1
 62
     7
176
     1
 62
   257
176
     1
 90
        1
176
     1
 90
        1
176
     1
 40
1.0
176
     1
 90
        8
176
     1
 62
     7
176
     1
 40
1.0
176
     1
 90
        1
176
     1
 90
        6
176
     1
 90
        2
176
     1
 62
     7
176
     1
 90
        3
176
     1
 90
        0
176
     1
 90
        0
176
     1
290
     0
176
     1
 90
       13
176
     1
 40
0.0
176
     1
 90
        0
176
     1
290
     0
176
     1
290
     1
176
     1
290
     1
176
     1
290
     0
176
     1
290
     0
176
     1
290
     0
176
     1
290
     0
176
     1
290
     0
176
     1
290
     0
176
     1
 90
       50
176
     1
 40
0.0
176
     1
 40
1.0
176
     1
 90
        0
176
     1
 62
    18
420
        0
176
     1
 90
       50
176
     1
 90
        3
176
     1
 62
     5
420
      255
176
     1
290
     0
176
     1
 90
       50
176
     1
 90
       50
176
     1
 90
       50
176
     1
290
     0
176
     1
 90
       50
176
     1
 62
   256
176
     0
 40
1.0
176
     0
 90
        2
176
     1
  1
strokes_ogs.tif
176
     1
290
     0
176
     1
 40
1.0
176
     1
 40
1.0
176
     1
  0
DICTIONARYVAR
  5
1AB
102
{ACAD_REACTORS
330
1AA
102
}
330
1AA
100
DictionaryVariables
280
     0
  1
1:1
  0
DICTIONARYVAR
  5
1B0
102
{ACAD_REACTORS
330
1AA
102
}
330
1AA
100
DictionaryVariables
280
     0
  1
Standard
  0
DICTIONARYVAR
  5
1AF
102
{ACAD_REACTORS
330
1AA
102
}
330
1AA
100
DictionaryVariables
280
     0
  1
Standard
  0
DICTIONARY
  5
1AC
330
6A
100
AcDbDictionary
280
     1
281
     1
  3
ACAD_ROUNDTRIP_2008_TABLESTYLE_CELLSTYLEMAP
360
1AD
  0
CELLSTYLEMAP
  5
1AD
102
{ACAD_REACTORS
330
1AC
102
}
330
1AC
100
AcDbCellStyleMap
 90
        3
300
CELLSTYLE
  1
TABLEFORMAT_BEGIN
 90
        5
170
     1
 91
        0
 92
    32768
 62
   257
 93
        1
300
CONTENTFORMAT
  1
CONTENTFORMAT_BEGIN
 90
        0
 91
        0
 92
        4
 93
        0
300

 40
0.0
140
1.0
 94
        5
 62
     0
340
11
144
0.25
309
CONTENTFORMAT_END
171
     1
301
MARGIN
  1
CELLMARGIN_BEGIN
 40
0.06
 40
0.06
 40
0.06
 40
0.06
 40
0.06
 40
0.06
309
CELLMARGIN_END
 94
        6
 95
        1
302
GRIDFORMAT
  1
GRIDFORMAT_BEGIN
 90
        0
 91
        1
 62
     0
 92
       -2
340
14
 93
        0
 40
0.045
309
GRIDFORMAT_END
 95
        2
302
GRIDFORMAT
  1
GRIDFORMAT_BEGIN
 90
        0
 91
        1
 62
     0
 92
       -2
340
14
 93
        0
 40
0.045
309
GRIDFORMAT_END
 95
        4
302
GRIDFORMAT
  1
GRIDFORMAT_BEGIN
 90
        0
 91
        1
 62
     0
 92
       -2
340
14
 93
        0
 40
0.045
309
GRIDFORMAT_END
 95
        8
302
GRIDFORMAT
  1
GRIDFORMAT_BEGIN
 90
        0
 91
        1
 62
     0
 92
       -2
340
14
 93
        0
 40
0.045
309
GRIDFORMAT_END
 95
       16
302
GRIDFORMAT
  1
GRIDFORMAT_BEGIN
 90
        0
 91
        1
 62
     0
 92
       -2
340
14
 93
        0
 40
0.045
309
GRIDFORMAT_END
 95
       32
302
GRIDFORMAT
  1
GRIDFORMAT_BEGIN
 90
        0
 91
        1
 62
     0
 92
       -2
340
14
 93
        0
 40
0.045
309
GRIDFORMAT_END
309
TABLEFORMAT_END
  1
CELLSTYLE_BEGIN
 90
        1
 91
        1
300
_TITLE
309
CELLSTYLE_END
300
CELLSTYLE
  1
TABLEFORMAT_BEGIN
 90
        5
170
     1
 91
        0
 92
        0
 62
   257
 93
        1
300
CONTENTFORMAT
  1
CONTENTFORMAT_BEGIN
 90
        0
 91
        0
 92
        4
 93
        0
300

 40
0.0
140
1.0
 94
        5
 62
     0
340
11
144
0.18
309
CONTENTFORMAT_END
171
     1
301
MARGIN
  1
CELLMARGIN_BEGIN
 40
0.06
 40
0.06
 40
0.06
 40
0.06
 40
0.06
 40
0.06
309
CELLMARGIN_END
 94
        6
 95
        1
302
GRIDFORMAT
  1
GRIDFORMAT_BEGIN
 90
        0
 91
        1
 62
     0
 92
       -2
340
14
 93
        0
 40
0.045
309
GRIDFORMAT_END
 95
        2
302
GRIDFORMAT
  1
GRIDFORMAT_BEGIN
 90
        0
 91
        1
 62
     0
 92
       -2
340
14
 93
        0
 40
0.045
309
GRIDFORMAT_END
 95
        4
302
GRIDFORMAT
  1
GRIDFORMAT_BEGIN
 90
        0
 91
        1
 62
     0
 92
       -2
340
14
 93
        0
 40
0.045
309
GRIDFORMAT_END
 95
        8
302
GRIDFORMAT
  1
GRIDFORMAT_BEGIN
 90
        0
 91
        1
 62
     0
 92
       -2
340
14
 93
        0
 40
0.045
309
GRIDFORMAT_END
 95
       16
302
GRIDFORMAT
  1
GRIDFORMAT_BEGIN
 90
        0
 91
        1
 62
     0
 92
       -2
340
14
 93
        0
 40
0.045
309
GRIDFORMAT_END
 95
       32
302
GRIDFORMAT
  1
GRIDFORMAT_BEGIN
 90
        0
 91
        1
 62
     0
 92
       -2
340
14
 93
        0
 40
0.045
309
GRIDFORMAT_END
309
TABLEFORMAT_END
  1
CELLSTYLE_BEGIN
 90
        2
 91
        1
300
_HEADER
309
CELLSTYLE_END
300
CELLSTYLE
  1
TABLEFORMAT_BEGIN
 90
        5
170
     1
 91
        0
 92
        0
 62
   257
 93
        1
300
CONTENTFORMAT
  1
CONTENTFORMAT_BEGIN
 90
        0
 91
        0
 92
        4
 93
        0
300

 40
0.0
140
1.0
 94
        2
 62
     0
340
11
144
0.18
309
CONTENTFORMAT_END
171
     1
301
MARGIN
  1
CELLMARGIN_BEGIN
 40
0.06
 40
0.06
 40
0.06
 40
0.06
 40
0.06
 40
0.06
309
CELLMARGIN_END
 94
        6
 95
        1
302
GRIDFORMAT
  1
GRIDFORMAT_BEGIN
 90
        0
 91
        1
 62
     0
 92
       -2
340
14
 93
        0
 40
0.045
309
GRIDFORMAT_END
 95
        2
302
GRIDFORMAT
  1
GRIDFORMAT_BEGIN
 90
        0
 91
        1
 62
     0
 92
       -2
340
14
 93
        0
 40
0.045
309
GRIDFORMAT_END
 95
        4
302
GRIDFORMAT
  1
GRIDFORMAT_BEGIN
 90
        0
 91
        1
 62
     0
 92
       -2
340
14
 93
        0
 40
0.045
309
GRIDFORMAT_END
 95
        8
302
GRIDFORMAT
  1
GRIDFORMAT_BEGIN
 90
        0
 91
        1
 62
     0
 92
       -2
340
14
 93
        0
 40
0.045
309
GRIDFORMAT_END
 95
       16
302
GRIDFORMAT
  1
GRIDFORMAT_BEGIN
 90
        0
 91
        1
 62
     0
 92
       -2
340
14
 93
        0
 40
0.045
309
GRIDFORMAT_END
 95
       32
302
GRIDFORMAT
  1
GRIDFORMAT_BEGIN
 90
        0
 91
        1
 62
     0
 92
       -2
340
14
 93
        0
 40
0.045
309
GRIDFORMAT_END
309
TABLEFORMAT_END
  1
CELLSTYLE_BEGIN
 90
        3
 91
        2
300
_DATA
309
CELLSTYLE_END
  0
ENDSEC
  0
EOF