0
SECTION
  2
HEADER
  9
$ACADVER
  1
AC1027
  9
$ACADMAINTVER
 70
     8
  9
$DWGCODEPAGE
  3
ANSI_1252
  9
$REQUIREDVERSIONS
160
                 0
  9
$COMMENTS
  1
File was created by Cadenas
  9
$CUSTOMPROPERTYTAG
  1
NN
  9
$CUSTOMPROPERTY
  1
S-2000 Flange Bearing - Round Trident Seal
  9
$CUSTOMPROPERTYTAG
  1
NT
  9
$CUSTOMPROPERTY
  1
S-2000 3 & 4 Bolt Round Flange Bearing -Inch
  9
$CUSTOMPROPERTYTAG
  1
NB
  9
$CUSTOMPROPERTY
  1
070477
  9
$CUSTOMPROPERTYTAG
  1
NBSYN
  9
$CUSTOMPROPERTY
  1
$PN.
  9
$CUSTOMPROPERTYTAG
  1
LINA
  9
$CUSTOMPROPERTY
  1
070477
  9
$CUSTOMPROPERTYTAG
  1
SS
  9
$CUSTOMPROPERTY
  1
2
  9
$CUSTOMPROPERTYTAG
  1
PN
  9
$CUSTOMPROPERTY
  1
070477
  9
$CUSTOMPROPERTYTAG
  1
DESCRIPTION
  9
$CUSTOMPROPERTY
  1
F4R-S2-200RE
  9
$CUSTOMPROPERTYTAG
  1
EF
  9
$CUSTOMPROPERTY
  1
Expansion Type
  9
$CUSTOMPROPERTYTAG
  1
ST
  9
$CUSTOMPROPERTY
  1
Contact Seal
  9
$CUSTOMPROPERTYTAG
  1
A
  9
$CUSTOMPROPERTY
  1
2-27/32
  9
$CUSTOMPROPERTYTAG
  1
B
  9
$CUSTOMPROPERTY
  1
6-11/16
  9
$CUSTOMPROPERTYTAG
  1
C
  9
$CUSTOMPROPERTY
  1
3-9/64
  9
$CUSTOMPROPERTYTAG
  1
D
  9
$CUSTOMPROPERTY
  1
4-1/16
  9
$CUSTOMPROPERTYTAG
  1
DD
  9
$CUSTOMPROPERTY
  1
5-3/4
  9
$CUSTOMPROPERTYTAG
  1
E
  9
$CUSTOMPROPERTY
  1
1-59/64
  9
$CUSTOMPROPERTYTAG
  1
F
  9
$CUSTOMPROPERTY
  1
1/2
  9
$CUSTOMPROPERTYTAG
  1
H
  9
$CUSTOMPROPERTY
  1
9/16
  9
$CUSTOMPROPERTYTAG
  1
J
  9
$CUSTOMPROPERTY
  1
4-19/32
  9
$CUSTOMPROPERTYTAG
  1
L
  9
$CUSTOMPROPERTY
  1
3-7/16
  9
$CUSTOMPROPERTYTAG
  1
P
  9
$CUSTOMPROPERTY
  1
19/64
  9
$CUSTOMPROPERTYTAG
  1
X
  9
$CUSTOMPROPERTY
  1
1/4
  9
$CUSTOMPROPERTYTAG
  1
Y
  9
$CUSTOMPROPERTY
  1
0.020
  9
$CUSTOMPROPERTYTAG
  1
Z
  9
$CUSTOMPROPERTY
  1
2-19/64
  9
$CUSTOMPROPERTYTAG
  1
COMPANY
  9
$CUSTOMPROPERTY
  1
baldor
  9
$INSBASE
 10
0.0
 20
0.0
 30
0.0
  9
$EXTMIN
 10
1.000000000000000E+20
 20
1.000000000000000E+20
 30
1.000000000000000E+20
  9
$EXTMAX
 10
-1.000000000000000E+20
 20
-1.000000000000000E+20
 30
-1.000000000000000E+20
  9
$LIMMIN
 10
0.0
 20
0.0
  9
$LIMMAX
 10
12.0
 20
9.0
  9
$ORTHOMODE
 70
     0
  9
$REGENMODE
 70
     1
  9
$FILLMODE
 70
     1
  9
$QTEXTMODE
 70
     0
  9
$MIRRTEXT
 70
     1
  9
$LTSCALE
 40
1.0
  9
$ATTMODE
 70
     1
  9
$TEXTSIZE
 40
0.2
  9
$TRACEWID
 40
0.05
  9
$TEXTSTYLE
  7
Standard
  9
$CLAYER
  8
0
  9
$CELTYPE
  6
ByLayer
  9
$CECOLOR
 62
   256
  9
$CELTSCALE
 40
1.0
  9
$DISPSILH
 70
     0
  9
$DIMSCALE
 40
1.0
  9
$DIMASZ
 40
0.18
  9
$DIMEXO
 40
0.0625
  9
$DIMDLI
 40
0.38
  9
$DIMRND
 40
0.0
  9
$DIMDLE
 40
0.0
  9
$DIMEXE
 40
0.18
  9
$DIMTP
 40
0.0
  9
$DIMTM
 40
0.0
  9
$DIMTXT
 40
0.18
  9
$DIMCEN
 40
0.09
  9
$DIMTSZ
 40
0.0
  9
$DIMTOL
 70
     0
  9
$DIMLIM
 70
     0
  9
$DIMTIH
 70
     1
  9
$DIMTOH
 70
     1
  9
$DIMSE1
 70
     0
  9
$DIMSE2
 70
     0
  9
$DIMTAD
 70
     0
  9
$DIMZIN
 70
     0
  9
$DIMBLK
  1

  9
$DIMASO
 70
     1
  9
$DIMSHO
 70
     1
  9
$DIMPOST
  1

  9
$DIMAPOST
  1

  9
$DIMALT
 70
     0
  9
$DIMALTD
 70
     2
  9
$DIMALTF
 40
25.4
  9
$DIMLFAC
 40
1.0
  9
$DIMTOFL
 70
     0
  9
$DIMTVP
 40
0.0
  9
$DIMTIX
 70
     0
  9
$DIMSOXD
 70
     0
  9
$DIMSAH
 70
     0
  9
$DIMBLK1
  1

  9
$DIMBLK2
  1

  9
$DIMSTYLE
  2
Standard
  9
$DIMCLRD
 70
     0
  9
$DIMCLRE
 70
     0
  9
$DIMCLRT
 70
     0
  9
$DIMTFAC
 40
1.0
  9
$DIMGAP
 40
0.09
  9
$DIMJUST
 70
     0
  9
$DIMSD1
 70
     0
  9
$DIMSD2
 70
     0
  9
$DIMTOLJ
 70
     1
  9
$DIMTZIN
 70
     0
  9
$DIMALTZ
 70
     0
  9
$DIMALTTZ
 70
     0
  9
$DIMUPT
 70
     0
  9
$DIMDEC
 70
     4
  9
$DIMTDEC
 70
     4
  9
$DIMALTU
 70
     2
  9
$DIMALTTD
 70
     2
  9
$DIMTXSTY
  7
Standard
  9
$DIMAUNIT
 70
     0
  9
$DIMADEC
 70
     0
  9
$DIMALTRND
 40
0.0
  9
$DIMAZIN
 70
     0
  9
$DIMDSEP
 70
    46
  9
$DIMATFIT
 70
     3
  9
$DIMFRAC
 70
     0
  9
$DIMLDRBLK
  1

  9
$DIMLUNIT
 70
     2
  9
$DIMLWD
 70
    -2
  9
$DIMLWE
 70
    -2
  9
$DIMTMOVE
 70
     0
  9
$DIMFXL
 40
1.0
  9
$DIMFXLON
 70
     0
  9
$DIMJOGANG
 40
0.7853981633974483
  9
$DIMTFILL
 70
     0
  9
$DIMTFILLCLR
 70
     0
  9
$DIMARCSYM
 70
     0
  9
$DIMLTYPE
  6

  9
$DIMLTEX1
  6

  9
$DIMLTEX2
  6

  9
$DIMTXTDIRECTION
 70
     0
  9
$LUNITS
 70
     2
  9
$LUPREC
 70
     4
  9
$SKETCHINC
 40
0.1
  9
$FILLETRAD
 40
0.5
  9
$AUNITS
 70
     0
  9
$AUPREC
 70
     0
  9
$MENU
  1
.
  9
$ELEVATION
 40
0.0
  9
$PELEVATION
 40
0.0
  9
$THICKNESS
 40
0.0
  9
$LIMCHECK
 70
     0
  9
$CHAMFERA
 40
0.0
  9
$CHAMFERB
 40
0.0
  9
$CHAMFERC
 40
0.0
  9
$CHAMFERD
 40
0.0
  9
$SKPOLY
 70
     0
  9
$TDCREATE
 40
2458168.985716412
  9
$TDUCREATE
 40
2458168.944049745
  9
$TDUPDATE
 40
2458168.985716586
  9
$TDUUPDATE
 40
2458168.944049919
  9
$TDINDWG
 40
0.0000000116
  9
$TDUSRTIMER
 40
0.0000000116
  9
$USRTIMER
 70
     1
  9
$ANGBASE
 50
0.0
  9
$ANGDIR
 70
     0
  9
$PDMODE
 70
     0
  9
$PDSIZE
 40
0.0
  9
$PLINEWID
 40
0.0
  9
$SPLFRAME
 70
     0
  9
$SPLINETYPE
 70
     6
  9
$SPLINESEGS
 70
     8
  9
$HANDSEED
  5
1E8
  9
$SURFTAB1
 70
     6
  9
$SURFTAB2
 70
     6
  9
$SURFTYPE
 70
     6
  9
$SURFU
 70
     6
  9
$SURFV
 70
     6
  9
$UCSBASE
  2

  9
$UCSNAME
  2

  9
$UCSORG
 10
0.0
 20
0.0
 30
0.0
  9
$UCSXDIR
 10
1.0
 20
0.0
 30
0.0
  9
$UCSYDIR
 10
0.0
 20
1.0
 30
0.0
  9
$UCSORTHOREF
  2

  9
$UCSORTHOVIEW
 70
     0
  9
$UCSORGTOP
 10
0.0
 20
0.0
 30
0.0
  9
$UCSORGBOTTOM
 10
0.0
 20
0.0
 30
0.0
  9
$UCSORGLEFT
 10
0.0
 20
0.0
 30
0.0
  9
$UCSORGRIGHT
 10
0.0
 20
0.0
 30
0.0
  9
$UCSORGFRONT
 10
0.0
 20
0.0
 30
0.0
  9
$UCSORGBACK
 10
0.0
 20
0.0
 30
0.0
  9
$PUCSBASE
  2

  9
$PUCSNAME
  2

  9
$PUCSORG
 10
0.0
 20
0.0
 30
0.0
  9
$PUCSXDIR
 10
1.0
 20
0.0
 30
0.0
  9
$PUCSYDIR
 10
0.0
 20
1.0
 30
0.0
  9
$PUCSORTHOREF
  2

  9
$PUCSORTHOVIEW
 70
     0
  9
$PUCSORGTOP
 10
0.0
 20
0.0
 30
0.0
  9
$PUCSORGBOTTOM
 10
0.0
 20
0.0
 30
0.0
  9
$PUCSORGLEFT
 10
0.0
 20
0.0
 30
0.0
  9
$PUCSORGRIGHT
 10
0.0
 20
0.0
 30
0.0
  9
$PUCSORGFRONT
 10
0.0
 20
0.0
 30
0.0
  9
$PUCSORGBACK
 10
0.0
 20
0.0
 30
0.0
  9
$USERI1
 70
     0
  9
$USERI2
 70
     0
  9
$USERI3
 70
     0
  9
$USERI4
 70
     0
  9
$USERI5
 70
     0
  9
$USERR1
 40
0.0
  9
$USERR2
 40
0.0
  9
$USERR3
 40
0.0
  9
$USERR4
 40
0.0
  9
$USERR5
 40
0.0
  9
$WORLDVIEW
 70
     1
  9
$SHADEDGE
 70
     3
  9
$SHADEDIF
 70
    70
  9
$TILEMODE
 70
     1
  9
$MAXACTVP
 70
    64
  9
$PINSBASE
 10
0.0
 20
0.0
 30
0.0
  9
$PLIMCHECK
 70
     0
  9
$PEXTMIN
 10
1.000000000000000E+20
 20
1.000000000000000E+20
 30
1.000000000000000E+20
  9
$PEXTMAX
 10
-1.000000000000000E+20
 20
-1.000000000000000E+20
 30
-1.000000000000000E+20
  9
$PLIMMIN
 10
0.0
 20
0.0
  9
$PLIMMAX
 10
12.0
 20
9.0
  9
$UNITMODE
 70
     0
  9
$VISRETAIN
 70
     1
  9
$PLINEGEN
 70
     0
  9
$PSLTSCALE
 70
     1
  9
$TREEDEPTH
 70
  3020
  9
$CMLSTYLE
  2
Standard
  9
$CMLJUST
 70
     0
  9
$CMLSCALE
 40
1.0
  9
$PROXYGRAPHICS
 70
     1
  9
$MEASUREMENT
 70
     0
  9
$CELWEIGHT
370
    -1
  9
$ENDCAPS
280
     0
  9
$JOINSTYLE
280
     0
  9
$LWDISPLAY
290
     0
  9
$INSUNITS
 70
     1
  9
$HYPERLINKBASE
  1

  9
$STYLESHEET
  1

  9
$XEDIT
290
     1
  9
$CEPSNTYPE
380
     0
  9
$PSTYLEMODE
290
     1
  9
$FINGERPRINTGUID
  2
{499A6654-38C0-4A4F-B2AE-4CB16B9F386E}
  9
$VERSIONGUID
  2
{FAEB1C32-E019-11D5-929B-00C0DF256EC4}
  9
$EXTNAMES
290
     1
  9
$PSVPSCALE
 40
0.0
  9
$OLESTARTUP
290
     0
  9
$SORTENTS
280
   127
  9
$INDEXCTL
280
     0
  9
$HIDETEXT
280
     1
  9
$XCLIPFRAME
280
     2
  9
$HALOGAP
280
     0
  9
$OBSCOLOR
 70
   257
  9
$OBSLTYPE
280
     0
  9
$INTERSECTIONDISPLAY
280
     0
  9
$INTERSECTIONCOLOR
 70
   257
  9
$DIMASSOC
280
     2
  9
$PROJECTNAME
  1

  9
$CAMERADISPLAY
290
     0
  9
$LENSLENGTH
 40
50.0
  9
$CAMERAHEIGHT
 40
0.0
  9
$STEPSPERSEC
 40
2.0
  9
$STEPSIZE
 40
6.0
  9
$3DDWFPREC
 40
2.0
  9
$PSOLWIDTH
 40
0.25
  9
$PSOLHEIGHT
 40
4.0
  9
$LOFTANG1
 40
1.570796326794897
  9
$LOFTANG2
 40
1.570796326794897
  9
$LOFTMAG1
 40
0.0
  9
$LOFTMAG2
 40
0.0
  9
$LOFTPARAM
 70
     7
  9
$LOFTNORMALS
280
     1
  9
$LATITUDE
 40
37.795
  9
$LONGITUDE
 40
-122.394
  9
$NORTHDIRECTION
 40
0.0
  9
$TIMEZONE
 70
 -8000
  9
$LIGHTGLYPHDISPLAY
280
     1
  9
$TILEMODELIGHTSYNCH
280
     1
  9
$CMATERIAL
347
44
  9
$SOLIDHIST
280
     0
  9
$SHOWHIST
280
     1
  9
$DWFFRAME
280
     2
  9
$DGNFRAME
280
     2
  9
$REALWORLDSCALE
290
     1
  9
$INTERFERECOLOR
 62
   256
  9
$CSHADOW
280
     0
  9
$SHADOWPLANELOCATION
 40
0.0
  0
ENDSEC
  0
SECTION
  2
CLASSES
  0
CLASS
  1
ACDBDICTIONARYWDFLT
  2
AcDbDictionaryWithDefault
  3
ObjectDBX Classes
 90
        0
 91
        4
280
     0
281
     0
  0
CLASS
  1
VISUALSTYLE
  2
AcDbVisualStyle
  3
ObjectDBX Classes
 90
     4095
 91
        4
280
     0
281
     0
  0
CLASS
  1
MATERIAL
  2
AcDbMaterial
  3
ObjectDBX Classes
 90
     1153
 91
        4
280
     0
281
     0
  0
CLASS
  1
SCALE
  2
AcDbScale
  3
ObjectDBX Classes
 90
     1153
 91
        4
280
     0
281
     0
  0
CLASS
  1
TABLESTYLE
  2
AcDbTableStyle
  3
ObjectDBX Classes
 90
     4095
 91
        4
280
     0
281
     0
  0
CLASS
  1
MLEADERSTYLE
  2
AcDbMLeaderStyle
  3
ACDB_MLEADERSTYLE_CLASS
 90
     4095
 91
        4
280
     0
281
     0
  0
CLASS
  1
SUN
  2
AcDbSun
  3
SCENEOE
 90
     1153
 91
        4
280
     0
281
     0
  0
CLASS
  1
DICTIONARYVAR
  2
AcDbDictionaryVar
  3
ObjectDBX Classes
 90
        0
 91
        4
280
     0
281
     0
  0
CLASS
  1
CELLSTYLEMAP
  2
AcDbCellStyleMap
  3
ObjectDBX Classes
 90
     1152
 91
        4
280
     0
281
     0
  0
ENDSEC
  0
SECTION
  2
TABLES
  0
TABLE
  2
VPORT
  5
8
330
0
100
AcDbSymbolTable
 70
     1
  0
VPORT
  5
29
330
8
100
AcDbSymbolTableRecord
100
AcDbViewportTableRecord
  2
*Active
 70
     0
 10
0.0
 20
0.0
 11
1.0
 21
1.0
 12
-1.148875
 22
-0.0046728971962615
 13
0.0
 23
0.0
 14
0.5
 24
0.5
 15
0.5
 25
0.5
 16
0.0
 26
0.0
 36
1.0
 17
0.0
 27
0.0
 37
0.0
 40
6.811717289719627
 41
0.5964971573515262
 42
50.0
 43
0.0
 44
0.0
 50
0.0
 51
0.0
 71
     0
 72
   100
 73
     1
 74
     3
 75
     0
 76
     0
 77
     0
 78
     0
281
     0
 65
     1
110
0.0
120
0.0
130
0.0
111
1.0
121
0.0
131
0.0
112
0.0
122
1.0
132
0.0
 79
     0
146
0.0
348
2F
 60
     3
 61
     5
292
     1
282
     1
141
0.0
142
0.0
 63
   250
361
6D
  0
ENDTAB
  0
TABLE
  2
LTYPE
  5
5
330
0
100
AcDbSymbolTable
 70
     3
  0
LTYPE
  5
14
330
5
100
AcDbSymbolTableRecord
100
AcDbLinetypeTableRecord
  2
ByBlock
 70
     0
  3

 72
    65
 73
     0
 40
0.0
  0
LTYPE
  5
15
330
5
100
AcDbSymbolTableRecord
100
AcDbLinetypeTableRecord
  2
ByLayer
 70
     0
  3

 72
    65
 73
     0
 40
0.0
  0
LTYPE
  5
16
330
5
100
AcDbSymbolTableRecord
100
AcDbLinetypeTableRecord
  2
Continuous
 70
     0
  3
Solid line
 72
    65
 73
     0
 40
0.0
  0
LTYPE
  5
A5
330
5
100
AcDbSymbolTableRecord
100
AcDbLinetypeTableRecord
  2
Dashed
 70
     0
  3

 72
    65
 73
     2
 40
2.0
 49
1.0
 74
     0
 49
-1.0
 74
     0
  0
LTYPE
  5
130
330
5
100
AcDbSymbolTableRecord
100
AcDbLinetypeTableRecord
  2
Center
 70
     0
  3

 72
    65
 73
     4
 40
1.5
 49
0.45
 74
     0
 49
-0.5
 74
     0
 49
0.05
 74
     0
 49
-0.5
 74
     0
  0
ENDTAB
  0
TABLE
  2
LAYER
  5
2
330
0
100
AcDbSymbolTable
 70
     7
  0
LAYER
  5
10
330
2
100
AcDbSymbolTableRecord
100
AcDbLayerTableRecord
  2
0
 70
     0
 62
     7
  6
Continuous
370
    -3
390
F
347
46
348
0
  0
LAYER
  5
72
330
2
100
AcDbSymbolTableRecord
100
AcDbLayerTableRecord
  2
AM_6
 70
     0
 62
    -2
  6
Continuous
370
    35
390
F
347
46
348
0
  0
LAYER
  5
A6
330
2
100
AcDbSymbolTableRecord
100
AcDbLayerTableRecord
  2
AM_9
 70
     0
 62
     6
  6
Dashed
370
    25
390
F
347
46
348
0
  0
LAYER
  5
B8
330
2
100
AcDbSymbolTableRecord
100
AcDbLayerTableRecord
  2
AM_5
 70
     0
 62
     3
  6
Continuous
370
    25
390
F
347
46
348
0
  0
LAYER
  5
BD
330
2
100
AcDbSymbolTableRecord
100
AcDbLayerTableRecord
  2
AM_4
 70
     0
 62
     7
  6
Continuous
370
    50
390
F
347
46
348
0
  0
LAYER
  5
131
330
2
100
AcDbSymbolTableRecord
100
AcDbLayerTableRecord
  2
AM_7
 70
     0
 62
     7
  6
Center
370
    25
390
F
347
46
348
0
  0
LAYER
  5
1D7
330
2
100
AcDbSymbolTableRecord
100
AcDbLayerTableRecord
  2
ConnectionPoints
 70
     0
 62
     7
  6
Continuous
370
    50
390
F
347
46
348
0
  0
ENDTAB
  0
TABLE
  2
STYLE
  5
3
330
0
100
AcDbSymbolTable
 70
     1
  0
STYLE
  5
11
330
3
100
AcDbSymbolTableRecord
100
AcDbTextStyleTableRecord
  2
Standard
 70
     0
 40
0.0
 41
1.0
 50
0.0
 71
     0
 42
0.2
  3
txt
  4

  0
ENDTAB
  0
TABLE
  2
VIEW
  5
6
330
0
100
AcDbSymbolTable
 70
     0
  0
ENDTAB
  0
TABLE
  2
UCS
  5
7
330
0
100
AcDbSymbolTable
 70
     0
  0
ENDTAB
  0
TABLE
  2
APPID
  5
9
330
0
100
AcDbSymbolTable
 70
     1
  0
APPID
  5
12
330
9
100
AcDbSymbolTableRecord
100
AcDbRegAppTableRecord
  2
ACAD
 70
     0
  0
ENDTAB
  0
TABLE
  2
DIMSTYLE
  5
A
330
0
100
AcDbSymbolTable
 70
     1
100
AcDbDimStyleTable
  0
DIMSTYLE
105
27
330
A
100
AcDbSymbolTableRecord
100
AcDbDimStyleTableRecord
  2
Standard
 70
     0
178
     0
340
11
  0
ENDTAB
  0
TABLE
  2
BLOCK_RECORD
  5
1
330
0
100
AcDbSymbolTable
 70
     6
  0
BLOCK_RECORD
  5
1F
330
1
100
AcDbSymbolTableRecord
100
AcDbBlockTableRecord
  2
*Model_Space
340
22
 70
     0
280
     1
281
     0
  0
BLOCK_RECORD
  5
1B
330
1
100
AcDbSymbolTableRecord
100
AcDbBlockTableRecord
  2
*Paper_Space
340
1E
 70
     0
280
     1
281
     0
  0
BLOCK_RECORD
  5
23
330
1
100
AcDbSymbolTableRecord
100
AcDbBlockTableRecord
  2
*Paper_Space0
340
26
 70
     0
280
     1
281
     0
  0
BLOCK_RECORD
  5
6E
330
1
100
AcDbSymbolTableRecord
100
AcDbBlockTableRecord
  2
1_070477_2
340
0
102
{BLKREFS
331
6F
102
}
 70
     0
280
     1
281
     0
  0
BLOCK_RECORD
  5
8C
330
1
100
AcDbSymbolTableRecord
100
AcDbBlockTableRecord
  2
2_2CS2i_0_in_070477_2
340
0
102
{BLKREFS
331
8D
102
}
 70
     0
280
     1
281
     0
  0
BLOCK_RECORD
  5
D2
330
1
100
AcDbSymbolTableRecord
100
AcDbBlockTableRecord
  2
3_070006i_0_in_070477_2
340
0
102
{BLKREFS
331
D3
102
}
 70
     0
280
     1
281
     0
  0
BLOCK_RECORD
  5
137
330
1
100
AcDbSymbolTableRecord
100
AcDbBlockTableRecord
  2
4_405015E_Inch_0_in_070477_2
340
0
102
{BLKREFS
331
138
102
}
 70
     0
280
     1
281
     0
  0
BLOCK_RECORD
  5
176
330
1
100
AcDbSymbolTableRecord
100
AcDbBlockTableRecord
  2
5_070477H_0_in_070477_2
340
0
102
{BLKREFS
331
177
102
}
 70
     0
280
     1
281
     0
  0
ENDTAB
  0
ENDSEC
  0
SECTION
  2
BLOCKS
  0
BLOCK
  5
20
330
1F
100
AcDbEntity
  8
0
100
AcDbBlockBegin
  2
*Model_Space
 70
     0
 10
0.0
 20
0.0
 30
0.0
  3
*Model_Space
  1

  0
ENDBLK
  5
21
330
1F
100
AcDbEntity
  8
0
100
AcDbBlockEnd
  0
BLOCK
  5
1C
330
1B
100
AcDbEntity
 67
     1
  8
0
100
AcDbBlockBegin
  2
*Paper_Space
 70
     0
 10
0.0
 20
0.0
 30
0.0
  3
*Paper_Space
  1

  0
ENDBLK
  5
1D
330
1B
100
AcDbEntity
 67
     1
  8
0
100
AcDbBlockEnd
  0
BLOCK
  5
24
330
23
100
AcDbEntity
  8
0
100
AcDbBlockBegin
  2
*Paper_Space0
 70
     0
 10
0.0
 20
0.0
 30
0.0
  3
*Paper_Space0
  1

  0
ENDBLK
  5
25
330
23
100
AcDbEntity
  8
0
100
AcDbBlockEnd
  0
BLOCK
  5
70
330
6E
100
AcDbEntity
  8
0
100
AcDbBlockBegin
  2
1_070477_2
 70
     2
 10
0.0
 20
0.0
 30
0.0
  3
1_070477_2
  1

  0
ATTDEF
  5
73
330
6E
100
AcDbEntity
  8
AM_6
100
AcDbText
 10
5.0953125
 20
3.334404205607476
 30
0.0
 40
0.5
  1
S-2000 Flange Bearing - Round Trident Seal
100
AcDbAttributeDefinition
  3

  2
NN
 70
     8
280
     0
  0
ATTDEF
  5
74
330
6E
100
AcDbEntity
  8
AM_6
100
AcDbText
 10
5.0953125
 20
2.834404205607476
 30
0.0
 40
0.5
  1
S-2000 3 & 4 Bolt Round Flange Bearing -Inch
100
AcDbAttributeDefinition
  3

  2
NT
 70
     8
280
     0
  0
ATTDEF
  5
75
330
6E
100
AcDbEntity
  8
AM_6
100
AcDbText
 10
5.0953125
 20
2.334404205607476
 30
0.0
 40
0.5
  1
070477
100
AcDbAttributeDefinition
  3

  2
NB
 70
     8
280
     0
  0
ATTDEF
  5
76
330
6E
100
AcDbEntity
  8
AM_6
100
AcDbText
 10
5.0953125
 20
1.834404205607476
 30
0.0
 40
0.5
  1
$PN.
100
AcDbAttributeDefinition
  3

  2
NBSYN
 70
     8
280
     0
  0
ATTDEF
  5
77
330
6E
100
AcDbEntity
  8
AM_6
100
AcDbText
 10
5.0953125
 20
1.334404205607476
 30
0.0
 40
0.5
  1
070477
100
AcDbAttributeDefinition
  3

  2
LINA
 70
     8
280
     0
  0
ATTDEF
  5
78
330
6E
100
AcDbEntity
  8
AM_6
100
AcDbText
 10
5.0953125
 20
0.8344042056074761
 30
0.0
 40
0.5
  1
2
100
AcDbAttributeDefinition
  3

  2
SS
 70
     8
280
     0
  0
ATTDEF
  5
79
330
6E
100
AcDbEntity
  8
AM_6
100
AcDbText
 10
5.0953125
 20
0.3344042056074761
 30
0.0
 40
0.5
  1
070477
100
AcDbAttributeDefinition
  3

  2
PN
 70
     8
280
     0
  0
ATTDEF
  5
7A
330
6E
100
AcDbEntity
  8
AM_6
100
AcDbText
 10
5.0953125
 20
-0.1655957943925239
 30
0.0
 40
0.5
  1
F4R-S2-200RE
100
AcDbAttributeDefinition
  3

  2
DESCRIPTION
 70
     8
280
     0
  0
ATTDEF
  5
7B
330
6E
100
AcDbEntity
  8
AM_6
100
AcDbText
 10
5.0953125
 20
-0.6655957943925239
 30
0.0
 40
0.5
  1
Expansion Type
100
AcDbAttributeDefinition
  3

  2
EF
 70
     8
280
     0
  0
ATTDEF
  5
7C
330
6E
100
AcDbEntity
  8
AM_6
100
AcDbText
 10
5.0953125
 20
-1.165595794392524
 30
0.0
 40
0.5
  1
Contact Seal
100
AcDbAttributeDefinition
  3

  2
ST
 70
     8
280
     0
  0
ATTDEF
  5
7D
330
6E
100
AcDbEntity
  8
AM_6
100
AcDbText
 10
5.0953125
 20
-1.665595794392524
 30
0.0
 40
0.5
  1
2-27/32
100
AcDbAttributeDefinition
  3

  2
A
 70
     8
280
     0
  0
ATTDEF
  5
7E
330
6E
100
AcDbEntity
  8
AM_6
100
AcDbText
 10
5.0953125
 20
-2.165595794392524
 30
0.0
 40
0.5
  1
6-11/16
100
AcDbAttributeDefinition
  3

  2
B
 70
     8
280
     0
  0
ATTDEF
  5
7F
330
6E
100
AcDbEntity
  8
AM_6
100
AcDbText
 10
5.0953125
 20
-2.665595794392524
 30
0.0
 40
0.5
  1
3-9/64
100
AcDbAttributeDefinition
  3

  2
C
 70
     8
280
     0
  0
ATTDEF
  5
80
330
6E
100
AcDbEntity
  8
AM_6
100
AcDbText
 10
5.0953125
 20
-3.165595794392524
 30
0.0
 40
0.5
  1
4-1/16
100
AcDbAttributeDefinition
  3

  2
D
 70
     8
280
     0
  0
ATTDEF
  5
81
330
6E
100
AcDbEntity
  8
AM_6
100
AcDbText
 10
5.0953125
 20
-3.665595794392524
 30
0.0
 40
0.5
  1
5-3/4
100
AcDbAttributeDefinition
  3

  2
DD
 70
     8
280
     0
  0
ATTDEF
  5
82
330
6E
100
AcDbEntity
  8
AM_6
100
AcDbText
 10
5.0953125
 20
-4.165595794392524
 30
0.0
 40
0.5
  1
1-59/64
100
AcDbAttributeDefinition
  3

  2
E
 70
     8
280
     0
  0
ATTDEF
  5
83
330
6E
100
AcDbEntity
  8
AM_6
100
AcDbText
 10
5.0953125
 20
-4.665595794392524
 30
0.0
 40
0.5
  1
1/2
100
AcDbAttributeDefinition
  3

  2
F
 70
     8
280
     0
  0
ATTDEF
  5
84
330
6E
100
AcDbEntity
  8
AM_6
100
AcDbText
 10
5.0953125
 20
-5.165595794392524
 30
0.0
 40
0.5
  1
9/16
100
AcDbAttributeDefinition
  3

  2
H
 70
     8
280
     0
  0
ATTDEF
  5
85
330
6E
100
AcDbEntity
  8
AM_6
100
AcDbText
 10
5.0953125
 20
-5.665595794392524
 30
0.0
 40
0.5
  1
4-19/32
100
AcDbAttributeDefinition
  3

  2
J
 70
     8
280
     0
  0
ATTDEF
  5
86
330
6E
100
AcDbEntity
  8
AM_6
100
AcDbText
 10
5.0953125
 20
-6.165595794392524
 30
0.0
 40
0.5
  1
3-7/16
100
AcDbAttributeDefinition
  3

  2
L
 70
     8
280
     0
  0
ATTDEF
  5
87
330
6E
100
AcDbEntity
  8
AM_6
100
AcDbText
 10
5.0953125
 20
-6.665595794392524
 30
0.0
 40
0.5
  1
19/64
100
AcDbAttributeDefinition
  3

  2
P
 70
     8
280
     0
  0
ATTDEF
  5
88
330
6E
100
AcDbEntity
  8
AM_6
100
AcDbText
 10
5.0953125
 20
-7.165595794392524
 30
0.0
 40
0.5
  1
1/4
100
AcDbAttributeDefinition
  3

  2
X
 70
     8
280
     0
  0
ATTDEF
  5
89
330
6E
100
AcDbEntity
  8
AM_6
100
AcDbText
 10
5.0953125
 20
-7.665595794392524
 30
0.0
 40
0.5
  1
0.020
100
AcDbAttributeDefinition
  3

  2
Y
 70
     8
280
     0
  0
ATTDEF
  5
8A
330
6E
100
AcDbEntity
  8
AM_6
100
AcDbText
 10
5.0953125
 20
-8.165595794392523
 30
0.0
 40
0.5
  1
2-19/64
100
AcDbAttributeDefinition
  3

  2
Z
 70
     8
280
     0
  0
ATTDEF
  5
8B
330
6E
100
AcDbEntity
  8
AM_6
100
AcDbText
 10
5.0953125
 20
-8.665595794392523
 30
0.0
 40
0.5
  1
baldor
100
AcDbAttributeDefinition
  3

  2
COMPANY
 70
     8
280
     0
  0
INSERT
  5
8D
330
6E
100
AcDbEntity
  8
0
100
AcDbBlockReference
  2
2_2CS2i_0_in_070477_2
 10
0.0
 20
0.0
 30
0.0
  0
INSERT
  5
D3
330
6E
100
AcDbEntity
  8
0
100
AcDbBlockReference
  2
3_070006i_0_in_070477_2
 10
0.0
 20
0.0
 30
0.0
  0
INSERT
  5
138
330
6E
100
AcDbEntity
  8
0
100
AcDbBlockReference
  2
4_405015E_Inch_0_in_070477_2
 10
0.0
 20
0.0
 30
0.0
  0
INSERT
  5
177
330
6E
100
AcDbEntity
  8
0
100
AcDbBlockReference
  2
5_070477H_0_in_070477_2
 10
0.0
 20
0.0
 30
0.0
  0
ENDBLK
  5
71
330
6E
100
AcDbEntity
  8
0
100
AcDbBlockEnd
  0
BLOCK
  5
8E
330
8C
100
AcDbEntity
  8
0
100
AcDbBlockBegin
  2
2_2CS2i_0_in_070477_2
 70
     2
 10
0.0
 20
0.0
 30
0.0
  3
2_2CS2i_0_in_070477_2
  1

  0
ATTDEF
  5
90
330
8C
100
AcDbEntity
  8
AM_6
100
AcDbText
 10
2.743375
 20
1.71875
 30
0.0
 40
0.5
  1
S-2000 Collar -Inch
100
AcDbAttributeDefinition
  3

  2
NN
 70
     8
280
     0
  0
ATTDEF
  5
91
330
8C
100
AcDbEntity
  8
AM_6
100
AcDbText
 10
2.743375
 20
1.21875
 30
0.0
 40
0.5
  1
S-2000 Bearings
100
AcDbAttributeDefinition
  3

  2
NT
 70
     8
280
     0
  0
ATTDEF
  5
92
330
8C
100
AcDbEntity
  8
AM_6
100
AcDbText
 10
2.743375
 20
0.7187500000000004
 30
0.0
 40
0.5
  1
2CS2i
100
AcDbAttributeDefinition
  3

  2
NB
 70
     8
280
     0
  0
ATTDEF
  5
93
330
8C
100
AcDbEntity
  8
AM_6
100
AcDbText
 10
2.743375
 20
0.2187500000000004
 30
0.0
 40
0.5
  1
$BORE.CS2i
100
AcDbAttributeDefinition
  3

  2
NBSYN
 70
     8
280
     0
  0
ATTDEF
  5
94
330
8C
100
AcDbEntity
  8
AM_6
100
AcDbText
 10
2.743375
 20
-0.2812499999999996
 30
0.0
 40
0.5
  1
2CS2i
100
AcDbAttributeDefinition
  3

  2
LINA
 70
     8
280
     0
  0
ATTDEF
  5
95
330
8C
100
AcDbEntity
  8
AM_6
100
AcDbText
 10
2.743375
 20
-0.7812499999999996
 30
0.0
 40
0.5
  1
2
100
AcDbAttributeDefinition
  3

  2
BORE
 70
     8
280
     0
  0
ATTDEF
  5
96
330
8C
100
AcDbEntity
  8
AM_6
100
AcDbText
 10
2.743375
 20
-1.28125
 30
0.0
 40
0.5
  1
2.000000
100
AcDbAttributeDefinition
  3

  2
BORE1
 70
     8
280
     0
  0
ATTDEF
  5
97
330
8C
100
AcDbEntity
  8
AM_6
100
AcDbText
 10
2.743375
 20
-1.78125
 30
0.0
 40
0.5
  1
3-7/16
100
AcDbAttributeDefinition
  3

  2
L1
 70
     8
280
     0
  0
ATTDEF
  5
98
330
8C
100
AcDbEntity
  8
AM_6
100
AcDbText
 10
2.743375
 20
-2.28125
 30
0.0
 40
0.5
  1
3.43750
100
AcDbAttributeDefinition
  3

  2
L
 70
     8
280
     0
  0
ATTDEF
  5
99
330
8C
100
AcDbEntity
  8
AM_6
100
AcDbText
 10
2.743375
 20
-2.78125
 30
0.0
 40
0.5
  1
3.34375
100
AcDbAttributeDefinition
  3

  2
L2
 70
     8
280
     0
  0
ATTDEF
  5
9A
330
8C
100
AcDbEntity
  8
AM_6
100
AcDbText
 10
2.743375
 20
-3.28125
 30
0.0
 40
0.5
  1
3.50
100
AcDbAttributeDefinition
  3

  2
A
 70
     8
280
     0
  0
ATTDEF
  5
9B
330
8C
100
AcDbEntity
  8
AM_6
100
AcDbText
 10
2.743375
 20
-3.78125
 30
0.0
 40
0.5
  1
1.62
100
AcDbAttributeDefinition
  3

  2
B
 70
     8
280
     0
  0
ATTDEF
  5
9C
330
8C
100
AcDbEntity
  8
AM_6
100
AcDbText
 10
2.743375
 20
-4.28125
 30
0.0
 40
0.5
  1
2.31
100
AcDbAttributeDefinition
  3

  2
C
 70
     8
280
     0
  0
ATTDEF
  5
9D
330
8C
100
AcDbEntity
  8
AM_6
100
AcDbText
 10
2.743375
 20
-4.78125
 30
0.0
 40
0.5
  1
3.50
100
AcDbAttributeDefinition
  3

  2
D
 70
     8
280
     0
  0
ATTDEF
  5
9E
330
8C
100
AcDbEntity
  8
AM_6
100
AcDbText
 10
2.743375
 20
-5.28125
 30
0.0
 40
0.5
  1
0.41
100
AcDbAttributeDefinition
  3

  2
E
 70
     8
280
     0
  0
ATTDEF
  5
9F
330
8C
100
AcDbEntity
  8
AM_6
100
AcDbText
 10
2.743375
 20
-5.78125
 30
0.0
 40
0.5
  1
0.317
100
AcDbAttributeDefinition
  3

  2
F
 70
     8
280
     0
  0
ATTDEF
  5
A0
330
8C
100
AcDbEntity
  8
AM_6
100
AcDbText
 10
2.743375
 20
-6.28125
 30
0.0
 40
0.5
  1
3/8-16
100
AcDbAttributeDefinition
  3

  2
CS
 70
     8
280
     0
  0
ATTDEF
  5
A1
330
8C
100
AcDbEntity
  8
AM_6
100
AcDbText
 10
2.743375
 20
-6.78125
 30
0.0
 40
0.5
  1
0.3750
100
AcDbAttributeDefinition
  3

  2
NDM
 70
     8
280
     0
  0
ATTDEF
  5
A2
330
8C
100
AcDbEntity
  8
AM_6
100
AcDbText
 10
2.743375
 20
-7.28125
 30
0.0
 40
0.5
  1
0.3070
100
AcDbAttributeDefinition
  3

  2
KDM
 70
     8
280
     0
  0
ATTDEF
  5
A3
330
8C
100
AcDbEntity
  8
AM_6
100
AcDbText
 10
2.743375
 20
-7.78125
 30
0.0
 40
0.5
  1
1
100
AcDbAttributeDefinition
  3

  2
DD
 70
     8
280
     0
  0
ATTDEF
  5
A4
330
8C
100
AcDbEntity
  8
AM_6
100
AcDbText
 10
2.743375
 20
-8.28125
 30
0.0
 40
0.5
  1
baldor
100
AcDbAttributeDefinition
  3

  2
COMPANY
 70
     8
280
     0
  0
LINE
  5
A7
330
8C
100
AcDbEntity
  8
AM_9
100
AcDbLine
 10
-2.419975
 20
1.163849999999998
 30
0.0
 11
-2.419975
 21
1.6849
 31
0.0
  0
LINE
  5
A8
330
8C
100
AcDbEntity
  8
AM_9
100
AcDbLine
 10
-2.727275
 20
1.671829317052831
 30
0.0
 11
-2.727275
 21
1.163849999999998
 31
0.0
  0
LINE
  5
A9
330
8C
100
AcDbEntity
  8
AM_9
100
AcDbLine
 10
-2.727275
 20
1.163849999999998
 30
0.0
 11
-2.419975
 21
1.163849999999998
 31
0.0
  0
LINE
  5
AA
330
8C
100
AcDbEntity
  8
AM_9
100
AcDbLine
 10
-2.727275
 20
1.163849999999998
 30
0.0
 11
-2.735958859590501
 21
1.155166140409497
 31
0.0
  0
LINE
  5
AB
330
8C
100
AcDbEntity
  8
AM_9
100
AcDbLine
 10
-2.411393486589466
 20
1.155268486589464
 30
0.0
 11
-2.419975
 21
1.163849999999998
 31
0.0
  0
LINE
  5
AC
330
8C
100
AcDbEntity
  8
AM_9
100
AcDbLine
 10
-2.573625
 20
1.6849
 30
0.0
 11
-2.419975
 21
1.6849
 31
0.0
  0
LINE
  5
AD
330
8C
100
AcDbEntity
  8
AM_9
100
AcDbLine
 10
-2.419975
 20
1.6849
 30
0.0
 11
-2.386125
 21
1.71875
 31
0.0
  0
LWPOLYLINE
  5
AE
330
8C
100
AcDbEntity
  8
AM_9
100
AcDbPolyline
 90
       39
 70
     0
 43
0.0
 10
-2.453895700757612
 20
0.3779306153227044
 10
-2.439198278082185
 20
0.396982385124557
 10
-2.427433271443683
 20
0.4176293360648101
 10
-2.417426432537048
 20
0.4439182519710251
 10
-2.412056658753938
 20
0.4710708270096682
 10
-2.411547827735138
 20
0.4993266874148425
 10
-2.416131840884039
 20
0.5269257457283382
 10
-2.425889255474738
 20
0.5533184649773224
 10
-2.440541029846858
 20
0.5775465560041885
 10
-2.459453571350549
 20
0.5985069496908864
 10
-2.482365925088391
 20
0.6160441469379788
 10
-2.507134356111882
 20
0.6288048404677827
 10
-2.534240795223777
 20
0.6374696658014952
 10
-2.560296165229202
 20
0.6414014566813416
 10
-2.586772638067584
 20
0.6414329664232032
 10
-2.6113223154402
 20
0.6378349976865144
 10
-2.634837472618771
 20
0.630908090442375
 10
-2.65702529802289
 20
0.620674193172453
 10
-2.677062085965838
 20
0.6075673369347369
 10
-2.695689809653995
 20
0.5906952130942349
 10
-2.711070301954541
 20
0.5713661406842145
 10
-2.723705868890707
 20
0.548212272045049
 10
-2.732029421512373
 20
0.523295179199191
 10
-2.735917849706192
 20
0.4958213139565711
 10
-2.734801650013289
 20
0.4677970280308617
 10
-2.728483942332216
 20
0.4394979658413348
 10
-2.717129583658788
 20
0.4122797271984379
 10
-2.701057303738319
 20
0.3872468336572877
 10
-2.680597829888135
 20
0.3650564070238989
 10
-2.657303283758052
 20
0.3473968064820112
 10
-2.631036069580451
 20
0.3340073621827003
 10
-2.604961514347769
 20
0.3261834974355968
 10
-2.57784961584844
 20
0.3229852316942747
 10
-2.552646520915244
 20
0.324387128498041
 10
-2.528044242035971
 20
0.3298323777881113
 10
-2.504980322039372
 20
0.3390024523154564
 10
-2.483703384257336
 20
0.3514964254536935
 10
-2.467961269731259
 20
0.3638867207156672
 10
-2.453895700757612
 20
0.3779306153227044
  0
LINE
  5
AF
330
8C
100
AcDbEntity
  8
AM_9
100
AcDbLine
 10
-2.890625
 20
-1.155
 30
0.0
 11
-2.256625
 21
-1.155
 31
0.0
  0
LINE
  5
B0
330
8C
100
AcDbEntity
  8
AM_9
100
AcDbLine
 10
-2.256625
 20
1.155
 30
0.0
 11
-2.411766874627086
 21
1.155
 31
0.0
  0
LINE
  5
B1
330
8C
100
AcDbEntity
  8
AM_9
100
AcDbLine
 10
-2.735727342789092
 20
1.155
 30
0.0
 11
-2.890625
 21
1.155
 31
0.0
  0
LWPOLYLINE
  5
B2
330
8C
100
AcDbEntity
  8
AM_9
100
AcDbPolyline
 90
       21
 70
     0
 43
0.0
 10
-2.736124999999292
 20
1.154999999999884
 10
-2.736025986662971
 20
1.15498379342257
 10
-2.73238212012805
 20
1.154393873255462
 10
-2.723756994249787
 20
1.153048235227185
 10
-2.709823885410673
 20
1.151026350938733
 10
-2.692010052348584
 20
1.148717802829725
 10
-2.669396329989636
 20
1.146240524342773
 10
-2.645440148278001
 20
1.144177281125706
 10
-2.618048654001467
 20
1.142534733138016
 10
-2.592388695572541
 20
1.141696141547657
 10
-2.565266036554752
 20
1.1415500348332
 10
-2.540864733160896
 20
1.14206930960979
 10
-2.516703803751199
 20
1.143188797776558
 10
-2.494522546785491
 20
1.144743350316933
 10
-2.473867928870743
 20
1.146640022566709
 10
-2.455023942507809
 20
1.148743921308349
 10
-2.438912017588642
 20
1.150821876167579
 10
-2.425720250353041
 20
1.152712392277049
 10
-2.416483838042087
 20
1.154136323883433
 10
-2.411698151141624
 20
1.154906315782236
 10
-2.411125000000019
 20
1.154999999999997
  0
ELLIPSE
  5
B3
330
8C
100
AcDbEntity
  8
AM_9
100
AcDbEllipse
 10
-2.573624999999999
 20
0.4918642639269118
 30
0.0
 11
0.1536500000000007
 21
0.0
 31
0.0
210
0.0
220
0.0
230
1.0
 40
0.9063077870366502
 41
2.268541192160781
 42
6.283185307179586
  0
LINE
  5
B4
330
8C
100
AcDbEntity
  8
AM_9
100
AcDbLine
 10
-2.419975
 20
0.4918642639269121
 30
0.0
 11
-2.419975
 21
0.7120695092069046
 31
0.0
  0
LINE
  5
B5
330
8C
100
AcDbEntity
  8
AM_9
100
AcDbLine
 10
-2.727275
 20
0.7065456216338938
 30
0.0
 11
-2.727275
 21
0.4918642639269121
 31
0.0
  0
ELLIPSE
  5
B6
330
8C
100
AcDbEntity
  8
AM_9
100
AcDbEllipse
 10
-2.573625000000002
 20
0.4918642639269115
 30
0.0
 11
0.1536500000000021
 21
0.0
 31
0.0
210
0.0
220
0.0
230
1.0
 40
0.9063077870366502
 41
0.0
 42
0.911885099112095
  0
LINE
  5
B7
330
8C
100
AcDbEntity
  8
AM_9
100
AcDbLine
 10
-2.573625
 20
0.5728153177287234
 30
0.0
 11
-2.573625
 21
0.8428289026684154
 31
0.0
  0
LINE
  5
B9
330
8C
100
AcDbEntity
  8
AM_5
100
AcDbLine
 10
-2.761125
 20
1.671875
 30
0.0
 11
-2.761125
 21
1.155
 31
0.0
  0
LINE
  5
BA
330
8C
100
AcDbEntity
  8
AM_5
100
AcDbLine
 10
-2.667375
 20
1.13
 30
0.0
 11
-2.761125
 21
1.13
 31
0.0
  0
LINE
  5
BB
330
8C
100
AcDbEntity
  8
AM_5
100
AcDbLine
 10
-2.386125
 20
1.71875
 30
0.0
 11
-2.386125
 21
1.155
 31
0.0
  0
LINE
  5
BC
330
8C
100
AcDbEntity
  8
AM_5
100
AcDbLine
 10
-2.479875
 20
1.13
 30
0.0
 11
-2.386125
 21
1.13
 31
0.0
  0
ELLIPSE
  5
BE
330
8C
100
AcDbEntity
  8
AM_4
100
AcDbEllipse
 10
-2.573625
 20
0.4918642639269112
 30
0.0
 11
0.1536500000000012
 21
0.0
 31
0.0
210
0.0
220
0.0
230
1.0
 40
0.9063077870366496
 41
1.570796326794897
 42
2.268541192160775
  0
LWPOLYLINE
  5
BF
330
8C
100
AcDbEntity
  8
AM_4
100
AcDbPolyline
 90
       11
 70
     0
 43
0.0
 10
-2.72727499933858
 20
0.7065519853387418
 10
-2.7262775561079
 20
0.7223677525029673
 10
-2.721191316752001
 20
0.7450798938133635
 10
-2.71198269827306
 20
0.7665635542834761
 10
-2.698836551078412
 20
0.7862473905750144
 10
-2.682187016143881
 20
0.8036135625653672
 10
-2.662377309063228
 20
0.8182307055177177
 10
-2.640059647229059
 20
0.829699244922787
 10
-2.615828436775501
 20
0.8376852193488313
 10
-2.59039782237596
 20
0.8420324150572488
 10
-2.573625
 20
0.8428289026684153
  0
ELLIPSE
  5
C0
330
8C
100
AcDbEntity
  8
AM_4
100
AcDbEllipse
 10
-2.573625000000001
 20
0.712069509206904
 30
0.0
 11
0.1536500000000007
 21
0.0
 31
0.0
210
0.0
220
0.0
230
1.0
 40
0.9063077870366487
 41
0.0
 42
1.570796326794897
  0
ELLIPSE
  5
C1
330
8C
100
AcDbEntity
  8
AM_4
100
AcDbEllipse
 10
-2.573625000000001
 20
0.4918642639269108
 30
0.0
 11
0.1536500000000021
 21
0.0
 31
0.0
210
0.0
220
0.0
230
1.0
 40
0.9063077870366453
 41
0.9118850991121059
 42
1.570796326794897
  0
LINE
  5
C2
330
8C
100
AcDbEntity
  8
AM_4
100
AcDbLine
 10
-2.573625
 20
-1.71875
 30
0.0
 11
-2.573625
 21
0.5728153177287234
 31
0.0
  0
ELLIPSE
  5
C3
330
8C
100
AcDbEntity
  8
AM_4
100
AcDbEllipse
 10
-2.573625
 20
0.7120695092069048
 30
0.0
 11
0.1536500000000003
 21
0.0
 31
0.0
210
0.0
220
0.0
230
1.0
 40
0.9063077870366492
 41
4.71238898038469
 42
6.283185307179586
  0
LINE
  5
C4
330
8C
100
AcDbEntity
  8
AM_4
100
AcDbLine
 10
-2.890625
 20
1.566208333333333
 30
0.0
 11
-2.890625
 21
-1.566208333333333
 31
0.0
  0
ARC
  5
C5
330
8C
100
AcDbEntity
  8
AM_4
100
AcDbCircle
 10
-2.784958333333334
 20
-1.566208333333333
 30
0.0
 40
0.1056666666666661
100
AcDbArc
 50
180.0
 51
270.0
  0
ARC
  5
C6
330
8C
100
AcDbEntity
  8
AM_4
100
AcDbCircle
 10
-2.784958333333334
 20
1.566208333333333
 30
0.0
 40
0.1056666666666666
100
AcDbArc
 50
90.0
 51
180.0
  0
LWPOLYLINE
  5
C7
330
8C
100
AcDbEntity
  8
AM_4
100
AcDbPolyline
 90
       11
 70
     0
 43
0.0
 10
-2.573625
 20
0.5643205197120527
 10
-2.599357005179206
 20
0.5663866780101692
 10
-2.624362211398877
 20
0.5724584470094645
 10
-2.64791355267918
 20
0.5823953811810795
 10
-2.669377610598775
 20
0.5958305184129878
 10
-2.688166329003416
 20
0.6124404091607075
 10
-2.703732577861147
 20
0.6316444970415929
 10
-2.715605991528923
 20
0.652934049888534
 10
-2.723468985596428
 20
0.6756163970244478
 10
-2.727031032941591
 20
0.6989667970565889
 10
-2.72727499933858
 20
0.7065519853387418
  0
LWPOLYLINE
  5
C8
330
8C
100
AcDbEntity
  8
AM_4
100
AcDbPolyline
 90
       11
 70
     0
 43
0.0
 10
-2.573625
 20
1.664799595484393
 10
-2.598993605699439
 20
1.664992870639431
 10
-2.624362211398877
 20
1.665572561537183
 10
-2.647598567875274
 20
1.666442252785616
 10
-2.669377610598775
 20
1.667550975401196
 10
-2.687930966665376
 20
1.668719133689162
 10
-2.703732577861147
 20
1.6698759459738
 10
-2.715477043975834
 20
1.670832036892136
 10
-2.723468985596428
 20
1.671529513094047
 10
-2.727025876683712
 20
1.671852123272968
 10
-2.727274999999953
 20
1.671874999999996
  0
LINE
  5
C9
330
8C
100
AcDbEntity
  8
AM_4
100
AcDbLine
 10
-2.784958333333333
 20
-1.671875
 30
0.0
 11
-2.573625
 21
-1.671875
 31
0.0
  0
LINE
  5
CA
330
8C
100
AcDbEntity
  8
AM_4
100
AcDbLine
 10
-2.726776316279623
 20
1.671875
 30
0.0
 11
-2.784958333333333
 21
1.671875
 31
0.0
  0
LINE
  5
CB
330
8C
100
AcDbEntity
  8
AM_4
100
AcDbLine
 10
-2.784958333333333
 20
1.671875
 30
0.0
 11
-2.784958333333333
 21
-1.671875
 31
0.0
  0
LINE
  5
CC
330
8C
100
AcDbEntity
  8
AM_4
100
AcDbLine
 10
-2.573625
 20
1.709483644408685
 30
0.0
 11
-2.573625
 21
0.8428289026684154
 31
0.0
  0
LWPOLYLINE
  5
CD
330
8C
100
AcDbEntity
  8
AM_4
100
AcDbPolyline
 90
       20
 70
     0
 43
0.0
 10
-2.573625
 20
0.8839935461136664
 10
-2.550081540255968
 20
0.8827704602397235
 10
-2.526880059594891
 20
0.8791269088512271
 10
-2.496122135914977
 20
0.870192284193473
 10
-2.466735789565218
 20
0.8564042619296152
 10
-2.441748123540388
 20
0.8391659542218922
 10
-2.419952849004654
 20
0.8175785154073791
 10
-2.404049811512154
 20
0.7945277981996288
 10
-2.392655813820807
 20
0.768327344412466
 10
-2.387074539195478
 20
0.7423684323783799
 10
-2.386532654116658
 20
0.7157236493827165
 10
-2.390898576111536
 20
0.6900682453363575
 10
-2.399836959468603
 20
0.6652448531997145
 10
-2.413192395536487
 20
0.6418169275584542
 10
-2.430424729506366
 20
0.6205387968669153
 10
-2.45194716553087
 20
0.6012861805433024
 10
-2.476467373331685
 20
0.5853983471201033
 10
-2.504744991438691
 20
0.572788104769368
 10
-2.534810709632391
 20
0.564599505893966
 10
-2.573625
 20
0.560924466434642
  0
LINE
  5
CE
330
8C
100
AcDbEntity
  8
AM_4
100
AcDbLine
 10
-2.573625
 20
-1.71875
 30
0.0
 11
-2.256625
 21
-1.71875
 31
0.0
  0
LINE
  5
CF
330
8C
100
AcDbEntity
  8
AM_4
100
AcDbLine
 10
-2.256625
 20
1.71875
 30
0.0
 11
-2.386125
 21
1.71875
 31
0.0
  0
LWPOLYLINE
  5
D0
330
8C
100
AcDbEntity
  8
AM_4
100
AcDbPolyline
 90
       11
 70
     0
 43
0.0
 10
-2.38612500000004
 20
1.718749999999996
 10
-2.386532654116658
 20
1.718709945620833
 10
-2.390786980617995
 20
1.718297037634551
 10
-2.399836959468603
 20
1.717449711877597
 10
-2.412976993982014
 20
1.716294780493615
 10
-2.430424729506366
 20
1.714899617463105
 10
-2.451638923217217
 20
1.713416876990633
 10
-2.476467373331685
 20
1.711980611192172
 10
-2.504350531611538
 20
1.710753888887781
 10
-2.534810709632391
 20
1.709882600018857
 10
-2.573625
 20
1.709483644408685
  0
LINE
  5
D1
330
8C
100
AcDbEntity
  8
AM_4
100
AcDbLine
 10
-2.256625
 20
1.71875
 30
0.0
 11
-2.256625
 21
-1.71875
 31
0.0
  0
ENDBLK
  5
8F
330
8C
100
AcDbEntity
  8
0
100
AcDbBlockEnd
  0
BLOCK
  5
D4
330
D2
100
AcDbEntity
  8
0
100
AcDbBlockBegin
  2
3_070006i_0_in_070477_2
 70
     2
 10
0.0
 20
0.0
 30
0.0
  3
3_070006i_0_in_070477_2
  1

  0
ATTDEF
  5
D6
330
D2
100
AcDbEntity
  8
AM_6
100
AcDbText
 10
5.0953125
 20
1.77165
 30
0.0
 40
0.5
  1
S-2000 Insert -Inch
100
AcDbAttributeDefinition
  3

  2
NN
 70
     8
280
     0
  0
ATTDEF
  5
D7
330
D2
100
AcDbEntity
  8
AM_6
100
AcDbText
 10
5.0953125
 20
1.27165
 30
0.0
 40
0.5
  1
S-2000 Bearings
100
AcDbAttributeDefinition
  3

  2
NT
 70
     8
280
     0
  0
ATTDEF
  5
D8
330
D2
100
AcDbEntity
  8
AM_6
100
AcDbText
 10
5.0953125
 20
0.7716500000000002
 30
0.0
 40
0.5
  1
070006i
100
AcDbAttributeDefinition
  3

  2
NB
 70
     8
280
     0
  0
ATTDEF
  5
D9
330
D2
100
AcDbEntity
  8
AM_6
100
AcDbText
 10
5.0953125
 20
0.2716500000000002
 30
0.0
 40
0.5
  1
$PN.i
100
AcDbAttributeDefinition
  3

  2
NBSYN
 70
     8
280
     0
  0
ATTDEF
  5
DA
330
D2
100
AcDbEntity
  8
AM_6
100
AcDbText
 10
5.0953125
 20
-0.2283499999999998
 30
0.0
 40
0.5
  1
070006i
100
AcDbAttributeDefinition
  3

  2
LINA
 70
     8
280
     0
  0
ATTDEF
  5
DB
330
D2
100
AcDbEntity
  8
AM_6
100
AcDbText
 10
5.0953125
 20
-0.7283499999999998
 30
0.0
 40
0.5
  1
2
100
AcDbAttributeDefinition
  3

  2
SS
 70
     8
280
     0
  0
ATTDEF
  5
DC
330
D2
100
AcDbEntity
  8
AM_6
100
AcDbText
 10
5.0953125
 20
-1.22835
 30
0.0
 40
0.5
  1
2.31
100
AcDbAttributeDefinition
  3

  2
CC
 70
     8
280
     0
  0
ATTDEF
  5
DD
330
D2
100
AcDbEntity
  8
AM_6
100
AcDbText
 10
5.0953125
 20
-1.72835
 30
0.0
 40
0.5
  1
2.000000
100
AcDbAttributeDefinition
  3

  2
SS1
 70
     8
280
     0
  0
ATTDEF
  5
DE
330
D2
100
AcDbEntity
  8
AM_6
100
AcDbText
 10
5.0953125
 20
-2.22835
 30
0.0
 40
0.5
  1
070006
100
AcDbAttributeDefinition
  3

  2
PN
 70
     8
280
     0
  0
ATTDEF
  5
DF
330
D2
100
AcDbEntity
  8
AM_6
100
AcDbText
 10
5.0953125
 20
-2.72835
 30
0.0
 40
0.5
  1
INS-S2-200R
100
AcDbAttributeDefinition
  3

  2
DESCRIPTION
 70
     8
280
     0
  0
ATTDEF
  5
E0
330
D2
100
AcDbEntity
  8
AM_6
100
AcDbText
 10
5.0953125
 20
-3.22835
 30
0.0
 40
0.5
  1
Contact Seal
100
AcDbAttributeDefinition
  3

  2
ST
 70
     8
280
     0
  0
ATTDEF
  5
E1
330
D2
100
AcDbEntity
  8
AM_6
100
AcDbText
 10
5.0953125
 20
-3.72835
 30
0.0
 40
0.5
  1
1
100
AcDbAttributeDefinition
  3

  2
ST1
 70
     8
280
     0
  0
ATTDEF
  5
E2
330
D2
100
AcDbEntity
  8
AM_6
100
AcDbText
 10
5.0953125
 20
-4.22835
 30
0.0
 40
0.5
  1
3.5433
100
AcDbAttributeDefinition
  3

  2
A
 70
     8
280
     0
  0
ATTDEF
  5
E3
330
D2
100
AcDbEntity
  8
AM_6
100
AcDbText
 10
5.0953125
 20
-4.72835
 30
0.0
 40
0.5
  1
61/64
100
AcDbAttributeDefinition
  3

  2
B
 70
     8
280
     0
  0
ATTDEF
  5
E4
330
D2
100
AcDbEntity
  8
AM_6
100
AcDbText
 10
5.0953125
 20
-5.22835
 30
0.0
 40
0.5
  1
2-27/32
100
AcDbAttributeDefinition
  3

  2
C
 70
     8
280
     0
  0
ATTDEF
  5
E5
330
D2
100
AcDbEntity
  8
AM_6
100
AcDbText
 10
5.0953125
 20
-5.72835
 30
0.0
 40
0.5
  1
0.977
100
AcDbAttributeDefinition
  3

  2
D
 70
     8
280
     0
  0
ATTDEF
  5
E6
330
D2
100
AcDbEntity
  8
AM_6
100
AcDbText
 10
5.0953125
 20
-6.22835
 30
0.0
 40
0.5
  1
3-11/32
100
AcDbAttributeDefinition
  3

  2
E
 70
     8
280
     0
  0
ATTDEF
  5
E7
330
D2
100
AcDbEntity
  8
AM_6
100
AcDbText
 10
5.0953125
 20
-6.72835
 30
0.0
 40
0.5
  1
0.53125
100
AcDbAttributeDefinition
  3

  2
F
 70
     8
280
     0
  0
ATTDEF
  5
E8
330
D2
100
AcDbEntity
  8
AM_6
100
AcDbText
 10
5.0953125
 20
-7.22835
 30
0.0
 40
0.5
  1
1
100
AcDbAttributeDefinition
  3

  2
DD
 70
     8
280
     0
  0
ATTDEF
  5
E9
330
D2
100
AcDbEntity
  8
AM_6
100
AcDbText
 10
5.0953125
 20
-7.72835
 30
0.0
 40
0.5
  1
baldor
100
AcDbAttributeDefinition
  3

  2
COMPANY
 70
     8
280
     0
  0
LINE
  5
EA
330
D2
100
AcDbEntity
  8
AM_9
100
AcDbLine
 10
-2.778625
 20
1.154877756637567
 30
0.0
 11
-2.778625
 21
1.0
 31
0.0
  0
LINE
  5
EB
330
D2
100
AcDbEntity
  8
AM_9
100
AcDbLine
 10
-2.368625
 20
1.0
 30
0.0
 11
-2.368625
 21
1.154962221367664
 31
0.0
  0
LINE
  5
EC
330
D2
100
AcDbEntity
  8
AM_9
100
AcDbLine
 10
-2.778625
 20
0.4881240923105079
 30
0.0
 11
-2.778625
 21
0.4225897699030136
 31
0.0
  0
LINE
  5
ED
330
D2
100
AcDbEntity
  8
AM_9
100
AcDbLine
 10
-2.368625
 20
0.4225578444136548
 30
0.0
 11
-2.368625
 21
0.4881240923105079
 31
0.0
  0
LWPOLYLINE
  5
EE
330
D2
100
AcDbEntity
  8
AM_9
100
AcDbPolyline
 90
        3
 70
     0
 43
0.0
 10
-2.775131270089942
 20
0.4564730262009933
 10
-2.778574943975661
 20
0.4267194562545711
 10
-2.778624998999768
 20
0.4226366151136874
  0
LWPOLYLINE
  5
EF
330
D2
100
AcDbEntity
  8
AM_9
100
AcDbPolyline
 90
        6
 70
     0
 43
0.0
 10
-2.707789983025575
 20
0.5579877454826291
 10
-2.730490257303498
 20
0.5385344765929791
 10
-2.750484810253069
 20
0.5142529731756984
 10
-2.765464287254995
 20
0.4870104172949201
 10
-2.774864445524966
 20
0.457612105786844
 10
-2.775131270089942
 20
0.4564730262009933
  0
LWPOLYLINE
  5
F0
330
D2
100
AcDbEntity
  8
AM_9
100
AcDbPolyline
 90
        4
 70
     0
 43
0.0
 10
-2.653528424357176
 20
0.5861176997855472
 10
-2.678665800011407
 20
0.5755678434116003
 10
-2.706412843964381
 20
0.5589588513061597
 10
-2.707789983025575
 20
0.5579877454826291
  0
LWPOLYLINE
  5
F1
330
D2
100
AcDbEntity
  8
AM_9
100
AcDbPolyline
 90
        4
 70
     0
 43
0.0
 10
-2.437430654634419
 20
0.5564917721723022
 10
-2.45220980377235
 20
0.5664934922536629
 10
-2.481693316156538
 20
0.5815268920400453
 10
-2.502897643746515
 20
0.5891063724167226
  0
LWPOLYLINE
  5
F2
330
D2
100
AcDbEntity
  8
AM_9
100
AcDbPolyline
 90
        6
 70
     0
 43
0.0
 10
-2.371728861426902
 20
0.4545596681198953
 10
-2.376143660592632
 20
0.471766220930593
 10
-2.387840962022485
 20
0.4995656485020914
 10
-2.404719448914185
 20
0.5250145792109282
 10
-2.426181113061309
 20
0.5473920527276863
 10
-2.437430654634419
 20
0.5564917721723022
  0
LWPOLYLINE
  5
F3
330
D2
100
AcDbEntity
  8
AM_9
100
AcDbPolyline
 90
        3
 70
     0
 43
0.0
 10
-2.368625000528258
 20
0.4226049236980905
 10
-2.369775161941116
 20
0.4421722574912293
 10
-2.371728861426902
 20
0.4545596681198953
  0
LWPOLYLINE
  5
F4
330
D2
100
AcDbEntity
  8
AM_9
100
AcDbPolyline
 90
       11
 70
     0
 43
0.0
 10
-2.778624998999768
 20
0.4226366151136874
 10
-2.776482763211015
 20
0.3957732371423081
 10
-2.768856369249133
 20
0.3651219591332633
 10
-2.755893271809792
 20
0.3357554165575195
 10
-2.738027110309404
 20
0.3084490173138481
 10
-2.715273046698552
 20
0.2836691071133137
 10
-2.688569248219814
 20
0.262645590565302
 10
-2.658231578002177
 20
0.2459775210583136
 10
-2.625423784148368
 20
0.2344573093430225
 10
-2.59974453880751
 20
0.2295190123437953
 10
-2.573625
 20
0.2278495873897979
  0
LWPOLYLINE
  5
F5
330
D2
100
AcDbEntity
  8
AM_9
100
AcDbPolyline
 90
        8
 70
     0
 43
0.0
 10
-2.449406004420952
 20
0.6310335019050284
 10
-2.439543559939227
 20
0.6242252158873673
 10
-2.415594404785717
 20
0.6033408369111426
 10
-2.395870335435469
 20
0.5787257344100867
 10
-2.381180624917102
 20
0.5512328414947232
 10
-2.372066907098632
 20
0.5216613630812379
 10
-2.368644874684364
 20
0.4907096659398389
 10
-2.368625000576729
 20
0.4881380287629355
  0
LWPOLYLINE
  5
F6
330
D2
100
AcDbEntity
  8
AM_9
100
AcDbPolyline
 90
       10
 70
     0
 43
0.0
 10
-2.701382478856362
 20
0.6286995562887309
 10
-2.694106352391879
 20
0.6333634238699369
 10
-2.664525303144283
 20
0.648436972693003
 10
-2.63225000327932
 20
0.6590286972977397
 10
-2.598270425831918
 20
0.6649324833827779
 10
-2.564029582061244
 20
0.6659645037566185
 10
-2.530062555419073
 20
0.6622764730365416
 10
-2.497585575943977
 20
0.6539702262409812
 10
-2.467217745364521
 20
0.6412787325986632
 10
-2.449406004420952
 20
0.6310335019050284
  0
LWPOLYLINE
  5
F7
330
D2
100
AcDbEntity
  8
AM_9
100
AcDbPolyline
 90
        7
 70
     0
 43
0.0
 10
-2.778624999363772
 20
0.4881094545278524
 10
-2.777419998115517
 20
0.5081490698992479
 10
-2.770923212665202
 20
0.537937138922821
 10
-2.759045443226721
 20
0.5659633614361719
 10
-2.74196151427101
 20
0.5916166019356104
 10
-2.720264899355452
 20
0.6141873703698317
 10
-2.701382478856362
 20
0.6286995562887309
  0
LWPOLYLINE
  5
F8
330
D2
100
AcDbEntity
  8
AM_9
100
AcDbPolyline
 90
       11
 70
     0
 43
0.0
 10
-2.368625000576729
 20
0.4881380287629355
 10
-2.371032761293979
 20
0.4596740657920109
 10
-2.378988953789169
 20
0.429038600303694
 10
-2.392327571434621
 20
0.3997597701124795
 10
-2.410601360126783
 20
0.3726435244119451
 10
-2.433691196985514
 20
0.3482500085262514
 10
-2.460698889191244
 20
0.3276763021680447
 10
-2.491185959345697
 20
0.3115511382649416
 10
-2.524060264890733
 20
0.300549654389962
 10
-2.548651989680055
 20
0.2960869521883451
 10
-2.573625
 20
0.2945809289154057
  0
LWPOLYLINE
  5
F9
330
D2
100
AcDbEntity
  8
AM_9
100
AcDbPolyline
 90
       11
 70
     0
 43
0.0
 10
-2.573625
 20
0.2278495873897979
 10
-2.539618912576419
 20
0.2306960036890418
 10
-2.506581388462616
 20
0.2390356625584262
 10
-2.475484147874855
 20
0.2526198424240899
 10
-2.447109367114789
 20
0.2708934676453657
 10
-2.421942408240864
 20
0.2936235868526592
 10
-2.401008840115097
 20
0.3198037996069842
 10
-2.384826194872995
 20
0.3489255657489853
 10
-2.374020353760841
 20
0.379811825451323
 10
-2.369040869700951
 20
0.4110680234188425
 10
-2.368625000528258
 20
0.4226049236980905
  0
LWPOLYLINE
  5
FA
330
D2
100
AcDbEntity
  8
AM_9
100
AcDbPolyline
 90
       11
 70
     0
 43
0.0
 10
-2.573625
 20
0.9787619731068429
 10
-2.540103194231308
 20
0.9793358522294556
 10
-2.506581388462616
 20
0.9810554754181723
 10
-2.475891248866855
 20
0.9836294455284244
 10
-2.447109367114789
 20
0.986904861354095
 10
-2.422254532714186
 20
0.9903979091084177
 10
-2.401008840115097
 20
0.9938668616335946
 10
-2.385007314099072
 20
0.9967706012090349
 10
-2.374020353760841
 20
0.9989079110710156
 10
-2.369051187271197
 20
0.9999127186181801
 10
-2.368625000000905
 20
0.9999999999998146
  0
LINE
  5
FB
330
D2
100
AcDbEntity
  8
AM_9
100
AcDbLine
 10
-0.0468750000000002
 20
1.0
 30
0.0
 11
-2.368625
 21
1.0
 31
0.0
  0
LINE
  5
FC
330
D2
100
AcDbEntity
  8
AM_9
100
AcDbLine
 10
-2.778625
 20
1.0
 30
0.0
 11
-2.890625
 21
1.0
 31
0.0
  0
LINE
  5
FD
330
D2
100
AcDbEntity
  8
AM_9
100
AcDbLine
 10
-2.890625
 20
-1.0
 30
0.0
 11
-0.0468750000000002
 21
-1.0
 31
0.0
  0
LINE
  5
FE
330
D2
100
AcDbEntity
  8
AM_9
100
AcDbLine
 10
-2.768006237108658
 20
0.9978772796992085
 30
0.0
 11
-2.778624999998435
 21
0.9999999999996793
 31
0.0
  0
LINE
  5
FF
330
D2
100
AcDbEntity
  8
AM_9
100
AcDbLine
 10
-2.560635553339594
 20
0.9788481627527951
 30
0.0
 11
-2.57828485778625
 21
0.9787730657688676
 31
0.0
  0
LWPOLYLINE
  5
100
330
D2
100
AcDbEntity
  8
AM_9
100
AcDbPolyline
 90
       11
 70
     0
 43
0.0
 10
-2.778624999998435
 20
0.9999999999996793
 10
-2.776572954838699
 20
0.999581348552088
 10
-2.768856369249133
 20
0.9980432292936472
 10
-2.756123534593898
 20
0.9956308126654781
 10
-2.738027110309404
 20
0.9924732005823562
 10
-2.715633833309517
 20
0.9890103683672535
 10
-2.688569248219814
 20
0.985488295312947
 10
-2.658707045599567
 20
0.9824530291486749
 10
-2.625423784148368
 20
0.9801316819893384
 10
-2.599966648089188
 20
0.9791163783861725
 10
-2.573625
 20
0.9787619731068429
  0
LINE
  5
101
330
D2
100
AcDbEntity
  8
AM_9
100
AcDbLine
 10
-0.0468750000000002
 20
-1.155
 30
0.0
 11
-0.0468750000000002
 21
1.155
 31
0.0
  0
LINE
  5
102
330
D2
100
AcDbEntity
  8
AM_9
100
AcDbLine
 10
-0.0468750000000002
 20
1.155
 30
0.0
 11
-0.3223749999999995
 21
1.155
 31
0.0
  0
LINE
  5
103
330
D2
100
AcDbEntity
  8
AM_9
100
AcDbLine
 10
-0.3223749999999995
 20
-1.155
 30
0.0
 11
-0.0468750000000002
 21
-1.155
 31
0.0
  0
LWPOLYLINE
  5
104
330
D2
100
AcDbEntity
  8
AM_9
100
AcDbPolyline
 90
       11
 70
     0
 43
0.0
 10
-2.573625
 20
0.2945809289154057
 10
-2.60773343538501
 20
0.2974090635686094
 10
-2.640873002252064
 20
0.3057019191665715
 10
-2.672072523479572
 20
0.3192274373077653
 10
-2.700530193923415
 20
0.3374457705877584
 10
-2.72566695531181
 20
0.3600553481938412
 10
-2.746549449120014
 20
0.3861162654203096
 10
-2.762624307750009
 20
0.415057967683503
 10
-2.773330549264893
 20
0.4457796282625968
 10
-2.778238652474625
 20
0.4770156832445993
 10
-2.778624999363772
 20
0.4881094545278524
  0
LWPOLYLINE
  5
105
330
D2
100
AcDbEntity
  8
AM_9
100
AcDbPolyline
 90
       11
 70
     0
 43
0.0
 10
-2.573625
 20
1.136661779070626
 10
-2.607249001126033
 20
1.137158992160605
 10
-2.640873002252064
 20
1.138649328725439
 10
-2.67166133428095
 20
1.140881730434512
 10
-2.700530193923415
 20
1.1437241486673
 10
-2.725354194740476
 20
1.146743976891352
 10
-2.746549449120014
 20
1.149740346818994
 10
-2.762446069430812
 20
1.15223842856459
 10
-2.773330549264893
 20
1.154072054252763
 10
-2.778229431485292
 20
1.154929856477622
 10
-2.778624999999383
 20
1.154999999999891
  0
LINE
  5
106
330
D2
100
AcDbEntity
  8
AM_9
100
AcDbLine
 10
-2.256625
 20
1.155
 30
0.0
 11
-2.368839888604288
 21
1.155
 31
0.0
  0
LINE
  5
107
330
D2
100
AcDbEntity
  8
AM_9
100
AcDbLine
 10
-1.725375
 20
1.155
 30
0.0
 11
-1.921875
 21
1.155
 31
0.0
  0
LINE
  5
108
330
D2
100
AcDbEntity
  8
AM_9
100
AcDbLine
 10
-2.777934419942035
 20
1.155
 30
0.0
 11
-2.890625
 21
1.155
 31
0.0
  0
LINE
  5
109
330
D2
100
AcDbEntity
  8
AM_9
100
AcDbLine
 10
-1.921875
 20
-1.155
 30
0.0
 11
-1.725375
 21
-1.155
 31
0.0
  0
LINE
  5
10A
330
D2
100
AcDbEntity
  8
AM_9
100
AcDbLine
 10
-2.890625
 20
-1.155
 30
0.0
 11
-2.256625
 21
-1.155
 31
0.0
  0
LINE
  5
10B
330
D2
100
AcDbEntity
  8
AM_9
100
AcDbLine
 10
-2.370669348335009
 20
1.154638903096012
 30
0.0
 11
-2.368625000000512
 21
1.154999999999909
 31
0.0
  0
LINE
  5
10C
330
D2
100
AcDbEntity
  8
AM_9
100
AcDbLine
 10
-2.586072183144433
 20
1.136729929388778
 30
0.0
 11
-2.568109740588999
 21
1.136675159439306
 31
0.0
  0
LWPOLYLINE
  5
10D
330
D2
100
AcDbEntity
  8
AM_9
100
AcDbPolyline
 90
       11
 70
     0
 43
0.0
 10
-2.368625000000512
 20
1.154999999999909
 10
-2.370938289603336
 20
1.154591660532598
 10
-2.378988953789169
 20
1.153205615007395
 10
-2.392089750620486
 20
1.151066916719998
 10
-2.410601360126783
 20
1.148292953543438
 10
-2.433323368403657
 20
1.14528797593819
 10
-2.460698889191244
 20
1.14225754823612
 10
-2.490711840693594
 20
1.139681794180362
 10
-2.524060264890733
 20
1.13774191404134
 10
-2.548459828794658
 20
1.136940317625246
 10
-2.573625
 20
1.136661779070626
  0
LINE
  5
10E
330
D2
100
AcDbEntity
  8
AM_9
100
AcDbLine
 10
-0.4176874999999999
 20
1.41732
 30
0.0
 11
-0.5473125000000001
 21
1.41732
 31
0.0
  0
LINE
  5
10F
330
D2
100
AcDbEntity
  8
AM_9
100
AcDbLine
 10
-0.5473125000000001
 20
-1.41732
 30
0.0
 11
-0.4176874999999999
 21
-1.41732
 31
0.0
  0
LINE
  5
110
330
D2
100
AcDbEntity
  8
AM_9
100
AcDbLine
 10
-1.5004375
 20
1.41732
 30
0.0
 11
-1.6300625
 21
1.41732
 31
0.0
  0
LINE
  5
111
330
D2
100
AcDbEntity
  8
AM_9
100
AcDbLine
 10
-1.6300625
 20
-1.41732
 30
0.0
 11
-1.5004375
 21
-1.41732
 31
0.0
  0
LINE
  5
112
330
D2
100
AcDbEntity
  8
AM_9
100
AcDbLine
 10
-1.6300625
 20
-1.41732
 30
0.0
 11
-1.6300625
 21
1.41732
 31
0.0
  0
LINE
  5
113
330
D2
100
AcDbEntity
  8
AM_9
100
AcDbLine
 10
-1.725375
 20
-1.3220075
 30
0.0
 11
-1.725375
 21
1.3220075
 31
0.0
  0
ARC
  5
114
330
D2
100
AcDbEntity
  8
AM_9
100
AcDbCircle
 10
-1.630062500000001
 20
1.3220075
 30
0.0
 40
0.0953124999999992
100
AcDbArc
 50
90.0
 51
180.0
  0
ARC
  5
115
330
D2
100
AcDbEntity
  8
AM_9
100
AcDbCircle
 10
-1.630062500000001
 20
-1.3220075
 30
0.0
 40
0.0953124999999992
100
AcDbArc
 50
180.0
 51
270.0
  0
LINE
  5
116
330
D2
100
AcDbEntity
  8
AM_9
100
AcDbLine
 10
-0.3223749999999995
 20
-1.3220075
 30
0.0
 11
-0.3223749999999995
 21
1.3220075
 31
0.0
  0
LINE
  5
117
330
D2
100
AcDbEntity
  8
AM_9
100
AcDbLine
 10
-0.4176874999999999
 20
-1.41732
 30
0.0
 11
-0.4176874999999999
 21
1.41732
 31
0.0
  0
ARC
  5
118
330
D2
100
AcDbEntity
  8
AM_9
100
AcDbCircle
 10
-0.4176874999999991
 20
1.3220075
 30
0.0
 40
0.0953124999999996
100
AcDbArc
 50
0.0
 51
90.0
  0
ARC
  5
119
330
D2
100
AcDbEntity
  8
AM_9
100
AcDbCircle
 10
-0.4176874999999992
 20
-1.3220075
 30
0.0
 40
0.0953124999999997
100
AcDbArc
 50
270.0
 51
0.0
  0
LINE
  5
11A
330
D2
100
AcDbEntity
  8
AM_9
100
AcDbLine
 10
-0.9762187499999991
 20
1.700784
 30
0.0
 11
-1.07153125
 21
1.700784
 31
0.0
  0
LINE
  5
11B
330
D2
100
AcDbEntity
  8
AM_9
100
AcDbLine
 10
-1.07153125
 20
-1.700784
 30
0.0
 11
-0.9762187499999991
 21
-1.700784
 31
0.0
  0
LINE
  5
11C
330
D2
100
AcDbEntity
  8
AM_9
100
AcDbLine
 10
-1.5004375
 20
-1.6763375
 30
0.0
 11
-1.5004375
 21
1.6763375
 31
0.0
  0
ARC
  5
11D
330
D2
100
AcDbEntity
  8
AM_9
100
AcDbCircle
 10
-1.405125
 20
1.6763375
 30
0.0
 40
0.0953125000000004
100
AcDbArc
 50
90.0
 51
180.0
  0
ARC
  5
11E
330
D2
100
AcDbEntity
  8
AM_9
100
AcDbCircle
 10
-1.405125
 20
-1.6763375
 30
0.0
 40
0.0953125000000001
100
AcDbArc
 50
180.0
 51
270.0
  0
LINE
  5
11F
330
D2
100
AcDbEntity
  8
AM_9
100
AcDbLine
 10
-1.07153125
 20
-1.700784
 30
0.0
 11
-1.07153125
 21
1.700784
 31
0.0
  0
LINE
  5
120
330
D2
100
AcDbEntity
  8
AM_9
100
AcDbLine
 10
-1.07153125
 20
1.700784
 30
0.0
 11
-1.112445754176393
 21
1.77165
 31
0.0
  0
LINE
  5
121
330
D2
100
AcDbEntity
  8
AM_9
100
AcDbLine
 10
-1.112445754176393
 20
-1.77165
 30
0.0
 11
-1.07153125
 21
-1.700784
 31
0.0
  0
LINE
  5
122
330
D2
100
AcDbEntity
  8
AM_9
100
AcDbLine
 10
-0.9762187499999991
 20
-1.700784
 30
0.0
 11
-0.9762187499999991
 21
1.700784
 31
0.0
  0
LINE
  5
123
330
D2
100
AcDbEntity
  8
AM_9
100
AcDbLine
 10
-0.9762187499999991
 20
-1.700784
 30
0.0
 11
-0.9353042458236073
 21
-1.77165
 31
0.0
  0
LINE
  5
124
330
D2
100
AcDbEntity
  8
AM_9
100
AcDbLine
 10
-0.9353042458236073
 20
1.77165
 30
0.0
 11
-0.9762187499999991
 21
1.700784
 31
0.0
  0
LINE
  5
125
330
D2
100
AcDbEntity
  8
AM_9
100
AcDbLine
 10
-1.112445754176393
 20
-1.77165
 30
0.0
 11
-1.112445754176393
 21
1.77165
 31
0.0
  0
LINE
  5
126
330
D2
100
AcDbEntity
  8
AM_9
100
AcDbLine
 10
-1.405125
 20
-1.77165
 30
0.0
 11
-1.405125
 21
1.77165
 31
0.0
  0
LINE
  5
127
330
D2
100
AcDbEntity
  8
AM_9
100
AcDbLine
 10
-1.112445754176393
 20
1.77165
 30
0.0
 11
-1.405125
 21
1.77165
 31
0.0
  0
LINE
  5
128
330
D2
100
AcDbEntity
  8
AM_9
100
AcDbLine
 10
-1.405125
 20
-1.77165
 30
0.0
 11
-1.112445754176393
 21
-1.77165
 31
0.0
  0
LINE
  5
129
330
D2
100
AcDbEntity
  8
AM_9
100
AcDbLine
 10
-0.9353042458236073
 20
-1.77165
 30
0.0
 11
-0.9353042458236073
 21
1.77165
 31
0.0
  0
LINE
  5
12A
330
D2
100
AcDbEntity
  8
AM_9
100
AcDbLine
 10
-0.642625
 20
1.77165
 30
0.0
 11
-0.9353042458236073
 21
1.77165
 31
0.0
  0
LINE
  5
12B
330
D2
100
AcDbEntity
  8
AM_9
100
AcDbLine
 10
-0.9353042458236073
 20
-1.77165
 30
0.0
 11
-0.642625
 21
-1.77165
 31
0.0
  0
LINE
  5
12C
330
D2
100
AcDbEntity
  8
AM_9
100
AcDbLine
 10
-0.5473125000000001
 20
-1.676337499999999
 30
0.0
 11
-0.5473125000000001
 21
1.676337499999999
 31
0.0
  0
LINE
  5
12D
330
D2
100
AcDbEntity
  8
AM_9
100
AcDbLine
 10
-0.642625
 20
-1.77165
 30
0.0
 11
-0.642625
 21
1.77165
 31
0.0
  0
ARC
  5
12E
330
D2
100
AcDbEntity
  8
AM_9
100
AcDbCircle
 10
-0.6426250000000004
 20
1.6763375
 30
0.0
 40
0.0953125000000004
100
AcDbArc
 50
0.0000008537736463
 51
90.0
  0
ARC
  5
12F
330
D2
100
AcDbEntity
  8
AM_9
100
AcDbCircle
 10
-0.642625
 20
-1.6763375
 30
0.0
 40
0.0953124999999999
100
AcDbArc
 50
270.0
 51
0.0
  0
LINE
  5
132
330
D2
100
AcDbEntity
  8
AM_7
100
AcDbLine
 10
0.0953125
 20
0.0
 30
0.0
 11
-3.0328125
 21
0.0
 31
0.0
  0
LINE
  5
133
330
D2
100
AcDbEntity
  8
AM_7
100
AcDbLine
 10
-2.573625
 20
-0.0592307692307692
 30
0.0
 11
-2.573625
 21
1.7481875
 31
0.0
  0
LWPOLYLINE
  5
134
330
D2
100
AcDbEntity
  8
AM_4
100
AcDbPolyline
 90
        7
 70
     0
 43
0.0
 10
-2.502897643746515
 20
0.5891063724167226
 10
-2.513946720220751
 20
0.592139497166814
 10
-2.547953299168185
 20
0.5981154770957586
 10
-2.582106065290766
 20
0.5992764781478266
 10
-2.616015609368116
 20
0.5958079568660982
 10
-2.648372119315967
 20
0.5878336055750649
 10
-2.653528424357176
 20
0.5861176997855472
  0
LINE
  5
135
330
D2
100
AcDbEntity
  8
AM_4
100
AcDbLine
 10
-1.921875
 20
1.155
 30
0.0
 11
-2.256625
 21
1.155
 31
0.0
  0
LINE
  5
136
330
D2
100
AcDbEntity
  8
AM_4
100
AcDbLine
 10
-2.256625
 20
-1.155
 30
0.0
 11
-1.921875
 21
-1.155
 31
0.0
  0
ENDBLK
  5
D5
330
D2
100
AcDbEntity
  8
0
100
AcDbBlockEnd
  0
BLOCK
  5
139
330
137
100
AcDbEntity
  8
0
100
AcDbBlockBegin
  2
4_405015E_Inch_0_in_070477_2
 70
     2
 10
0.0
 20
0.0
 30
0.0
  3
4_405015E_Inch_0_in_070477_2
  1

  0
ATTDEF
  5
13B
330
137
100
AcDbEntity
  8
AM_6
100
AcDbText
 10
4.010403242770462
 20
2.803875
 30
0.0
 40
0.5
  1
405015E -Inch
100
AcDbAttributeDefinition
  3

  2
NN
 70
     8
280
     0
  0
ATTDEF
  5
13C
330
137
100
AcDbEntity
  8
AM_6
100
AcDbText
 10
4.010403242770462
 20
2.303875
 30
0.0
 40
0.5
  1
Grease Fitting
100
AcDbAttributeDefinition
  3

  2
NT
 70
     8
280
     0
  0
ATTDEF
  5
13D
330
137
100
AcDbEntity
  8
AM_6
100
AcDbText
 10
4.010403242770462
 20
1.803875
 30
0.0
 40
0.5
  1
405015E-Inch
100
AcDbAttributeDefinition
  3

  2
NB
 70
     8
280
     0
  0
ATTDEF
  5
13E
330
137
100
AcDbEntity
  8
AM_6
100
AcDbText
 10
4.010403242770462
 20
1.303875
 30
0.0
 40
0.5
  1
$MN.-Inch
100
AcDbAttributeDefinition
  3

  2
NBSYN
 70
     8
280
     0
  0
ATTDEF
  5
13F
330
137
100
AcDbEntity
  8
AM_6
100
AcDbText
 10
4.010403242770462
 20
0.8038750000000001
 30
0.0
 40
0.5
  1
405015E
100
AcDbAttributeDefinition
  3

  2
LINA
 70
     8
280
     0
  0
ATTDEF
  5
140
330
137
100
AcDbEntity
  8
AM_6
100
AcDbText
 10
4.010403242770462
 20
0.3038750000000001
 30
0.0
 40
0.5
  1
405015E
100
AcDbAttributeDefinition
  3

  2
MN
 70
     8
280
     0
  0
ATTDEF
  5
141
330
137
100
AcDbEntity
  8
AM_6
100
AcDbText
 10
4.010403242770462
 20
-0.1961249999999999
 30
0.0
 40
0.5
  1
1/8 x 27PTF
100
AcDbAttributeDefinition
  3

  2
T
 70
     8
280
     0
  0
ATTDEF
  5
142
330
137
100
AcDbEntity
  8
AM_6
100
AcDbText
 10
4.010403242770462
 20
-0.6961249999999999
 30
0.0
 40
0.5
  1
baldor
100
AcDbAttributeDefinition
  3

  2
COMPANY
 70
     8
280
     0
  0
LINE
  5
143
330
137
100
AcDbEntity
  8
AM_9
100
AcDbLine
 10
-1.404090372472269
 20
2.131875
 30
0.0
 11
-1.080284627527731
 21
2.131875
 31
0.0
  0
LINE
  5
144
330
137
100
AcDbEntity
  8
AM_9
100
AcDbLine
 10
-1.080284627527731
 20
2.131875
 30
0.0
 11
-1.043569873218785
 21
2.168589754308946
 31
0.0
  0
LINE
  5
145
330
137
100
AcDbEntity
  8
AM_9
100
AcDbLine
 10
-1.440805126781215
 20
2.168589754308946
 30
0.0
 11
-1.404090372472269
 21
2.131875
 31
0.0
  0
LINE
  5
146
330
137
100
AcDbEntity
  8
AM_9
100
AcDbLine
 10
-1.440805126781215
 20
2.168589754308946
 30
0.0
 11
-1.043569873218785
 21
2.168589754308946
 31
0.0
  0
LINE
  5
147
330
137
100
AcDbEntity
  8
AM_9
100
AcDbLine
 10
-1.043569873218785
 20
2.168589754308946
 30
0.0
 11
-1.03643560277693
 21
2.396875
 31
0.0
  0
LINE
  5
148
330
137
100
AcDbEntity
  8
AM_9
100
AcDbLine
 10
-1.44793939722307
 20
2.396875
 30
0.0
 11
-1.440805126781215
 21
2.168589754308946
 31
0.0
  0
LINE
  5
149
330
137
100
AcDbEntity
  8
AM_5
100
AcDbLine
 10
-1.074038375147652
 20
2.331745087748463
 30
0.0
 11
-1.080284627527731
 21
2.131875
 31
0.0
  0
LINE
  5
14A
330
137
100
AcDbEntity
  8
AM_5
100
AcDbLine
 10
-1.03643560277693
 20
2.396875
 30
0.0
 11
-1.074038375147652
 21
2.331745087748463
 31
0.0
  0
LINE
  5
14B
330
137
100
AcDbEntity
  8
AM_5
100
AcDbLine
 10
-1.445903985751557
 20
2.331745087748463
 30
0.0
 11
-1.038471014248443
 21
2.331745087748463
 31
0.0
  0
LINE
  5
14C
330
137
100
AcDbEntity
  8
AM_5
100
AcDbLine
 10
-1.410336624852348
 20
2.331745087748463
 30
0.0
 11
-1.404090372472269
 21
2.131875
 31
0.0
  0
LINE
  5
14D
330
137
100
AcDbEntity
  8
AM_5
100
AcDbLine
 10
-1.447939397223069
 20
2.396875
 30
0.0
 11
-1.410336624852348
 21
2.331745087748463
 31
0.0
  0
LINE
  5
14E
330
137
100
AcDbEntity
  8
AM_7
100
AcDbLine
 10
-1.2421875
 20
2.803875
 30
0.0
 11
-1.2421875
 21
2.099875
 31
0.0
  0
LINE
  5
14F
330
137
100
AcDbEntity
  8
AM_4
100
AcDbLine
 10
-1.1371875
 20
2.601875
 30
0.0
 11
-1.1371875
 21
2.631875
 31
0.0
  0
LINE
  5
150
330
137
100
AcDbEntity
  8
AM_4
100
AcDbLine
 10
-1.3471875
 20
2.631875
 30
0.0
 11
-1.3471875
 21
2.601875
 31
0.0
  0
LINE
  5
151
330
137
100
AcDbEntity
  8
AM_4
100
AcDbLine
 10
-1.4609375
 20
2.496875
 30
0.0
 11
-1.0234375
 21
2.496875
 31
0.0
  0
LINE
  5
152
330
137
100
AcDbEntity
  8
AM_4
100
AcDbLine
 10
-0.9895967572295387
 20
2.487807400303386
 30
0.0
 11
-1.0234375
 21
2.496875
 31
0.0
  0
LINE
  5
153
330
137
100
AcDbEntity
  8
AM_4
100
AcDbLine
 10
-1.4609375
 20
2.496875
 30
0.0
 11
-1.494778242770461
 21
2.487807400303386
 31
0.0
  0
LINE
  5
154
330
137
100
AcDbEntity
  8
AM_4
100
AcDbLine
 10
-1.0234375
 20
2.396875
 30
0.0
 11
-0.9895967572295387
 21
2.405942599696615
 31
0.0
  0
LINE
  5
155
330
137
100
AcDbEntity
  8
AM_4
100
AcDbLine
 10
-1.494778242770461
 20
2.405942599696615
 30
0.0
 11
-1.4609375
 21
2.396875
 31
0.0
  0
LINE
  5
156
330
137
100
AcDbEntity
  8
AM_4
100
AcDbLine
 10
-1.3471875
 20
2.601875
 30
0.0
 11
-1.1371875
 21
2.601875
 31
0.0
  0
LINE
  5
157
330
137
100
AcDbEntity
  8
AM_4
100
AcDbLine
 10
-1.3471875
 20
2.601875
 30
0.0
 11
-1.361007590734897
 21
2.569628121618572
 31
0.0
  0
LINE
  5
158
330
137
100
AcDbEntity
  8
AM_4
100
AcDbLine
 10
-1.123367409265102
 20
2.569628121618572
 30
0.0
 11
-1.1371875
 21
2.601875
 31
0.0
  0
LINE
  5
159
330
137
100
AcDbEntity
  8
AM_4
100
AcDbLine
 10
-1.3471875
 20
2.631875
 30
0.0
 11
-1.1371875
 21
2.631875
 31
0.0
  0
LINE
  5
15A
330
137
100
AcDbEntity
  8
AM_4
100
AcDbLine
 10
-1.1371875
 20
2.631875
 30
0.0
 11
-1.1071875
 21
2.691875
 31
0.0
  0
LINE
  5
15B
330
137
100
AcDbEntity
  8
AM_4
100
AcDbLine
 10
-1.3771875
 20
2.691875
 30
0.0
 11
-1.3471875
 21
2.631875
 31
0.0
  0
LINE
  5
15C
330
137
100
AcDbEntity
  8
AM_4
100
AcDbLine
 10
-1.344865401933187
 20
2.771875
 30
0.0
 11
-1.139509598066813
 21
2.771875
 31
0.0
  0
LINE
  5
15D
330
137
100
AcDbEntity
  8
AM_4
100
AcDbLine
 10
-1.3771875
 20
2.691875
 30
0.0
 11
-1.1071875
 21
2.691875
 31
0.0
  0
LINE
  5
15E
330
137
100
AcDbEntity
  8
AM_4
100
AcDbLine
 10
-1.344865401933187
 20
2.771875
 30
0.0
 11
-1.3771875
 21
2.691875
 31
0.0
  0
LINE
  5
15F
330
137
100
AcDbEntity
  8
AM_4
100
AcDbLine
 10
-1.1071875
 20
2.691875
 30
0.0
 11
-1.139509598066813
 21
2.771875
 31
0.0
  0
LINE
  5
160
330
137
100
AcDbEntity
  8
AM_4
100
AcDbLine
 10
-1.361007590734897
 20
2.569628121618572
 30
0.0
 11
-1.123367409265102
 21
2.569628121618572
 31
0.0
  0
LINE
  5
161
330
137
100
AcDbEntity
  8
AM_4
100
AcDbLine
 10
-1.361007590734898
 20
2.569628121618572
 30
0.0
 11
-1.414721553283015
 21
2.515193198540882
 31
0.0
  0
LINE
  5
162
330
137
100
AcDbEntity
  8
AM_4
100
AcDbLine
 10
-1.069653446716985
 20
2.515193198540882
 30
0.0
 11
-1.123367409265102
 21
2.569628121618572
 31
0.0
  0
LINE
  5
163
330
137
100
AcDbEntity
  8
AM_4
100
AcDbLine
 10
-1.414721553283015
 20
2.515193198540882
 30
0.0
 11
-1.069653446716985
 21
2.515193198540882
 31
0.0
  0
LINE
  5
164
330
137
100
AcDbEntity
  8
AM_4
100
AcDbLine
 10
-1.414721553283015
 20
2.515193198540882
 30
0.0
 11
-1.4559375
 21
2.496875
 31
0.0
  0
LINE
  5
165
330
137
100
AcDbEntity
  8
AM_4
100
AcDbLine
 10
-1.0284375
 20
2.496875
 30
0.0
 11
-1.069653446716985
 21
2.515193198540882
 31
0.0
  0
LWPOLYLINE
  5
166
330
137
100
AcDbEntity
  8
AM_4
100
AcDbPolyline
 90
        3
 70
     0
 43
0.0
 10
-1.431630557077846
 20
2.496875
 10
-1.400056714231538
 20
2.494481619214965
 10
-1.36848287138523
 20
2.487807400303386
  0
LWPOLYLINE
  5
167
330
137
100
AcDbEntity
  8
AM_4
100
AcDbPolyline
 90
        3
 70
     0
 43
0.0
 10
-1.494778242770461
 20
2.487807400303386
 10
-1.463346364423564
 20
2.49446047505038
 10
-1.431630557077846
 20
2.496875
  0
LINE
  5
168
330
137
100
AcDbEntity
  8
AM_4
100
AcDbLine
 10
-1.494778242770461
 20
2.487807400303386
 30
0.0
 11
-1.494778242770461
 21
2.405942599696615
 31
0.0
  0
LWPOLYLINE
  5
169
330
137
100
AcDbEntity
  8
AM_4
100
AcDbPolyline
 90
        3
 70
     0
 43
0.0
 10
-1.431630557077846
 20
2.396875
 10
-1.463204399924154
 20
2.399268380785035
 10
-1.494778242770461
 20
2.405942599696615
  0
LWPOLYLINE
  5
16A
330
137
100
AcDbEntity
  8
AM_4
100
AcDbPolyline
 90
        3
 70
     0
 43
0.0
 10
-1.36848287138523
 20
2.405942599696615
 10
-1.399914749732128
 20
2.39928952494962
 10
-1.431630557077846
 20
2.396875
  0
LINE
  5
16B
330
137
100
AcDbEntity
  8
AM_4
100
AcDbLine
 10
-0.9895967572295387
 20
2.487807400303386
 30
0.0
 11
-0.9895967572295387
 21
2.405942599696615
 31
0.0
  0
LWPOLYLINE
  5
16C
330
137
100
AcDbEntity
  8
AM_4
100
AcDbPolyline
 90
        3
 70
     0
 43
0.0
 10
-1.052744442922154
 20
2.496875
 10
-1.021170600075846
 20
2.494481619214965
 10
-0.9895967572295387
 20
2.487807400303386
  0
LWPOLYLINE
  5
16D
330
137
100
AcDbEntity
  8
AM_4
100
AcDbPolyline
 90
        3
 70
     0
 43
0.0
 10
-1.115892128614769
 20
2.487807400303386
 10
-1.084460250267872
 20
2.49446047505038
 10
-1.052744442922154
 20
2.496875
  0
LWPOLYLINE
  5
16E
330
137
100
AcDbEntity
  8
AM_4
100
AcDbPolyline
 90
        3
 70
     0
 43
0.0
 10
-1.052744442922154
 20
2.396875
 10
-1.084318285768462
 20
2.399268380785035
 10
-1.115892128614769
 20
2.405942599696615
  0
LWPOLYLINE
  5
16F
330
137
100
AcDbEntity
  8
AM_4
100
AcDbPolyline
 90
        3
 70
     0
 43
0.0
 10
-0.9895967572295387
 20
2.405942599696615
 10
-1.021028635576436
 20
2.39928952494962
 10
-1.052744442922154
 20
2.396875
  0
LINE
  5
170
330
137
100
AcDbEntity
  8
AM_4
100
AcDbLine
 10
-1.115892128614769
 20
2.487807400303386
 30
0.0
 11
-1.115892128614769
 21
2.405942599696615
 31
0.0
  0
LWPOLYLINE
  5
171
330
137
100
AcDbEntity
  8
AM_4
100
AcDbPolyline
 90
        4
 70
     0
 43
0.0
 10
-1.2421875
 20
2.496875
 10
-1.193787683944101
 20
2.495457439282863
 10
-1.145387867888202
 20
2.491392587482157
 10
-1.115892128614769
 20
2.487807400303386
  0
LWPOLYLINE
  5
172
330
137
100
AcDbEntity
  8
AM_4
100
AcDbPolyline
 90
        3
 70
     0
 43
0.0
 10
-1.36848287138523
 20
2.487807400303386
 10
-1.305619114691437
 20
2.49446047505038
 10
-1.2421875
 20
2.496875
  0
LINE
  5
173
330
137
100
AcDbEntity
  8
AM_4
100
AcDbLine
 10
-1.36848287138523
 20
2.487807400303386
 30
0.0
 11
-1.36848287138523
 21
2.405942599696615
 31
0.0
  0
LWPOLYLINE
  5
174
330
137
100
AcDbEntity
  8
AM_4
100
AcDbPolyline
 90
        3
 70
     0
 43
0.0
 10
-1.2421875
 20
2.396875
 10
-1.305335185692615
 20
2.399268380785035
 10
-1.36848287138523
 20
2.405942599696615
  0
LWPOLYLINE
  5
175
330
137
100
AcDbEntity
  8
AM_4
100
AcDbPolyline
 90
        4
 70
     0
 43
0.0
 10
-1.115892128614769
 20
2.405942599696615
 10
-1.145387867888202
 20
2.402357412517844
 10
-1.193645058752246
 20
2.398300828243072
 10
-1.2421875
 20
2.396875
  0
ENDBLK
  5
13A
330
137
100
AcDbEntity
  8
0
100
AcDbBlockEnd
  0
BLOCK
  5
178
330
176
100
AcDbEntity
  8
0
100
AcDbBlockBegin
  2
5_070477H_0_in_070477_2
 70
     2
 10
0.0
 20
0.0
 30
0.0
  3
5_070477H_0_in_070477_2
  1

  0
ATTDEF
  5
17A
330
176
100
AcDbEntity
  8
AM_6
100
AcDbText
 10
5.029605263157895
 20
3.334404205607476
 30
0.0
 40
0.5
  1
F3&4R-S2 -(Contact Seal)-Housing
100
AcDbAttributeDefinition
  3

  2
NN
 70
     8
280
     0
  0
ATTDEF
  5
17B
330
176
100
AcDbEntity
  8
AM_6
100
AcDbText
 10
5.029605263157895
 20
2.834404205607476
 30
0.0
 40
0.5
  1
S-2000 3 & 4 Bolt Round Flange Bearing -Inch
100
AcDbAttributeDefinition
  3

  2
NT
 70
     8
280
     0
  0
ATTDEF
  5
17C
330
176
100
AcDbEntity
  8
AM_6
100
AcDbText
 10
5.029605263157895
 20
2.334404205607476
 30
0.0
 40
0.5
  1
070477H
100
AcDbAttributeDefinition
  3

  2
NB
 70
     8
280
     0
  0
ATTDEF
  5
17D
330
176
100
AcDbEntity
  8
AM_6
100
AcDbText
 10
5.029605263157895
 20
1.834404205607476
 30
0.0
 40
0.5
  1
$PN.H
100
AcDbAttributeDefinition
  3

  2
NBSYN
 70
     8
280
     0
  0
ATTDEF
  5
17E
330
176
100
AcDbEntity
  8
AM_6
100
AcDbText
 10
5.029605263157895
 20
1.334404205607476
 30
0.0
 40
0.5
  1
070477
100
AcDbAttributeDefinition
  3

  2
LINA
 70
     8
280
     0
  0
ATTDEF
  5
17F
330
176
100
AcDbEntity
  8
AM_6
100
AcDbText
 10
5.029605263157895
 20
0.8344042056074761
 30
0.0
 40
0.5
  1
2
100
AcDbAttributeDefinition
  3

  2
SS
 70
     8
280
     0
  0
ATTDEF
  5
180
330
176
100
AcDbEntity
  8
AM_6
100
AcDbText
 10
5.029605263157895
 20
0.3344042056074761
 30
0.0
 40
0.5
  1
070477
100
AcDbAttributeDefinition
  3

  2
PN
 70
     8
280
     0
  0
ATTDEF
  5
181
330
176
100
AcDbEntity
  8
AM_6
100
AcDbText
 10
5.029605263157895
 20
-0.1655957943925239
 30
0.0
 40
0.5
  1
F4R-S2-200RE
100
AcDbAttributeDefinition
  3

  2
DESCRIPTION
 70
     8
280
     0
  0
ATTDEF
  5
182
330
176
100
AcDbEntity
  8
AM_6
100
AcDbText
 10
5.029605263157895
 20
-0.6655957943925239
 30
0.0
 40
0.5
  1
Expansion Type
100
AcDbAttributeDefinition
  3

  2
EF
 70
     8
280
     0
  0
ATTDEF
  5
183
330
176
100
AcDbEntity
  8
AM_6
100
AcDbText
 10
5.029605263157895
 20
-1.165595794392524
 30
0.0
 40
0.5
  1
2-27/32
100
AcDbAttributeDefinition
  3

  2
A
 70
     8
280
     0
  0
ATTDEF
  5
184
330
176
100
AcDbEntity
  8
AM_6
100
AcDbText
 10
5.029605263157895
 20
-1.665595794392524
 30
0.0
 40
0.5
  1
6-11/16
100
AcDbAttributeDefinition
  3

  2
B
 70
     8
280
     0
  0
ATTDEF
  5
185
330
176
100
AcDbEntity
  8
AM_6
100
AcDbText
 10
5.029605263157895
 20
-2.165595794392524
 30
0.0
 40
0.5
  1
3-9/64
100
AcDbAttributeDefinition
  3

  2
C
 70
     8
280
     0
  0
ATTDEF
  5
186
330
176
100
AcDbEntity
  8
AM_6
100
AcDbText
 10
5.029605263157895
 20
-2.665595794392524
 30
0.0
 40
0.5
  1
5-3/4
100
AcDbAttributeDefinition
  3

  2
DD
 70
     8
280
     0
  0
ATTDEF
  5
187
330
176
100
AcDbEntity
  8
AM_6
100
AcDbText
 10
5.029605263157895
 20
-3.165595794392524
 30
0.0
 40
0.5
  1
1-59/64
100
AcDbAttributeDefinition
  3

  2
E
 70
     8
280
     0
  0
ATTDEF
  5
188
330
176
100
AcDbEntity
  8
AM_6
100
AcDbText
 10
5.029605263157895
 20
-3.665595794392524
 30
0.0
 40
0.5
  1
1/2
100
AcDbAttributeDefinition
  3

  2
F
 70
     8
280
     0
  0
ATTDEF
  5
189
330
176
100
AcDbEntity
  8
AM_6
100
AcDbText
 10
5.029605263157895
 20
-4.165595794392524
 30
0.0
 40
0.5
  1
9/16
100
AcDbAttributeDefinition
  3

  2
H
 70
     8
280
     0
  0
ATTDEF
  5
18A
330
176
100
AcDbEntity
  8
AM_6
100
AcDbText
 10
5.029605263157895
 20
-4.665595794392524
 30
0.0
 40
0.5
  1
4-19/32
100
AcDbAttributeDefinition
  3

  2
J
 70
     8
280
     0
  0
ATTDEF
  5
18B
330
176
100
AcDbEntity
  8
AM_6
100
AcDbText
 10
5.029605263157895
 20
-5.165595794392524
 30
0.0
 40
0.5
  1
3-7/16
100
AcDbAttributeDefinition
  3

  2
L
 70
     8
280
     0
  0
ATTDEF
  5
18C
330
176
100
AcDbEntity
  8
AM_6
100
AcDbText
 10
5.029605263157895
 20
-5.665595794392524
 30
0.0
 40
0.5
  1
19/64
100
AcDbAttributeDefinition
  3

  2
P
 70
     8
280
     0
  0
ATTDEF
  5
18D
330
176
100
AcDbEntity
  8
AM_6
100
AcDbText
 10
5.029605263157895
 20
-6.165595794392524
 30
0.0
 40
0.5
  1
1/4
100
AcDbAttributeDefinition
  3

  2
X
 70
     8
280
     0
  0
ATTDEF
  5
18E
330
176
100
AcDbEntity
  8
AM_6
100
AcDbText
 10
5.029605263157895
 20
-6.665595794392524
 30
0.0
 40
0.5
  1
0.020
100
AcDbAttributeDefinition
  3

  2
Y
 70
     8
280
     0
  0
ATTDEF
  5
18F
330
176
100
AcDbEntity
  8
AM_6
100
AcDbText
 10
5.029605263157895
 20
-7.165595794392524
 30
0.0
 40
0.5
  1
2-19/64
100
AcDbAttributeDefinition
  3

  2
Z
 70
     8
280
     0
  0
ATTDEF
  5
190
330
176
100
AcDbEntity
  8
AM_6
100
AcDbText
 10
5.029605263157895
 20
-7.665595794392524
 30
0.0
 40
0.5
  1
baldor
100
AcDbAttributeDefinition
  3

  2
COMPANY
 70
     8
280
     0
  0
LINE
  5
191
330
176
100
AcDbEntity
  8
AM_9
100
AcDbLine
 10
-0.4821428571428572
 20
3.093749999999963
 30
0.0
 11
0.0
 21
3.093749999999963
 31
0.0
  0
LINE
  5
192
330
176
100
AcDbEntity
  8
AM_9
100
AcDbLine
 10
-0.5625
 20
-2.062787424943457
 30
0.0
 11
-0.4821428571428571
 21
-2.062787424943457
 31
0.0
  0
LINE
  5
193
330
176
100
AcDbEntity
  8
AM_9
100
AcDbLine
 10
-0.4821428571428571
 20
-2.026617833801255
 30
0.0
 11
-0.5732053907295622
 21
-2.026617833801255
 31
0.0
  0
LINE
  5
194
330
176
100
AcDbEntity
  8
AM_9
100
AcDbLine
 10
-0.5625
 20
2.062787424943457
 30
0.0
 11
-0.4821428571428571
 21
2.062787424943457
 31
0.0
  0
LINE
  5
195
330
176
100
AcDbEntity
  8
AM_9
100
AcDbLine
 10
-0.5731898178453925
 20
2.026617833801255
 30
0.0
 11
-0.4821428571428571
 21
2.026617833801255
 31
0.0
  0
LINE
  5
196
330
176
100
AcDbEntity
  8
AM_9
100
AcDbLine
 10
-1.921875
 20
-1.77165
 30
0.0
 11
-0.0803571428571428
 21
-1.77165
 31
0.0
  0
LINE
  5
197
330
176
100
AcDbEntity
  8
AM_9
100
AcDbLine
 10
-0.0803571428571428
 20
1.77165
 30
0.0
 11
-1.921875
 21
1.77165
 31
0.0
  0
LINE
  5
198
330
176
100
AcDbEntity
  8
AM_9
100
AcDbLine
 10
-0.0803571428571429
 20
1.9780125
 30
0.0
 11
-0.0803571428571429
 21
-1.9780125
 31
0.0
  0
ARC
  5
199
330
176
100
AcDbEntity
  8
AM_9
100
AcDbCircle
 10
-0.0241071428571427
 20
-1.9780125
 30
0.0
 40
0.0562500000000002
100
AcDbArc
 50
180.0
 51
270.0
  0
ARC
  5
19A
330
176
100
AcDbEntity
  8
AM_9
100
AcDbCircle
 10
-0.0241071428571428
 20
1.9780125
 30
0.0
 40
0.0562500000000001
100
AcDbArc
 50
90.0
 51
180.0
  0
LINE
  5
19B
330
176
100
AcDbEntity
  8
AM_9
100
AcDbLine
 10
-0.0241071428571432
 20
-2.0342625
 30
0.0
 11
0.0
 21
-2.0342625
 31
0.0
  0
LINE
  5
19C
330
176
100
AcDbEntity
  8
AM_9
100
AcDbLine
 10
0.0
 20
2.0342625
 30
0.0
 11
-0.0241071428571432
 21
2.0342625
 31
0.0
  0
LINE
  5
19D
330
176
100
AcDbEntity
  8
AM_9
100
AcDbLine
 10
-0.0241071428571432
 20
2.0342625
 30
0.0
 11
-0.0241071428571432
 21
-2.0342625
 31
0.0
  0
LINE
  5
19E
330
176
100
AcDbEntity
  8
AM_9
100
AcDbLine
 10
-0.4821428571428571
 20
-2.060046360204152
 30
0.0
 11
-0.482142857142857
 21
-2.633794421800918
 31
0.0
  0
LINE
  5
19F
330
176
100
AcDbEntity
  8
AM_9
100
AcDbLine
 10
-0.482142857142857
 20
2.633794421800918
 30
0.0
 11
-0.4821428571428571
 21
2.060046360204151
 31
0.0
  0
LINE
  5
1A0
330
176
100
AcDbEntity
  8
AM_9
100
AcDbLine
 10
-0.5624999999999999
 20
1.782931995911324
 30
0.0
 11
0.0000000000000001
 21
1.782931995911324
 31
0.0
  0
LINE
  5
1A1
330
176
100
AcDbEntity
  8
AM_9
100
AcDbLine
 10
0.0000000000000001
 20
2.282931995911324
 30
0.0
 11
-0.5624999999999999
 21
2.282931995911324
 31
0.0
  0
LINE
  5
1A2
330
176
100
AcDbEntity
  8
AM_9
100
AcDbLine
 10
-0.5624999999999999
 20
-2.282931995911324
 30
0.0
 11
0.0000000000000001
 21
-2.282931995911324
 31
0.0
  0
LINE
  5
1A3
330
176
100
AcDbEntity
  8
AM_9
100
AcDbLine
 10
0.0000000000000001
 20
-1.782931995911324
 30
0.0
 11
-0.5624999999999999
 21
-1.782931995911324
 31
0.0
  0
LINE
  5
1A4
330
176
100
AcDbEntity
  8
AM_9
100
AcDbLine
 10
-0.5624999999999999
 20
-2.0482654666382
 30
0.0
 11
-0.4821428571428571
 21
-2.0482654666382
 31
0.0
  0
LINE
  5
1A5
330
176
100
AcDbEntity
  8
AM_9
100
AcDbLine
 10
-0.5624999999999999
 20
2.0482654666382
 30
0.0
 11
-0.4821428571428571
 21
2.0482654666382
 31
0.0
  0
LINE
  5
1A6
330
176
100
AcDbEntity
  8
AM_9
100
AcDbLine
 10
-0.5624999999999999
 20
-2.296875
 30
0.0
 11
-0.4821428571428572
 21
-2.296875
 31
0.0
  0
LINE
  5
1A7
330
176
100
AcDbEntity
  8
AM_9
100
AcDbLine
 10
-0.4821428571428572
 20
2.296875
 30
0.0
 11
-0.5624999999999999
 21
2.296875
 31
0.0
  0
LINE
  5
1A8
330
176
100
AcDbEntity
  8
AM_7
100
AcDbLine
 10
0.0296052631578946
 20
2.032931995911324
 30
0.0
 11
-0.6217105263157896
 21
2.032931995911324
 31
0.0
  0
LINE
  5
1A9
330
176
100
AcDbEntity
  8
AM_7
100
AcDbLine
 10
0.0296052631578946
 20
-2.032931995911324
 30
0.0
 11
-0.6217105263157896
 21
-2.032931995911324
 31
0.0
  0
LINE
  5
1AA
330
176
100
AcDbEntity
  8
AM_7
100
AcDbLine
 10
-1.2734375
 20
2.42313625
 30
0.0
 11
-1.2734375
 21
1.84538875
 31
0.0
  0
LINE
  5
1AB
330
176
100
AcDbEntity
  8
AM_4
100
AcDbLine
 10
-1.6734375
 20
2.396875
 30
0.0
 11
-0.8734375000836634
 21
2.396875
 31
0.0
  0
ARC
  5
1AC
330
176
100
AcDbEntity
  8
AM_4
100
AcDbCircle
 10
-0.8734374999999998
 20
2.296875
 30
0.0
 40
0.0999999999999995
100
AcDbArc
 50
0.0
 51
90.0
  0
ARC
  5
1AD
330
176
100
AcDbEntity
  8
AM_4
100
AcDbCircle
 10
-1.6734375
 20
2.296875
 30
0.0
 40
0.1000000000000001
100
AcDbArc
 50
90.0
 51
180.0
  0
LINE
  5
1AE
330
176
100
AcDbEntity
  8
AM_4
100
AcDbLine
 10
-1.7734375
 20
2.296875
 30
0.0
 11
-0.7734375000000002
 21
2.296875
 31
0.0
  0
LWPOLYLINE
  5
1AF
330
176
100
AcDbEntity
  8
AM_4
100
AcDbPolyline
 90
        5
 70
     0
 43
0.0
 10
-0.5730913806764986
 20
-2.026617836768392
 10
-0.5800677394446556
 20
-2.027429798814366
 10
-0.5979898156122639
 20
-2.034300284745124
 10
-0.6184895373841407
 20
-2.048052807199478
 10
-0.6187499999999985
 20
-2.0482654666382
  0
LWPOLYLINE
  5
1B0
330
176
100
AcDbEntity
  8
AM_4
100
AcDbPolyline
 90
        4
 70
     0
 43
0.0
 10
-0.5730898441634658
 20
2.026617836060848
 10
-0.5720756513840444
 20
2.026639183036962
 10
-0.5659141180948357
 20
2.028165572181105
 10
-0.5624999999999918
 20
2.033914899300315
  0
LWPOLYLINE
  5
1B1
330
176
100
AcDbEntity
  8
AM_4
100
AcDbPolyline
 90
        8
 70
     0
 43
0.0
 10
-0.6187499999999998
 20
-1.039347556788583
 10
-0.6184895373841971
 20
-1.039767875406605
 10
-0.5986036666290827
 20
-1.073817346582919
 10
-0.5889395600250323
 20
-1.092474170004235
 10
-0.580067739446291
 20
-1.111845048930242
 10
-0.5720756513847485
 20
-1.132770766079201
 10
-0.565914118095049
 20
-1.154682010862975
 10
-0.5624999999999999
 20
-1.183379671968891
  0
LWPOLYLINE
  5
1B2
330
176
100
AcDbEntity
  8
AM_4
100
AcDbPolyline
 90
        4
 70
     0
 43
0.0
 10
-0.5624999999999918
 20
-2.033914899300315
 10
-0.5659141180947824
 20
-2.028165572181135
 10
-0.5719395866345254
 20
-2.026645514507291
 10
-0.5730913806764986
 20
-2.026617836768392
  0
LWPOLYLINE
  5
1B3
330
176
100
AcDbEntity
  8
AM_4
100
AcDbPolyline
 90
        6
 70
     0
 43
0.0
 10
-0.6187499999999998
 20
2.048265466638201
 10
-0.618489537384152
 20
2.048052807199475
 10
-0.5986036666283079
 20
2.034626942958523
 10
-0.5889395600239385
 20
2.030141082610567
 10
-0.5800677394449824
 20
2.027429798814436
 10
-0.5730898441634658
 20
2.026617836060848
  0
LWPOLYLINE
  5
1B4
330
176
100
AcDbEntity
  8
AM_4
100
AcDbPolyline
 90
        7
 70
     0
 43
0.0
 10
-0.5624999999999999
 20
1.183379671968889
 10
-0.5659141180949683
 20
1.154682010863339
 10
-0.5719395866351213
 20
1.133175957329319
 10
-0.5800677394457963
 20
1.111845048931407
 10
-0.5979898156129785
 20
1.074949020949796
 10
-0.6184895373841802
 20
1.039767875406593
 10
-0.6187499999999998
 20
1.039347556788582
  0
LINE
  5
1B5
330
176
100
AcDbEntity
  8
AM_4
100
AcDbLine
 10
-1.921875
 20
2.240625
 30
0.0
 11
-1.921875
 21
-2.240625
 31
0.0
  0
ARC
  5
1B6
330
176
100
AcDbEntity
  8
AM_4
100
AcDbCircle
 10
-1.865625
 20
-2.240625
 30
0.0
 40
0.0562500000000001
100
AcDbArc
 50
180.0
 51
270.0
  0
ARC
  5
1B7
330
176
100
AcDbEntity
  8
AM_4
100
AcDbCircle
 10
-1.865625
 20
2.240625
 30
0.0
 40
0.0562499999999999
100
AcDbArc
 50
90.0
 51
180.0
  0
LINE
  5
1B8
330
176
100
AcDbEntity
  8
AM_4
100
AcDbLine
 10
-0.6187499999999999
 20
-2.0482654666382
 30
0.0
 11
-0.5624999999999999
 21
-2.0482654666382
 31
0.0
  0
LINE
  5
1B9
330
176
100
AcDbEntity
  8
AM_4
100
AcDbLine
 10
-0.6187499999999998
 20
-1.039347556788583
 30
0.0
 11
-0.6187499999999999
 21
-2.0482654666382
 31
0.0
  0
LINE
  5
1BA
330
176
100
AcDbEntity
  8
AM_4
100
AcDbLine
 10
-0.6187499999999998
 20
-1.039347556788583
 30
0.0
 11
-0.482142857142857
 21
-1.039347556788583
 31
0.0
  0
LINE
  5
1BB
330
176
100
AcDbEntity
  8
AM_4
100
AcDbLine
 10
-0.6187499999999998
 20
1.039347556788582
 30
0.0
 11
-0.482142857142857
 21
1.039347556788582
 31
0.0
  0
LINE
  5
1BC
330
176
100
AcDbEntity
  8
AM_4
100
AcDbLine
 10
-0.6187499999999999
 20
2.048265466638201
 30
0.0
 11
-0.6187499999999998
 21
1.039347556788582
 31
0.0
  0
LINE
  5
1BD
330
176
100
AcDbEntity
  8
AM_4
100
AcDbLine
 10
-0.6187499999999999
 20
2.048265466638201
 30
0.0
 11
-0.5624999999999999
 21
2.0482654666382
 31
0.0
  0
LWPOLYLINE
  5
1BE
330
176
100
AcDbEntity
  8
AM_4
100
AcDbPolyline
 90
       37
 70
     0
 43
0.0
 10
-0.7734375000000002
 20
2.296875
 10
-0.7760387802900922
 20
2.296310138459972
 10
-0.7839255537962102
 20
2.29461471953381
 10
-0.7938085704929378
 20
2.292526272485224
 10
-0.8068366957064089
 20
2.289836473679382
 10
-0.8234233673202423
 20
2.286513983793867
 10
-0.8431108807819955
 20
2.282721131639299
 10
-0.8654414337107073
 20
2.2786169960512
 10
-0.8904998462425047
 20
2.274263839639169
 10
-0.9189383431037628
 20
2.269648791676892
 10
-0.9498904768789682
 20
2.265020406485443
 10
-0.9828095554421966
 20
2.260553472806502
 10
-1.017771062364865
 20
2.256324465354671
 10
-1.055655852207303
 20
2.252347286136701
 10
-1.095189666631809
 20
2.248867949819521
 10
-1.13465691308525
 20
2.24608553698216
 10
-1.175120709775279
 20
2.243947627923855
 10
-1.217557069200765
 20
2.242490689711713
 10
-1.260424285897766
 20
2.241830526459632
 10
-1.301244396476064
 20
2.241966525673404
 10
-1.341870613867497
 20
2.242837010729625
 10
-1.38318490892064
 20
2.244478834976119
 10
-1.423695356614889
 20
2.24682268750774
 10
-1.461900478165372
 20
2.249701591382225
 10
-1.498829359167583
 20
2.253094817313293
 10
-1.535204856171549
 20
2.257024621458474
 10
-1.569739463975601
 20
2.261289371018402
 10
-1.60195740889649
 20
2.265736480868252
 10
-1.631931717280427
 20
2.270275945661344
 10
-1.660203249892078
 20
2.274911630599579
 10
-1.685701109087179
 20
2.279385015525588
 10
-1.707896644810565
 20
2.283503590535186
 10
-1.727073824442036
 20
2.287229914214634
 10
-1.743509116551049
 20
2.290545769214652
 10
-1.756461941164528
 20
2.293239493900998
 10
-1.769095843793157
 20
2.295933788112535
 10
-1.7734375
 20
2.296875
  0
LINE
  5
1BF
330
176
100
AcDbEntity
  8
AM_4
100
AcDbLine
 10
-1.865625
 20
-2.296875
 30
0.0
 11
-0.5624999999999999
 21
-2.296875
 31
0.0
  0
LINE
  5
1C0
330
176
100
AcDbEntity
  8
AM_4
100
AcDbLine
 10
-0.5624999999999999
 20
2.296875
 30
0.0
 11
-0.7734375000000002
 21
2.296875
 31
0.0
  0
LINE
  5
1C1
330
176
100
AcDbEntity
  8
AM_4
100
AcDbLine
 10
-1.773437500000001
 20
2.296875
 30
0.0
 11
-1.865625
 21
2.296875
 31
0.0
  0
LINE
  5
1C2
330
176
100
AcDbEntity
  8
AM_4
100
AcDbLine
 10
-1.865625
 20
2.296875
 30
0.0
 11
-1.865625
 21
-2.296875
 31
0.0
  0
LINE
  5
1C3
330
176
100
AcDbEntity
  8
AM_4
100
AcDbLine
 10
-0.5624999999999999
 20
1.244563855806368
 30
0.0
 11
-0.482142857142857
 21
1.244563855806368
 31
0.0
  0
LWPOLYLINE
  5
1C4
330
176
100
AcDbEntity
  8
AM_4
100
AcDbPolyline
 90
        7
 70
     0
 43
0.0
 10
-0.5624999999999999
 20
2.600035236974492
 10
-0.5623251654476968
 20
2.602696856135985
 10
-0.5573135435887469
 20
2.614200844121492
 10
-0.5459120195149565
 20
2.623979636149334
 10
-0.5299021447981536
 20
2.630667233515788
 10
-0.5117060501043071
 20
2.633635364369641
 10
-0.5062500000000002
 20
2.633794421800917
  0
LINE
  5
1C5
330
176
100
AcDbEntity
  8
AM_4
100
AcDbLine
 10
-0.5624999999999999
 20
2.600035236974492
 30
0.0
 11
-0.5624999999999999
 21
1.183379671968889
 31
0.0
  0
LWPOLYLINE
  5
1C6
330
176
100
AcDbEntity
  8
AM_4
100
AcDbPolyline
 90
        6
 70
     0
 43
0.0
 10
-0.5062500000000002
 20
2.060046360204151
 10
-0.5242541623511274
 20
2.057511908587507
 10
-0.540229820959118
 20
2.050261453963906
 10
-0.552741482018989
 20
2.03898263398551
 10
-0.5605412957507742
 20
2.024452930725007
 10
-0.5624999999999999
 20
2.011833247685054
  0
LINE
  5
1C7
330
176
100
AcDbEntity
  8
AM_4
100
AcDbLine
 10
-0.5624999999999999
 20
-1.24456385580637
 30
0.0
 11
-0.482142857142857
 21
-1.24456385580637
 31
0.0
  0
LWPOLYLINE
  5
1C8
330
176
100
AcDbEntity
  8
AM_4
100
AcDbPolyline
 90
        7
 70
     0
 43
0.0
 10
-0.5624999999999999
 20
-2.011833247685054
 10
-0.5623251654476968
 20
-2.015634433785246
 10
-0.5573135435887469
 20
-2.032063831296333
 10
-0.5459120195149574
 20
-2.046029393639242
 10
-0.5299021447981533
 20
-2.055580272488037
 10
-0.5117060501043073
 20
-2.059819202650717
 10
-0.5062500000000002
 20
-2.060046360204152
  0
LINE
  5
1C9
330
176
100
AcDbEntity
  8
AM_4
100
AcDbLine
 10
-0.5624999999999999
 20
-1.183379671968891
 30
0.0
 11
-0.5624999999999999
 21
-2.600035236974493
 31
0.0
  0
LWPOLYLINE
  5
1CA
330
176
100
AcDbEntity
  8
AM_4
100
AcDbPolyline
 90
        6
 70
     0
 43
0.0
 10
-0.5062500000000002
 20
-2.633794421800918
 10
-0.5242541623511274
 20
-2.632019779673716
 10
-0.5402298209591178
 20
-2.626942956690822
 10
-0.552741482018989
 20
-2.619045441919839
 10
-0.5605412957507742
 20
-2.608871634168885
 10
-0.5624999999999999
 20
-2.600035236974493
  0
LINE
  5
1CB
330
176
100
AcDbEntity
  8
AM_4
100
AcDbLine
 10
-0.482142857142857
 20
2.060046360204151
 30
0.0
 11
-0.482142857142857
 21
-2.060046360204152
 31
0.0
  0
LINE
  5
1CC
330
176
100
AcDbEntity
  8
AM_4
100
AcDbLine
 10
0.0
 20
3.334404205607476
 30
0.0
 11
0.0
 21
-3.34375
 31
0.0
  0
LINE
  5
1CD
330
176
100
AcDbEntity
  8
AM_4
100
AcDbLine
 10
-0.4821428571428572
 20
3.334404205607476
 30
0.0
 11
0.0
 21
3.334404205607476
 31
0.0
  0
LINE
  5
1CE
330
176
100
AcDbEntity
  8
AM_4
100
AcDbLine
 10
-0.4821428571428572
 20
3.334404205607476
 30
0.0
 11
-0.482142857142857
 21
2.633794421800918
 31
0.0
  0
LINE
  5
1CF
330
176
100
AcDbEntity
  8
AM_4
100
AcDbLine
 10
-0.5062500000000002
 20
2.633794421800917
 30
0.0
 11
-0.482142857142857
 21
2.633794421800918
 31
0.0
  0
LINE
  5
1D0
330
176
100
AcDbEntity
  8
AM_4
100
AcDbLine
 10
-0.5062500000000002
 20
2.633794421800917
 30
0.0
 11
-0.5062500000000002
 21
2.060046360204151
 31
0.0
  0
LINE
  5
1D1
330
176
100
AcDbEntity
  8
AM_4
100
AcDbLine
 10
-0.482142857142857
 20
2.060046360204151
 30
0.0
 11
-0.5062500000000002
 21
2.060046360204151
 31
0.0
  0
LINE
  5
1D2
330
176
100
AcDbEntity
  8
AM_4
100
AcDbLine
 10
-0.5062500000000002
 20
-2.060046360204152
 30
0.0
 11
-0.482142857142857
 21
-2.060046360204152
 31
0.0
  0
LINE
  5
1D3
330
176
100
AcDbEntity
  8
AM_4
100
AcDbLine
 10
-0.5062500000000002
 20
-2.060046360204152
 30
0.0
 11
-0.5062500000000002
 21
-2.633794421800918
 31
0.0
  0
LINE
  5
1D4
330
176
100
AcDbEntity
  8
AM_4
100
AcDbLine
 10
-0.482142857142857
 20
-2.633794421800918
 30
0.0
 11
-0.5062500000000002
 21
-2.633794421800918
 31
0.0
  0
LINE
  5
1D5
330
176
100
AcDbEntity
  8
AM_4
100
AcDbLine
 10
-0.482142857142857
 20
-2.633794421800918
 30
0.0
 11
-0.4821428571428572
 21
-3.34375
 31
0.0
  0
LINE
  5
1D6
330
176
100
AcDbEntity
  8
AM_4
100
AcDbLine
 10
-0.4821428571428572
 20
-3.34375
 30
0.0
 11
0.0
 21
-3.34375
 31
0.0
  0
ENDBLK
  5
179
330
176
100
AcDbEntity
  8
0
100
AcDbBlockEnd
  0
ENDSEC
  0
SECTION
  2
ENTITIES
  0
INSERT
  5
6F
330
1F
100
AcDbEntity
  8
0
100
AcDbBlockReference
  2
1_070477_2
 10
0.0
 20
0.0
 30
0.0
  0
POINT
  5
1D8
330
1F
100
AcDbEntity
  8
ConnectionPoints
100
AcDbPoint
 10
-2.890625
 20
0.0
 30
0.0000000000000002
  0
POINT
  5
1D9
330
1F
100
AcDbEntity
  8
ConnectionPoints
100
AcDbPoint
 10
0.8428750000000003
 20
0.0
 30
-0.0000000000000001
  0
POINT
  5
1DA
330
1F
100
AcDbEntity
  8
ConnectionPoints
100
AcDbPoint
 10
-2.890625
 20
0.0
 30
0.0000000000000002
  0
POINT
  5
1DB
330
1F
100
AcDbEntity
  8
ConnectionPoints
100
AcDbPoint
 10
-1.2421875
 20
2.396875
 30
0.0000000000000001
  0
POINT
  5
1DC
330
1F
100
AcDbEntity
  8
ConnectionPoints
100
AcDbPoint
 10
-1.2421875
 20
2.396875
 30
0.0000000000000001
  0
POINT
  5
1DD
330
1F
100
AcDbEntity
  8
ConnectionPoints
100
AcDbPoint
 10
-2.890625
 20
0.0
 30
0.0000000000000002
  0
POINT
  5
1DE
330
1F
100
AcDbEntity
  8
ConnectionPoints
100
AcDbPoint
 10
-3.140625
 20
0.0
 30
0.0000000000000002
  0
ENDSEC
  0
SECTION
  2
OBJECTS
  0
DICTIONARY
  5
C
330
0
100
AcDbDictionary
281
     1
  3
ACAD_DETAILVIEWSTYLE
350
1E6
  3
ACAD_GROUP
350
D
  3
ACAD_LAYOUT
350
1A
  3
ACAD_MATERIAL
350
43
  3
ACAD_MLEADERSTYLE
350
6B
  3
ACAD_MLINESTYLE
350
17
  3
ACAD_PLOTSETTINGS
350
19
  3
ACAD_PLOTSTYLENAME
350
E
  3
ACAD_SCALELIST
350
47
  3
ACAD_SECTIONVIEWSTYLE
350
1E7
  3
ACAD_TABLESTYLE
350
69
  3
ACAD_VISUALSTYLE
350
2A
  3
ACDB_RECOMPOSE_DATA
350
1E3
  3
AcDbVariableDictionary
350
1DF
  0
SUN
  5
6D
330
29
100
AcDbSun
 90
        1
290
     0
 63
     7
421
 16777215
 40
1.0
291
     1
 91
  2455826
 92
 54000000
292
     0
 70
     2
 71
   256
280
     1
  0
DICTIONARY
  5
1E6
102
{ACAD_REACTORS
330
C
102
}
330
C
100
AcDbDictionary
281
     1
  0
DICTIONARY
  5
D
102
{ACAD_REACTORS
330
C
102
}
330
C
100
AcDbDictionary
281
     1
  0
DICTIONARY
  5
1A
102
{ACAD_REACTORS
330
C
102
}
330
C
100
AcDbDictionary
281
     1
  3
Layout1
350
1E
  3
Layout2
350
26
  3
Model
350
22
  0
DICTIONARY
  5
43
102
{ACAD_REACTORS
330
C
102
}
330
C
100
AcDbDictionary
281
     1
  3
ByBlock
350
45
  3
ByLayer
350
44
  3
Global
350
46
  0
DICTIONARY
  5
6B
102
{ACAD_REACTORS
330
C
102
}
330
C
100
AcDbDictionary
281
     1
  3
Standard
350
6C
  0
DICTIONARY
  5
17
102
{ACAD_REACTORS
330
C
102
}
330
C
100
AcDbDictionary
281
     1
  3
Standard
350
18
  0
DICTIONARY
  5
19
102
{ACAD_REACTORS
330
C
102
}
330
C
100
AcDbDictionary
281
     1
  0
ACDBDICTIONARYWDFLT
  5
E
102
{ACAD_REACTORS
330
C
102
}
330
C
100
AcDbDictionary
281
     1
  3
Normal
350
F
100
AcDbDictionaryWithDefault
340
F
  0
DICTIONARY
  5
47
102
{ACAD_REACTORS
330
C
102
}
330
C
100
AcDbDictionary
281
     1
  3
A0
350
48
  3
A1
350
49
  3
A2
350
4A
  3
A3
350
4B
  3
A4
350
4C
  3
A5
350
4D
  3
A6
350
4E
  3
A7
350
4F
  3
A8
350
50
  3
A9
350
51
  3
B0
350
52
  3
B1
350
53
  3
B2
350
54
  3
B3
350
55
  3
B4
350
56
  3
B5
350
57
  3
B6
350
58
  3
B7
350
59
  3
B8
350
5A
  3
B9
350
5B
  3
C0
350
5C
  3
C1
350
5D
  3
C2
350
5E
  3
C3
350
5F
  3
C4
350
60
  3
C5
350
61
  3
C6
350
62
  3
C7
350
63
  3
C8
350
64
  3
C9
350
65
  3
D0
350
66
  3
D1
350
67
  3
D2
350
68
  0
DICTIONARY
  5
1E7
102
{ACAD_REACTORS
330
C
102
}
330
C
100
AcDbDictionary
281
     1
  0
DICTIONARY
  5
69
102
{ACAD_REACTORS
330
C
102
}
330
C
100
AcDbDictionary
281
     1
  3
Standard
350
6A
  0
DICTIONARY
  5
2A
102
{ACAD_REACTORS
330
C
102
}
330
C
100
AcDbDictionary
281
     1
  3
2dWireframe
350
2F
  3
Basic
350
32
  3
Brighten
350
36
  3
ColorChange
350
3A
  3
Conceptual
350
34
  3
Dim
350
35
  3
EdgeColorOff
350
3D
  3
Facepattern
350
39
  3
Flat
350
2B
  3
FlatWithEdges
350
2C
  3
Gouraud
350
2D
  3
GouraudWithEdges
350
2E
  3
Hidden
350
31
  3
JitterOff
350
3B
  3
Linepattern
350
38
  3
OverhangOff
350
3C
  3
Realistic
350
33
  3
Shaded
350
42
  3
Shaded with edges
350
41
  3
Shades of Gray
350
3E
  3
Sketchy
350
3F
  3
Thicken
350
37
  3
Wireframe
350
30
  3
X-Ray
350
40
  0
XRECORD
  5
1E3
102
{ACAD_REACTORS
330
C
102
}
330
C
100
AcDbXrecord
280
     1
 90
        1
330
6A
  0
DICTIONARY
  5
1DF
102
{ACAD_REACTORS
330
C
102
}
330
C
100
AcDbDictionary
281
     1
  3
CANNOSCALE
350
1E0
  3
CMLEADERSTYLE
350
1E5
  3
CTABLESTYLE
350
1E4
  0
LAYOUT
  5
1E
102
{ACAD_REACTORS
330
1A
102
}
330
1A
100
AcDbPlotSettings
  1

  2
none_device
  4

  6

 40
0.0
 41
0.0
 42
0.0
 43
0.0
 44
0.0
 45
0.0
 46
0.0
 47
0.0
 48
0.0
 49
0.0
140
0.0
141
0.0
142
1.0
143
1.0
 70
   688
 72
     0
 73
     0
 74
     5
  7

 75
    16
 76
     0
 77
     2
 78
   300
147
1.0
148
0.0
149
0.0
100
AcDbLayout
  1
Layout1
 70
     1
 71
     1
 10
0.0
 20
0.0
 11
12.0
 21
9.0
 12
0.0
 22
0.0
 32
0.0
 14
1.000000000000000E+20
 24
1.000000000000000E+20
 34
1.000000000000000E+20
 15
-1.000000000000000E+20
 25
-1.000000000000000E+20
 35
-1.000000000000000E+20
146
0.0
 13
0.0
 23
0.0
 33
0.0
 16
1.0
 26
0.0
 36
0.0
 17
0.0
 27
1.0
 37
0.0
 76
     0
330
1B
  0
LAYOUT
  5
26
102
{ACAD_REACTORS
330
1A
102
}
330
1A
100
AcDbPlotSettings
  1

  2
none_device
  4

  6

 40
0.0
 41
0.0
 42
0.0
 43
0.0
 44
0.0
 45
0.0
 46
0.0
 47
0.0
 48
0.0
 49
0.0
140
0.0
141
0.0
142
1.0
143
1.0
 70
   688
 72
     0
 73
     0
 74
     5
  7

 75
    16
 76
     0
 77
     2
 78
   300
147
1.0
148
0.0
149
0.0
100
AcDbLayout
  1
Layout2
 70
     1
 71
     2
 10
0.0
 20
0.0
 11
0.0
 21
0.0
 12
0.0
 22
0.0
 32
0.0
 14
0.0
 24
0.0
 34
0.0
 15
0.0
 25
0.0
 35
0.0
146
0.0
 13
0.0
 23
0.0
 33
0.0
 16
1.0
 26
0.0
 36
0.0
 17
0.0
 27
1.0
 37
0.0
 76
     0
330
23
  0
LAYOUT
  5
22
102
{ACAD_REACTORS
330
1A
102
}
330
1A
100
AcDbPlotSettings
  1

  2
none_device
  4
Letter_(8.50_x_11.00_Inches)
  6

 40
6.35
 41
6.35
 42
6.35000508
 43
6.35000508
 44
215.9
 45
279.4
 46
0.0
 47
0.0
 48
0.0
 49
0.0
140
0.0
141
0.0
142
1.0
143
1.0
 70
  1712
 72
     0
 73
     0
 74
     0
  7

 75
     0
 76
     0
 77
     2
 78
   300
147
1.0
148
0.0
149
0.0
100
AcDbLayout
  1
Model
 70
     1
 71
     0
 10
0.0
 20
0.0
 11
12.0
 21
9.0
 12
0.0
 22
0.0
 32
0.0
 14
1.000000000000000E+20
 24
1.000000000000000E+20
 34
1.000000000000000E+20
 15
-1.000000000000000E+20
 25
-1.000000000000000E+20
 35
-1.000000000000000E+20
146
0.0
 13
0.0
 23
0.0
 33
0.0
 16
1.0
 26
0.0
 36
0.0
 17
0.0
 27
1.0
 37
0.0
 76
     0
330
1F
331
29
  0
MATERIAL
  5
45
102
{ACAD_REACTORS
330
43
102
}
330
43
100
AcDbMaterial
  1
ByBlock
 72
     1
 94
      127
  0
MATERIAL
  5
44
102
{ACAD_REACTORS
330
43
102
}
330
43
100
AcDbMaterial
  1
ByLayer
 72
     1
 94
      127
  0
MATERIAL
  5
46
102
{ACAD_REACTORS
330
43
102
}
330
43
100
AcDbMaterial
  1
Global
 72
     1
 94
      127
  0
MLEADERSTYLE
  5
6C
102
{ACAD_REACTORS
330
6B
102
}
330
6B
100
AcDbMLeaderStyle
179
     2
170
     2
171
     1
172
     0
 90
        2
 40
0.0
 41
0.0
173
     1
 91
-1056964608
340
14
 92
       -2
290
     1
 42
0.09
291
     1
 43
0.36
  3
Standard
341
0
 44
0.18
300

342
11
174
     1
178
     6
175
     1
176
     0
 93
-1056964608
 45
0.18
292
     0
297
     0
 46
0.18
343
0
 94
-1056964608
 47
1.0
 49
1.0
140
1.0
293
     1
141
0.0
294
     1
177
     0
142
1.0
295
     0
296
     0
143
0.125
271
     0
272
     9
273
     9
298
     0
  0
MLINESTYLE
  5
18
102
{ACAD_REACTORS
330
17
102
}
330
17
100
AcDbMlineStyle
  2
Standard
 70
     0
  3

 62
   256
 51
90.0
 52
90.0
 71
     2
 49
0.5
 62
   256
  6
BYLAYER
 49
-0.5
 62
   256
  6
BYLAYER
  0
ACDBPLACEHOLDER
  5
F
102
{ACAD_REACTORS
330
E
102
}
330
E
  0
SCALE
  5
48
102
{ACAD_REACTORS
330
47
102
}
330
47
100
AcDbScale
 70
     0
300
1:1
140
1.0
141
1.0
290
     1
  0
SCALE
  5
49
102
{ACAD_REACTORS
330
47
102
}
330
47
100
AcDbScale
 70
     0
300
1:2
140
1.0
141
2.0
290
     0
  0
SCALE
  5
4A
102
{ACAD_REACTORS
330
47
102
}
330
47
100
AcDbScale
 70
     0
300
1:4
140
1.0
141
4.0
290
     0
  0
SCALE
  5
4B
102
{ACAD_REACTORS
330
47
102
}
330
47
100
AcDbScale
 70
     0
300
1:5
140
1.0
141
5.0
290
     0
  0
SCALE
  5
4C
102
{ACAD_REACTORS
330
47
102
}
330
47
100
AcDbScale
 70
     0
300
1:8
140
1.0
141
8.0
290
     0
  0
SCALE
  5
4D
102
{ACAD_REACTORS
330
47
102
}
330
47
100
AcDbScale
 70
     0
300
1:10
140
1.0
141
10.0
290
     0
  0
SCALE
  5
4E
102
{ACAD_REACTORS
330
47
102
}
330
47
100
AcDbScale
 70
     0
300
1:16
140
1.0
141
16.0
290
     0
  0
SCALE
  5
4F
102
{ACAD_REACTORS
330
47
102
}
330
47
100
AcDbScale
 70
     0
300
1:20
140
1.0
141
20.0
290
     0
  0
SCALE
  5
50
102
{ACAD_REACTORS
330
47
102
}
330
47
100
AcDbScale
 70
     0
300
1:30
140
1.0
141
30.0
290
     0
  0
SCALE
  5
51
102
{ACAD_REACTORS
330
47
102
}
330
47
100
AcDbScale
 70
     0
300
1:40
140
1.0
141
40.0
290
     0
  0
SCALE
  5
52
102
{ACAD_REACTORS
330
47
102
}
330
47
100
AcDbScale
 70
     0
300
1:50
140
1.0
141
50.0
290
     0
  0
SCALE
  5
53
102
{ACAD_REACTORS
330
47
102
}
330
47
100
AcDbScale
 70
     0
300
1:100
140
1.0
141
100.0
290
     0
  0
SCALE
  5
54
102
{ACAD_REACTORS
330
47
102
}
330
47
100
AcDbScale
 70
     0
300
2:1
140
2.0
141
1.0
290
     0
  0
SCALE
  5
55
102
{ACAD_REACTORS
330
47
102
}
330
47
100
AcDbScale
 70
     0
300
4:1
140
4.0
141
1.0
290
     0
  0
SCALE
  5
56
102
{ACAD_REACTORS
330
47
102
}
330
47
100
AcDbScale
 70
     0
300
8:1
140
8.0
141
1.0
290
     0
  0
SCALE
  5
57
102
{ACAD_REACTORS
330
47
102
}
330
47
100
AcDbScale
 70
     0
300
10:1
140
10.0
141
1.0
290
     0
  0
SCALE
  5
58
102
{ACAD_REACTORS
330
47
102
}
330
47
100
AcDbScale
 70
     0
300
100:1
140
100.0
141
1.0
290
     0
  0
SCALE
  5
59
102
{ACAD_REACTORS
330
47
102
}
330
47
100
AcDbScale
 70
     0
300
1/128" = 1'-0"
140
0.0078125
141
12.0
290
     0
  0
SCALE
  5
5A
102
{ACAD_REACTORS
330
47
102
}
330
47
100
AcDbScale
 70
     0
300
1/64" = 1'-0"
140
0.015625
141
12.0
290
     0
  0
SCALE
  5
5B
102
{ACAD_REACTORS
330
47
102
}
330
47
100
AcDbScale
 70
     0
300
1/32" = 1'-0"
140
0.03125
141
12.0
290
     0
  0
SCALE
  5
5C
102
{ACAD_REACTORS
330
47
102
}
330
47
100
AcDbScale
 70
     0
300
1/16" = 1'-0"
140
0.0625
141
12.0
290
     0
  0
SCALE
  5
5D
102
{ACAD_REACTORS
330
47
102
}
330
47
100
AcDbScale
 70
     0
300
3/32" = 1'-0"
140
0.09375
141
12.0
290
     0
  0
SCALE
  5
5E
102
{ACAD_REACTORS
330
47
102
}
330
47
100
AcDbScale
 70
     0
300
1/8" = 1'-0"
140
0.125
141
12.0
290
     0
  0
SCALE
  5
5F
102
{ACAD_REACTORS
330
47
102
}
330
47
100
AcDbScale
 70
     0
300
3/16" = 1'-0"
140
0.1875
141
12.0
290
     0
  0
SCALE
  5
60
102
{ACAD_REACTORS
330
47
102
}
330
47
100
AcDbScale
 70
     0
300
1/4" = 1'-0"
140
0.25
141
12.0
290
     0
  0
SCALE
  5
61
102
{ACAD_REACTORS
330
47
102
}
330
47
100
AcDbScale
 70
     0
300
3/8" = 1'-0"
140
0.375
141
12.0
290
     0
  0
SCALE
  5
62
102
{ACAD_REACTORS
330
47
102
}
330
47
100
AcDbScale
 70
     0
300
1/2" = 1'-0"
140
0.5
141
12.0
290
     0
  0
SCALE
  5
63
102
{ACAD_REACTORS
330
47
102
}
330
47
100
AcDbScale
 70
     0
300
3/4" = 1'-0"
140
0.75
141
12.0
290
     0
  0
SCALE
  5
64
102
{ACAD_REACTORS
330
47
102
}
330
47
100
AcDbScale
 70
     0
300
1" = 1'-0"
140
1.0
141
12.0
290
     0
  0
SCALE
  5
65
102
{ACAD_REACTORS
330
47
102
}
330
47
100
AcDbScale
 70
     0
300
1-1/2" = 1'-0"
140
1.5
141
12.0
290
     0
  0
SCALE
  5
66
102
{ACAD_REACTORS
330
47
102
}
330
47
100
AcDbScale
 70
     0
300
3" = 1'-0"
140
3.0
141
12.0
290
     0
  0
SCALE
  5
67
102
{ACAD_REACTORS
330
47
102
}
330
47
100
AcDbScale
 70
     0
300
6" = 1'-0"
140
6.0
141
12.0
290
     0
  0
SCALE
  5
68
102
{ACAD_REACTORS
330
47
102
}
330
47
100
AcDbScale
 70
     0
300
1'-0" = 1'-0"
140
12.0
141
12.0
290
     0
  0
TABLESTYLE
  5
6A
102
{ACAD_REACTORS
330
69
102
}
102
{ACAD_XDICTIONARY
360
1E1
102
}
330
69
100
AcDbTableStyle
  3
Standard
 70
     0
 71
     0
 40
0.06
 41
0.06
280
     0
281
     0
  7
Standard
140
0.18
170
     2
 62
     0
 63
   257
283
     0
 90
        4
 91
        0
  1

274
    -2
284
     1
 64
     0
275
    -2
285
     1
 65
     0
276
    -2
286
     1
 66
     0
277
    -2
287
     1
 67
     0
278
    -2
288
     1
 68
     0
279
    -2
289
     1
 69
     0
  7
Standard
140
0.25
170
     5
 62
     0
 63
   257
283
     0
 90
        4
 91
        0
  1

274
    -2
284
     1
 64
     0
275
    -2
285
     1
 65
     0
276
    -2
286
     1
 66
     0
277
    -2
287
     1
 67
     0
278
    -2
288
     1
 68
     0
279
    -2
289
     1
 69
     0
  7
Standard
140
0.18
170
     5
 62
     0
 63
   257
283
     0
 90
        4
 91
        0
  1

274
    -2
284
     1
 64
     0
275
    -2
285
     1
 65
     0
276
    -2
286
     1
 66
     0
277
    -2
287
     1
 67
     0
278
    -2
288
     1
 68
     0
279
    -2
289
     1
 69
     0
  0
VISUALSTYLE
  5
2F
102
{ACAD_REACTORS
330
2A
102
}
330
2A
100
AcDbVisualStyle
  2
2dWireframe
 70
     4
177
     3
291
     0
 70
    58
 90
        0
176
     1
 90
        2
176
     1
 90
        0
176
     1
 90
        0
176
     1
 40
0.6
176
     1
 40
30.0
176
     1
 62
     7
420
 16777215
176
     1
 90
        1
176
     1
 90
        4
176
     1
 62
     7
176
     1
 62
   257
176
     1
 90
        1
176
     1
 90
        1
176
     1
 40
1.0
176
     1
 90
        0
176
     1
 62
   257
176
     1
 40
1.0
176
     1
 90
        1
176
     1
 90
        6
176
     1
 90
        2
176
     1
 62
     7
176
     1
 90
        5
176
     1
 90
        0
176
     1
 90
        0
176
     1
290
     0
176
     1
 90
        1
176
     1
 40
0.0
176
     1
 90
        0
176
     1
290
     1
176
     1
290
     1
176
     1
290
     0
176
     1
290
     0
176
     1
290
     0
176
     1
290
     0
176
     1
290
     0
176
     1
290
     0
176
     1
290
     0
176
     1
 90
       50
176
     1
 40
0.0
176
     1
 40
1.0
176
     1
 90
        0
176
     1
 62
    18
420
        0
176
     1
 90
       50
176
     1
 90
        3
176
     1
 62
     5
420
      255
176
     1
290
     0
176
     1
 90
       50
176
     1
 90
       50
176
     1
 90
       50
176
     1
290
     0
176
     1
 90
       50
176
     1
 62
   256
176
     0
 40
1.0
176
     0
 90
        2
176
     1
  1
strokes_ogs.tif
176
     1
290
     0
176
     1
 40
1.0
176
     1
 40
1.0
176
     1
  0
VISUALSTYLE
  5
32
102
{ACAD_REACTORS
330
2A
102
}
330
2A
100
AcDbVisualStyle
  2
Basic
 70
     7
177
     3
291
     1
 70
    58
 90
        1
176
     1
 90
        0
176
     1
 90
        1
176
     1
 90
        0
176
     1
 40
0.6
176
     1
 40
30.0
176
     1
 62
     7
420
 16777215
176
     1
 90
        0
176
     1
 90
        4
176
     1
 62
     7
176
     1
 62
   257
176
     1
 90
        1
176
     1
 90
        1
176
     1
 40
1.0
176
     1
 90
        8
176
     1
 62
     7
176
     1
 40
1.0
176
     1
 90
        1
176
     1
 90
        6
176
     1
 90
        2
176
     1
 62
     7
176
     1
 90
        5
176
     1
 90
        0
176
     1
 90
        0
176
     1
290
     0
176
     1
 90
        1
176
     1
 40
0.0
176
     1
 90
        0
176
     1
290
     0
176
     1
290
     1
176
     1
290
     1
176
     1
290
     0
176
     1
290
     0
176
     1
290
     0
176
     1
290
     0
176
     1
290
     0
176
     1
290
     0
176
     1
 90
       50
176
     1
 40
0.0
176
     1
 40
1.0
176
     1
 90
        0
176
     1
 62
    18
420
        0
176
     1
 90
       50
176
     1
 90
        3
176
     1
 62
     5
420
      255
176
     1
290
     0
176
     1
 90
       50
176
     1
 90
       50
176
     1
 90
       50
176
     1
290
     0
176
     1
 90
       50
176
     1
 62
   256
176
     0
 40
1.0
176
     0
 90
        2
176
     1
  1
strokes_ogs.tif
176
     1
290
     0
176
     1
 40
1.0
176
     1
 40
1.0
176
     1
  0
VISUALSTYLE
  5
36
102
{ACAD_REACTORS
330
2A
102
}
330
2A
100
AcDbVisualStyle
  2
Brighten
 70
    12
177
     3
291
     1
 70
    58
 90
        2
176
     1
 90
        2
176
     1
 90
        0
176
     1
 90
        0
176
     1
 40
0.6
176
     1
 40
30.0
176
     1
 62
     7
420
 16777215
176
     1
 90
        1
176
     1
 90
        4
176
     1
 62
     7
176
     1
 62
   257
176
     1
 90
        1
176
     1
 90
        1
176
     1
 40
1.0
176
     1
 90
        8
176
     1
 62
     7
176
     1
 40
1.0
176
     1
 90
        1
176
     1
 90
        6
176
     1
 90
        2
176
     1
 62
     7
176
     1
 90
        5
176
     1
 90
        0
176
     1
 90
        0
176
     1
290
     0
176
     1
 90
        1
176
     1
 40
50.0
176
     1
 90
        0
176
     1
290
     0
176
     1
290
     1
176
     1
290
     1
176
     1
290
     0
176
     1
290
     0
176
     1
290
     0
176
     1
290
     0
176
     1
290
     0
176
     1
290
     0
176
     1
 90
       50
176
     1
 40
0.0
176
     1
 40
1.0
176
     1
 90
        0
176
     1
 62
    18
420
        0
176
     1
 90
       50
176
     1
 90
        3
176
     1
 62
     5
420
      255
176
     1
290
     0
176
     1
 90
       50
176
     1
 90
       50
176
     1
 90
       50
176
     1
290
     0
176
     1
 90
       50
176
     1
 62
   256
176
     0
 40
1.0
176
     0
 90
        2
176
     1
  1
strokes_ogs.tif
176
     1
290
     0
176
     1
 40
1.0
176
     1
 40
1.0
176
     1
  0
VISUALSTYLE
  5
3A
102
{ACAD_REACTORS
330
2A
102
}
330
2A
100
AcDbVisualStyle
  2
ColorChange
 70
    16
177
     3
291
     1
 70
    58
 90
        2
176
     1
 90
        2
176
     1
 90
        3
176
     1
 90
        0
176
     1
 40
0.6
176
     1
 40
30.0
176
     1
 62
     8
420
  8421504
176
     1
 90
        1
176
     1
 90
        4
176
     1
 62
     7
176
     1
 62
   257
176
     1
 90
        1
176
     1
 90
        1
176
     1
 40
1.0
176
     1
 90
        8
176
     1
 62
     8
420
  8421504
176
     1
 40
1.0
176
     1
 90
        1
176
     1
 90
        6
176
     1
 90
        2
176
     1
 62
     7
176
     1
 90
        5
176
     1
 90
        0
176
     1
 90
        0
176
     1
290
     0
176
     1
 90
        1
176
     1
 40
0.0
176
     1
 90
        0
176
     1
290
     0
176
     1
290
     1
176
     1
290
     1
176
     1
290
     0
176
     1
290
     0
176
     1
290
     0
176
     1
290
     0
176
     1
290
     0
176
     1
290
     0
176
     1
 90
       50
176
     1
 40
0.0
176
     1
 40
1.0
176
     1
 90
        0
176
     1
 62
    18
420
        0
176
     1
 90
       50
176
     1
 90
        3
176
     1
 62
     5
420
      255
176
     1
290
     0
176
     1
 90
       50
176
     1
 90
       50
176
     1
 90
       50
176
     1
290
     0
176
     1
 90
       50
176
     1
 62
   256
176
     0
 40
1.0
176
     0
 90
        2
176
     1
  1
strokes_ogs.tif
176
     1
290
     0
176
     1
 40
1.0
176
     1
 40
1.0
176
     1
  0
VISUALSTYLE
  5
34
102
{ACAD_REACTORS
330
2A
102
}
330
2A
100
AcDbVisualStyle
  2
Conceptual
 70
     9
177
     3
291
     0
 70
    58
 90
        3
176
     1
 90
        2
176
     1
 90
        0
176
     1
 90
        0
176
     1
 40
0.6
176
     1
 40
30.0
176
     1
 62
     7
420
 16777215
176
     1
 90
        2
176
     1
 90
        2
176
     1
 62
     7
176
     1
 62
   257
176
     1
 90
        1
176
     1
 90
        1
176
     1
 40
179.0
176
     1
 90
        8
176
     1
 62
     7
176
     1
 40
1.0
176
     1
 90
        1
176
     1
 90
        6
176
     1
 90
        2
176
     1
 62
     7
176
     1
 90
        3
176
     1
 90
        0
176
     1
 90
        0
176
     1
290
     0
176
     1
 90
        1
176
     1
 40
0.0
176
     1
 90
        0
176
     1
290
     0
176
     1
290
     1
176
     1
290
     1
176
     1
290
     0
176
     1
290
     0
176
     1
290
     0
176
     1
290
     0
176
     1
290
     0
176
     1
290
     0
176
     1
 90
       50
176
     1
 40
0.0
176
     1
 40
1.0
176
     1
 90
        0
176
     1
 62
    18
420
        0
176
     1
 90
       50
176
     1
 90
        3
176
     1
 62
     5
420
      255
176
     1
290
     0
176
     1
 90
       50
176
     1
 90
       50
176
     1
 90
       50
176
     1
290
     0
176
     1
 90
       50
176
     1
 62
   256
176
     0
 40
1.0
176
     0
 90
        2
176
     1
  1
strokes_ogs.tif
176
     1
290
     0
176
     1
 40
1.0
176
     1
 40
1.0
176
     1
  0
VISUALSTYLE
  5
35
102
{ACAD_REACTORS
330
2A
102
}
330
2A
100
AcDbVisualStyle
  2
Dim
 70
    11
177
     3
291
     1
 70
    58
 90
        2
176
     1
 90
        2
176
     1
 90
        0
176
     1
 90
        0
176
     1
 40
0.6
176
     1
 40
30.0
176
     1
 62
     7
420
 16777215
176
     1
 90
        1
176
     1
 90
        4
176
     1
 62
     7
176
     1
 62
   257
176
     1
 90
        1
176
     1
 90
        1
176
     1
 40
1.0
176
     1
 90
        8
176
     1
 62
     7
176
     1
 40
1.0
176
     1
 90
        1
176
     1
 90
        6
176
     1
 90
        2
176
     1
 62
     7
176
     1
 90
        5
176
     1
 90
        0
176
     1
 90
        0
176
     1
290
     0
176
     1
 90
        1
176
     1
 40
-50.0
176
     1
 90
        0
176
     1
290
     0
176
     1
290
     1
176
     1
290
     1
176
     1
290
     0
176
     1
290
     0
176
     1
290
     0
176
     1
290
     0
176
     1
290
     0
176
     1
290
     0
176
     1
 90
       50
176
     1
 40
0.0
176
     1
 40
1.0
176
     1
 90
        0
176
     1
 62
    18
420
        0
176
     1
 90
       50
176
     1
 90
        3
176
     1
 62
     5
420
      255
176
     1
290
     0
176
     1
 90
       50
176
     1
 90
       50
176
     1
 90
       50
176
     1
290
     0
176
     1
 90
       50
176
     1
 62
   256
176
     0
 40
1.0
176
     0
 90
        2
176
     1
  1
strokes_ogs.tif
176
     1
290
     0
176
     1
 40
1.0
176
     1
 40
1.0
176
     1
  0
VISUALSTYLE
  5
3D
102
{ACAD_REACTORS
330
2A
102
}
330
2A
100
AcDbVisualStyle
  2
EdgeColorOff
 70
    22
177
     3
291
     1
 70
    58
 90
        2
176
     0
 90
        2
176
     0
 90
        0
176
     0
 90
        0
176
     0
 40
0.6
176
     0
 40
30.0
176
     0
 62
     7
420
 16777215
176
     0
 90
        1
176
     0
 90
        4
176
     0
 62
     7
176
     0
 62
   257
176
     0
 90
        1
176
     0
 90
        1
176
     0
 40
1.0
176
     0
 90
        8
176
     2
 62
     7
176
     0
 40
1.0
176
     0
 90
        1
176
     0
 90
        6
176
     0
 90
        2
176
     0
 62
     7
176
     0
 90
        5
176
     0
 90
        0
176
     0
 90
        0
176
     0
290
     0
176
     0
 90
        1
176
     0
 40
0.0
176
     0
 90
        0
176
     0
290
     0
176
     0
290
     1
176
     0
290
     1
176
     0
290
     0
176
     0
290
     0
176
     0
290
     0
176
     0
290
     0
176
     0
290
     0
176
     0
290
     0
176
     0
 90
       50
176
     0
 40
0.0
176
     0
 40
1.0
176
     0
 90
        0
176
     0
 62
    18
420
        0
176
     0
 90
       50
176
     0
 90
        3
176
     0
 62
     5
420
      255
176
     0
290
     0
176
     0
 90
       50
176
     0
 90
       50
176
     0
 90
       50
176
     0
290
     0
176
     0
 90
       50
176
     0
 62
   256
176
     0
 40
1.0
176
     0
 90
        2
176
     0
  1
strokes_ogs.tif
176
     0
290
     0
176
     0
 40
1.0
176
     0
 40
1.0
176
     0
  0
VISUALSTYLE
  5
39
102
{ACAD_REACTORS
330
2A
102
}
330
2A
100
AcDbVisualStyle
  2
Facepattern
 70
    15
177
     3
291
     1
 70
    58
 90
        2
176
     1
 90
        2
176
     1
 90
        0
176
     1
 90
        0
176
     1
 40
0.6
176
     1
 40
30.0
176
     1
 62
     7
420
 16777215
176
     1
 90
        1
176
     1
 90
        4
176
     1
 62
     7
176
     1
 62
   257
176
     1
 90
        1
176
     1
 90
        1
176
     1
 40
1.0
176
     1
 90
        8
176
     1
 62
     7
176
     1
 40
1.0
176
     1
 90
        1
176
     1
 90
        6
176
     1
 90
        2
176
     1
 62
     7
176
     1
 90
        5
176
     1
 90
        0
176
     1
 90
        0
176
     1
290
     0
176
     1
 90
        1
176
     1
 40
0.0
176
     1
 90
        0
176
     1
290
     0
176
     1
290
     1
176
     1
290
     1
176
     1
290
     0
176
     1
290
     0
176
     1
290
     0
176
     1
290
     0
176
     1
290
     0
176
     1
290
     0
176
     1
 90
       50
176
     1
 40
0.0
176
     1
 40
1.0
176
     1
 90
        0
176
     1
 62
    18
420
        0
176
     1
 90
       50
176
     1
 90
        3
176
     1
 62
     5
420
      255
176
     1
290
     0
176
     1
 90
       50
176
     1
 90
       50
176
     1
 90
       50
176
     1
290
     0
176
     1
 90
       50
176
     1
 62
   256
176
     0
 40
1.0
176
     0
 90
        2
176
     1
  1
strokes_ogs.tif
176
     1
290
     0
176
     1
 40
1.0
176
     1
 40
1.0
176
     1
  0
VISUALSTYLE
  5
2B
102
{ACAD_REACTORS
330
2A
102
}
330
2A
100
AcDbVisualStyle
  2
Flat
 70
     0
177
     3
291
     1
 70
    58
 90
        2
176
     1
 90
        1
176
     1
 90
        1
176
     1
 90
        2
176
     1
 40
0.6
176
     1
 40
30.0
176
     1
 62
     7
420
 16777215
176
     1
 90
        0
176
     1
 90
        0
176
     1
 62
     7
176
     1
 62
   257
176
     1
 90
        1
176
     1
 90
        1
176
     1
 40
1.0
176
     1
 90
        8
176
     1
 62
     7
176
     1
 40
1.0
176
     1
 90
        1
176
     1
 90
        6
176
     1
 90
        2
176
     1
 62
     7
176
     1
 90
        5
176
     1
 90
        0
176
     1
 90
        0
176
     1
290
     0
176
     1
 90
       13
176
     1
 40
0.0
176
     1
 90
        0
176
     1
290
     0
176
     1
290
     1
176
     1
290
     1
176
     1
290
     0
176
     1
290
     0
176
     1
290
     0
176
     1
290
     0
176
     1
290
     0
176
     1
290
     0
176
     1
 90
       50
176
     1
 40
0.0
176
     1
 40
1.0
176
     1
 90
        0
176
     1
 62
    18
420
        0
176
     1
 90
       50
176
     1
 90
        3
176
     1
 62
     5
420
      255
176
     1
290
     0
176
     1
 90
       50
176
     1
 90
       50
176
     1
 90
       50
176
     1
290
     0
176
     1
 90
       50
176
     1
 62
   256
176
     0
 40
1.0
176
     0
 90
        2
176
     1
  1
strokes_ogs.tif
176
     1
290
     0
176
     1
 40
1.0
176
     1
 40
1.0
176
     1
  0
VISUALSTYLE
  5
2C
102
{ACAD_REACTORS
330
2A
102
}
330
2A
100
AcDbVisualStyle
  2
FlatWithEdges
 70
     1
177
     3
291
     1
 70
    58
 90
        2
176
     1
 90
        1
176
     1
 90
        1
176
     1
 90
        2
176
     1
 40
0.6
176
     1
 40
30.0
176
     1
 62
     7
420
 16777215
176
     1
 90
        1
176
     1
 90
        0
176
     1
 62
     7
176
     1
 62
   257
176
     1
 90
        1
176
     1
 90
        1
176
     1
 40
1.0
176
     1
 90
        0
176
     1
 62
   257
176
     1
 40
1.0
176
     1
 90
        1
176
     1
 90
        6
176
     1
 90
        2
176
     1
 62
     7
176
     1
 90
        5
176
     1
 90
        0
176
     1
 90
        0
176
     1
290
     0
176
     1
 90
       13
176
     1
 40
0.0
176
     1
 90
        0
176
     1
290
     0
176
     1
290
     1
176
     1
290
     1
176
     1
290
     0
176
     1
290
     0
176
     1
290
     0
176
     1
290
     0
176
     1
290
     0
176
     1
290
     0
176
     1
 90
       50
176
     1
 40
0.0
176
     1
 40
1.0
176
     1
 90
        0
176
     1
 62
    18
420
        0
176
     1
 90
       50
176
     1
 90
        3
176
     1
 62
     5
420
      255
176
     1
290
     0
176
     1
 90
       50
176
     1
 90
       50
176
     1
 90
       50
176
     1
290
     0
176
     1
 90
       50
176
     1
 62
   256
176
     0
 40
1.0
176
     0
 90
        2
176
     1
  1
strokes_ogs.tif
176
     1
290
     0
176
     1
 40
1.0
176
     1
 40
1.0
176
     1
  0
VISUALSTYLE
  5
2D
102
{ACAD_REACTORS
330
2A
102
}
330
2A
100
AcDbVisualStyle
  2
Gouraud
 70
     2
177
     3
291
     1
 70
    58
 90
        2
176
     1
 90
        2
176
     1
 90
        1
176
     1
 90
        2
176
     1
 40
0.6
176
     1
 40
30.0
176
     1
 62
     7
420
 16777215
176
     1
 90
        0
176
     1
 90
        0
176
     1
 62
     7
176
     1
 62
   257
176
     1
 90
        1
176
     1
 90
        1
176
     1
 40
1.0
176
     1
 90
        0
176
     1
 62
     7
176
     1
 40
1.0
176
     1
 90
        1
176
     1
 90
        6
176
     1
 90
        2
176
     1
 62
     7
176
     1
 90
        5
176
     1
 90
        0
176
     1
 90
        0
176
     1
290
     0
176
     1
 90
       13
176
     1
 40
0.0
176
     1
 90
        0
176
     1
290
     0
176
     1
290
     1
176
     1
290
     1
176
     1
290
     0
176
     1
290
     0
176
     1
290
     0
176
     1
290
     0
176
     1
290
     0
176
     1
290
     0
176
     1
 90
       50
176
     1
 40
0.0
176
     1
 40
1.0
176
     1
 90
        0
176
     1
 62
    18
420
        0
176
     1
 90
       50
176
     1
 90
        3
176
     1
 62
     5
420
      255
176
     1
290
     0
176
     1
 90
       50
176
     1
 90
       50
176
     1
 90
       50
176
     1
290
     0
176
     1
 90
       50
176
     1
 62
   256
176
     0
 40
1.0
176
     0
 90
        2
176
     1
  1
strokes_ogs.tif
176
     1
290
     0
176
     1
 40
1.0
176
     1
 40
1.0
176
     1
  0
VISUALSTYLE
  5
2E
102
{ACAD_REACTORS
330
2A
102
}
330
2A
100
AcDbVisualStyle
  2
GouraudWithEdges
 70
     3
177
     3
291
     1
 70
    58
 90
        2
176
     1
 90
        2
176
     1
 90
        1
176
     1
 90
        2
176
     1
 40
0.6
176
     1
 40
30.0
176
     1
 62
     7
420
 16777215
176
     1
 90
        1
176
     1
 90
        0
176
     1
 62
     7
176
     1
 62
   257
176
     1
 90
        1
176
     1
 90
        1
176
     1
 40
1.0
176
     1
 90
        0
176
     1
 62
   257
176
     1
 40
1.0
176
     1
 90
        1
176
     1
 90
        6
176
     1
 90
        2
176
     1
 62
     7
176
     1
 90
        5
176
     1
 90
        0
176
     1
 90
        0
176
     1
290
     0
176
     1
 90
       13
176
     1
 40
0.0
176
     1
 90
        0
176
     1
290
     0
176
     1
290
     1
176
     1
290
     1
176
     1
290
     0
176
     1
290
     0
176
     1
290
     0
176
     1
290
     0
176
     1
290
     0
176
     1
290
     0
176
     1
 90
       50
176
     1
 40
0.0
176
     1
 40
1.0
176
     1
 90
        0
176
     1
 62
    18
420
        0
176
     1
 90
       50
176
     1
 90
        3
176
     1
 62
     5
420
      255
176
     1
290
     0
176
     1
 90
       50
176
     1
 90
       50
176
     1
 90
       50
176
     1
290
     0
176
     1
 90
       50
176
     1
 62
   256
176
     0
 40
1.0
176
     0
 90
        2
176
     1
  1
strokes_ogs.tif
176
     1
290
     0
176
     1
 40
1.0
176
     1
 40
1.0
176
     1
  0
VISUALSTYLE
  5
31
102
{ACAD_REACTORS
330
2A
102
}
330
2A
100
AcDbVisualStyle
  2
Hidden
 70
     6
177
     3
291
     0
 70
    58
 90
        1
176
     1
 90
        2
176
     1
 90
        2
176
     1
 90
        0
176
     1
 40
0.6
176
     1
 40
30.0
176
     1
 62
     7
420
 16777215
176
     1
 90
        2
176
     1
 90
        2
176
     1
 62
     7
176
     1
 62
   257
176
     1
 90
        2
176
     1
 90
        1
176
     1
 40
40.0
176
     1
 90
        0
176
     1
 62
   257
176
     1
 40
1.0
176
     1
 90
        1
176
     1
 90
        6
176
     1
 90
        2
176
     1
 62
     7
176
     1
 90
        3
176
     1
 90
        0
176
     1
 90
        0
176
     1
290
     0
176
     1
 90
        1
176
     1
 40
0.0
176
     1
 90
        0
176
     1
290
     0
176
     1
290
     1
176
     1
290
     1
176
     1
290
     0
176
     1
290
     0
176
     1
290
     0
176
     1
290
     0
176
     1
290
     0
176
     1
290
     0
176
     1
 90
       50
176
     1
 40
0.0
176
     1
 40
1.0
176
     1
 90
        0
176
     1
 62
    18
420
        0
176
     1
 90
       50
176
     1
 90
        3
176
     1
 62
     5
420
      255
176
     1
290
     0
176
     1
 90
       50
176
     1
 90
       50
176
     1
 90
       50
176
     1
290
     0
176
     1
 90
       50
176
     1
 62
   256
176
     0
 40
1.0
176
     0
 90
        2
176
     1
  1
strokes_ogs.tif
176
     1
290
     0
176
     1
 40
1.0
176
     1
 40
1.0
176
     1
  0
VISUALSTYLE
  5
3B
102
{ACAD_REACTORS
330
2A
102
}
330
2A
100
AcDbVisualStyle
  2
JitterOff
 70
    20
177
     3
291
     1
 70
    58
 90
        2
176
     0
 90
        2
176
     0
 90
        0
176
     0
 90
        0
176
     0
 40
0.6
176
     0
 40
30.0
176
     0
 62
     7
420
 16777215
176
     0
 90
        1
176
     0
 90
        4
176
     0
 62
     7
176
     0
 62
   257
176
     0
 90
        1
176
     0
 90
        1
176
     0
 40
1.0
176
     0
 90
       10
176
     2
 62
     7
176
     0
 40
1.0
176
     0
 90
        1
176
     0
 90
        6
176
     0
 90
        2
176
     0
 62
     7
176
     0
 90
        5
176
     0
 90
        0
176
     0
 90
        0
176
     0
290
     0
176
     0
 90
        1
176
     0
 40
0.0
176
     0
 90
        0
176
     0
290
     0
176
     0
290
     1
176
     0
290
     1
176
     0
290
     0
176
     0
290
     0
176
     0
290
     0
176
     0
290
     0
176
     0
290
     0
176
     0
290
     0
176
     0
 90
       50
176
     0
 40
0.0
176
     0
 40
1.0
176
     0
 90
        0
176
     0
 62
    18
420
        0
176
     0
 90
       50
176
     0
 90
        3
176
     0
 62
     5
420
      255
176
     0
290
     0
176
     0
 90
       50
176
     0
 90
       50
176
     0
 90
       50
176
     0
290
     0
176
     0
 90
       50
176
     0
 62
   256
176
     0
 40
1.0
176
     0
 90
        2
176
     0
  1
strokes_ogs.tif
176
     0
290
     0
176
     0
 40
1.0
176
     0
 40
1.0
176
     0
  0
VISUALSTYLE
  5
38
102
{ACAD_REACTORS
330
2A
102
}
330
2A
100
AcDbVisualStyle
  2
Linepattern
 70
    14
177
     3
291
     1
 70
    58
 90
        2
176
     1
 90
        2
176
     1
 90
        0
176
     1
 90
        0
176
     1
 40
0.6
176
     1
 40
30.0
176
     1
 62
     7
420
 16777215
176
     1
 90
        1
176
     1
 90
        4
176
     1
 62
     7
176
     1
 62
   257
176
     1
 90
        7
176
     1
 90
        7
176
     1
 40
1.0
176
     1
 90
        8
176
     1
 62
     7
176
     1
 40
1.0
176
     1
 90
        1
176
     1
 90
        6
176
     1
 90
        2
176
     1
 62
     7
176
     1
 90
        5
176
     1
 90
        0
176
     1
 90
        0
176
     1
290
     0
176
     1
 90
        1
176
     1
 40
0.0
176
     1
 90
        0
176
     1
290
     0
176
     1
290
     1
176
     1
290
     1
176
     1
290
     0
176
     1
290
     0
176
     1
290
     0
176
     1
290
     0
176
     1
290
     0
176
     1
290
     0
176
     1
 90
       50
176
     1
 40
0.0
176
     1
 40
1.0
176
     1
 90
        0
176
     1
 62
    18
420
        0
176
     1
 90
       50
176
     1
 90
        3
176
     1
 62
     5
420
      255
176
     1
290
     0
176
     1
 90
       50
176
     1
 90
       50
176
     1
 90
       50
176
     1
290
     0
176
     1
 90
       50
176
     1
 62
   256
176
     0
 40
1.0
176
     0
 90
        2
176
     1
  1
strokes_ogs.tif
176
     1
290
     0
176
     1
 40
1.0
176
     1
 40
1.0
176
     1
  0
VISUALSTYLE
  5
3C
102
{ACAD_REACTORS
330
2A
102
}
330
2A
100
AcDbVisualStyle
  2
OverhangOff
 70
    21
177
     3
291
     1
 70
    58
 90
        2
176
     0
 90
        2
176
     0
 90
        0
176
     0
 90
        0
176
     0
 40
0.6
176
     0
 40
30.0
176
     0
 62
     7
420
 16777215
176
     0
 90
        1
176
     0
 90
        4
176
     0
 62
     7
176
     0
 62
   257
176
     0
 90
        1
176
     0
 90
        1
176
     0
 40
1.0
176
     0
 90
        9
176
     2
 62
     7
176
     0
 40
1.0
176
     0
 90
        1
176
     0
 90
        6
176
     0
 90
        2
176
     0
 62
     7
176
     0
 90
        5
176
     0
 90
        0
176
     0
 90
        0
176
     0
290
     0
176
     0
 90
        1
176
     0
 40
0.0
176
     0
 90
        0
176
     0
290
     0
176
     0
290
     1
176
     0
290
     1
176
     0
290
     0
176
     0
290
     0
176
     0
290
     0
176
     0
290
     0
176
     0
290
     0
176
     0
290
     0
176
     0
 90
       50
176
     0
 40
0.0
176
     0
 40
1.0
176
     0
 90
        0
176
     0
 62
    18
420
        0
176
     0
 90
       50
176
     0
 90
        3
176
     0
 62
     5
420
      255
176
     0
290
     0
176
     0
 90
       50
176
     0
 90
       50
176
     0
 90
       50
176
     0
290
     0
176
     0
 90
       50
176
     0
 62
   256
176
     0
 40
1.0
176
     0
 90
        2
176
     0
  1
strokes_ogs.tif
176
     0
290
     0
176
     0
 40
1.0
176
     0
 40
1.0
176
     0
  0
VISUALSTYLE
  5
33
102
{ACAD_REACTORS
330
2A
102
}
330
2A
100
AcDbVisualStyle
  2
Realistic
 70
     8
177
     3
291
     0
 70
    58
 90
        2
176
     1
 90
        3
176
     1
 90
        0
176
     1
 90
        2
176
     1
 40
0.6
176
     1
 40
30.0
176
     1
 62
     7
420
 16777215
176
     1
 90
        0
176
     1
 90
        0
176
     1
 62
     7
176
     1
 62
   257
176
     1
 90
        1
176
     1
 90
        1
176
     1
 40
1.0
176
     1
 90
        8
176
     1
 62
   257
176
     1
 40
1.0
176
     1
 90
        1
176
     1
 90
        6
176
     1
 90
        2
176
     1
 62
     7
176
     1
 90
        3
176
     1
 90
        0
176
     1
 90
        0
176
     1
290
     0
176
     1
 90
       13
176
     1
 40
0.0
176
     1
 90
        0
176
     1
290
     0
176
     1
290
     1
176
     1
290
     1
176
     1
290
     0
176
     1
290
     0
176
     1
290
     0
176
     1
290
     0
176
     1
290
     0
176
     1
290
     0
176
     1
 90
       50
176
     1
 40
0.0
176
     1
 40
1.0
176
     1
 90
        0
176
     1
 62
    18
420
        0
176
     1
 90
       50
176
     1
 90
        3
176
     1
 62
     5
420
      255
176
     1
290
     0
176
     1
 90
       50
176
     1
 90
       50
176
     1
 90
       50
176
     1
290
     0
176
     1
 90
       50
176
     1
 62
   256
176
     0
 40
1.0
176
     0
 90
        2
176
     1
  1
strokes_ogs.tif
176
     1
290
     0
176
     1
 40
1.0
176
     1
 40
1.0
176
     1
  0
VISUALSTYLE
  5
42
102
{ACAD_REACTORS
330
2A
102
}
330
2A
100
AcDbVisualStyle
  2
Shaded
 70
    27
177
     3
291
     0
 70
    58
 90
        2
176
     1
 90
        2
176
     1
 90
        1
176
     1
 90
        2
176
     1
 40
0.6
176
     1
 40
30.0
176
     1
 62
     7
420
 16777215
176
     1
 90
        0
176
     1
 90
        4
176
     1
 62
     7
176
     1
 62
   257
176
     1
 90
        1
176
     1
 90
        1
176
     1
 40
1.0
176
     1
 90
        8
176
     1
 62
   257
176
     1
 40
1.0
176
     1
 90
        1
176
     1
 90
        6
176
     1
 90
        2
176
     1
 62
     8
420
  7895160
176
     1
 90
        3
176
     1
 90
        0
176
     1
 90
        0
176
     1
290
     0
176
     1
 90
        5
176
     1
 40
0.0
176
     1
 90
        0
176
     1
290
     0
176
     1
290
     1
176
     1
290
     1
176
     1
290
     0
176
     1
290
     0
176
     1
290
     0
176
     1
290
     0
176
     1
290
     0
176
     1
290
     0
176
     1
 90
       50
176
     1
 40
0.0
176
     1
 40
1.0
176
     1
 90
        0
176
     1
 62
    18
420
        0
176
     1
 90
       50
176
     1
 90
        3
176
     1
 62
     5
420
      255
176
     1
290
     0
176
     1
 90
       50
176
     1
 90
       50
176
     1
 90
       50
176
     1
290
     0
176
     1
 90
       50
176
     1
 62
   256
176
     0
 40
1.0
176
     0
 90
        2
176
     1
  1
strokes_ogs.tif
176
     1
290
     0
176
     1
 40
1.0
176
     1
 40
1.0
176
     1
  0
VISUALSTYLE
  5
41
102
{ACAD_REACTORS
330
2A
102
}
330
2A
100
AcDbVisualStyle
  2
Shaded with edges
 70
    26
177
     3
291
     0
 70
    58
 90
        2
176
     1
 90
        2
176
     1
 90
        1
176
     1
 90
        2
176
     1
 40
0.6
176
     1
 40
30.0
176
     1
 62
     7
420
 16777215
176
     1
 90
        1
176
     1
 90
       10
176
     1
 62
     7
176
     1
 62
   257
176
     1
 90
        2
176
     1
 90
        1
176
     1
 40
1.0
176
     1
 90
        8
176
     1
 62
   257
176
     1
 40
1.0
176
     1
 90
        1
176
     1
 90
        6
176
     1
 90
        2
176
     1
 62
     7
176
     1
 90
        3
176
     1
 90
        0
176
     1
 90
        0
176
     1
290
     0
176
     1
 90
        5
176
     1
 40
0.0
176
     1
 90
        0
176
     1
290
     0
176
     1
290
     1
176
     1
290
     1
176
     1
290
     0
176
     1
290
     0
176
     1
290
     0
176
     1
290
     0
176
     1
290
     0
176
     1
290
     0
176
     1
 90
       50
176
     1
 40
0.0
176
     1
 40
1.0
176
     1
 90
        0
176
     1
 62
    18
420
        0
176
     1
 90
       50
176
     1
 90
        3
176
     1
 62
     5
420
      255
176
     1
290
     0
176
     1
 90
       50
176
     1
 90
       50
176
     1
 90
       50
176
     1
290
     0
176
     1
 90
       50
176
     1
 62
   256
176
     0
 40
1.0
176
     0
 90
        2
176
     1
  1
strokes_ogs.tif
176
     1
290
     0
176
     1
 40
1.0
176
     1
 40
1.0
176
     1
  0
VISUALSTYLE
  5
3E
102
{ACAD_REACTORS
330
2A
102
}
330
2A
100
AcDbVisualStyle
  2
Shades of Gray
 70
    23
177
     3
291
     0
 70
    58
 90
        2
176
     1
 90
        2
176
     1
 90
        3
176
     1
 90
        0
176
     1
 40
0.6
176
     1
 40
30.0
176
     1
 62
     7
420
 16777215
176
     1
 90
        2
176
     1
 90
        2
176
     1
 62
     7
176
     1
 62
     7
176
     1
 90
        1
176
     1
 90
        1
176
     1
 40
40.0
176
     1
 90
        8
176
     1
 62
     7
176
     1
 40
1.0
176
     1
 90
        1
176
     1
 90
        6
176
     1
 90
        2
176
     1
 62
     7
176
     1
 90
        3
176
     1
 90
        0
176
     1
 90
        0
176
     1
290
     0
176
     1
 90
        1
176
     1
 40
0.0
176
     1
 90
        0
176
     1
290
     0
176
     1
290
     1
176
     1
290
     1
176
     1
290
     0
176
     1
290
     0
176
     1
290
     0
176
     1
290
     0
176
     1
290
     0
176
     1
290
     0
176
     1
 90
       50
176
     1
 40
0.0
176
     1
 40
1.0
176
     1
 90
        0
176
     1
 62
    18
420
        0
176
     1
 90
       50
176
     1
 90
        3
176
     1
 62
     5
420
      255
176
     1
290
     0
176
     1
 90
       50
176
     1
 90
       50
176
     1
 90
       50
176
     1
290
     0
176
     1
 90
       50
176
     1
 62
   256
176
     0
 40
1.0
176
     0
 90
        2
176
     1
  1
strokes_ogs.tif
176
     1
290
     0
176
     1
 40
1.0
176
     1
 40
1.0
176
     1
  0
VISUALSTYLE
  5
3F
102
{ACAD_REACTORS
330
2A
102
}
330
2A
100
AcDbVisualStyle
  2
Sketchy
 70
    24
177
     3
291
     0
 70
    58
 90
        1
176
     1
 90
        2
176
     1
 90
        2
176
     1
 90
        0
176
     1
 40
0.6
176
     1
 40
30.0
176
     1
 62
     7
420
 16777215
176
     1
 90
        2
176
     1
 90
        2
176
     1
 62
     7
176
     1
 62
     7
176
     1
 90
        1
176
     1
 90
        1
176
     1
 40
40.0
176
     1
 90
       11
176
     1
 62
     7
176
     1
 40
1.0
176
     1
 90
        1
176
     1
 90
        6
176
     1
 90
        2
176
     1
 62
     7
176
     1
 90
        6
176
     1
 90
        0
176
     1
 90
        0
176
     1
290
     0
176
     1
 90
        1
176
     1
 40
0.0
176
     1
 90
        0
176
     1
290
     0
176
     1
290
     1
176
     1
290
     1
176
     1
290
     0
176
     1
290
     0
176
     1
290
     0
176
     1
290
     0
176
     1
290
     0
176
     1
290
     0
176
     1
 90
       50
176
     1
 40
0.0
176
     1
 40
1.0
176
     1
 90
        0
176
     1
 62
    18
420
        0
176
     1
 90
       50
176
     1
 90
        3
176
     1
 62
     5
420
      255
176
     1
290
     0
176
     1
 90
       50
176
     1
 90
       50
176
     1
 90
       50
176
     1
290
     0
176
     1
 90
       50
176
     1
 62
   256
176
     0
 40
1.0
176
     0
 90
        2
176
     1
  1
strokes_ogs.tif
176
     1
290
     0
176
     1
 40
1.0
176
     1
 40
1.0
176
     1
  0
VISUALSTYLE
  5
37
102
{ACAD_REACTORS
330
2A
102
}
330
2A
100
AcDbVisualStyle
  2
Thicken
 70
    13
177
     3
291
     1
 70
    58
 90
        2
176
     1
 90
        2
176
     1
 90
        0
176
     1
 90
        0
176
     1
 40
0.6
176
     1
 40
30.0
176
     1
 62
     7
420
 16777215
176
     1
 90
        1
176
     1
 90
        4
176
     1
 62
     7
176
     1
 62
   257
176
     1
 90
        1
176
     1
 90
        1
176
     1
 40
1.0
176
     1
 90
       12
176
     1
 62
     7
176
     1
 40
1.0
176
     1
 90
        1
176
     1
 90
        6
176
     1
 90
        2
176
     1
 62
     7
176
     1
 90
        5
176
     1
 90
        0
176
     1
 90
        0
176
     1
290
     0
176
     1
 90
        1
176
     1
 40
0.0
176
     1
 90
        0
176
     1
290
     0
176
     1
290
     1
176
     1
290
     1
176
     1
290
     0
176
     1
290
     0
176
     1
290
     0
176
     1
290
     0
176
     1
290
     0
176
     1
290
     0
176
     1
 90
       50
176
     1
 40
0.0
176
     1
 40
1.0
176
     1
 90
        0
176
     1
 62
    18
420
        0
176
     1
 90
       50
176
     1
 90
        3
176
     1
 62
     5
420
      255
176
     1
290
     0
176
     1
 90
       50
176
     1
 90
       50
176
     1
 90
       50
176
     1
290
     0
176
     1
 90
       50
176
     1
 62
   256
176
     0
 40
1.0
176
     0
 90
        2
176
     1
  1
strokes_ogs.tif
176
     1
290
     0
176
     1
 40
1.0
176
     1
 40
1.0
176
     1
  0
VISUALSTYLE
  5
30
102
{ACAD_REACTORS
330
2A
102
}
330
2A
100
AcDbVisualStyle
  2
Wireframe
 70
     5
177
     3
291
     0
 70
    58
 90
        0
176
     1
 90
        2
176
     1
 90
        0
176
     1
 90
        0
176
     1
 40
0.6
176
     1
 40
30.0
176
     1
 62
     7
420
 16777215
176
     1
 90
        1
176
     1
 90
        4
176
     1
 62
     7
176
     1
 62
   257
176
     1
 90
        1
176
     1
 90
        1
176
     1
 40
1.0
176
     1
 90
        0
176
     1
 62
   257
176
     1
 40
1.0
176
     1
 90
        1
176
     1
 90
        6
176
     1
 90
        2
176
     1
 62
     7
176
     1
 90
        3
176
     1
 90
        0
176
     1
 90
        0
176
     1
290
     0
176
     1
 90
        1
176
     1
 40
0.0
176
     1
 90
        0
176
     1
290
     0
176
     1
290
     1
176
     1
290
     1
176
     1
290
     0
176
     1
290
     0
176
     1
290
     0
176
     1
290
     0
176
     1
290
     0
176
     1
290
     0
176
     1
 90
       50
176
     1
 40
0.0
176
     1
 40
1.0
176
     1
 90
        0
176
     1
 62
    18
420
        0
176
     1
 90
       50
176
     1
 90
        3
176
     1
 62
     5
420
      255
176
     1
290
     0
176
     1
 90
       50
176
     1
 90
       50
176
     1
 90
       50
176
     1
290
     0
176
     1
 90
       50
176
     1
 62
   256
176
     0
 40
1.0
176
     0
 90
        2
176
     1
  1
strokes_ogs.tif
176
     1
290
     0
176
     1
 40
1.0
176
     1
 40
1.0
176
     1
  0
VISUALSTYLE
  5
40
102
{ACAD_REACTORS
330
2A
102
}
330
2A
100
AcDbVisualStyle
  2
X-Ray
 70
    25
177
     3
291
     0
 70
    58
 90
        2
176
     1
 90
        2
176
     1
 90
        1
176
     1
 90
        1
176
     1
 40
0.5
176
     1
 40
30.0
176
     1
 62
     7
420
 16777215
176
     1
 90
        1
176
     1
 90
        0
176
     1
 62
     7
176
     1
 62
   257
176
     1
 90
        1
176
     1
 90
        1
176
     1
 40
1.0
176
     1
 90
        8
176
     1
 62
     7
176
     1
 40
1.0
176
     1
 90
        1
176
     1
 90
        6
176
     1
 90
        2
176
     1
 62
     7
176
     1
 90
        3
176
     1
 90
        0
176
     1
 90
        0
176
     1
290
     0
176
     1
 90
       13
176
     1
 40
0.0
176
     1
 90
        0
176
     1
290
     0
176
     1
290
     1
176
     1
290
     1
176
     1
290
     0
176
     1
290
     0
176
     1
290
     0
176
     1
290
     0
176
     1
290
     0
176
     1
290
     0
176
     1
 90
       50
176
     1
 40
0.0
176
     1
 40
1.0
176
     1
 90
        0
176
     1
 62
    18
420
        0
176
     1
 90
       50
176
     1
 90
        3
176
     1
 62
     5
420
      255
176
     1
290
     0
176
     1
 90
       50
176
     1
 90
       50
176
     1
 90
       50
176
     1
290
     0
176
     1
 90
       50
176
     1
 62
   256
176
     0
 40
1.0
176
     0
 90
        2
176
     1
  1
strokes_ogs.tif
176
     1
290
     0
176
     1
 40
1.0
176
     1
 40
1.0
176
     1
  0
DICTIONARYVAR
  5
1E0
102
{ACAD_REACTORS
330
1DF
102
}
330
1DF
100
DictionaryVariables
280
     0
  1
1:1
  0
DICTIONARYVAR
  5
1E5
102
{ACAD_REACTORS
330
1DF
102
}
330
1DF
100
DictionaryVariables
280
     0
  1
Standard
  0
DICTIONARYVAR
  5
1E4
102
{ACAD_REACTORS
330
1DF
102
}
330
1DF
100
DictionaryVariables
280
     0
  1
Standard
  0
DICTIONARY
  5
1E1
330
6A
100
AcDbDictionary
280
     1
281
     1
  3
ACAD_ROUNDTRIP_2008_TABLESTYLE_CELLSTYLEMAP
360
1E2
  0
CELLSTYLEMAP
  5
1E2
102
{ACAD_REACTORS
330
1E1
102
}
330
1E1
100
AcDbCellStyleMap
 90
        3
300
CELLSTYLE
  1
TABLEFORMAT_BEGIN
 90
        5
170
     1
 91
        0
 92
    32768
 62
   257
 93
        1
300
CONTENTFORMAT
  1
CONTENTFORMAT_BEGIN
 90
        0
 91
        0
 92
        4
 93
        0
300

 40
0.0
140
1.0
 94
        5
 62
     0
340
11
144
0.25
309
CONTENTFORMAT_END
171
     1
301
MARGIN
  1
CELLMARGIN_BEGIN
 40
0.06
 40
0.06
 40
0.06
 40
0.06
 40
0.06
 40
0.06
309
CELLMARGIN_END
 94
        6
 95
        1
302
GRIDFORMAT
  1
GRIDFORMAT_BEGIN
 90
        0
 91
        1
 62
     0
 92
       -2
340
14
 93
        0
 40
0.045
309
GRIDFORMAT_END
 95
        2
302
GRIDFORMAT
  1
GRIDFORMAT_BEGIN
 90
        0
 91
        1
 62
     0
 92
       -2
340
14
 93
        0
 40
0.045
309
GRIDFORMAT_END
 95
        4
302
GRIDFORMAT
  1
GRIDFORMAT_BEGIN
 90
        0
 91
        1
 62
     0
 92
       -2
340
14
 93
        0
 40
0.045
309
GRIDFORMAT_END
 95
        8
302
GRIDFORMAT
  1
GRIDFORMAT_BEGIN
 90
        0
 91
        1
 62
     0
 92
       -2
340
14
 93
        0
 40
0.045
309
GRIDFORMAT_END
 95
       16
302
GRIDFORMAT
  1
GRIDFORMAT_BEGIN
 90
        0
 91
        1
 62
     0
 92
       -2
340
14
 93
        0
 40
0.045
309
GRIDFORMAT_END
 95
       32
302
GRIDFORMAT
  1
GRIDFORMAT_BEGIN
 90
        0
 91
        1
 62
     0
 92
       -2
340
14
 93
        0
 40
0.045
309
GRIDFORMAT_END
309
TABLEFORMAT_END
  1
CELLSTYLE_BEGIN
 90
        1
 91
        1
300
_TITLE
309
CELLSTYLE_END
300
CELLSTYLE
  1
TABLEFORMAT_BEGIN
 90
        5
170
     1
 91
        0
 92
        0
 62
   257
 93
        1
300
CONTENTFORMAT
  1
CONTENTFORMAT_BEGIN
 90
        0
 91
        0
 92
        4
 93
        0
300

 40
0.0
140
1.0
 94
        5
 62
     0
340
11
144
0.18
309
CONTENTFORMAT_END
171
     1
301
MARGIN
  1
CELLMARGIN_BEGIN
 40
0.06
 40
0.06
 40
0.06
 40
0.06
 40
0.06
 40
0.06
309
CELLMARGIN_END
 94
        6
 95
        1
302
GRIDFORMAT
  1
GRIDFORMAT_BEGIN
 90
        0
 91
        1
 62
     0
 92
       -2
340
14
 93
        0
 40
0.045
309
GRIDFORMAT_END
 95
        2
302
GRIDFORMAT
  1
GRIDFORMAT_BEGIN
 90
        0
 91
        1
 62
     0
 92
       -2
340
14
 93
        0
 40
0.045
309
GRIDFORMAT_END
 95
        4
302
GRIDFORMAT
  1
GRIDFORMAT_BEGIN
 90
        0
 91
        1
 62
     0
 92
       -2
340
14
 93
        0
 40
0.045
309
GRIDFORMAT_END
 95
        8
302
GRIDFORMAT
  1
GRIDFORMAT_BEGIN
 90
        0
 91
        1
 62
     0
 92
       -2
340
14
 93
        0
 40
0.045
309
GRIDFORMAT_END
 95
       16
302
GRIDFORMAT
  1
GRIDFORMAT_BEGIN
 90
        0
 91
        1
 62
     0
 92
       -2
340
14
 93
        0
 40
0.045
309
GRIDFORMAT_END
 95
       32
302
GRIDFORMAT
  1
GRIDFORMAT_BEGIN
 90
        0
 91
        1
 62
     0
 92
       -2
340
14
 93
        0
 40
0.045
309
GRIDFORMAT_END
309
TABLEFORMAT_END
  1
CELLSTYLE_BEGIN
 90
        2
 91
        1
300
_HEADER
309
CELLSTYLE_END
300
CELLSTYLE
  1
TABLEFORMAT_BEGIN
 90
        5
170
     1
 91
        0
 92
        0
 62
   257
 93
        1
300
CONTENTFORMAT
  1
CONTENTFORMAT_BEGIN
 90
        0
 91
        0
 92
        4
 93
        0
300

 40
0.0
140
1.0
 94
        2
 62
     0
340
11
144
0.18
309
CONTENTFORMAT_END
171
     1
301
MARGIN
  1
CELLMARGIN_BEGIN
 40
0.06
 40
0.06
 40
0.06
 40
0.06
 40
0.06
 40
0.06
309
CELLMARGIN_END
 94
        6
 95
        1
302
GRIDFORMAT
  1
GRIDFORMAT_BEGIN
 90
        0
 91
        1
 62
     0
 92
       -2
340
14
 93
        0
 40
0.045
309
GRIDFORMAT_END
 95
        2
302
GRIDFORMAT
  1
GRIDFORMAT_BEGIN
 90
        0
 91
        1
 62
     0
 92
       -2
340
14
 93
        0
 40
0.045
309
GRIDFORMAT_END
 95
        4
302
GRIDFORMAT
  1
GRIDFORMAT_BEGIN
 90
        0
 91
        1
 62
     0
 92
       -2
340
14
 93
        0
 40
0.045
309
GRIDFORMAT_END
 95
        8
302
GRIDFORMAT
  1
GRIDFORMAT_BEGIN
 90
        0
 91
        1
 62
     0
 92
       -2
340
14
 93
        0
 40
0.045
309
GRIDFORMAT_END
 95
       16
302
GRIDFORMAT
  1
GRIDFORMAT_BEGIN
 90
        0
 91
        1
 62
     0
 92
       -2
340
14
 93
        0
 40
0.045
309
GRIDFORMAT_END
 95
       32
302
GRIDFORMAT
  1
GRIDFORMAT_BEGIN
 90
        0
 91
        1
 62
     0
 92
       -2
340
14
 93
        0
 40
0.045
309
GRIDFORMAT_END
309
TABLEFORMAT_END
  1
CELLSTYLE_BEGIN
 90
        3
 91
        2
300
_DATA
309
CELLSTYLE_END
  0
ENDSEC
  0
EOF