0
SECTION
  2
HEADER
  9
$ACADVER
  1
AC1027
  9
$ACADMAINTVER
 70
     8
  9
$DWGCODEPAGE
  3
ANSI_1252
  9
$REQUIREDVERSIONS
160
                 0
  9
$COMMENTS
  1
File was created by Cadenas
  9
$CUSTOMPROPERTYTAG
  1
NN
  9
$CUSTOMPROPERTY
  1
S-2000 Pillow Block 4-Bolt Inch Bore (Labyrinth Seal)
  9
$CUSTOMPROPERTYTAG
  1
NT
  9
$CUSTOMPROPERTY
  1
S-2000 Pillow Block Bearing -Inch (4-Bolt Base)
  9
$CUSTOMPROPERTYTAG
  1
NB
  9
$CUSTOMPROPERTY
  1
070407
  9
$CUSTOMPROPERTYTAG
  1
NBSYN
  9
$CUSTOMPROPERTY
  1
$PN.
  9
$CUSTOMPROPERTYTAG
  1
LINA
  9
$CUSTOMPROPERTY
  1
070407
  9
$CUSTOMPROPERTYTAG
  1
SS
  9
$CUSTOMPROPERTY
  1
3-7/16
  9
$CUSTOMPROPERTYTAG
  1
PN
  9
$CUSTOMPROPERTY
  1
070407
  9
$CUSTOMPROPERTYTAG
  1
DESCRIPTION
  9
$CUSTOMPROPERTY
  1
P4B-S2-307L
  9
$CUSTOMPROPERTYTAG
  1
EF
  9
$CUSTOMPROPERTY
  1
Non-Expansion Type
  9
$CUSTOMPROPERTYTAG
  1
ST
  9
$CUSTOMPROPERTY
  1
Labyrinth Seal
  9
$CUSTOMPROPERTYTAG
  1
A
  9
$CUSTOMPROPERTY
  1
4-1/64
  9
$CUSTOMPROPERTYTAG
  1
B
  9
$CUSTOMPROPERTY
  1
13
  9
$CUSTOMPROPERTYTAG
  1
C
  9
$CUSTOMPROPERTY
  1
4-1/8
  9
$CUSTOMPROPERTYTAG
  1
DMIN
  9
$CUSTOMPROPERTY
  1
9-3/8
  9
$CUSTOMPROPERTYTAG
  1
DMAX
  9
$CUSTOMPROPERTY
  1
10-5/8
  9
$CUSTOMPROPERTYTAG
  1
E
  9
$CUSTOMPROPERTY
  1
2
  9
$CUSTOMPROPERTYTAG
  1
F
  9
$CUSTOMPROPERTY
  1
3/4
  9
$CUSTOMPROPERTYTAG
  1
G
  9
$CUSTOMPROPERTY
  1
1-1/2
  9
$CUSTOMPROPERTYTAG
  1
H
  9
$CUSTOMPROPERTY
  1
2-1/4
  9
$CUSTOMPROPERTYTAG
  1
J
  9
$CUSTOMPROPERTY
  1
7-9/16
  9
$CUSTOMPROPERTYTAG
  1
L
  9
$CUSTOMPROPERTY
  1
5-1/2
  9
$CUSTOMPROPERTYTAG
  1
M
  9
$CUSTOMPROPERTY
  1
3-3/4
  9
$CUSTOMPROPERTYTAG
  1
R
  9
$CUSTOMPROPERTY
  1
1-7/16
  9
$CUSTOMPROPERTYTAG
  1
S
  9
$CUSTOMPROPERTY
  1
2-37/64
  9
$CUSTOMPROPERTYTAG
  1
X
  9
$CUSTOMPROPERTY
  1
1/4
  9
$CUSTOMPROPERTYTAG
  1
Y
  9
$CUSTOMPROPERTY
  1
0.025
  9
$CUSTOMPROPERTYTAG
  1
Z
  9
$CUSTOMPROPERTY
  1
4-3/64
  9
$CUSTOMPROPERTYTAG
  1
COMPANY
  9
$CUSTOMPROPERTY
  1
baldor
  9
$INSBASE
 10
0.0
 20
0.0
 30
0.0
  9
$EXTMIN
 10
1.000000000000000E+20
 20
1.000000000000000E+20
 30
1.000000000000000E+20
  9
$EXTMAX
 10
-1.000000000000000E+20
 20
-1.000000000000000E+20
 30
-1.000000000000000E+20
  9
$LIMMIN
 10
0.0
 20
0.0
  9
$LIMMAX
 10
12.0
 20
9.0
  9
$ORTHOMODE
 70
     0
  9
$REGENMODE
 70
     1
  9
$FILLMODE
 70
     1
  9
$QTEXTMODE
 70
     0
  9
$MIRRTEXT
 70
     1
  9
$LTSCALE
 40
1.0
  9
$ATTMODE
 70
     1
  9
$TEXTSIZE
 40
0.2
  9
$TRACEWID
 40
0.05
  9
$TEXTSTYLE
  7
Standard
  9
$CLAYER
  8
0
  9
$CELTYPE
  6
ByLayer
  9
$CECOLOR
 62
   256
  9
$CELTSCALE
 40
1.0
  9
$DISPSILH
 70
     0
  9
$DIMSCALE
 40
1.0
  9
$DIMASZ
 40
0.18
  9
$DIMEXO
 40
0.0625
  9
$DIMDLI
 40
0.38
  9
$DIMRND
 40
0.0
  9
$DIMDLE
 40
0.0
  9
$DIMEXE
 40
0.18
  9
$DIMTP
 40
0.0
  9
$DIMTM
 40
0.0
  9
$DIMTXT
 40
0.18
  9
$DIMCEN
 40
0.09
  9
$DIMTSZ
 40
0.0
  9
$DIMTOL
 70
     0
  9
$DIMLIM
 70
     0
  9
$DIMTIH
 70
     1
  9
$DIMTOH
 70
     1
  9
$DIMSE1
 70
     0
  9
$DIMSE2
 70
     0
  9
$DIMTAD
 70
     0
  9
$DIMZIN
 70
     0
  9
$DIMBLK
  1

  9
$DIMASO
 70
     1
  9
$DIMSHO
 70
     1
  9
$DIMPOST
  1

  9
$DIMAPOST
  1

  9
$DIMALT
 70
     0
  9
$DIMALTD
 70
     2
  9
$DIMALTF
 40
25.4
  9
$DIMLFAC
 40
1.0
  9
$DIMTOFL
 70
     0
  9
$DIMTVP
 40
0.0
  9
$DIMTIX
 70
     0
  9
$DIMSOXD
 70
     0
  9
$DIMSAH
 70
     0
  9
$DIMBLK1
  1

  9
$DIMBLK2
  1

  9
$DIMSTYLE
  2
Standard
  9
$DIMCLRD
 70
     0
  9
$DIMCLRE
 70
     0
  9
$DIMCLRT
 70
     0
  9
$DIMTFAC
 40
1.0
  9
$DIMGAP
 40
0.09
  9
$DIMJUST
 70
     0
  9
$DIMSD1
 70
     0
  9
$DIMSD2
 70
     0
  9
$DIMTOLJ
 70
     1
  9
$DIMTZIN
 70
     0
  9
$DIMALTZ
 70
     0
  9
$DIMALTTZ
 70
     0
  9
$DIMUPT
 70
     0
  9
$DIMDEC
 70
     4
  9
$DIMTDEC
 70
     4
  9
$DIMALTU
 70
     2
  9
$DIMALTTD
 70
     2
  9
$DIMTXSTY
  7
Standard
  9
$DIMAUNIT
 70
     0
  9
$DIMADEC
 70
     0
  9
$DIMALTRND
 40
0.0
  9
$DIMAZIN
 70
     0
  9
$DIMDSEP
 70
    46
  9
$DIMATFIT
 70
     3
  9
$DIMFRAC
 70
     0
  9
$DIMLDRBLK
  1

  9
$DIMLUNIT
 70
     2
  9
$DIMLWD
 70
    -2
  9
$DIMLWE
 70
    -2
  9
$DIMTMOVE
 70
     0
  9
$DIMFXL
 40
1.0
  9
$DIMFXLON
 70
     0
  9
$DIMJOGANG
 40
0.7853981633974483
  9
$DIMTFILL
 70
     0
  9
$DIMTFILLCLR
 70
     0
  9
$DIMARCSYM
 70
     0
  9
$DIMLTYPE
  6

  9
$DIMLTEX1
  6

  9
$DIMLTEX2
  6

  9
$DIMTXTDIRECTION
 70
     0
  9
$LUNITS
 70
     2
  9
$LUPREC
 70
     4
  9
$SKETCHINC
 40
0.1
  9
$FILLETRAD
 40
0.5
  9
$AUNITS
 70
     0
  9
$AUPREC
 70
     0
  9
$MENU
  1
.
  9
$ELEVATION
 40
0.0
  9
$PELEVATION
 40
0.0
  9
$THICKNESS
 40
0.0
  9
$LIMCHECK
 70
     0
  9
$CHAMFERA
 40
0.0
  9
$CHAMFERB
 40
0.0
  9
$CHAMFERC
 40
0.0
  9
$CHAMFERD
 40
0.0
  9
$SKPOLY
 70
     0
  9
$TDCREATE
 40
2458168.984809965
  9
$TDUCREATE
 40
2458168.943143298
  9
$TDUPDATE
 40
2458168.984810139
  9
$TDUUPDATE
 40
2458168.943143472
  9
$TDINDWG
 40
0.0000000116
  9
$TDUSRTIMER
 40
0.0000000116
  9
$USRTIMER
 70
     1
  9
$ANGBASE
 50
0.0
  9
$ANGDIR
 70
     0
  9
$PDMODE
 70
     0
  9
$PDSIZE
 40
0.0
  9
$PLINEWID
 40
0.0
  9
$SPLFRAME
 70
     0
  9
$SPLINETYPE
 70
     6
  9
$SPLINESEGS
 70
     8
  9
$HANDSEED
  5
20C
  9
$SURFTAB1
 70
     6
  9
$SURFTAB2
 70
     6
  9
$SURFTYPE
 70
     6
  9
$SURFU
 70
     6
  9
$SURFV
 70
     6
  9
$UCSBASE
  2

  9
$UCSNAME
  2

  9
$UCSORG
 10
0.0
 20
0.0
 30
0.0
  9
$UCSXDIR
 10
1.0
 20
0.0
 30
0.0
  9
$UCSYDIR
 10
0.0
 20
1.0
 30
0.0
  9
$UCSORTHOREF
  2

  9
$UCSORTHOVIEW
 70
     0
  9
$UCSORGTOP
 10
0.0
 20
0.0
 30
0.0
  9
$UCSORGBOTTOM
 10
0.0
 20
0.0
 30
0.0
  9
$UCSORGLEFT
 10
0.0
 20
0.0
 30
0.0
  9
$UCSORGRIGHT
 10
0.0
 20
0.0
 30
0.0
  9
$UCSORGFRONT
 10
0.0
 20
0.0
 30
0.0
  9
$UCSORGBACK
 10
0.0
 20
0.0
 30
0.0
  9
$PUCSBASE
  2

  9
$PUCSNAME
  2

  9
$PUCSORG
 10
0.0
 20
0.0
 30
0.0
  9
$PUCSXDIR
 10
1.0
 20
0.0
 30
0.0
  9
$PUCSYDIR
 10
0.0
 20
1.0
 30
0.0
  9
$PUCSORTHOREF
  2

  9
$PUCSORTHOVIEW
 70
     0
  9
$PUCSORGTOP
 10
0.0
 20
0.0
 30
0.0
  9
$PUCSORGBOTTOM
 10
0.0
 20
0.0
 30
0.0
  9
$PUCSORGLEFT
 10
0.0
 20
0.0
 30
0.0
  9
$PUCSORGRIGHT
 10
0.0
 20
0.0
 30
0.0
  9
$PUCSORGFRONT
 10
0.0
 20
0.0
 30
0.0
  9
$PUCSORGBACK
 10
0.0
 20
0.0
 30
0.0
  9
$USERI1
 70
     0
  9
$USERI2
 70
     0
  9
$USERI3
 70
     0
  9
$USERI4
 70
     0
  9
$USERI5
 70
     0
  9
$USERR1
 40
0.0
  9
$USERR2
 40
0.0
  9
$USERR3
 40
0.0
  9
$USERR4
 40
0.0
  9
$USERR5
 40
0.0
  9
$WORLDVIEW
 70
     1
  9
$SHADEDGE
 70
     3
  9
$SHADEDIF
 70
    70
  9
$TILEMODE
 70
     1
  9
$MAXACTVP
 70
    64
  9
$PINSBASE
 10
0.0
 20
0.0
 30
0.0
  9
$PLIMCHECK
 70
     0
  9
$PEXTMIN
 10
1.000000000000000E+20
 20
1.000000000000000E+20
 30
1.000000000000000E+20
  9
$PEXTMAX
 10
-1.000000000000000E+20
 20
-1.000000000000000E+20
 30
-1.000000000000000E+20
  9
$PLIMMIN
 10
0.0
 20
0.0
  9
$PLIMMAX
 10
12.0
 20
9.0
  9
$UNITMODE
 70
     0
  9
$VISRETAIN
 70
     1
  9
$PLINEGEN
 70
     0
  9
$PSLTSCALE
 70
     1
  9
$TREEDEPTH
 70
  3020
  9
$CMLSTYLE
  2
Standard
  9
$CMLJUST
 70
     0
  9
$CMLSCALE
 40
1.0
  9
$PROXYGRAPHICS
 70
     1
  9
$MEASUREMENT
 70
     0
  9
$CELWEIGHT
370
    -1
  9
$ENDCAPS
280
     0
  9
$JOINSTYLE
280
     0
  9
$LWDISPLAY
290
     0
  9
$INSUNITS
 70
     1
  9
$HYPERLINKBASE
  1

  9
$STYLESHEET
  1

  9
$XEDIT
290
     1
  9
$CEPSNTYPE
380
     0
  9
$PSTYLEMODE
290
     1
  9
$FINGERPRINTGUID
  2
{13C9AFBD-64F1-431C-9576-156CBE06B6B2}
  9
$VERSIONGUID
  2
{FAEB1C32-E019-11D5-929B-00C0DF256EC4}
  9
$EXTNAMES
290
     1
  9
$PSVPSCALE
 40
0.0
  9
$OLESTARTUP
290
     0
  9
$SORTENTS
280
   127
  9
$INDEXCTL
280
     0
  9
$HIDETEXT
280
     1
  9
$XCLIPFRAME
280
     2
  9
$HALOGAP
280
     0
  9
$OBSCOLOR
 70
   257
  9
$OBSLTYPE
280
     0
  9
$INTERSECTIONDISPLAY
280
     0
  9
$INTERSECTIONCOLOR
 70
   257
  9
$DIMASSOC
280
     2
  9
$PROJECTNAME
  1

  9
$CAMERADISPLAY
290
     0
  9
$LENSLENGTH
 40
50.0
  9
$CAMERAHEIGHT
 40
0.0
  9
$STEPSPERSEC
 40
2.0
  9
$STEPSIZE
 40
6.0
  9
$3DDWFPREC
 40
2.0
  9
$PSOLWIDTH
 40
0.25
  9
$PSOLHEIGHT
 40
4.0
  9
$LOFTANG1
 40
1.570796326794897
  9
$LOFTANG2
 40
1.570796326794897
  9
$LOFTMAG1
 40
0.0
  9
$LOFTMAG2
 40
0.0
  9
$LOFTPARAM
 70
     7
  9
$LOFTNORMALS
280
     1
  9
$LATITUDE
 40
37.795
  9
$LONGITUDE
 40
-122.394
  9
$NORTHDIRECTION
 40
0.0
  9
$TIMEZONE
 70
 -8000
  9
$LIGHTGLYPHDISPLAY
280
     1
  9
$TILEMODELIGHTSYNCH
280
     1
  9
$CMATERIAL
347
44
  9
$SOLIDHIST
280
     0
  9
$SHOWHIST
280
     1
  9
$DWFFRAME
280
     2
  9
$DGNFRAME
280
     2
  9
$REALWORLDSCALE
290
     1
  9
$INTERFERECOLOR
 62
   256
  9
$CSHADOW
280
     0
  9
$SHADOWPLANELOCATION
 40
0.0
  0
ENDSEC
  0
SECTION
  2
CLASSES
  0
CLASS
  1
ACDBDICTIONARYWDFLT
  2
AcDbDictionaryWithDefault
  3
ObjectDBX Classes
 90
        0
 91
        4
280
     0
281
     0
  0
CLASS
  1
VISUALSTYLE
  2
AcDbVisualStyle
  3
ObjectDBX Classes
 90
     4095
 91
        4
280
     0
281
     0
  0
CLASS
  1
MATERIAL
  2
AcDbMaterial
  3
ObjectDBX Classes
 90
     1153
 91
        4
280
     0
281
     0
  0
CLASS
  1
SCALE
  2
AcDbScale
  3
ObjectDBX Classes
 90
     1153
 91
        4
280
     0
281
     0
  0
CLASS
  1
TABLESTYLE
  2
AcDbTableStyle
  3
ObjectDBX Classes
 90
     4095
 91
        4
280
     0
281
     0
  0
CLASS
  1
MLEADERSTYLE
  2
AcDbMLeaderStyle
  3
ACDB_MLEADERSTYLE_CLASS
 90
     4095
 91
        4
280
     0
281
     0
  0
CLASS
  1
SUN
  2
AcDbSun
  3
SCENEOE
 90
     1153
 91
        4
280
     0
281
     0
  0
CLASS
  1
DICTIONARYVAR
  2
AcDbDictionaryVar
  3
ObjectDBX Classes
 90
        0
 91
        4
280
     0
281
     0
  0
CLASS
  1
CELLSTYLEMAP
  2
AcDbCellStyleMap
  3
ObjectDBX Classes
 90
     1152
 91
        4
280
     0
281
     0
  0
ENDSEC
  0
SECTION
  2
TABLES
  0
TABLE
  2
VPORT
  5
8
330
0
100
AcDbSymbolTable
 70
     1
  0
VPORT
  5
29
330
8
100
AcDbSymbolTableRecord
100
AcDbViewportTableRecord
  2
*Active
 70
     0
 10
0.0
 20
0.0
 11
1.0
 21
1.0
 12
-0.1611250000000002
 22
0.03125
 13
0.0
 23
0.0
 14
0.5
 24
0.5
 15
0.5
 25
0.5
 16
0.0
 26
0.0
 36
1.0
 17
0.0
 27
0.0
 37
0.0
 40
7.71375
 41
0.6920991735537187
 42
50.0
 43
0.0
 44
0.0
 50
0.0
 51
0.0
 71
     0
 72
   100
 73
     1
 74
     3
 75
     0
 76
     0
 77
     0
 78
     0
281
     0
 65
     1
110
0.0
120
0.0
130
0.0
111
1.0
121
0.0
131
0.0
112
0.0
122
1.0
132
0.0
 79
     0
146
0.0
348
2F
 60
     3
 61
     5
292
     1
282
     1
141
0.0
142
0.0
 63
   250
361
6D
  0
ENDTAB
  0
TABLE
  2
LTYPE
  5
5
330
0
100
AcDbSymbolTable
 70
     3
  0
LTYPE
  5
14
330
5
100
AcDbSymbolTableRecord
100
AcDbLinetypeTableRecord
  2
ByBlock
 70
     0
  3

 72
    65
 73
     0
 40
0.0
  0
LTYPE
  5
15
330
5
100
AcDbSymbolTableRecord
100
AcDbLinetypeTableRecord
  2
ByLayer
 70
     0
  3

 72
    65
 73
     0
 40
0.0
  0
LTYPE
  5
16
330
5
100
AcDbSymbolTableRecord
100
AcDbLinetypeTableRecord
  2
Continuous
 70
     0
  3
Solid line
 72
    65
 73
     0
 40
0.0
  0
LTYPE
  5
A8
330
5
100
AcDbSymbolTableRecord
100
AcDbLinetypeTableRecord
  2
Dashed
 70
     0
  3

 72
    65
 73
     2
 40
2.0
 49
1.0
 74
     0
 49
-1.0
 74
     0
  0
LTYPE
  5
13E
330
5
100
AcDbSymbolTableRecord
100
AcDbLinetypeTableRecord
  2
Center
 70
     0
  3

 72
    65
 73
     4
 40
1.5
 49
0.45
 74
     0
 49
-0.5
 74
     0
 49
0.05
 74
     0
 49
-0.5
 74
     0
  0
ENDTAB
  0
TABLE
  2
LAYER
  5
2
330
0
100
AcDbSymbolTable
 70
     7
  0
LAYER
  5
10
330
2
100
AcDbSymbolTableRecord
100
AcDbLayerTableRecord
  2
0
 70
     0
 62
     7
  6
Continuous
370
    -3
390
F
347
46
348
0
  0
LAYER
  5
72
330
2
100
AcDbSymbolTableRecord
100
AcDbLayerTableRecord
  2
AM_6
 70
     0
 62
    -2
  6
Continuous
370
    35
390
F
347
46
348
0
  0
LAYER
  5
A9
330
2
100
AcDbSymbolTableRecord
100
AcDbLayerTableRecord
  2
AM_9
 70
     0
 62
     6
  6
Dashed
370
    25
390
F
347
46
348
0
  0
LAYER
  5
CF
330
2
100
AcDbSymbolTableRecord
100
AcDbLayerTableRecord
  2
AM_5
 70
     0
 62
     3
  6
Continuous
370
    25
390
F
347
46
348
0
  0
LAYER
  5
D4
330
2
100
AcDbSymbolTableRecord
100
AcDbLayerTableRecord
  2
AM_4
 70
     0
 62
     7
  6
Continuous
370
    50
390
F
347
46
348
0
  0
LAYER
  5
13F
330
2
100
AcDbSymbolTableRecord
100
AcDbLayerTableRecord
  2
AM_7
 70
     0
 62
     7
  6
Center
370
    25
390
F
347
46
348
0
  0
LAYER
  5
1FB
330
2
100
AcDbSymbolTableRecord
100
AcDbLayerTableRecord
  2
ConnectionPoints
 70
     0
 62
     7
  6
Continuous
370
    50
390
F
347
46
348
0
  0
ENDTAB
  0
TABLE
  2
STYLE
  5
3
330
0
100
AcDbSymbolTable
 70
     1
  0
STYLE
  5
11
330
3
100
AcDbSymbolTableRecord
100
AcDbTextStyleTableRecord
  2
Standard
 70
     0
 40
0.0
 41
1.0
 50
0.0
 71
     0
 42
0.2
  3
txt
  4

  0
ENDTAB
  0
TABLE
  2
VIEW
  5
6
330
0
100
AcDbSymbolTable
 70
     0
  0
ENDTAB
  0
TABLE
  2
UCS
  5
7
330
0
100
AcDbSymbolTable
 70
     0
  0
ENDTAB
  0
TABLE
  2
APPID
  5
9
330
0
100
AcDbSymbolTable
 70
     1
  0
APPID
  5
12
330
9
100
AcDbSymbolTableRecord
100
AcDbRegAppTableRecord
  2
ACAD
 70
     0
  0
ENDTAB
  0
TABLE
  2
DIMSTYLE
  5
A
330
0
100
AcDbSymbolTable
 70
     1
100
AcDbDimStyleTable
  0
DIMSTYLE
105
27
330
A
100
AcDbSymbolTableRecord
100
AcDbDimStyleTableRecord
  2
Standard
 70
     0
178
     0
340
11
  0
ENDTAB
  0
TABLE
  2
BLOCK_RECORD
  5
1
330
0
100
AcDbSymbolTable
 70
     6
  0
BLOCK_RECORD
  5
1F
330
1
100
AcDbSymbolTableRecord
100
AcDbBlockTableRecord
  2
*Model_Space
340
22
 70
     0
280
     1
281
     0
  0
BLOCK_RECORD
  5
1B
330
1
100
AcDbSymbolTableRecord
100
AcDbBlockTableRecord
  2
*Paper_Space
340
1E
 70
     0
280
     1
281
     0
  0
BLOCK_RECORD
  5
23
330
1
100
AcDbSymbolTableRecord
100
AcDbBlockTableRecord
  2
*Paper_Space0
340
26
 70
     0
280
     1
281
     0
  0
BLOCK_RECORD
  5
6E
330
1
100
AcDbSymbolTableRecord
100
AcDbBlockTableRecord
  2
1_070407_2
340
0
102
{BLKREFS
331
6F
102
}
 70
     0
280
     1
281
     0
  0
BLOCK_RECORD
  5
8F
330
1
100
AcDbSymbolTableRecord
100
AcDbBlockTableRecord
  2
2_3_7_16CS2i_0_in_070407_2
340
0
102
{BLKREFS
331
90
102
}
 70
     0
280
     1
281
     0
  0
BLOCK_RECORD
  5
E6
330
1
100
AcDbSymbolTableRecord
100
AcDbBlockTableRecord
  2
3_070028i_0_in_070407_2
340
0
102
{BLKREFS
331
E7
102
}
 70
     0
280
     1
281
     0
  0
BLOCK_RECORD
  5
142
330
1
100
AcDbSymbolTableRecord
100
AcDbBlockTableRecord
  2
4_405015E_Inch_0_in_070407_2
340
0
102
{BLKREFS
331
143
102
}
 70
     0
280
     1
281
     0
  0
BLOCK_RECORD
  5
19E
330
1
100
AcDbSymbolTableRecord
100
AcDbBlockTableRecord
  2
5_070407H_0_in_070407_2
340
0
102
{BLKREFS
331
19F
102
}
 70
     0
280
     1
281
     0
  0
ENDTAB
  0
ENDSEC
  0
SECTION
  2
BLOCKS
  0
BLOCK
  5
20
330
1F
100
AcDbEntity
  8
0
100
AcDbBlockBegin
  2
*Model_Space
 70
     0
 10
0.0
 20
0.0
 30
0.0
  3
*Model_Space
  1

  0
ENDBLK
  5
21
330
1F
100
AcDbEntity
  8
0
100
AcDbBlockEnd
  0
BLOCK
  5
1C
330
1B
100
AcDbEntity
 67
     1
  8
0
100
AcDbBlockBegin
  2
*Paper_Space
 70
     0
 10
0.0
 20
0.0
 30
0.0
  3
*Paper_Space
  1

  0
ENDBLK
  5
1D
330
1B
100
AcDbEntity
 67
     1
  8
0
100
AcDbBlockEnd
  0
BLOCK
  5
24
330
23
100
AcDbEntity
  8
0
100
AcDbBlockBegin
  2
*Paper_Space0
 70
     0
 10
0.0
 20
0.0
 30
0.0
  3
*Paper_Space0
  1

  0
ENDBLK
  5
25
330
23
100
AcDbEntity
  8
0
100
AcDbBlockEnd
  0
BLOCK
  5
70
330
6E
100
AcDbEntity
  8
0
100
AcDbBlockBegin
  2
1_070407_2
 70
     2
 10
0.0
 20
0.0
 30
0.0
  3
1_070407_2
  1

  0
ATTDEF
  5
73
330
6E
100
AcDbEntity
  8
AM_6
100
AcDbText
 10
7.326923076923077
 20
3.8125
 30
0.0
 40
0.5
  1
S-2000 Pillow Block 4-Bolt Inch Bore (Labyrinth Seal)
100
AcDbAttributeDefinition
  3

  2
NN
 70
     8
280
     0
  0
ATTDEF
  5
74
330
6E
100
AcDbEntity
  8
AM_6
100
AcDbText
 10
7.326923076923077
 20
3.3125
 30
0.0
 40
0.5
  1
S-2000 Pillow Block Bearing -Inch (4-Bolt Base)
100
AcDbAttributeDefinition
  3

  2
NT
 70
     8
280
     0
  0
ATTDEF
  5
75
330
6E
100
AcDbEntity
  8
AM_6
100
AcDbText
 10
7.326923076923077
 20
2.8125
 30
0.0
 40
0.5
  1
070407
100
AcDbAttributeDefinition
  3

  2
NB
 70
     8
280
     0
  0
ATTDEF
  5
76
330
6E
100
AcDbEntity
  8
AM_6
100
AcDbText
 10
7.326923076923077
 20
2.3125
 30
0.0
 40
0.5
  1
$PN.
100
AcDbAttributeDefinition
  3

  2
NBSYN
 70
     8
280
     0
  0
ATTDEF
  5
77
330
6E
100
AcDbEntity
  8
AM_6
100
AcDbText
 10
7.326923076923077
 20
1.8125
 30
0.0
 40
0.5
  1
070407
100
AcDbAttributeDefinition
  3

  2
LINA
 70
     8
280
     0
  0
ATTDEF
  5
78
330
6E
100
AcDbEntity
  8
AM_6
100
AcDbText
 10
7.326923076923077
 20
1.3125
 30
0.0
 40
0.5
  1
3-7/16
100
AcDbAttributeDefinition
  3

  2
SS
 70
     8
280
     0
  0
ATTDEF
  5
79
330
6E
100
AcDbEntity
  8
AM_6
100
AcDbText
 10
7.326923076923077
 20
0.8125
 30
0.0
 40
0.5
  1
070407
100
AcDbAttributeDefinition
  3

  2
PN
 70
     8
280
     0
  0
ATTDEF
  5
7A
330
6E
100
AcDbEntity
  8
AM_6
100
AcDbText
 10
7.326923076923077
 20
0.3125
 30
0.0
 40
0.5
  1
P4B-S2-307L
100
AcDbAttributeDefinition
  3

  2
DESCRIPTION
 70
     8
280
     0
  0
ATTDEF
  5
7B
330
6E
100
AcDbEntity
  8
AM_6
100
AcDbText
 10
7.326923076923077
 20
-0.1875
 30
0.0
 40
0.5
  1
Non-Expansion Type
100
AcDbAttributeDefinition
  3

  2
EF
 70
     8
280
     0
  0
ATTDEF
  5
7C
330
6E
100
AcDbEntity
  8
AM_6
100
AcDbText
 10
7.326923076923077
 20
-0.6875
 30
0.0
 40
0.5
  1
Labyrinth Seal
100
AcDbAttributeDefinition
  3

  2
ST
 70
     8
280
     0
  0
ATTDEF
  5
7D
330
6E
100
AcDbEntity
  8
AM_6
100
AcDbText
 10
7.326923076923077
 20
-1.1875
 30
0.0
 40
0.5
  1
4-1/64
100
AcDbAttributeDefinition
  3

  2
A
 70
     8
280
     0
  0
ATTDEF
  5
7E
330
6E
100
AcDbEntity
  8
AM_6
100
AcDbText
 10
7.326923076923077
 20
-1.6875
 30
0.0
 40
0.5
  1
13
100
AcDbAttributeDefinition
  3

  2
B
 70
     8
280
     0
  0
ATTDEF
  5
7F
330
6E
100
AcDbEntity
  8
AM_6
100
AcDbText
 10
7.326923076923077
 20
-2.1875
 30
0.0
 40
0.5
  1
4-1/8
100
AcDbAttributeDefinition
  3

  2
C
 70
     8
280
     0
  0
ATTDEF
  5
80
330
6E
100
AcDbEntity
  8
AM_6
100
AcDbText
 10
7.326923076923077
 20
-2.6875
 30
0.0
 40
0.5
  1
9-3/8
100
AcDbAttributeDefinition
  3

  2
DMIN
 70
     8
280
     0
  0
ATTDEF
  5
81
330
6E
100
AcDbEntity
  8
AM_6
100
AcDbText
 10
7.326923076923077
 20
-3.1875
 30
0.0
 40
0.5
  1
10-5/8
100
AcDbAttributeDefinition
  3

  2
DMAX
 70
     8
280
     0
  0
ATTDEF
  5
82
330
6E
100
AcDbEntity
  8
AM_6
100
AcDbText
 10
7.326923076923077
 20
-3.6875
 30
0.0
 40
0.5
  1
2
100
AcDbAttributeDefinition
  3

  2
E
 70
     8
280
     0
  0
ATTDEF
  5
83
330
6E
100
AcDbEntity
  8
AM_6
100
AcDbText
 10
7.326923076923077
 20
-4.1875
 30
0.0
 40
0.5
  1
3/4
100
AcDbAttributeDefinition
  3

  2
F
 70
     8
280
     0
  0
ATTDEF
  5
84
330
6E
100
AcDbEntity
  8
AM_6
100
AcDbText
 10
7.326923076923077
 20
-4.6875
 30
0.0
 40
0.5
  1
1-1/2
100
AcDbAttributeDefinition
  3

  2
G
 70
     8
280
     0
  0
ATTDEF
  5
85
330
6E
100
AcDbEntity
  8
AM_6
100
AcDbText
 10
7.326923076923077
 20
-5.1875
 30
0.0
 40
0.5
  1
2-1/4
100
AcDbAttributeDefinition
  3

  2
H
 70
     8
280
     0
  0
ATTDEF
  5
86
330
6E
100
AcDbEntity
  8
AM_6
100
AcDbText
 10
7.326923076923077
 20
-5.6875
 30
0.0
 40
0.5
  1
7-9/16
100
AcDbAttributeDefinition
  3

  2
J
 70
     8
280
     0
  0
ATTDEF
  5
87
330
6E
100
AcDbEntity
  8
AM_6
100
AcDbText
 10
7.326923076923077
 20
-6.1875
 30
0.0
 40
0.5
  1
5-1/2
100
AcDbAttributeDefinition
  3

  2
L
 70
     8
280
     0
  0
ATTDEF
  5
88
330
6E
100
AcDbEntity
  8
AM_6
100
AcDbText
 10
7.326923076923077
 20
-6.6875
 30
0.0
 40
0.5
  1
3-3/4
100
AcDbAttributeDefinition
  3

  2
M
 70
     8
280
     0
  0
ATTDEF
  5
89
330
6E
100
AcDbEntity
  8
AM_6
100
AcDbText
 10
7.326923076923077
 20
-7.1875
 30
0.0
 40
0.5
  1
1-7/16
100
AcDbAttributeDefinition
  3

  2
R
 70
     8
280
     0
  0
ATTDEF
  5
8A
330
6E
100
AcDbEntity
  8
AM_6
100
AcDbText
 10
7.326923076923077
 20
-7.6875
 30
0.0
 40
0.5
  1
2-37/64
100
AcDbAttributeDefinition
  3

  2
S
 70
     8
280
     0
  0
ATTDEF
  5
8B
330
6E
100
AcDbEntity
  8
AM_6
100
AcDbText
 10
7.326923076923077
 20
-8.1875
 30
0.0
 40
0.5
  1
1/4
100
AcDbAttributeDefinition
  3

  2
X
 70
     8
280
     0
  0
ATTDEF
  5
8C
330
6E
100
AcDbEntity
  8
AM_6
100
AcDbText
 10
7.326923076923077
 20
-8.6875
 30
0.0
 40
0.5
  1
0.025
100
AcDbAttributeDefinition
  3

  2
Y
 70
     8
280
     0
  0
ATTDEF
  5
8D
330
6E
100
AcDbEntity
  8
AM_6
100
AcDbText
 10
7.326923076923077
 20
-9.1875
 30
0.0
 40
0.5
  1
4-3/64
100
AcDbAttributeDefinition
  3

  2
Z
 70
     8
280
     0
  0
ATTDEF
  5
8E
330
6E
100
AcDbEntity
  8
AM_6
100
AcDbText
 10
7.326923076923077
 20
-9.6875
 30
0.0
 40
0.5
  1
baldor
100
AcDbAttributeDefinition
  3

  2
COMPANY
 70
     8
280
     0
  0
INSERT
  5
90
330
6E
100
AcDbEntity
  8
0
100
AcDbBlockReference
  2
2_3_7_16CS2i_0_in_070407_2
 10
0.0
 20
0.0
 30
0.0
  0
INSERT
  5
E7
330
6E
100
AcDbEntity
  8
0
100
AcDbBlockReference
  2
3_070028i_0_in_070407_2
 10
0.0
 20
0.0
 30
0.0
  0
INSERT
  5
143
330
6E
100
AcDbEntity
  8
0
100
AcDbBlockReference
  2
4_405015E_Inch_0_in_070407_2
 10
0.0
 20
0.0
 30
0.0
  0
INSERT
  5
19F
330
6E
100
AcDbEntity
  8
0
100
AcDbBlockReference
  2
5_070407H_0_in_070407_2
 10
0.0
 20
0.0
 30
0.0
  0
ENDBLK
  5
71
330
6E
100
AcDbEntity
  8
0
100
AcDbBlockEnd
  0
BLOCK
  5
91
330
8F
100
AcDbEntity
  8
0
100
AcDbBlockBegin
  2
2_3_7_16CS2i_0_in_070407_2
 70
     2
 10
0.0
 20
0.0
 30
0.0
  3
2_3_7_16CS2i_0_in_070407_2
  1

  0
ATTDEF
  5
93
330
8F
100
AcDbEntity
  8
AM_6
100
AcDbText
 10
3.305875
 20
2.75
 30
0.0
 40
0.5
  1
S-2000 Collar -Inch
100
AcDbAttributeDefinition
  3

  2
NN
 70
     8
280
     0
  0
ATTDEF
  5
94
330
8F
100
AcDbEntity
  8
AM_6
100
AcDbText
 10
3.305875
 20
2.25
 30
0.0
 40
0.5
  1
S-2000 Bearings
100
AcDbAttributeDefinition
  3

  2
NT
 70
     8
280
     0
  0
ATTDEF
  5
95
330
8F
100
AcDbEntity
  8
AM_6
100
AcDbText
 10
3.305875
 20
1.75
 30
0.0
 40
0.5
  1
3-7/16CS2i
100
AcDbAttributeDefinition
  3

  2
NB
 70
     8
280
     0
  0
ATTDEF
  5
96
330
8F
100
AcDbEntity
  8
AM_6
100
AcDbText
 10
3.305875
 20
1.25
 30
0.0
 40
0.5
  1
$BORE.CS2i
100
AcDbAttributeDefinition
  3

  2
NBSYN
 70
     8
280
     0
  0
ATTDEF
  5
97
330
8F
100
AcDbEntity
  8
AM_6
100
AcDbText
 10
3.305875
 20
0.75
 30
0.0
 40
0.5
  1
3-7/16CS2i
100
AcDbAttributeDefinition
  3

  2
LINA
 70
     8
280
     0
  0
ATTDEF
  5
98
330
8F
100
AcDbEntity
  8
AM_6
100
AcDbText
 10
3.305875
 20
0.25
 30
0.0
 40
0.5
  1
3-7/16
100
AcDbAttributeDefinition
  3

  2
BORE
 70
     8
280
     0
  0
ATTDEF
  5
99
330
8F
100
AcDbEntity
  8
AM_6
100
AcDbText
 10
3.305875
 20
-0.25
 30
0.0
 40
0.5
  1
3.437500
100
AcDbAttributeDefinition
  3

  2
BORE1
 70
     8
280
     0
  0
ATTDEF
  5
9A
330
8F
100
AcDbEntity
  8
AM_6
100
AcDbText
 10
3.305875
 20
-0.75
 30
0.0
 40
0.5
  1
5-1/2
100
AcDbAttributeDefinition
  3

  2
L1
 70
     8
280
     0
  0
ATTDEF
  5
9B
330
8F
100
AcDbEntity
  8
AM_6
100
AcDbText
 10
3.305875
 20
-1.25
 30
0.0
 40
0.5
  1
5.50000
100
AcDbAttributeDefinition
  3

  2
L
 70
     8
280
     0
  0
ATTDEF
  5
9C
330
8F
100
AcDbEntity
  8
AM_6
100
AcDbText
 10
3.305875
 20
-1.75
 30
0.0
 40
0.5
  1
5.50000
100
AcDbAttributeDefinition
  3

  2
L2
 70
     8
280
     0
  0
ATTDEF
  5
9D
330
8F
100
AcDbEntity
  8
AM_6
100
AcDbText
 10
3.305875
 20
-2.25
 30
0.0
 40
0.5
  1
5.00
100
AcDbAttributeDefinition
  3

  2
A
 70
     8
280
     0
  0
ATTDEF
  5
9E
330
8F
100
AcDbEntity
  8
AM_6
100
AcDbText
 10
3.305875
 20
-2.75
 30
0.0
 40
0.5
  1
2.25
100
AcDbAttributeDefinition
  3

  2
B
 70
     8
280
     0
  0
ATTDEF
  5
9F
330
8F
100
AcDbEntity
  8
AM_6
100
AcDbText
 10
3.305875
 20
-3.25
 30
0.0
 40
0.5
  1
4.24
100
AcDbAttributeDefinition
  3

  2
C
 70
     8
280
     0
  0
ATTDEF
  5
A0
330
8F
100
AcDbEntity
  8
AM_6
100
AcDbText
 10
3.305875
 20
-3.75
 30
0.0
 40
0.5
  1
5.84
100
AcDbAttributeDefinition
  3

  2
D
 70
     8
280
     0
  0
ATTDEF
  5
A1
330
8F
100
AcDbEntity
  8
AM_6
100
AcDbText
 10
3.305875
 20
-4.25
 30
0.0
 40
0.5
  1
0.54
100
AcDbAttributeDefinition
  3

  2
E
 70
     8
280
     0
  0
ATTDEF
  5
A2
330
8F
100
AcDbEntity
  8
AM_6
100
AcDbText
 10
3.305875
 20
-4.75
 30
0.0
 40
0.5
  1
0.442
100
AcDbAttributeDefinition
  3

  2
F
 70
     8
280
     0
  0
ATTDEF
  5
A3
330
8F
100
AcDbEntity
  8
AM_6
100
AcDbText
 10
3.305875
 20
-5.25
 30
0.0
 40
0.5
  1
1/2-13
100
AcDbAttributeDefinition
  3

  2
CS
 70
     8
280
     0
  0
ATTDEF
  5
A4
330
8F
100
AcDbEntity
  8
AM_6
100
AcDbText
 10
3.305875
 20
-5.75
 30
0.0
 40
0.5
  1
0.5000
100
AcDbAttributeDefinition
  3

  2
NDM
 70
     8
280
     0
  0
ATTDEF
  5
A5
330
8F
100
AcDbEntity
  8
AM_6
100
AcDbText
 10
3.305875
 20
-6.25
 30
0.0
 40
0.5
  1
0.4170
100
AcDbAttributeDefinition
  3

  2
KDM
 70
     8
280
     0
  0
ATTDEF
  5
A6
330
8F
100
AcDbEntity
  8
AM_6
100
AcDbText
 10
3.305875
 20
-6.75
 30
0.0
 40
0.5
  1
2
100
AcDbAttributeDefinition
  3

  2
DD
 70
     8
280
     0
  0
ATTDEF
  5
A7
330
8F
100
AcDbEntity
  8
AM_6
100
AcDbText
 10
3.305875
 20
-7.25
 30
0.0
 40
0.5
  1
baldor
100
AcDbAttributeDefinition
  3

  2
COMPANY
 70
     8
280
     0
  0
ELLIPSE
  5
AA
330
8F
100
AcDbEntity
  8
AM_9
100
AcDbEllipse
 10
-2.136125
 20
1.144598169185423
 30
0.0
 11
0.20835
 21
0.0
 31
0.0
210
0.0
220
0.0
230
1.0
 40
0.9063077870366504
 41
5.576803464405476
 42
10.13115980354349
  0
LINE
  5
AB
330
8F
100
AcDbEntity
  8
AM_9
100
AcDbLine
 10
-1.927775
 20
0.8994654901004289
 30
0.0
 11
-1.927775
 21
1.144598169185423
 31
0.0
  0
LINE
  5
AC
330
8F
100
AcDbEntity
  8
AM_9
100
AcDbLine
 10
-2.344475
 20
1.144598169185423
 30
0.0
 11
-2.344475
 21
0.8994654901004289
 31
0.0
  0
ELLIPSE
  5
AD
330
8F
100
AcDbEntity
  8
AM_9
100
AcDbEllipse
 10
-2.136125
 20
1.144598169185421
 30
0.0
 11
0.2083499999999989
 21
0.0
 31
0.0
210
0.0
220
0.0
230
1.0
 40
0.9063077870366467
 41
3.847974496363904
 42
4.539555346769157
  0
ELLIPSE
  5
AE
330
8F
100
AcDbEntity
  8
AM_9
100
AcDbEllipse
 10
-2.136125
 20
1.14459816918543
 30
0.0
 11
0.2083500000000009
 21
0.0
 31
0.0
210
0.0
220
0.0
230
1.0
 40
0.9063077870366796
 41
4.539555346769159
 42
5.576803464405462
  0
ELLIPSE
  5
AF
330
8F
100
AcDbEntity
  8
AM_9
100
AcDbEllipse
 10
-2.13612500000018
 20
0.899465490100406
 30
0.0
 11
0.2083499999998204
 21
0.0
 31
0.0
210
0.0
220
0.0
230
1.0
 40
0.9063077870366453
 41
3.141592653589793
 42
3.249864363672919
  0
ELLIPSE
  5
B0
330
8F
100
AcDbEntity
  8
AM_9
100
AcDbEllipse
 10
-2.136125
 20
0.8994654901004285
 30
0.0
 11
0.2083499999999996
 21
0.0
 31
0.0
210
0.0
220
0.0
230
1.0
 40
0.9063077870366485
 41
3.249864363672945
 42
9.42477796076938
  0
LINE
  5
B1
330
8F
100
AcDbEntity
  8
AM_9
100
AcDbLine
 10
-2.344475
 20
2.128316666666672
 30
0.0
 11
-2.352549611826419
 21
2.120242054840253
 31
0.0
  0
LINE
  5
B2
330
8F
100
AcDbEntity
  8
AM_9
100
AcDbLine
 10
-1.919813276724855
 20
2.120354943391527
 30
0.0
 11
-1.927775
 21
2.128316666666672
 31
0.0
  0
LINE
  5
B3
330
8F
100
AcDbEntity
  8
AM_9
100
AcDbLine
 10
-1.927775
 20
2.708349999999999
 30
0.0
 11
-1.910675484400175
 21
2.725449515599824
 31
0.0
  0
LINE
  5
B4
330
8F
100
AcDbEntity
  8
AM_9
100
AcDbLine
 10
-2.385768953285003
 20
2.749643953285003
 30
0.0
 11
-2.344475
 21
2.708349999999999
 31
0.0
  0
LINE
  5
B5
330
8F
100
AcDbEntity
  8
AM_9
100
AcDbLine
 10
-1.927775
 20
2.128316666666672
 30
0.0
 11
-1.927775
 21
2.708349999999999
 31
0.0
  0
LINE
  5
B6
330
8F
100
AcDbEntity
  8
AM_9
100
AcDbLine
 10
-2.344475
 20
2.708349999999999
 30
0.0
 11
-2.344475
 21
2.128316666666672
 31
0.0
  0
LINE
  5
B7
330
8F
100
AcDbEntity
  8
AM_9
100
AcDbLine
 10
-2.344475
 20
2.708349999999999
 30
0.0
 11
-1.927775
 21
2.708349999999999
 31
0.0
  0
LINE
  5
B8
330
8F
100
AcDbEntity
  8
AM_9
100
AcDbLine
 10
-2.344475
 20
2.128316666666672
 30
0.0
 11
-1.927775
 21
2.128316666666672
 31
0.0
  0
LWPOLYLINE
  5
B9
330
8F
100
AcDbEntity
  8
AM_9
100
AcDbPolyline
 90
        5
 70
     0
 43
0.0
 10
-1.924024020929181
 20
0.8534097141396324
 10
-1.929615343329414
 20
0.8328239711006634
 10
-1.944436707043655
 20
0.7981768857503324
 10
-1.960933907939832
 20
0.7721433472545157
 10
-1.981189722724607
 20
0.7483987821969733
  0
LWPOLYLINE
  5
BA
330
8F
100
AcDbEntity
  8
AM_9
100
AcDbPolyline
 90
       20
 70
     0
 43
0.0
 10
-2.35122205785708
 20
0.8709745029376911
 10
-2.351574863970402
 20
0.873958963058355
 10
-2.352250262360885
 20
0.9102741286185556
 10
-2.346331316388953
 20
0.9458797501199375
 10
-2.333731292594545
 20
0.9800396587026553
 10
-2.314835338956812
 20
1.011523036723778
 10
-2.290444232320254
 20
1.038939452488885
 10
-2.260976475392249
 20
1.062033341879491
 10
-2.228697488908987
 20
1.079290377076001
 10
-2.193398549354083
 20
1.091279797005787
 10
-2.158341676046405
 20
1.097256305579333
 10
-2.12260909531838
 20
1.097936221231979
 10
-2.08865183024816
 20
1.093493390924777
 10
-2.056015231451794
 20
1.084282170590918
 10
-2.025388734331973
 20
1.07043039937544
 10
-1.997706632183131
 20
1.052461071366767
 10
-1.972616726494373
 20
1.029757942541
 10
-1.951941305205835
 20
1.003702108954143
 10
-1.935413890630691
 20
0.9732395128838238
 10
-1.924779702548121
 20
0.941350162435823
  0
LWPOLYLINE
  5
BB
330
8F
100
AcDbEntity
  8
AM_9
100
AcDbPolyline
 90
       15
 70
     0
 43
0.0
 10
-1.981189722724607
 20
0.7483987821969733
 10
-2.005350491133941
 20
0.7272158805959943
 10
-2.032609825746909
 20
0.7095949449734629
 10
-2.066178537918829
 20
0.6948205874238628
 10
-2.101967931974718
 20
0.6858245990301007
 10
-2.136984298360358
 20
0.6831147898791611
 10
-2.171975320826092
 20
0.6861044799784577
 10
-2.205058898061222
 20
0.6944677651106632
 10
-2.236265536456124
 20
0.7077918515840089
 10
-2.265373636890734
 20
0.7260771218068351
 10
-2.291048585882267
 20
0.7483869084803636
 10
-2.313718726108717
 20
0.7754774508728792
 10
-2.331524301159098
 20
0.8054047623124807
 10
-2.344567603214013
 20
0.839064601757874
 10
-2.35122205785708
 20
0.8709745029376911
  0
LINE
  5
BC
330
8F
100
AcDbEntity
  8
AM_9
100
AcDbLine
 10
-1.974652269720321
 20
2.114501364675657
 30
0.0
 11
-1.919458333333344
 21
2.119999999999998
 31
0.0
  0
LINE
  5
BD
330
8F
100
AcDbEntity
  8
AM_9
100
AcDbLine
 10
-2.578125
 20
-2.12
 30
0.0
 11
-1.694125
 21
-2.12
 31
0.0
  0
LINE
  5
BE
330
8F
100
AcDbEntity
  8
AM_9
100
AcDbLine
 10
-1.694125
 20
2.12
 30
0.0
 11
-1.920259253124067
 21
2.12
 31
0.0
  0
LINE
  5
BF
330
8F
100
AcDbEntity
  8
AM_9
100
AcDbLine
 10
-2.352244823404114
 20
2.12
 30
0.0
 11
-2.578125
 21
2.12
 31
0.0
  0
LINE
  5
C0
330
8F
100
AcDbEntity
  8
AM_9
100
AcDbLine
 10
-2.346503792610515
 20
2.119294342214534
 30
0.0
 11
-2.352791666666417
 21
2.119999999999971
 31
0.0
  0
LINE
  5
C1
330
8F
100
AcDbEntity
  8
AM_9
100
AcDbLine
 10
-1.962841996719269
 20
2.115545411927782
 30
0.0
 11
-1.97704348863785
 21
2.114298811482962
 31
0.0
  0
LWPOLYLINE
  5
C2
330
8F
100
AcDbEntity
  8
AM_9
100
AcDbPolyline
 90
       15
 70
     0
 43
0.0
 10
-2.352791666666417
 20
2.119999999999971
 10
-2.350650336237969
 20
2.119757414469725
 10
-2.34211391791719
 20
2.118813706289329
 10
-2.326706458022961
 20
2.117205225789475
 10
-2.305877955290859
 20
2.11522575337756
 10
-2.278733322870072
 20
2.112984480105585
 10
-2.248795739035511
 20
2.110959754530843
 10
-2.214086439144592
 20
2.109203258040766
 10
-2.179922212636088
 20
2.108097303774617
 10
-2.143267861238747
 20
2.107600458519539
 10
-2.109202210813957
 20
2.107779787640868
 10
-2.074926935484982
 20
2.10858320638433
 10
-2.043518798596706
 20
2.109866750951314
 10
-2.013802427931414
 20
2.111561104362663
 10
-1.974652269720321
 20
2.114501364675657
  0
LINE
  5
C3
330
8F
100
AcDbEntity
  8
AM_9
100
AcDbLine
 10
-1.738912456445993
 20
-2.619047619047619
 30
0.0
 11
-1.694125
 21
-2.619047619047619
 31
0.0
  0
LINE
  5
C4
330
8F
100
AcDbEntity
  8
AM_9
100
AcDbLine
 10
-1.694124999999999
 20
-0.938707909064067
 30
0.0
 11
-1.694125
 21
-2.619047619047619
 31
0.0
  0
LINE
  5
C5
330
8F
100
AcDbEntity
  8
AM_9
100
AcDbLine
 10
-1.802791666666667
 20
-2.682926829268293
 30
0.0
 11
-1.738912456445993
 21
-2.619047619047619
 31
0.0
  0
LINE
  5
C6
330
8F
100
AcDbEntity
  8
AM_9
100
AcDbLine
 10
-1.738912456445993
 20
-1.251560139771913
 30
0.0
 11
-1.738912456445993
 21
-2.619047619047619
 31
0.0
  0
LINE
  5
C7
330
8F
100
AcDbEntity
  8
AM_9
100
AcDbLine
 10
-1.886125
 20
-2.682926829268293
 30
0.0
 11
-1.802791666666667
 21
-2.682926829268293
 31
0.0
  0
LINE
  5
C8
330
8F
100
AcDbEntity
  8
AM_9
100
AcDbLine
 10
-1.802791666666666
 20
-1.40318250857531
 30
0.0
 11
-1.802791666666667
 21
-2.682926829268293
 31
0.0
  0
LWPOLYLINE
  5
C9
330
8F
100
AcDbEntity
  8
AM_9
100
AcDbPolyline
 90
        6
 70
     0
 43
0.0
 10
-1.924849713177353
 20
1.044941912550959
 10
-1.914798660914219
 20
1.092260540495752
 10
-1.910697560223109
 20
1.147296757141814
 10
-1.913134433751826
 20
1.20141089406492
 10
-1.921398649081679
 20
1.259426264590018
 10
-1.924849713177353
 20
1.276939649633282
  0
LINE
  5
CA
330
8F
100
AcDbEntity
  8
AM_9
100
AcDbLine
 10
-1.924849713177353
 20
-2.75
 30
0.0
 11
-1.886125
 21
-2.682926829268293
 31
0.0
  0
LINE
  5
CB
330
8F
100
AcDbEntity
  8
AM_9
100
AcDbLine
 10
-1.886125
 20
-1.415735645255415
 30
0.0
 11
-1.886125
 21
-2.682926829268293
 31
0.0
  0
LWPOLYLINE
  5
CC
330
8F
100
AcDbEntity
  8
AM_9
100
AcDbPolyline
 90
       33
 70
     0
 43
0.0
 10
-1.924849713177353
 20
1.276939649633282
 10
-1.925271436767927
 20
1.277503942491251
 10
-1.9497163064274
 20
1.304819370321266
 10
-1.978798289478171
 20
1.32820580028513
 10
-2.013159735345638
 20
1.34782362964862
 10
-2.050684799806417
 20
1.362311899129348
 10
-2.091946375290746
 20
1.371583507521283
 10
-2.134400474108166
 20
1.374880821582701
 10
-2.177822980494753
 20
1.371942937727051
 10
-2.220070890889933
 20
1.362761825810026
 10
-2.259947116938589
 20
1.34741028235863
 10
-2.296229348550008
 20
1.3262847943683
 10
-2.32710502494692
 20
1.300359518278022
 10
-2.352389044386285
 20
1.269941760997686
 10
-2.370469850782912
 20
1.237157818590906
 10
-2.381883643827456
 20
1.201842696265636
 10
-2.386047191993103
 20
1.166559578462352
 10
-2.383527150198049
 20
1.13091675579493
 10
-2.374565454059915
 20
1.096663876296417
 10
-2.359583346898271
 20
1.064027362752214
 10
-2.338691131369341
 20
1.033547833823609
 10
-2.312778311982076
 20
1.00643100896408
 10
-2.281343379076135
 20
0.9826265519423185
 10
-2.246222585851379
 20
0.9637552448735978
 10
-2.206727766315494
 20
0.9499053337689105
 10
-2.165356366668024
 20
0.9422314609068208
 10
-2.122027172663854
 20
0.9410625522877492
 10
-2.079090197199792
 20
0.9466441356588684
 10
-2.037448862366226
 20
0.9590479420738474
 10
-1.998649072702442
 20
0.9778347055134896
 10
-1.971527148672982
 20
0.9963616400876288
 10
-1.947326423641288
 20
1.018059032022254
 10
-1.924849713177353
 20
1.044941912550959
  0
LINE
  5
CD
330
8F
100
AcDbEntity
  8
AM_9
100
AcDbLine
 10
-1.924849713177353
 20
-1.429042903791473
 30
0.0
 11
-1.924849713177353
 21
-2.75
 31
0.0
  0
LINE
  5
CE
330
8F
100
AcDbEntity
  8
AM_9
100
AcDbLine
 10
-2.0625
 20
-2.75
 30
0.0
 11
-1.924849713177353
 21
-2.75
 31
0.0
  0
LINE
  5
D0
330
8F
100
AcDbEntity
  8
AM_5
100
AcDbLine
 10
-2.386125
 20
2.75
 30
0.0
 11
-2.386125
 21
2.12
 31
0.0
  0
LINE
  5
D1
330
8F
100
AcDbEntity
  8
AM_5
100
AcDbLine
 10
-2.261125
 20
2.086666666666667
 30
0.0
 11
-2.386125
 21
2.086666666666667
 31
0.0
  0
LINE
  5
D2
330
8F
100
AcDbEntity
  8
AM_5
100
AcDbLine
 10
-1.886125
 20
2.682926829268292
 30
0.0
 11
-1.886125
 21
2.12
 31
0.0
  0
LINE
  5
D3
330
8F
100
AcDbEntity
  8
AM_5
100
AcDbLine
 10
-2.011125
 20
2.086666666666667
 30
0.0
 11
-1.886125
 21
2.086666666666667
 31
0.0
  0
LINE
  5
D5
330
8F
100
AcDbEntity
  8
AM_4
100
AcDbLine
 10
-1.694125
 20
2.619047619047619
 30
0.0
 11
-1.738912456445993
 21
2.619047619047619
 31
0.0
  0
LINE
  5
D6
330
8F
100
AcDbEntity
  8
AM_4
100
AcDbLine
 10
-1.694125
 20
2.619047619047619
 30
0.0
 11
-1.694124999999999
 21
-0.938707909064067
 31
0.0
  0
LINE
  5
D7
330
8F
100
AcDbEntity
  8
AM_4
100
AcDbLine
 10
-1.738912456445993
 20
2.619047619047619
 30
0.0
 11
-1.802791666666667
 21
2.682926829268292
 31
0.0
  0
LINE
  5
D8
330
8F
100
AcDbEntity
  8
AM_4
100
AcDbLine
 10
-1.738912456445993
 20
2.619047619047619
 30
0.0
 11
-1.738912456445993
 21
-1.251560139771913
 31
0.0
  0
LINE
  5
D9
330
8F
100
AcDbEntity
  8
AM_4
100
AcDbLine
 10
-1.802791666666667
 20
2.682926829268293
 30
0.0
 11
-1.886125
 21
2.682926829268293
 31
0.0
  0
LINE
  5
DA
330
8F
100
AcDbEntity
  8
AM_4
100
AcDbLine
 10
-1.802791666666667
 20
2.682926829268293
 30
0.0
 11
-1.802791666666666
 21
-1.40318250857531
 31
0.0
  0
LINE
  5
DB
330
8F
100
AcDbEntity
  8
AM_4
100
AcDbLine
 10
-2.578125
 20
2.602666666666666
 30
0.0
 11
-2.578125
 21
-2.602666666666666
 31
0.0
  0
ARC
  5
DC
330
8F
100
AcDbEntity
  8
AM_4
100
AcDbCircle
 10
-2.430791666666666
 20
-2.602666666666666
 30
0.0
 40
0.1473333333333335
100
AcDbArc
 50
180.0
 51
270.0
  0
ARC
  5
DD
330
8F
100
AcDbEntity
  8
AM_4
100
AcDbCircle
 10
-2.430791666666666
 20
2.602666666666666
 30
0.0
 40
0.1473333333333335
100
AcDbArc
 50
90.0
 51
180.0
  0
LINE
  5
DE
330
8F
100
AcDbEntity
  8
AM_4
100
AcDbLine
 10
-1.886125
 20
2.682926829268293
 30
0.0
 11
-1.910675484400175
 21
2.725449515599824
 31
0.0
  0
LINE
  5
DF
330
8F
100
AcDbEntity
  8
AM_4
100
AcDbLine
 10
-1.910675484400186
 20
2.725449515599839
 30
0.0
 11
-1.924849713177353
 21
2.747019914166474
 31
0.0
  0
LINE
  5
E0
330
8F
100
AcDbEntity
  8
AM_4
100
AcDbLine
 10
-1.886125
 20
2.682926829268293
 30
0.0
 11
-1.886125
 21
-1.415735645255415
 31
0.0
  0
LWPOLYLINE
  5
E1
330
8F
100
AcDbEntity
  8
AM_4
100
AcDbPolyline
 90
       17
 70
     0
 43
0.0
 10
-1.924849713177353
 20
2.747019914166474
 10
-1.938536962661572
 20
2.746085072755853
 10
-1.963267001548546
 20
2.744553426216113
 10
-1.992255835287553
 20
2.743016801070078
 10
-2.027897940539026
 20
2.741511497843642
 10
-2.067374007059648
 20
2.740340011378323
 10
-2.10892888007323
 20
2.739671042367923
 10
-2.152394122406342
 20
2.739591333947649
 10
-2.194951810207241
 20
2.740127610911085
 10
-2.237040159390213
 20
2.741255154122653
 10
-2.274925189318089
 20
2.742776857496581
 10
-2.309827435605901
 20
2.744602377914511
 10
-2.337898273079474
 20
2.746364336271284
 10
-2.360823409992958
 20
2.747996891761355
 10
-2.375862281175729
 20
2.74916209330171
 10
-2.384466657773877
 20
2.74986225683992
 10
-2.38612499999994
 20
2.749999999999994
  0
LINE
  5
E2
330
8F
100
AcDbEntity
  8
AM_4
100
AcDbLine
 10
-1.924849713177353
 20
2.747019914166474
 30
0.0
 11
-1.924849713177353
 21
-1.429042903791473
 31
0.0
  0
LINE
  5
E3
330
8F
100
AcDbEntity
  8
AM_4
100
AcDbLine
 10
-2.430791666666666
 20
-2.75
 30
0.0
 11
-2.0625
 21
-2.75
 31
0.0
  0
LINE
  5
E4
330
8F
100
AcDbEntity
  8
AM_4
100
AcDbLine
 10
-2.385467197937064
 20
2.75
 30
0.0
 11
-2.430791666666666
 21
2.75
 31
0.0
  0
LINE
  5
E5
330
8F
100
AcDbEntity
  8
AM_4
100
AcDbLine
 10
-2.430791666666666
 20
2.75
 30
0.0
 11
-2.430791666666666
 21
-2.75
 31
0.0
  0
ENDBLK
  5
92
330
8F
100
AcDbEntity
  8
0
100
AcDbBlockEnd
  0
BLOCK
  5
E8
330
E6
100
AcDbEntity
  8
0
100
AcDbBlockBegin
  2
3_070028i_0_in_070407_2
 70
     2
 10
0.0
 20
0.0
 30
0.0
  3
3_070028i_0_in_070407_2
  1

  0
ATTDEF
  5
EA
330
E6
100
AcDbEntity
  8
AM_6
100
AcDbText
 10
6.421875
 20
3.1496
 30
0.0
 40
0.5
  1
S-2000 Insert -Inch
100
AcDbAttributeDefinition
  3

  2
NN
 70
     8
280
     0
  0
ATTDEF
  5
EB
330
E6
100
AcDbEntity
  8
AM_6
100
AcDbText
 10
6.421875
 20
2.6496
 30
0.0
 40
0.5
  1
S-2000 Bearings
100
AcDbAttributeDefinition
  3

  2
NT
 70
     8
280
     0
  0
ATTDEF
  5
EC
330
E6
100
AcDbEntity
  8
AM_6
100
AcDbText
 10
6.421875
 20
2.1496
 30
0.0
 40
0.5
  1
070028i
100
AcDbAttributeDefinition
  3

  2
NB
 70
     8
280
     0
  0
ATTDEF
  5
ED
330
E6
100
AcDbEntity
  8
AM_6
100
AcDbText
 10
6.421875
 20
1.6496
 30
0.0
 40
0.5
  1
$PN.i
100
AcDbAttributeDefinition
  3

  2
NBSYN
 70
     8
280
     0
  0
ATTDEF
  5
EE
330
E6
100
AcDbEntity
  8
AM_6
100
AcDbText
 10
6.421875
 20
1.1496
 30
0.0
 40
0.5
  1
070028i
100
AcDbAttributeDefinition
  3

  2
LINA
 70
     8
280
     0
  0
ATTDEF
  5
EF
330
E6
100
AcDbEntity
  8
AM_6
100
AcDbText
 10
6.421875
 20
0.6495999999999995
 30
0.0
 40
0.5
  1
3-7/16
100
AcDbAttributeDefinition
  3

  2
SS
 70
     8
280
     0
  0
ATTDEF
  5
F0
330
E6
100
AcDbEntity
  8
AM_6
100
AcDbText
 10
6.421875
 20
0.1495999999999995
 30
0.0
 40
0.5
  1
4.24
100
AcDbAttributeDefinition
  3

  2
CC
 70
     8
280
     0
  0
ATTDEF
  5
F1
330
E6
100
AcDbEntity
  8
AM_6
100
AcDbText
 10
6.421875
 20
-0.3504000000000005
 30
0.0
 40
0.5
  1
3.437500
100
AcDbAttributeDefinition
  3

  2
SS1
 70
     8
280
     0
  0
ATTDEF
  5
F2
330
E6
100
AcDbEntity
  8
AM_6
100
AcDbText
 10
6.421875
 20
-0.8504000000000005
 30
0.0
 40
0.5
  1
070028
100
AcDbAttributeDefinition
  3

  2
PN
 70
     8
280
     0
  0
ATTDEF
  5
F3
330
E6
100
AcDbEntity
  8
AM_6
100
AcDbText
 10
6.421875
 20
-1.3504
 30
0.0
 40
0.5
  1
INS-S2-307L
100
AcDbAttributeDefinition
  3

  2
DESCRIPTION
 70
     8
280
     0
  0
ATTDEF
  5
F4
330
E6
100
AcDbEntity
  8
AM_6
100
AcDbText
 10
6.421875
 20
-1.8504
 30
0.0
 40
0.5
  1
Labyrinth Seal
100
AcDbAttributeDefinition
  3

  2
ST
 70
     8
280
     0
  0
ATTDEF
  5
F5
330
E6
100
AcDbEntity
  8
AM_6
100
AcDbText
 10
6.421875
 20
-2.3504
 30
0.0
 40
0.5
  1
2
100
AcDbAttributeDefinition
  3

  2
ST1
 70
     8
280
     0
  0
ATTDEF
  5
F6
330
E6
100
AcDbEntity
  8
AM_6
100
AcDbText
 10
6.421875
 20
-2.8504
 30
0.0
 40
0.5
  1
6.2992
100
AcDbAttributeDefinition
  3

  2
A
 70
     8
280
     0
  0
ATTDEF
  5
F7
330
E6
100
AcDbEntity
  8
AM_6
100
AcDbText
 10
6.421875
 20
-3.3504
 30
0.0
 40
0.5
  1
1-5/8
100
AcDbAttributeDefinition
  3

  2
B
 70
     8
280
     0
  0
ATTDEF
  5
F8
330
E6
100
AcDbEntity
  8
AM_6
100
AcDbText
 10
6.421875
 20
-3.8504
 30
0.0
 40
0.5
  1
4
100
AcDbAttributeDefinition
  3

  2
C
 70
     8
280
     0
  0
ATTDEF
  5
F9
330
E6
100
AcDbEntity
  8
AM_6
100
AcDbText
 10
6.421875
 20
-4.3504
 30
0.0
 40
0.5
  1
1.483
100
AcDbAttributeDefinition
  3

  2
D
 70
     8
280
     0
  0
ATTDEF
  5
FA
330
E6
100
AcDbEntity
  8
AM_6
100
AcDbText
 10
6.421875
 20
-4.8504
 30
0.0
 40
0.5
  1
5-1/2
100
AcDbAttributeDefinition
  3

  2
E
 70
     8
280
     0
  0
ATTDEF
  5
FB
330
E6
100
AcDbEntity
  8
AM_6
100
AcDbText
 10
6.421875
 20
-5.3504
 30
0.0
 40
0.5
  1
0.34375
100
AcDbAttributeDefinition
  3

  2
F
 70
     8
280
     0
  0
ATTDEF
  5
FC
330
E6
100
AcDbEntity
  8
AM_6
100
AcDbText
 10
6.421875
 20
-5.8504
 30
0.0
 40
0.5
  1
2
100
AcDbAttributeDefinition
  3

  2
DD
 70
     8
280
     0
  0
ATTDEF
  5
FD
330
E6
100
AcDbEntity
  8
AM_6
100
AcDbText
 10
6.421875
 20
-6.3504
 30
0.0
 40
0.5
  1
baldor
100
AcDbAttributeDefinition
  3

  2
COMPANY
 70
     8
280
     0
  0
LINE
  5
FE
330
E6
100
AcDbEntity
  8
AM_9
100
AcDbLine
 10
-2.406125
 20
0.8959031063012051
 30
0.0
 11
-2.406125
 21
0.7263628634379331
 31
0.0
  0
LINE
  5
FF
330
E6
100
AcDbEntity
  8
AM_9
100
AcDbLine
 10
-1.866125
 20
0.7263156090741771
 30
0.0
 11
-1.866125
 21
0.8959483170521761
 31
0.0
  0
LWPOLYLINE
  5
100
330
E6
100
AcDbEntity
  8
AM_9
100
AcDbPolyline
 90
       21
 70
     0
 43
0.0
 10
-1.866125000932964
 20
0.7263954798458682
 10
-1.86776004481094
 20
0.6993776431308667
 10
-1.876427998529208
 20
0.6588373237799396
 10
-1.892228624181008
 20
0.6197543434161663
 10
-1.914906046500949
 20
0.5831694524191579
 10
-1.943683322826185
 20
0.5503121971922345
 10
-1.97824437022787
 20
0.5219765505960682
 10
-2.017284349383279
 20
0.4993878078107932
 10
-2.059813120505065
 20
0.4833852538418104
 10
-2.104545405253785
 20
0.4744571371451572
 10
-2.149721476779391
 20
0.4730157890392807
 10
-2.19451071233509
 20
0.4788675120531314
 10
-2.237385800169434
 20
0.4918180991473555
 10
-2.277442665753095
 20
0.5113298647255077
 10
-2.313823055755114
 20
0.5370730557008556
 10
-2.345250260238623
 20
0.5679989834795077
 10
-2.370995321104039
 20
0.6035420777796372
 10
-2.390094299786925
 20
0.6422792496103372
 10
-2.401854167803696
 20
0.6828858236658529
 10
-2.406115005913609
 20
0.7242690471961433
 10
-2.406124999637359
 20
0.7263624546748617
  0
LWPOLYLINE
  5
101
330
E6
100
AcDbEntity
  8
AM_9
100
AcDbPolyline
 90
       11
 70
     0
 43
0.0
 10
-2.406124999637359
 20
0.7263624546748617
 10
-2.402714314616156
 20
0.7647646869929684
 10
-2.391948895034543
 20
0.8037063165742929
 10
-2.374056332668398
 20
0.8399895035276265
 10
-2.349637139798466
 20
0.8727905198387096
 10
-2.318943810320536
 20
0.9015477090811951
 10
-2.283120831584019
 20
0.9253001355966682
 10
-2.242843791316354
 20
0.9435256795499095
 10
-2.199493542386313
 20
0.955724410566363
 10
-2.16803721461102
 20
0.960465793879837
 10
-2.136124999999999
 20
0.9620596725246996
  0
LWPOLYLINE
  5
102
330
E6
100
AcDbEntity
  8
AM_9
100
AcDbPolyline
 90
        5
 70
     0
 43
0.0
 10
-1.883150219715976
 20
0.8095438332532168
 10
-1.881540506013688
 20
0.8136434280233976
 10
-1.870081312213227
 20
0.8541497401390602
 10
-1.866125533557965
 20
0.895464208198933
 10
-1.866125000025108
 20
0.8959473776705272
  0
LWPOLYLINE
  5
103
330
E6
100
AcDbEntity
  8
AM_9
100
AcDbPolyline
 90
       16
 70
     0
 43
0.0
 10
-2.389426324127613
 20
0.8103579881285159
 10
-2.379623960689548
 20
0.7888684769640606
 10
-2.356726450434246
 20
0.7524824588542216
 10
-2.327699295305774
 20
0.7199001638437329
 10
-2.293006860238628
 20
0.6919988103405442
 10
-2.253872335731764
 20
0.6698392091981814
 10
-2.211317600984267
 20
0.6542293309392224
 10
-2.166609654766668
 20
0.6456097619730042
 10
-2.121333129285627
 20
0.6443690925428374
 10
-2.07647600277207
 20
0.6503554067146965
 10
-2.033479077188939
 20
0.6634110212919858
 10
-1.993351163107391
 20
0.6830087705445494
 10
-1.957062595018887
 20
0.7087562367893651
 10
-1.925785164087472
 20
0.7396661469748094
 10
-1.900330749338024
 20
0.7750649359171926
 10
-1.883150219715976
 20
0.8095438332532168
  0
LWPOLYLINE
  5
104
330
E6
100
AcDbEntity
  8
AM_9
100
AcDbPolyline
 90
        4
 70
     0
 43
0.0
 10
-2.406124998947692
 20
0.8959723193152055
 10
-2.404429267439844
 20
0.8684775279886504
 10
-2.395621683309979
 20
0.8278948101609958
 10
-2.389426324127613
 20
0.8103579881285159
  0
LWPOLYLINE
  5
105
330
E6
100
AcDbEntity
  8
AM_9
100
AcDbPolyline
 90
       10
 70
     0
 43
0.0
 10
-1.866125000025108
 20
0.8959473776705272
 10
-1.869846604390506
 20
0.936090322255598
 10
-1.880972562523247
 20
0.9752019363083957
 10
-1.899271476811262
 20
1.0116971268762
 10
-1.924129024015003
 20
1.044699427682732
 10
-1.955166916526436
 20
1.073518601491382
 10
-1.991293206321805
 20
1.097278621654302
 10
-2.031718915196048
 20
1.115392361423735
 10
-2.075129913387995
 20
1.127405769136362
 10
-2.136124999999999
 20
1.13335786779713
  0
LINE
  5
106
330
E6
100
AcDbEntity
  8
AM_9
100
AcDbLine
 10
-2.406125
 20
2.12
 30
0.0
 11
-2.406125
 21
1.71875
 31
0.0
  0
LINE
  5
107
330
E6
100
AcDbEntity
  8
AM_9
100
AcDbLine
 10
-1.866125
 20
1.71875
 30
0.0
 11
-1.866125
 21
2.12
 31
0.0
  0
LWPOLYLINE
  5
108
330
E6
100
AcDbEntity
  8
AM_9
100
AcDbPolyline
 90
       11
 70
     0
 43
0.0
 10
-2.136124999999999
 20
1.697410251677537
 10
-2.091752653760553
 20
1.697990125887307
 10
-2.047380307521107
 20
1.699728561548336
 10
-2.006746247818061
 20
1.702333816857362
 10
-1.968649914870443
 20
1.70565221151299
 10
-1.935981741346013
 20
1.709169063166262
 10
-1.908109575255688
 20
1.712656590335998
 10
-1.887261627625451
 20
1.715556627048386
 10
-1.873012921678715
 20
1.717681439690883
 10
-1.866620622643141
 20
1.718672211887569
 10
-1.866125000000557
 20
1.718749999999912
  0
LWPOLYLINE
  5
109
330
E6
100
AcDbEntity
  8
AM_9
100
AcDbPolyline
 90
       11
 70
     0
 43
0.0
 10
-2.136124999999999
 20
0.9620596725246996
 10
-2.091114471823675
 20
0.9588658762061216
 10
-2.047380307521107
 20
0.9494437132308038
 10
-2.006201167993319
 20
0.9339398372663398
 10
-1.968649914870443
 20
0.9127804763009515
 10
-1.935569296272951
 20
0.8861441205410909
 10
-1.908109575255688
 20
0.8548514494513818
 10
-1.887029312243977
 20
0.8193833139249409
 10
-1.873012921678715
 20
0.7808433601537965
 10
-1.866609402172486
 20
0.7405602714907916
 10
-1.866125000932964
 20
0.7263954798458682
  0
LINE
  5
10A
330
E6
100
AcDbEntity
  8
AM_9
100
AcDbLine
 10
1.421875
 20
1.71875
 30
0.0
 11
-1.866125
 21
1.71875
 31
0.0
  0
LINE
  5
10B
330
E6
100
AcDbEntity
  8
AM_9
100
AcDbLine
 10
-2.406125
 20
1.71875
 30
0.0
 11
-2.578125
 21
1.71875
 31
0.0
  0
LINE
  5
10C
330
E6
100
AcDbEntity
  8
AM_9
100
AcDbLine
 10
-2.578125
 20
-1.71875
 30
0.0
 11
1.421875
 21
-1.71875
 31
0.0
  0
LINE
  5
10D
330
E6
100
AcDbEntity
  8
AM_9
100
AcDbLine
 10
-2.391547982627138
 20
1.7165204521223
 30
0.0
 11
-2.406124999999801
 21
1.718749999999969
 31
0.0
  0
LINE
  5
10E
330
E6
100
AcDbEntity
  8
AM_9
100
AcDbLine
 10
-2.120189615507005
 20
1.69748505117981
 30
0.0
 11
-2.144185744315652
 21
1.697429391196854
 31
0.0
  0
LWPOLYLINE
  5
10F
330
E6
100
AcDbEntity
  8
AM_9
100
AcDbPolyline
 90
       11
 70
     0
 43
0.0
 10
-2.406124999999801
 20
1.718749999999969
 10
-2.402842490989609
 20
1.718237405744559
 10
-2.391948895034544
 20
1.716580154775956
 10
-2.374376227543537
 20
1.714049360411188
 10
-2.349637139798466
 20
1.710786075563312
 10
-2.319434054547872
 20
1.707279640826082
 10
-2.283120831584019
 20
1.703763286669565
 10
-2.243466771338168
 20
1.700800934375924
 10
-2.199493542386313
 20
1.698592692396905
 10
-2.168266840214175
 20
1.69771454031364
 10
-2.136124999999999
 20
1.697410251677537
  0
LWPOLYLINE
  5
110
330
E6
100
AcDbEntity
  8
AM_9
100
AcDbPolyline
 90
       11
 70
     0
 43
0.0
 10
-2.136124999999999
 20
2.102736312522329
 10
-2.180605009964312
 20
2.103206711497095
 10
-2.225085019928625
 20
2.104617277593649
 10
-2.265822313257162
 20
2.106732397117899
 10
-2.304009865365252
 20
2.10942772524178
 10
-2.336644208734502
 20
2.112275539097944
 10
-2.364461942289505
 20
2.11509757675955
 10
-2.385200117753342
 20
2.117436755675088
 10
-2.399341715408073
 20
2.11914677152627
 10
-2.405659958110078
 20
2.11994082314658
 10
-2.406124999999727
 20
2.119999999999965
  0
LWPOLYLINE
  5
111
330
E6
100
AcDbEntity
  8
AM_9
100
AcDbPolyline
 90
       11
 70
     0
 43
0.0
 10
-2.136124999999999
 20
1.13335786779713
 10
-2.181243390831228
 20
1.13009931459351
 10
-2.225085019928625
 20
1.120489069061559
 10
-2.266371770506824
 20
1.104681051038227
 10
-2.304009865365252
 20
1.083129109603225
 10
-2.337057264453069
 20
1.056120280484209
 10
-2.364461942289505
 20
1.024469733709714
 10
-2.38542943801334
 20
0.9887690324712347
 10
-2.399341715408073
 20
0.950096538668429
 10
-2.405670046610922
 20
0.9096829474473109
 10
-2.406124998947692
 20
0.8959723193152055
  0
LINE
  5
112
330
E6
100
AcDbEntity
  8
AM_9
100
AcDbLine
 10
-1.694125
 20
2.12
 30
0.0
 11
-1.866125
 21
2.12
 31
0.0
  0
LINE
  5
113
330
E6
100
AcDbEntity
  8
AM_9
100
AcDbLine
 10
-1.350375
 20
2.12
 30
0.0
 11
-1.65
 21
2.12
 31
0.0
  0
LINE
  5
114
330
E6
100
AcDbEntity
  8
AM_9
100
AcDbLine
 10
-2.406125
 20
2.12
 30
0.0
 11
-2.578125
 21
2.12
 31
0.0
  0
LINE
  5
115
330
E6
100
AcDbEntity
  8
AM_9
100
AcDbLine
 10
-2.578125
 20
-2.12
 30
0.0
 11
-1.350375
 21
-2.12
 31
0.0
  0
LINE
  5
116
330
E6
100
AcDbEntity
  8
AM_9
100
AcDbLine
 10
-1.874080715487903
 20
2.119001464616166
 30
0.0
 11
-1.866125000000006
 21
2.119999999999999
 31
0.0
  0
LINE
  5
117
330
E6
100
AcDbEntity
  8
AM_9
100
AcDbLine
 10
-2.151495258871135
 20
2.102792487350512
 30
0.0
 11
-2.130538621475711
 21
2.102743733226904
 31
0.0
  0
LWPOLYLINE
  5
118
330
E6
100
AcDbEntity
  8
AM_9
100
AcDbPolyline
 90
       10
 70
     0
 43
0.0
 10
-1.866125000000006
 20
2.119999999999999
 10
-1.869713667800407
 20
2.119545941451698
 10
-1.880972562523247
 20
2.11816023150996
 10
-1.898943089184131
 20
2.116070712149825
 10
-1.924129024015003
 20
2.113395915069827
 10
-1.954669781667061
 20
2.110551111975319
 10
-1.991293206321805
 20
2.107718256423293
 10
-2.03109806724373
 20
2.105357607772179
 10
-2.075129913387995
 20
2.103620783456658
 10
-2.136124999999999
 20
2.102736312522329
  0
LINE
  5
119
330
E6
100
AcDbEntity
  8
AM_9
100
AcDbLine
 10
1.421875
 20
2.120000000000001
 30
0.0
 11
1.228125
 21
2.120000000000001
 31
0.0
  0
LINE
  5
11A
330
E6
100
AcDbEntity
  8
AM_9
100
AcDbLine
 10
1.228125
 20
-2.120000000000001
 30
0.0
 11
1.421875
 21
-2.120000000000001
 31
0.0
  0
LINE
  5
11B
330
E6
100
AcDbEntity
  8
AM_9
100
AcDbLine
 10
1.421875
 20
-2.120000000000001
 30
0.0
 11
1.421875
 21
2.120000000000001
 31
0.0
  0
LINE
  5
11C
330
E6
100
AcDbEntity
  8
AM_9
100
AcDbLine
 10
-0.8736250000000003
 20
2.51968
 30
0.0
 11
-1.187875
 21
2.51968
 31
0.0
  0
LINE
  5
11D
330
E6
100
AcDbEntity
  8
AM_9
100
AcDbLine
 10
-1.187875
 20
-2.51968
 30
0.0
 11
-0.8736250000000003
 21
-2.51968
 31
0.0
  0
LINE
  5
11E
330
E6
100
AcDbEntity
  8
AM_9
100
AcDbLine
 10
-1.350375
 20
-2.35718
 30
0.0
 11
-1.350375
 21
2.35718
 31
0.0
  0
ARC
  5
11F
330
E6
100
AcDbEntity
  8
AM_9
100
AcDbCircle
 10
-1.187875000000001
 20
2.357180000000001
 30
0.0
 40
0.1624999999999988
100
AcDbArc
 50
90.0
 51
180.0
  0
ARC
  5
120
330
E6
100
AcDbEntity
  8
AM_9
100
AcDbCircle
 10
-1.187875000000001
 20
-2.357180000000001
 30
0.0
 40
0.162499999999999
100
AcDbArc
 50
180.0
 51
270.0
  0
LINE
  5
121
330
E6
100
AcDbEntity
  8
AM_9
100
AcDbLine
 10
-1.187875
 20
-2.51968
 30
0.0
 11
-1.187875
 21
2.51968
 31
0.0
  0
LINE
  5
122
330
E6
100
AcDbEntity
  8
AM_9
100
AcDbLine
 10
1.065625
 20
2.51968
 30
0.0
 11
0.751375
 21
2.51968
 31
0.0
  0
LINE
  5
123
330
E6
100
AcDbEntity
  8
AM_9
100
AcDbLine
 10
0.751375
 20
-2.51968
 30
0.0
 11
1.065625
 21
-2.51968
 31
0.0
  0
LINE
  5
124
330
E6
100
AcDbEntity
  8
AM_9
100
AcDbLine
 10
1.228125
 20
-2.357180000000001
 30
0.0
 11
1.228125
 21
2.357180000000001
 31
0.0
  0
ARC
  5
125
330
E6
100
AcDbEntity
  8
AM_9
100
AcDbCircle
 10
1.065625000000001
 20
2.35718
 30
0.0
 40
0.1624999999999996
100
AcDbArc
 50
0.0
 51
90.0
  0
ARC
  5
126
330
E6
100
AcDbEntity
  8
AM_9
100
AcDbCircle
 10
1.065625000000001
 20
-2.35718
 30
0.0
 40
0.1624999999999996
100
AcDbArc
 50
270.0
 51
0.0
  0
LINE
  5
127
330
E6
100
AcDbEntity
  8
AM_9
100
AcDbLine
 10
1.065625
 20
-2.51968
 30
0.0
 11
1.065625
 21
2.51968
 31
0.0
  0
LINE
  5
128
330
E6
100
AcDbEntity
  8
AM_9
100
AcDbLine
 10
0.0201250000000099
 20
3.023616
 30
0.0
 11
-0.14237500000001
 21
3.023616
 31
0.0
  0
LINE
  5
129
330
E6
100
AcDbEntity
  8
AM_9
100
AcDbLine
 10
-0.14237500000001
 20
-3.023616
 30
0.0
 11
0.0201250000000099
 21
-3.023616
 31
0.0
  0
LINE
  5
12A
330
E6
100
AcDbEntity
  8
AM_9
100
AcDbLine
 10
-0.8736250000000003
 20
-2.9871
 30
0.0
 11
-0.8736250000000003
 21
2.9871
 31
0.0
  0
ARC
  5
12B
330
E6
100
AcDbEntity
  8
AM_9
100
AcDbCircle
 10
-0.7111250000000002
 20
2.987099999999999
 30
0.0
 40
0.1625000000000005
100
AcDbArc
 50
90.0
 51
180.0
  0
ARC
  5
12C
330
E6
100
AcDbEntity
  8
AM_9
100
AcDbCircle
 10
-0.7111250000000002
 20
-2.987099999999999
 30
0.0
 40
0.1625000000000001
100
AcDbArc
 50
180.0
 51
270.0
  0
LINE
  5
12D
330
E6
100
AcDbEntity
  8
AM_9
100
AcDbLine
 10
0.751375
 20
-2.9871
 30
0.0
 11
0.751375
 21
2.9871
 31
0.0
  0
ARC
  5
12E
330
E6
100
AcDbEntity
  8
AM_9
100
AcDbCircle
 10
0.5888750000000011
 20
2.987100000000001
 30
0.0
 40
0.1624999999999989
100
AcDbArc
 50
0.0
 51
90.0
  0
ARC
  5
12F
330
E6
100
AcDbEntity
  8
AM_9
100
AcDbCircle
 10
0.5888750000000011
 20
-2.987100000000001
 30
0.0
 40
0.1624999999999988
100
AcDbArc
 50
270.0
 51
0.0
  0
LINE
  5
130
330
E6
100
AcDbEntity
  8
AM_9
100
AcDbLine
 10
0.0201250000000099
 20
-3.023616
 30
0.0
 11
0.0928618963135957
 21
-3.1496
 31
0.0
  0
LINE
  5
131
330
E6
100
AcDbEntity
  8
AM_9
100
AcDbLine
 10
0.0928618963135957
 20
3.1496
 30
0.0
 11
0.0201250000000099
 21
3.023616
 31
0.0
  0
LINE
  5
132
330
E6
100
AcDbEntity
  8
AM_9
100
AcDbLine
 10
0.0201250000000099
 20
-3.023616
 30
0.0
 11
0.0201250000000099
 21
3.023616
 31
0.0
  0
LINE
  5
133
330
E6
100
AcDbEntity
  8
AM_9
100
AcDbLine
 10
-0.2151118963135959
 20
3.1496
 30
0.0
 11
-0.711125
 21
3.1496
 31
0.0
  0
LINE
  5
134
330
E6
100
AcDbEntity
  8
AM_9
100
AcDbLine
 10
-0.711125
 20
-3.1496
 30
0.0
 11
-0.2151118963135959
 21
-3.1496
 31
0.0
  0
LINE
  5
135
330
E6
100
AcDbEntity
  8
AM_9
100
AcDbLine
 10
-0.711125
 20
-3.1496
 30
0.0
 11
-0.711125
 21
3.1496
 31
0.0
  0
LINE
  5
136
330
E6
100
AcDbEntity
  8
AM_9
100
AcDbLine
 10
0.5888749999999998
 20
3.1496
 30
0.0
 11
0.0928618963135957
 21
3.1496
 31
0.0
  0
LINE
  5
137
330
E6
100
AcDbEntity
  8
AM_9
100
AcDbLine
 10
0.0928618963135957
 20
-3.1496
 30
0.0
 11
0.5888749999999998
 21
-3.1496
 31
0.0
  0
LINE
  5
138
330
E6
100
AcDbEntity
  8
AM_9
100
AcDbLine
 10
0.5888749999999998
 20
-3.1496
 30
0.0
 11
0.5888749999999998
 21
3.1496
 31
0.0
  0
LINE
  5
139
330
E6
100
AcDbEntity
  8
AM_9
100
AcDbLine
 10
0.0928618963135957
 20
-3.1496
 30
0.0
 11
0.0928618963135957
 21
3.1496
 31
0.0
  0
LINE
  5
13A
330
E6
100
AcDbEntity
  8
AM_9
100
AcDbLine
 10
-0.14237500000001
 20
3.023616
 30
0.0
 11
-0.2151118963135959
 21
3.1496
 31
0.0
  0
LINE
  5
13B
330
E6
100
AcDbEntity
  8
AM_9
100
AcDbLine
 10
-0.2151118963135959
 20
-3.1496
 30
0.0
 11
-0.14237500000001
 21
-3.023616
 31
0.0
  0
LINE
  5
13C
330
E6
100
AcDbEntity
  8
AM_9
100
AcDbLine
 10
-0.14237500000001
 20
-3.023616
 30
0.0
 11
-0.14237500000001
 21
3.023616
 31
0.0
  0
LINE
  5
13D
330
E6
100
AcDbEntity
  8
AM_9
100
AcDbLine
 10
-0.2151118963135959
 20
-3.1496
 30
0.0
 11
-0.2151118963135959
 21
3.1496
 31
0.0
  0
LINE
  5
140
330
E6
100
AcDbEntity
  8
AM_7
100
AcDbLine
 10
-2.136124999999999
 20
-0.1087179487179487
 30
0.0
 11
-2.136125
 21
2.783166666666667
 31
0.0
  0
LINE
  5
141
330
E6
100
AcDbEntity
  8
AM_4
100
AcDbLine
 10
-1.65
 20
2.12
 30
0.0
 11
-1.694125
 21
2.12
 31
0.0
  0
ENDBLK
  5
E9
330
E6
100
AcDbEntity
  8
0
100
AcDbBlockEnd
  0
BLOCK
  5
144
330
142
100
AcDbEntity
  8
0
100
AcDbBlockBegin
  2
4_405015E_Inch_0_in_070407_2
 70
     2
 10
0.0
 20
0.0
 30
0.0
  3
4_405015E_Inch_0_in_070407_2
  1

  0
ATTDEF
  5
146
330
142
100
AcDbEntity
  8
AM_6
100
AcDbText
 10
5.21875
 20
3.764422869692375
 30
0.0
 40
0.5
  1
405015E -Inch
100
AcDbAttributeDefinition
  3

  2
NN
 70
     8
280
     0
  0
ATTDEF
  5
147
330
142
100
AcDbEntity
  8
AM_6
100
AcDbText
 10
5.21875
 20
3.264422869692375
 30
0.0
 40
0.5
  1
Grease Fitting
100
AcDbAttributeDefinition
  3

  2
NT
 70
     8
280
     0
  0
ATTDEF
  5
148
330
142
100
AcDbEntity
  8
AM_6
100
AcDbText
 10
5.21875
 20
2.764422869692375
 30
0.0
 40
0.5
  1
405015E-Inch
100
AcDbAttributeDefinition
  3

  2
NB
 70
     8
280
     0
  0
ATTDEF
  5
149
330
142
100
AcDbEntity
  8
AM_6
100
AcDbText
 10
5.21875
 20
2.264422869692375
 30
0.0
 40
0.5
  1
$MN.-Inch
100
AcDbAttributeDefinition
  3

  2
NBSYN
 70
     8
280
     0
  0
ATTDEF
  5
14A
330
142
100
AcDbEntity
  8
AM_6
100
AcDbText
 10
5.21875
 20
1.764422869692375
 30
0.0
 40
0.5
  1
405015E
100
AcDbAttributeDefinition
  3

  2
LINA
 70
     8
280
     0
  0
ATTDEF
  5
14B
330
142
100
AcDbEntity
  8
AM_6
100
AcDbText
 10
5.21875
 20
1.264422869692375
 30
0.0
 40
0.5
  1
405015E
100
AcDbAttributeDefinition
  3

  2
MN
 70
     8
280
     0
  0
ATTDEF
  5
14C
330
142
100
AcDbEntity
  8
AM_6
100
AcDbText
 10
5.21875
 20
0.7644228696923747
 30
0.0
 40
0.5
  1
1/8 x 27PTF
100
AcDbAttributeDefinition
  3

  2
T
 70
     8
280
     0
  0
ATTDEF
  5
14D
330
142
100
AcDbEntity
  8
AM_6
100
AcDbText
 10
5.21875
 20
0.2644228696923747
 30
0.0
 40
0.5
  1
baldor
100
AcDbAttributeDefinition
  3

  2
COMPANY
 70
     8
280
     0
  0
ELLIPSE
  5
14E
330
142
100
AcDbEntity
  8
AM_9
100
AcDbEllipse
 10
0.0000000000000001
 20
3.388324392306613
 30
0.0
 11
0.218750000000001
 21
3.259629011154191E-9
 31
0.0
210
0.0
220
0.0
230
1.0
 40
0.5000000000000139
 41
1.047197538158084
 42
2.094395089354678
  0
LWPOLYLINE
  5
14F
330
142
100
AcDbEntity
  8
AM_9
100
AcDbPolyline
 90
        3
 70
     0
 43
0.0
 10
-0.1093749999999999
 20
3.483045920845539
 10
-0.0546874999999999
 20
3.500905570829462
 10
0.0000000000000001
 20
3.522472535380463
  0
LWPOLYLINE
  5
150
330
142
100
AcDbEntity
  8
AM_9
100
AcDbPolyline
 90
        3
 70
     0
 43
0.0
 10
0.0000000000000001
 20
3.522472535380463
 10
0.0544416102741497
 20
3.500994864462841
 10
0.1093750000000001
 20
3.483045920845539
  0
LINE
  5
151
330
142
100
AcDbEntity
  8
AM_9
100
AcDbLine
 10
-0.0984891750955714
 20
3.572707192929199
 30
0.0
 11
-0.1060024786622441
 21
3.570613981262088
 31
0.0
  0
LWPOLYLINE
  5
152
330
142
100
AcDbEntity
  8
AM_9
100
AcDbPolyline
 90
        3
 70
     0
 43
0.0
 10
0.0000000000000001
 20
3.593369532381674
 10
-0.0544416102741495
 20
3.5834153249524
 10
-0.0984891750955714
 20
3.572707192929199
  0
LWPOLYLINE
  5
153
330
142
100
AcDbEntity
  8
AM_9
100
AcDbPolyline
 90
        3
 70
     0
 43
0.0
 10
0.0984881634687481
 20
3.572707469409658
 10
0.0546875000000001
 20
3.583362654086367
 10
0.0000000000000001
 20
3.593369532381674
  0
LINE
  5
154
330
142
100
AcDbEntity
  8
AM_9
100
AcDbLine
 10
0.1060021578712501
 20
3.570614072336433
 30
0.0
 11
0.0984881634687481
 21
3.572707469409658
 31
0.0
  0
LWPOLYLINE
  5
155
330
142
100
AcDbEntity
  8
AM_9
100
AcDbPolyline
 90
        3
 70
     0
 43
0.0
 10
0.1093750000000001
 20
3.483045920845539
 10
0.1640625000000001
 20
3.469331727983155
 10
0.2187500000000001
 20
3.459324849687848
  0
LINE
  5
156
330
142
100
AcDbEntity
  8
AM_9
100
AcDbLine
 10
0.0000000000000001
 20
3.593369532381674
 30
0.0
 11
0.0000000000000001
 21
3.522472535380463
 31
0.0
  0
LWPOLYLINE
  5
157
330
142
100
AcDbEntity
  8
AM_9
100
AcDbPolyline
 90
        3
 70
     0
 43
0.0
 10
-0.2187499999999999
 20
3.459324849687848
 10
-0.1643083897258503
 20
3.469279057117122
 10
-0.1093749999999999
 20
3.483045920845539
  0
ELLIPSE
  5
158
330
142
100
AcDbEntity
  8
AM_9
100
AcDbEllipse
 10
0.0000000000000008
 20
3.388324392306616
 30
0.0
 11
0.2187500000000007
 21
3.259629011154186E-9
 31
0.0
210
0.0
220
0.0
230
1.0
 40
0.4999999999999983
 41
2.094395089354682
 42
3.141592627780224
  0
ELLIPSE
  5
159
330
142
100
AcDbEntity
  8
AM_9
100
AcDbEllipse
 10
0.0000000000000003
 20
3.158827660303741
 30
0.0
 11
0.1619028724722686
 21
0.0
 31
0.0
210
0.0
220
0.0
230
1.0
 40
0.5000000000000097
 41
4.71238898038469
 42
10.04025766943977
  0
LINE
  5
15A
330
142
100
AcDbEntity
  8
AM_9
100
AcDbLine
 10
0.1321931418159854
 20
3.112090326801521
 30
0.0
 11
0.1621706131788417
 21
3.133287600085022
 31
0.0
  0
LINE
  5
15B
330
142
100
AcDbEntity
  8
AM_9
100
AcDbLine
 10
-0.1621706131788414
 20
3.133287600085022
 30
0.0
 11
-0.1321931418159852
 21
3.112090326801521
 31
0.0
  0
ELLIPSE
  5
15C
330
142
100
AcDbEntity
  8
AM_9
100
AcDbEllipse
 10
-0.0000000000000011
 20
3.190623570228993
 30
0.0
 11
0.1986176267812166
 21
2.959633272606382E-9
 31
0.0
210
0.0
220
0.0
230
1.0
 40
0.5000000000000004
 41
4.71238898038469
 42
9.442822007678798
  0
ELLIPSE
  5
15D
330
142
100
AcDbEntity
  8
AM_9
100
AcDbEllipse
 10
-0.0000000000000002
 20
3.190623570228991
 30
0.0
 11
0.1986176267812152
 21
0.0
 31
0.0
210
0.0
220
0.0
230
1.0
 40
0.4999999999999949
 41
3.757072362260178
 42
4.71238898038469
  0
ELLIPSE
  5
15E
330
142
100
AcDbEntity
  8
AM_9
100
AcDbEllipse
 10
-0.0000000000000001
 20
3.158827660303742
 30
0.0
 11
0.1619028724722689
 21
0.0
 31
0.0
210
0.0
220
0.0
230
1.0
 40
0.500000000000009
 41
3.757072362260191
 42
4.71238898038469
  0
ELLIPSE
  5
15F
330
142
100
AcDbEntity
  8
AM_9
100
AcDbEllipse
 10
0.0000000000000012
 20
3.388324392306616
 30
0.0
 11
0.218750000000001
 21
3.259629011154191E-9
 31
0.0
210
0.0
220
0.0
230
1.0
 40
0.4999999999999956
 41
3.141592627780224
 42
4.188790191747868
  0
ELLIPSE
  5
160
330
142
100
AcDbEntity
  8
AM_9
100
AcDbEllipse
 10
0.0
 20
3.388324392306617
 30
0.0
 11
0.2057518972230699
 21
0.0
 31
0.0
210
0.0
220
0.0
230
1.0
 40
0.500000000000001
 41
4.71238898038469
 42
9.442822037473833
  0
LINE
  5
161
330
142
100
AcDbEntity
  8
AM_9
100
AcDbLine
 10
0.1985852938306409
 20
3.188831731620172
 30
0.0
 11
0.2057184028850729
 21
3.386468191528987
 31
0.0
  0
LINE
  5
162
330
142
100
AcDbEntity
  8
AM_9
100
AcDbLine
 10
-0.2057184028850726
 20
3.386468191528987
 30
0.0
 11
-0.1985852938306407
 21
3.188831731620172
 31
0.0
  0
ELLIPSE
  5
163
330
142
100
AcDbEntity
  8
AM_9
100
AcDbEllipse
 10
0.0000000000000002
 20
3.388324392306617
 30
0.0
 11
0.2057518972230699
 21
0.0
 31
0.0
210
0.0
220
0.0
230
1.0
 40
0.5000000000000011
 41
3.159636730294247
 42
4.71238898038469
  0
ELLIPSE
  5
164
330
142
100
AcDbEntity
  8
AM_9
100
AcDbEllipse
 10
0.0000000000000001
 20
3.190623570228992
 30
0.0
 11
0.1986176267812153
 21
2.959633272606364E-9
 31
0.0
210
0.0
220
0.0
230
1.0
 40
0.5000000000000013
 41
3.159636700499206
 42
3.757072339908445
  0
ELLIPSE
  5
165
330
142
100
AcDbEntity
  8
AM_9
100
AcDbEllipse
 10
0.0000000000000001
 20
3.388324392306618
 30
0.0
 11
0.2187499999999998
 21
0.0
 31
0.0
210
0.0
220
0.0
230
1.0
 40
0.5000000000000107
 41
4.18879020478639
 42
7.330382858376168
  0
LINE
  5
166
330
142
100
AcDbEntity
  8
AM_9
100
AcDbLine
 10
-0.1017810272422098
 20
3.578759766470903
 30
0.0
 11
-0.1049999999999999
 21
3.572457371831375
 31
0.0
  0
LINE
  5
167
330
142
100
AcDbEntity
  8
AM_9
100
AcDbLine
 10
0.1050000000000001
 20
3.572457371831375
 30
0.0
 11
0.1017810272422101
 21
3.578759766470903
 31
0.0
  0
ELLIPSE
  5
168
330
142
100
AcDbEntity
  8
AM_9
100
AcDbEllipse
 10
0.0000000000000001
 20
3.565859600082426
 30
0.0
 11
0.1050000000000002
 21
0.0
 31
0.0
210
0.0
220
0.0
230
1.0
 40
0.4999999999999883
 41
0.0
 42
2.891559760490988
  0
ELLIPSE
  5
169
330
142
100
AcDbEntity
  8
AM_9
100
AcDbEllipse
 10
-0.0000000000000034
 20
3.565859600082431
 30
0.0
 11
0.1049999999999965
 21
0.0
 31
0.0
210
0.0
220
0.0
230
1.0
 40
0.499999999999985
 41
2.891559760491067
 42
3.141592653589793
  0
ELLIPSE
  5
16A
330
142
100
AcDbEntity
  8
AM_9
100
AcDbEllipse
 10
-0.0000000000000008
 20
3.537932984211361
 30
0.0
 11
0.1188200907348984
 21
1.770557325108326E-9
 31
0.0
210
0.0
220
0.0
230
1.0
 40
0.5000000000000102
 41
0.2500328646649788
 42
2.891559732057116
  0
LINE
  5
16B
330
142
100
AcDbEntity
  8
AM_9
100
AcDbLine
 10
0.1050000000000001
 20
3.584097828894885
 30
0.0
 11
0.1050000000000001
 21
3.591840362195959
 31
0.0
  0
LINE
  5
16C
330
142
100
AcDbEntity
  8
AM_9
100
AcDbLine
 10
-0.1049999999999999
 20
3.591840362195959
 30
0.0
 11
-0.1049999999999999
 21
3.584097828894886
 31
0.0
  0
ELLIPSE
  5
16D
330
142
100
AcDbEntity
  8
AM_9
100
AcDbEllipse
 10
0.0000000000000001
 20
3.591840362195959
 30
0.0
 11
0.1050000000000001
 21
0.0
 31
0.0
210
0.0
220
0.0
230
1.0
 40
0.5000000000000017
 41
0.0
 42
3.43443542531837
  0
LINE
  5
16E
330
142
100
AcDbEntity
  8
AM_9
100
AcDbLine
 10
-0.0976523208201057
 20
3.571779099943809
 30
0.0
 11
-0.1098343496897824
 21
3.562992246816958
 31
0.0
  0
LINE
  5
16F
330
142
100
AcDbEntity
  8
AM_9
100
AcDbLine
 10
0.1098343496897826
 20
3.562992246816958
 30
0.0
 11
0.0976523208201059
 21
3.571779099943809
 31
0.0
  0
ELLIPSE
  5
170
330
142
100
AcDbEntity
  8
AM_9
100
AcDbEllipse
 10
0.0000000000000001
 20
3.490790957973031
 30
0.0
 11
0.1725340532830158
 21
0.0
 31
0.0
210
0.0
220
0.0
230
1.0
 40
0.5000000000000006
 41
0.6061451401950881
 42
2.535447513394705
  0
ELLIPSE
  5
171
330
142
100
AcDbEntity
  8
AM_9
100
AcDbEllipse
 10
0.0000000000000001
 20
3.474926932685061
 30
0.0
 11
0.2187500000000008
 21
0.0
 31
0.0
210
0.0
220
0.0
230
1.0
 40
0.4999999999999962
 41
1.065244638251233
 42
2.076348015338561
  0
ELLIPSE
  5
172
330
142
100
AcDbEntity
  8
AM_9
100
AcDbEllipse
 10
-0.0000000000026491
 20
3.47492693268894
 30
0.0
 11
0.2137499999946606
 21
3.185123205105374E-9
 31
0.0
210
0.0
220
0.0
230
1.0
 40
0.4999999999936524
 41
-4.198889895796012
 42
-4.18456479087571
  0
ELLIPSE
  5
173
330
142
100
AcDbEntity
  8
AM_9
100
AcDbEllipse
 10
0.0000000000005102
 20
3.474926932681492
 30
0.0
 11
0.2137500000010742
 21
3.185123205200944E-9
 31
0.0
210
0.0
220
0.0
230
1.0
 40
0.5000000000126541
 41
-4.217356319093934
 42
-4.198889895801111
  0
ELLIPSE
  5
174
330
142
100
AcDbEntity
  8
AM_9
100
AcDbEllipse
 10
0.0000000000024494
 20
3.474926932688767
 30
0.0
 11
0.2137499999950602
 21
3.185123205111329E-9
 31
0.0
210
0.0
220
0.0
230
1.0
 40
0.4999999999936546
 41
1.042972111044909
 42
2.065828988110089
  0
ELLIPSE
  5
175
330
142
100
AcDbEntity
  8
AM_9
100
AcDbEllipse
 10
-0.0000000000000054
 20
3.59184036219594
 30
0.0
 11
0.1050000000000055
 21
0.0
 31
0.0
210
0.0
220
0.0
230
1.0
 40
0.4999999999999756
 41
5.990342535451367
 42
6.283185307179586
  0
ELLIPSE
  5
176
330
142
100
AcDbEntity
  8
AM_9
100
AcDbEllipse
 10
0.0000000000000001
 20
3.643801886423025
 30
0.0
 11
0.1350000000000002
 21
0.0
 31
0.0
210
0.0
220
0.0
230
1.0
 40
0.4999999999999951
 41
0.2354336045415613
 42
2.906159049048232
  0
LINE
  5
177
330
142
100
AcDbEntity
  8
AM_4
100
AcDbLine
 10
-0.1060024786622441
 20
3.570613981262088
 30
0.0
 11
-0.1093749999999999
 21
3.569648461223983
 31
0.0
  0
LINE
  5
178
330
142
100
AcDbEntity
  8
AM_4
100
AcDbLine
 10
0.109375
 20
3.569648461223983
 30
0.0
 11
0.1060021578712501
 21
3.570614072336433
 31
0.0
  0
LWPOLYLINE
  5
179
330
142
100
AcDbEntity
  8
AM_4
100
AcDbPolyline
 90
        3
 70
     0
 43
0.0
 10
0.2187500000000001
 20
3.530221846689059
 10
0.1643083897258505
 20
3.551699517606682
 10
0.109375
 20
3.569648461223983
  0
LWPOLYLINE
  5
17A
330
142
100
AcDbEntity
  8
AM_4
100
AcDbPolyline
 90
        3
 70
     0
 43
0.0
 10
-0.1093749999999999
 20
3.569648461223983
 10
-0.1640624999999998
 20
3.55178881124006
 10
-0.2187499999999999
 20
3.530221846689059
  0
LINE
  5
17B
330
142
100
AcDbEntity
  8
AM_4
100
AcDbLine
 10
-0.1049999999999999
 20
3.572457371831375
 30
0.0
 11
-0.1151252948555656
 21
3.552633158076562
 31
0.0
  0
LINE
  5
17C
330
142
100
AcDbEntity
  8
AM_4
100
AcDbLine
 10
0.1151252948555659
 20
3.552633158076562
 30
0.0
 11
0.1050000000000001
 21
3.572457371831375
 31
0.0
  0
ELLIPSE
  5
17D
330
142
100
AcDbEntity
  8
AM_4
100
AcDbEllipse
 10
0.0
 20
3.537932984211363
 30
0.0
 11
0.1188200907348975
 21
0.0
 31
0.0
210
0.0
220
0.0
230
1.0
 40
0.5000000000000028
 41
2.891559760490998
 42
4.71238898038469
  0
ELLIPSE
  5
17E
330
142
100
AcDbEntity
  8
AM_4
100
AcDbEllipse
 10
0.0000000000000008
 20
3.565859600082427
 30
0.0
 11
0.1049999999999994
 21
0.0
 31
0.0
210
0.0
220
0.0
230
1.0
 40
0.5000000000000004
 41
3.141592653589793
 42
6.283185307179586
  0
LINE
  5
17F
330
142
100
AcDbEntity
  8
AM_4
100
AcDbLine
 10
0.1050000000000001
 20
3.565859600082426
 30
0.0
 11
0.1050000000000001
 21
3.584097828894885
 31
0.0
  0
LINE
  5
180
330
142
100
AcDbEntity
  8
AM_4
100
AcDbLine
 10
-0.1049999999999999
 20
3.584097828894886
 30
0.0
 11
-0.1049999999999999
 21
3.565859600082426
 31
0.0
  0
ELLIPSE
  5
181
330
142
100
AcDbEntity
  8
AM_4
100
AcDbEllipse
 10
0.0000000000000002
 20
3.537932984211363
 30
0.0
 11
0.1188200907348975
 21
1.770557325108312E-9
 31
0.0
210
0.0
220
0.0
230
1.0
 40
0.5000000000000029
 41
4.71238898038469
 42
6.533218171844533
  0
LINE
  5
182
330
142
100
AcDbEntity
  8
AM_4
100
AcDbLine
 10
-0.1098343496897824
 20
3.562992246816958
 30
0.0
 11
-0.1417971541629017
 21
3.539937592175102
 31
0.0
  0
LINE
  5
183
330
142
100
AcDbEntity
  8
AM_4
100
AcDbLine
 10
0.1417971541629019
 20
3.539937592175102
 30
0.0
 11
0.1098343496897826
 21
3.562992246816958
 31
0.0
  0
ELLIPSE
  5
184
330
142
100
AcDbEntity
  8
AM_4
100
AcDbEllipse
 10
-0.0000000000000003
 20
3.490790957973031
 30
0.0
 11
0.1725340532830152
 21
2.570957739398110E-9
 31
0.0
210
0.0
220
0.0
230
1.0
 40
0.4999999999999997
 41
2.53544749084691
 42
4.71238898038469
  0
ELLIPSE
  5
185
330
142
100
AcDbEntity
  8
AM_4
100
AcDbEllipse
 10
0.0000000000000008
 20
3.47492693268506
 30
0.0
 11
0.2187500000000007
 21
0.0
 31
0.0
210
0.0
220
0.0
230
1.0
 40
0.4999999999999984
 41
2.094395102393198
 42
4.188790204786391
  0
ELLIPSE
  5
186
330
142
100
AcDbEntity
  8
AM_4
100
AcDbEllipse
 10
0.0000000000000011
 20
3.47492693268506
 30
0.0
 11
0.2187499999999991
 21
0.0
 31
0.0
210
0.0
220
0.0
230
1.0
 40
0.4999999999999999
 41
4.188790204786386
 42
7.348429945430821
  0
ELLIPSE
  5
187
330
142
100
AcDbEntity
  8
AM_4
100
AcDbEllipse
 10
0.0000000000004208
 20
3.474926932681822
 30
0.0
 11
0.2187500000008642
 21
0.0
 31
0.0
210
0.0
220
0.0
230
1.0
 40
0.5000000000113931
 41
-4.206837291844025
 42
-4.188790204789661
  0
ELLIPSE
  5
188
330
142
100
AcDbEntity
  8
AM_4
100
AcDbEllipse
 10
0.0000000000000005
 20
3.490790957973031
 30
0.0
 11
0.1725340532830152
 21
0.0
 31
0.0
210
0.0
220
0.0
230
1.0
 40
0.4999999999999995
 41
4.71238898038469
 42
6.889330447374671
  0
ELLIPSE
  5
189
330
142
100
AcDbEntity
  8
AM_4
100
AcDbEllipse
 10
0.0000000000000004
 20
3.47492693268506
 30
0.0
 11
0.2137500000000001
 21
3.185123205184939E-9
 31
0.0
210
0.0
220
0.0
230
1.0
 40
0.4999999999999999
 41
2.098620516301821
 42
7.326157418226544
  0
ELLIPSE
  5
18A
330
142
100
AcDbEntity
  8
AM_4
100
AcDbEllipse
 10
-0.0000000000000003
 20
3.591840362195957
 30
0.0
 11
0.1050000000000003
 21
0.0
 31
0.0
210
0.0
220
0.0
230
1.0
 40
0.4999999999999837
 41
4.71238898038469
 42
5.990342535451039
  0
LINE
  5
18B
330
142
100
AcDbEntity
  8
AM_4
100
AcDbLine
 10
0.1005298463144156
 20
3.576684917629732
 30
0.0
 11
0.1292526595471058
 21
3.624316314837876
 31
0.0
  0
LINE
  5
18C
330
142
100
AcDbEntity
  8
AM_4
100
AcDbLine
 10
-0.1292526595471055
 20
3.624316314837876
 30
0.0
 11
-0.1005298463144154
 21
3.576684917629732
 31
0.0
  0
ELLIPSE
  5
18D
330
142
100
AcDbEntity
  8
AM_4
100
AcDbEllipse
 10
0.0000000000000011
 20
3.643801886423027
 30
0.0
 11
0.1350000000000012
 21
0.0
 31
0.0
210
0.0
220
0.0
230
1.0
 40
0.500000000000008
 41
3.434435425318387
 42
6.518618911721119
  0
ELLIPSE
  5
18E
330
142
100
AcDbEntity
  8
AM_4
100
AcDbEllipse
 10
0.0000000000000005
 20
3.591840362195957
 30
0.0
 11
0.1050000000000003
 21
1.564621925354008E-9
 31
0.0
210
0.0
220
0.0
230
1.0
 40
0.4999999999999838
 41
3.43443539737866
 42
4.71238898038469
  0
LINE
  5
18F
330
142
100
AcDbEntity
  8
AM_4
100
AcDbLine
 10
0.2187500000000001
 20
3.530221846689059
 30
0.0
 11
0.2187500000000001
 21
3.333029478302617
 31
0.0
  0
LWPOLYLINE
  5
190
330
142
100
AcDbEntity
  8
AM_4
100
AcDbPolyline
 90
        3
 70
     0
 43
0.0
 10
0.109375
 20
3.380205404146137
 10
0.1640625000000001
 20
3.393919597008521
 10
0.2187500000000001
 20
3.403926475303829
  0
LWPOLYLINE
  5
191
330
142
100
AcDbEntity
  8
AM_4
100
AcDbPolyline
 90
        3
 70
     0
 43
0.0
 10
0.0000000000000001
 20
3.340778789611213
 10
0.0544416102741497
 20
3.362256460528835
 10
0.109375
 20
3.380205404146137
  0
LWPOLYLINE
  5
192
330
142
100
AcDbEntity
  8
AM_4
100
AcDbPolyline
 90
        3
 70
     0
 43
0.0
 10
0.1093750000000001
 20
3.293602863767693
 10
0.0546875000000001
 20
3.279888670905309
 10
0.0000000000000001
 20
3.269881792610002
  0
LWPOLYLINE
  5
193
330
142
100
AcDbEntity
  8
AM_4
100
AcDbPolyline
 90
        3
 70
     0
 43
0.0
 10
0.2187500000000001
 20
3.333029478302617
 10
0.1643083897258505
 20
3.311551807384995
 10
0.1093750000000001
 20
3.293602863767693
  0
LINE
  5
194
330
142
100
AcDbEntity
  8
AM_4
100
AcDbLine
 10
0.0000000000000001
 20
3.340778789611213
 30
0.0
 11
0.0000000000000001
 21
3.269881792610002
 31
0.0
  0
LWPOLYLINE
  5
195
330
142
100
AcDbEntity
  8
AM_4
100
AcDbPolyline
 90
        3
 70
     0
 43
0.0
 10
-0.1093749999999998
 20
3.380205404146137
 10
-0.0546874999999999
 20
3.362345754162213
 10
0.0000000000000001
 20
3.340778789611213
  0
LWPOLYLINE
  5
196
330
142
100
AcDbEntity
  8
AM_4
100
AcDbPolyline
 90
        3
 70
     0
 43
0.0
 10
-0.2187499999999999
 20
3.403926475303829
 10
-0.1643083897258503
 20
3.393972267874554
 10
-0.1093749999999998
 20
3.380205404146137
  0
LINE
  5
197
330
142
100
AcDbEntity
  8
AM_4
100
AcDbLine
 10
-0.2187499999999999
 20
3.530221846689059
 30
0.0
 11
-0.2187499999999999
 21
3.333029478302617
 31
0.0
  0
LWPOLYLINE
  5
198
330
142
100
AcDbEntity
  8
AM_4
100
AcDbPolyline
 90
        3
 70
     0
 43
0.0
 10
-0.1093749999999998
 20
3.293602863767693
 10
-0.1640624999999998
 20
3.311462513751616
 10
-0.2187499999999999
 20
3.333029478302617
  0
LWPOLYLINE
  5
199
330
142
100
AcDbEntity
  8
AM_4
100
AcDbPolyline
 90
        3
 70
     0
 43
0.0
 10
0.0000000000000001
 20
3.269881792610002
 10
-0.0544416102741494
 20
3.279836000039277
 10
-0.1093749999999998
 20
3.293602863767693
  0
LINE
  5
19A
330
142
100
AcDbEntity
  8
AM_4
100
AcDbLine
 10
-0.0998453562378796
 20
3.725059481166979
 30
0.0
 11
-0.1312757938985218
 21
3.659547250314603
 31
0.0
  0
LINE
  5
19B
330
142
100
AcDbEntity
  8
AM_4
100
AcDbLine
 10
0.131275793898522
 20
3.659547250314603
 30
0.0
 11
0.0998453562378799
 21
3.725059481166979
 31
0.0
  0
ELLIPSE
  5
19C
330
142
100
AcDbEntity
  8
AM_4
100
AcDbEllipse
 10
0.0000000000000016
 20
3.643801886423018
 30
0.0
 11
0.1350000000000014
 21
0.0
 31
0.0
210
0.0
220
0.0
230
1.0
 40
0.4999999999999972
 41
2.906159049048133
 42
3.434435425318266
  0
ELLIPSE
  5
19D
330
142
100
AcDbEntity
  8
AM_4
100
AcDbEllipse
 10
0.0000000000000001
 20
3.713083918725781
 30
0.0
 11
0.1026779019331877
 21
0.0
 31
0.0
210
0.0
220
0.0
230
1.0
 40
0.4999999999999995
 41
0.0
 42
6.283185307179586
  0
ENDBLK
  5
145
330
142
100
AcDbEntity
  8
0
100
AcDbBlockEnd
  0
BLOCK
  5
1A0
330
19E
100
AcDbEntity
  8
0
100
AcDbBlockBegin
  2
5_070407H_0_in_070407_2
 70
     2
 10
0.0
 20
0.0
 30
0.0
  3
5_070407H_0_in_070407_2
  1

  0
ATTDEF
  5
1A2
330
19E
100
AcDbEntity
  8
AM_6
100
AcDbText
 10
7.326923076923077
 20
3.8125
 30
0.0
 40
0.5
  1
P4B-S2-(Labyrinth Seal)-Housing
100
AcDbAttributeDefinition
  3

  2
NN
 70
     8
280
     0
  0
ATTDEF
  5
1A3
330
19E
100
AcDbEntity
  8
AM_6
100
AcDbText
 10
7.326923076923077
 20
3.3125
 30
0.0
 40
0.5
  1
S-2000 Pillow Block Bearing -Inch (4-Bolt Base)
100
AcDbAttributeDefinition
  3

  2
NT
 70
     8
280
     0
  0
ATTDEF
  5
1A4
330
19E
100
AcDbEntity
  8
AM_6
100
AcDbText
 10
7.326923076923077
 20
2.8125
 30
0.0
 40
0.5
  1
070407H
100
AcDbAttributeDefinition
  3

  2
NB
 70
     8
280
     0
  0
ATTDEF
  5
1A5
330
19E
100
AcDbEntity
  8
AM_6
100
AcDbText
 10
7.326923076923077
 20
2.3125
 30
0.0
 40
0.5
  1
$PN.H
100
AcDbAttributeDefinition
  3

  2
NBSYN
 70
     8
280
     0
  0
ATTDEF
  5
1A6
330
19E
100
AcDbEntity
  8
AM_6
100
AcDbText
 10
7.326923076923077
 20
1.8125
 30
0.0
 40
0.5
  1
070407
100
AcDbAttributeDefinition
  3

  2
LINA
 70
     8
280
     0
  0
ATTDEF
  5
1A7
330
19E
100
AcDbEntity
  8
AM_6
100
AcDbText
 10
7.326923076923077
 20
1.3125
 30
0.0
 40
0.5
  1
3-7/16
100
AcDbAttributeDefinition
  3

  2
SS
 70
     8
280
     0
  0
ATTDEF
  5
1A8
330
19E
100
AcDbEntity
  8
AM_6
100
AcDbText
 10
7.326923076923077
 20
0.8125
 30
0.0
 40
0.5
  1
070407
100
AcDbAttributeDefinition
  3

  2
PN
 70
     8
280
     0
  0
ATTDEF
  5
1A9
330
19E
100
AcDbEntity
  8
AM_6
100
AcDbText
 10
7.326923076923077
 20
0.3125
 30
0.0
 40
0.5
  1
P4B-S2-307L
100
AcDbAttributeDefinition
  3

  2
DESCRIPTION
 70
     8
280
     0
  0
ATTDEF
  5
1AA
330
19E
100
AcDbEntity
  8
AM_6
100
AcDbText
 10
7.326923076923077
 20
-0.1875
 30
0.0
 40
0.5
  1
Non-Expansion Type
100
AcDbAttributeDefinition
  3

  2
EF
 70
     8
280
     0
  0
ATTDEF
  5
1AB
330
19E
100
AcDbEntity
  8
AM_6
100
AcDbText
 10
7.326923076923077
 20
-0.6875
 30
0.0
 40
0.5
  1
1
100
AcDbAttributeDefinition
  3

  2
EF1
 70
     8
280
     0
  0
ATTDEF
  5
1AC
330
19E
100
AcDbEntity
  8
AM_6
100
AcDbText
 10
7.326923076923077
 20
-1.1875
 30
0.0
 40
0.5
  1
4-1/64
100
AcDbAttributeDefinition
  3

  2
A
 70
     8
280
     0
  0
ATTDEF
  5
1AD
330
19E
100
AcDbEntity
  8
AM_6
100
AcDbText
 10
7.326923076923077
 20
-1.6875
 30
0.0
 40
0.5
  1
13
100
AcDbAttributeDefinition
  3

  2
B
 70
     8
280
     0
  0
ATTDEF
  5
1AE
330
19E
100
AcDbEntity
  8
AM_6
100
AcDbText
 10
7.326923076923077
 20
-2.1875
 30
0.0
 40
0.5
  1
4-1/8
100
AcDbAttributeDefinition
  3

  2
C
 70
     8
280
     0
  0
ATTDEF
  5
1AF
330
19E
100
AcDbEntity
  8
AM_6
100
AcDbText
 10
7.326923076923077
 20
-2.6875
 30
0.0
 40
0.5
  1
9-3/8
100
AcDbAttributeDefinition
  3

  2
DMIN
 70
     8
280
     0
  0
ATTDEF
  5
1B0
330
19E
100
AcDbEntity
  8
AM_6
100
AcDbText
 10
7.326923076923077
 20
-3.1875
 30
0.0
 40
0.5
  1
10-5/8
100
AcDbAttributeDefinition
  3

  2
DMAX
 70
     8
280
     0
  0
ATTDEF
  5
1B1
330
19E
100
AcDbEntity
  8
AM_6
100
AcDbText
 10
7.326923076923077
 20
-3.6875
 30
0.0
 40
0.5
  1
2
100
AcDbAttributeDefinition
  3

  2
E
 70
     8
280
     0
  0
ATTDEF
  5
1B2
330
19E
100
AcDbEntity
  8
AM_6
100
AcDbText
 10
7.326923076923077
 20
-4.1875
 30
0.0
 40
0.5
  1
2.000000
100
AcDbAttributeDefinition
  3

  2
E1
 70
     8
280
     0
  0
ATTDEF
  5
1B3
330
19E
100
AcDbEntity
  8
AM_6
100
AcDbText
 10
7.326923076923077
 20
-4.6875
 30
0.0
 40
0.5
  1
3/4
100
AcDbAttributeDefinition
  3

  2
F
 70
     8
280
     0
  0
ATTDEF
  5
1B4
330
19E
100
AcDbEntity
  8
AM_6
100
AcDbText
 10
7.326923076923077
 20
-5.1875
 30
0.0
 40
0.5
  1
1-1/2
100
AcDbAttributeDefinition
  3

  2
G
 70
     8
280
     0
  0
ATTDEF
  5
1B5
330
19E
100
AcDbEntity
  8
AM_6
100
AcDbText
 10
7.326923076923077
 20
-5.6875
 30
0.0
 40
0.5
  1
2-1/4
100
AcDbAttributeDefinition
  3

  2
H
 70
     8
280
     0
  0
ATTDEF
  5
1B6
330
19E
100
AcDbEntity
  8
AM_6
100
AcDbText
 10
7.326923076923077
 20
-6.1875
 30
0.0
 40
0.5
  1
7-9/16
100
AcDbAttributeDefinition
  3

  2
J
 70
     8
280
     0
  0
ATTDEF
  5
1B7
330
19E
100
AcDbEntity
  8
AM_6
100
AcDbText
 10
7.326923076923077
 20
-6.6875
 30
0.0
 40
0.5
  1
5-1/2
100
AcDbAttributeDefinition
  3

  2
L
 70
     8
280
     0
  0
ATTDEF
  5
1B8
330
19E
100
AcDbEntity
  8
AM_6
100
AcDbText
 10
7.326923076923077
 20
-7.1875
 30
0.0
 40
0.5
  1
3-3/4
100
AcDbAttributeDefinition
  3

  2
M
 70
     8
280
     0
  0
ATTDEF
  5
1B9
330
19E
100
AcDbEntity
  8
AM_6
100
AcDbText
 10
7.326923076923077
 20
-7.6875
 30
0.0
 40
0.5
  1
1-7/16
100
AcDbAttributeDefinition
  3

  2
R
 70
     8
280
     0
  0
ATTDEF
  5
1BA
330
19E
100
AcDbEntity
  8
AM_6
100
AcDbText
 10
7.326923076923077
 20
-8.1875
 30
0.0
 40
0.5
  1
2-37/64
100
AcDbAttributeDefinition
  3

  2
S
 70
     8
280
     0
  0
ATTDEF
  5
1BB
330
19E
100
AcDbEntity
  8
AM_6
100
AcDbText
 10
7.326923076923077
 20
-8.6875
 30
0.0
 40
0.5
  1
1/4
100
AcDbAttributeDefinition
  3

  2
X
 70
     8
280
     0
  0
ATTDEF
  5
1BC
330
19E
100
AcDbEntity
  8
AM_6
100
AcDbText
 10
7.326923076923077
 20
-9.1875
 30
0.0
 40
0.5
  1
0.025
100
AcDbAttributeDefinition
  3

  2
Y
 70
     8
280
     0
  0
ATTDEF
  5
1BD
330
19E
100
AcDbEntity
  8
AM_6
100
AcDbText
 10
7.326923076923077
 20
-9.6875
 30
0.0
 40
0.5
  1
4-3/64
100
AcDbAttributeDefinition
  3

  2
Z
 70
     8
280
     0
  0
ATTDEF
  5
1BE
330
19E
100
AcDbEntity
  8
AM_6
100
AcDbText
 10
7.326923076923077
 20
-10.1875
 30
0.0
 40
0.5
  1
2
100
AcDbAttributeDefinition
  3

  2
ST1
 70
     8
280
     0
  0
ATTDEF
  5
1BF
330
19E
100
AcDbEntity
  8
AM_6
100
AcDbText
 10
7.326923076923077
 20
-10.6875
 30
0.0
 40
0.5
  1
baldor
100
AcDbAttributeDefinition
  3

  2
COMPANY
 70
     8
280
     0
  0
LWPOLYLINE
  5
1C0
330
19E
100
AcDbEntity
  8
AM_9
100
AcDbPolyline
 90
       21
 70
     0
 43
0.0
 10
0.4999999980769619
 20
3.301699925479926
 10
0.4968729020862842
 20
3.329284255745281
 10
0.4805927012368224
 20
3.368441651824787
 10
0.4510098661334179
 20
3.404349736833769
 10
0.4086543950721968
 20
3.436289385319066
 10
0.3549540421223671
 20
3.46368083955081
 10
0.2907366714471852
 20
3.486240546349503
 10
0.2182851830046734
 20
3.503576325127677
 10
0.1394858397051542
 20
3.515490923640382
 10
0.0566883511391326
 20
3.521960587431694
 10
-0.0271351774515156
 20
3.522906248235622
 10
-0.1101890370269604
 20
3.518448783765251
 10
-0.1897871380250291
 20
3.508600994161015
 10
-0.2640832347282151
 20
3.493469777735521
 10
-0.3313047038183609
 20
3.472968171473823
 10
-0.389258678700476
 20
3.447423801924428
 10
-0.4364590130010418
 20
3.416870090592119
 10
-0.4713220579564817
 20
3.382006447445113
 10
-0.492607157359171
 20
3.343563337507448
 10
-0.499998101650613
 20
3.302410538668069
 10
-0.4999999999132391
 20
3.301726509191853
  0
ELLIPSE
  5
1C1
330
19E
100
AcDbEntity
  8
AM_9
100
AcDbEllipse
 10
0.0000000000000001
 20
3.388324392306614
 30
0.0
 11
-0.4500000000000028
 21
5.510910596163123E-17
 31
0.0
210
0.0
220
0.0
230
1.0
 40
0.500000000000003
 41
4.447327559919911
 42
4.977450400849469
  0
LWPOLYLINE
  5
1C2
330
19E
100
AcDbEntity
  8
AM_9
100
AcDbPolyline
 90
        8
 70
     0
 43
0.0
 10
0.1218435341927088
 20
3.612082129382538
 10
0.0982294428142655
 20
3.614891471515024
 10
0.0579877817367311
 20
3.618246963690877
 10
0.017390144825187
 20
3.61986390394153
 10
-0.0233101643851443
 20
3.619736975620835
 10
-0.0638587263159229
 20
3.617867445162846
 10
-0.1039963485229656
 20
3.614263865336889
 10
-0.121845779766677
 20
3.61208183182874
  0
ELLIPSE
  5
1C3
330
19E
100
AcDbEntity
  8
AM_9
100
AcDbEllipse
 10
0.0000000000000002
 20
3.345023122117395
 30
0.0
 11
-0.5000000000000001
 21
6.123233995736767E-17
 31
0.0
210
0.0
220
0.0
230
1.0
 40
0.4999999999999999
 41
3.14568246172859
 42
6.285316257880391
  0
LINE
  5
1C4
330
19E
100
AcDbEntity
  8
AM_9
100
AcDbLine
 10
-1.4375
 20
-3.682592212727073
 30
0.0
 11
1.4375
 21
-3.682592212727073
 31
0.0
  0
LINE
  5
1C5
330
19E
100
AcDbEntity
  8
AM_9
100
AcDbLine
 10
-1.65
 20
-3.1496
 30
0.0
 11
1.65
 21
-3.1496
 31
0.0
  0
LINE
  5
1C6
330
19E
100
AcDbEntity
  8
AM_9
100
AcDbLine
 10
1.65
 20
3.1496
 30
0.0
 11
-1.65
 21
3.1496
 31
0.0
  0
LINE
  5
1C7
330
19E
100
AcDbEntity
  8
AM_9
100
AcDbLine
 10
-0.1202196407943917
 20
3.682592212727073
 30
0.0
 11
0.1202196407943917
 21
3.682592212727073
 31
0.0
  0
LINE
  5
1C8
330
19E
100
AcDbEntity
  8
AM_9
100
AcDbLine
 10
-1.846428571428572
 20
-1.413576319543863
 30
0.0
 11
-1.846428571428572
 21
-3.75
 31
0.0
  0
LINE
  5
1C9
330
19E
100
AcDbEntity
  8
AM_9
100
AcDbLine
 10
-1.65
 20
0.0232428309695317
 30
0.0
 11
-1.65
 21
-1.650000000000001
 31
0.0
  0
LINE
  5
1CA
330
19E
100
AcDbEntity
  8
AM_9
100
AcDbLine
 10
1.846428571428572
 20
-1.413576319543863
 30
0.0
 11
1.846428571428572
 21
-3.75
 31
0.0
  0
LINE
  5
1CB
330
19E
100
AcDbEntity
  8
AM_9
100
AcDbLine
 10
1.65
 20
0.0232428309694802
 30
0.0
 11
1.65
 21
-1.650000000000002
 31
0.0
  0
LINE
  5
1CC
330
19E
100
AcDbEntity
  8
AM_9
100
AcDbLine
 10
-1.86607142857143
 20
-1.413576319543863
 30
0.0
 11
-1.86607142857143
 21
-3.75
 31
0.0
  0
LINE
  5
1CD
330
19E
100
AcDbEntity
  8
AM_9
100
AcDbLine
 10
1.866071428571429
 20
-1.413576319543863
 30
0.0
 11
1.866071428571429
 21
-3.75
 31
0.0
  0
LINE
  5
1CE
330
19E
100
AcDbEntity
  8
AM_9
100
AcDbLine
 10
1.4375
 20
-2.2875
 30
0.0
 11
-1.4375
 21
-2.287499999999999
 31
0.0
  0
LINE
  5
1CF
330
19E
100
AcDbEntity
  8
AM_9
100
AcDbLine
 10
-0.9999999999999996
 20
-2.2875
 30
0.0
 11
-1.000000000000002
 21
-3.75
 31
0.0
  0
LINE
  5
1D0
330
19E
100
AcDbEntity
  8
AM_9
100
AcDbLine
 10
-1.4375
 20
-1.5
 30
0.0
 11
-1.4375
 21
-3.75
 31
0.0
  0
LINE
  5
1D1
330
19E
100
AcDbEntity
  8
AM_9
100
AcDbLine
 10
-0.5624999999999998
 20
-1.5
 30
0.0
 11
-0.5624999999999998
 21
-2.2875
 31
0.0
  0
LINE
  5
1D2
330
19E
100
AcDbEntity
  8
AM_9
100
AcDbLine
 10
1.0
 20
-2.2875
 30
0.0
 11
1.0
 21
-3.75
 31
0.0
  0
LINE
  5
1D3
330
19E
100
AcDbEntity
  8
AM_9
100
AcDbLine
 10
0.5625000000000003
 20
-1.5
 30
0.0
 11
0.5625000000000003
 21
-2.2875
 31
0.0
  0
LINE
  5
1D4
330
19E
100
AcDbEntity
  8
AM_9
100
AcDbLine
 10
1.4375
 20
-1.5
 30
0.0
 11
1.437499999999999
 21
-3.75
 31
0.0
  0
LINE
  5
1D5
330
19E
100
AcDbEntity
  8
AM_7
100
AcDbLine
 10
2.326923076923077
 20
0.0
 30
0.0
 11
-2.778125
 21
0.0
 31
0.0
  0
LINE
  5
1D6
330
19E
100
AcDbEntity
  8
AM_4
100
AcDbLine
 10
-1.65
 20
3.8125
 30
0.0
 11
1.65
 21
3.8125
 31
0.0
  0
LINE
  5
1D7
330
19E
100
AcDbEntity
  8
AM_4
100
AcDbLine
 10
-0.4999999999999998
 20
3.345023122117395
 30
0.0
 11
-0.4999999999999998
 21
3.301708926043399
 31
0.0
  0
LINE
  5
1D8
330
19E
100
AcDbEntity
  8
AM_4
100
AcDbLine
 10
0.5000000000000001
 20
3.301535505946331
 30
0.0
 11
0.5000000000000001
 21
3.345023122117395
 31
0.0
  0
LWPOLYLINE
  5
1D9
330
19E
100
AcDbEntity
  8
AM_4
100
AcDbPolyline
 90
       11
 70
     0
 43
0.0
 10
-0.4999999999132391
 20
3.301726509191853
 10
-0.4931763274317346
 20
3.259938536393709
 10
-0.4726506138295526
 20
3.217149484803045
 10
-0.4388513065105924
 20
3.175442251295773
 10
-0.3929131287353351
 20
3.136231941024913
 10
-0.335508872748963
 20
3.100751491408202
 10
-0.2686724433986614
 20
3.07062332988164
 10
-0.1938414972679418
 20
3.047094837653093
 10
-0.1134633915522984
 20
3.031201058545832
 10
-0.0571101149422769
 20
3.025222209559996
 10
0.0000000000000001
 20
3.023204421893018
  0
ELLIPSE
  5
1DA
330
19E
100
AcDbEntity
  8
AM_4
100
AcDbEllipse
 10
0.0000000000000003
 20
3.345023122117394
 30
0.0
 11
-0.4999999999999997
 21
6.123233995736762E-17
 31
0.0
210
0.0
220
0.0
230
1.0
 40
0.4999999999999993
 41
0.002130950700856
 42
3.141592653589793
  0
ELLIPSE
  5
1DB
330
19E
100
AcDbEntity
  8
AM_4
100
AcDbEllipse
 10
0.0000000000000002
 20
3.388324392306616
 30
0.0
 11
-0.4499999999999997
 21
5.510910596163086E-17
 31
0.0
210
0.0
220
0.0
230
1.0
 40
0.5000000000000006
 41
4.97745040084947
 42
10.7305128670995
  0
LWPOLYLINE
  5
1DC
330
19E
100
AcDbEntity
  8
AM_4
100
AcDbPolyline
 90
       18
 70
     0
 43
0.0
 10
-0.121845779766677
 20
3.61208183182874
 10
-0.1434740943022284
 20
3.608941008492307
 10
-0.1820483439004202
 20
3.60191893319728
 10
-0.2194823875774384
 20
3.593221745558593
 10
-0.2555475195776333
 20
3.582875930137987
 10
-0.2900232663420407
 20
3.570908329178732
 10
-0.3226961946705074
 20
3.557344046542419
 10
-0.3533565018816974
 20
3.542204997208755
 10
-0.3817914331964533
 20
3.525510714029209
 10
-0.407774993920186
 20
3.507284524351496
 10
-0.4310382885787866
 20
3.487586118393751
 10
-0.4512812443137189
 20
3.466540218579225
 10
-0.4682139069197777
 20
3.444352337601909
 10
-0.4816012347318522
 20
3.421319913875863
 10
-0.4913237285714011
 20
3.397787375167381
 10
-0.4973926924508894
 20
3.374076859020297
 10
-0.4999096175058316
 20
3.350442567084127
 10
-0.4999984881915592
 20
3.3443221680216
  0
LWPOLYLINE
  5
1DD
330
19E
100
AcDbEntity
  8
AM_4
100
AcDbPolyline
 90
       18
 70
     0
 43
0.0
 10
0.4999945637938717
 20
3.346352314648222
 10
0.499115213979438
 20
3.361969496292203
 10
0.4950525953324397
 20
3.384975929439912
 10
0.4877877066824736
 20
3.407461801248467
 10
0.4773617928006019
 20
3.429397463200877
 10
0.4637618155419457
 20
3.45074728089858
 10
0.44695926044944
 20
3.471434787039851
 10
0.4269675941243465
 20
3.491323674604772
 10
0.4038900314113721
 20
3.510229327632084
 10
0.377926359619332
 20
3.527957265271709
 10
0.3493383148985745
 20
3.544342208355305
 10
0.3184232926296705
 20
3.559256534193976
 10
0.2854545989377558
 20
3.572623287180071
 10
0.2506772028558059
 20
3.584395466421214
 10
0.2143286015923544
 20
3.594536776602371
 10
0.176644787332822
 20
3.603016722527209
 10
0.1378641766825832
 20
3.609808987439821
 10
0.1218435341927088
 20
3.612082129382538
  0
LINE
  5
1DE
330
19E
100
AcDbEntity
  8
AM_4
100
AcDbLine
 10
0.1202196407943917
 20
3.682592212727073
 30
0.0
 11
1.65
 21
3.682592212727073
 31
0.0
  0
LINE
  5
1DF
330
19E
100
AcDbEntity
  8
AM_4
100
AcDbLine
 10
-1.65
 20
3.682592212727073
 30
0.0
 11
-0.1202196407943917
 21
3.682592212727073
 31
0.0
  0
LWPOLYLINE
  5
1E0
330
19E
100
AcDbEntity
  8
AM_4
100
AcDbPolyline
 90
       11
 70
     0
 43
0.0
 10
0.0000000000000001
 20
3.023204421893018
 10
0.0835294654619666
 20
3.027553610358215
 10
0.1646946462584885
 20
3.040261939956785
 10
0.2411285441919031
 20
3.060886331118563
 10
0.3108101387218856
 20
3.088423565416248
 10
0.3720162116993199
 20
3.122024194561052
 10
0.422777467765842
 20
3.1601463866749
 10
0.4616302840111751
 20
3.201548365983305
 10
0.4874160258779155
 20
3.244575157108311
 10
0.4991512664125269
 20
3.287509625693975
 10
0.4999999980769619
 20
3.301699925479926
  0
LINE
  5
1E1
330
19E
100
AcDbEntity
  8
AM_4
100
AcDbLine
 10
-1.2375
 20
-1.293750000000001
 30
0.0
 11
1.2375
 21
-1.293750000000001
 31
0.0
  0
LINE
  5
1E2
330
19E
100
AcDbEntity
  8
AM_4
100
AcDbLine
 10
-1.2375
 20
-1.5
 30
0.0
 11
-1.2375
 21
0.2448054245649491
 31
0.0
  0
LINE
  5
1E3
330
19E
100
AcDbEntity
  8
AM_4
100
AcDbLine
 10
1.237500000000001
 20
-1.5
 30
0.0
 11
1.2375
 21
0.2448054245649491
 31
0.0
  0
LINE
  5
1E4
330
19E
100
AcDbEntity
  8
AM_4
100
AcDbLine
 10
1.2375
 20
0.2448054245649491
 30
0.0
 11
-1.2375
 21
0.2448054245649491
 31
0.0
  0
LINE
  5
1E5
330
19E
100
AcDbEntity
  8
AM_4
100
AcDbLine
 10
1.65
 20
0.0232428309694802
 30
0.0
 11
1.65
 21
3.8125
 31
0.0
  0
LINE
  5
1E6
330
19E
100
AcDbEntity
  8
AM_4
100
AcDbLine
 10
-1.65
 20
0.4876004307327736
 30
0.0
 11
1.65
 21
0.4876004307327736
 31
0.0
  0
LINE
  5
1E7
330
19E
100
AcDbEntity
  8
AM_4
100
AcDbLine
 10
-1.65
 20
3.8125
 30
0.0
 11
-1.65
 21
0.0232428309695317
 31
0.0
  0
LWPOLYLINE
  5
1E8
330
19E
100
AcDbEntity
  8
AM_4
100
AcDbPolyline
 90
       14
 70
     0
 43
0.0
 10
-1.763088368723345
 20
-1.35610270716614
 10
-1.747902901336276
 20
-1.294527085321701
 10
-1.733467273790036
 20
-1.222922438723056
 10
-1.719891349926721
 20
-1.141833721966887
 10
-1.707278450724299
 20
-1.051878069150417
 10
-1.695724567961576
 20
-0.953740097108285
 10
-1.685317633662802
 20
-0.8481666950650604
 10
-1.67613685088187
 20
-0.735961340357255
 10
-1.66825209091925
 20
-0.6179779834856413
 10
-1.661723361559207
 20
-0.49511454903631
 10
-1.656600350374325
 20
-0.3683061019323914
 10
-1.652922046573079
 20
-0.2385177310253797
 10
-1.650716444268418
 20
-0.1067372041862383
 10
-1.65
 20
0.0232428309695313
  0
LWPOLYLINE
  5
1E9
330
19E
100
AcDbEntity
  8
AM_4
100
AcDbPolyline
 90
       14
 70
     0
 43
0.0
 10
1.65
 20
0.0232428309694805
 10
1.650747470017693
 20
-0.1095165293487112
 10
1.652984191372602
 20
-0.241265510772588
 10
1.656693141264648
 20
-0.3710014240013041
 10
1.661846092345626
 20
-0.4977369003985029
 10
1.668403827546373
 20
-0.6205074064638287
 10
1.676316438542343
 20
-0.7383785845152661
 10
1.685523705586091
 20
-0.8504533637152804
 10
1.695955555815915
 20
-0.9558787873215574
 10
1.707532596552643
 20
-1.053852504202842
 10
1.720166719525859
 20
-1.143628875215521
 10
1.733761771431045
 20
-1.224524647967731
 10
1.748214285714286
 20
-1.295924156782627
 10
1.763088368723346
 20
-1.35610270716614
  0
LINE
  5
1EA
330
19E
100
AcDbEntity
  8
AM_4
100
AcDbLine
 10
-1.763088368723345
 20
-1.35610270716614
 30
0.0
 11
-1.2375
 21
-1.35610270716614
 31
0.0
  0
LWPOLYLINE
  5
1EB
330
19E
100
AcDbEntity
  8
AM_4
100
AcDbPolyline
 90
        5
 70
     0
 43
0.0
 10
-1.763088368723347
 20
-1.35610270716614
 10
-1.775004802958973
 20
-1.380737235027772
 10
-1.794739548294037
 20
-1.399167469551386
 10
-1.818612075511056
 20
-1.409805758637872
 10
-1.846428571428565
 20
-1.413576319543887
  0
LINE
  5
1EC
330
19E
100
AcDbEntity
  8
AM_4
100
AcDbLine
 10
-1.86607142857143
 20
-1.413576319543863
 30
0.0
 11
-1.846428571428572
 21
-1.413576319543863
 31
0.0
  0
LINE
  5
1ED
330
19E
100
AcDbEntity
  8
AM_4
100
AcDbLine
 10
1.237500000000001
 20
-1.35610270716614
 30
0.0
 11
1.763088368723345
 21
-1.35610270716614
 31
0.0
  0
LINE
  5
1EE
330
19E
100
AcDbEntity
  8
AM_4
100
AcDbLine
 10
1.846428571428572
 20
-1.413576319543863
 30
0.0
 11
1.866071428571429
 21
-1.413576319543863
 31
0.0
  0
LWPOLYLINE
  5
1EF
330
19E
100
AcDbEntity
  8
AM_4
100
AcDbPolyline
 90
        5
 70
     0
 43
0.0
 10
1.846428571428572
 20
-1.413576319543863
 10
1.817947499120331
 20
-1.409616270131251
 10
1.792310374983034
 20
-1.397533679642883
 10
1.772599358994629
 20
-1.37727848930153
 10
1.763088368723341
 20
-1.356102707166144
  0
LWPOLYLINE
  5
1F0
330
19E
100
AcDbEntity
  8
AM_4
100
AcDbPolyline
 90
       11
 70
     0
 43
0.0
 10
-2.05567209390208
 20
-1.5
 10
-2.047197800748321
 20
-1.498135208519939
 10
-2.035785131747448
 20
-1.492996557219519
 10
-2.022018756288543
 20
-1.485291973095572
 10
-2.006257615646427
 20
-1.475660103070851
 10
-1.979504397090319
 20
-1.458848107543111
 10
-1.948691109167289
 20
-1.440495939307621
 10
-1.928363257850782
 20
-1.429919263619158
 10
-1.906614277985167
 20
-1.420928293851379
 10
-1.886721575767502
 20
-1.415592913452877
 10
-1.86607142857143
 20
-1.413576319543863
  0
LWPOLYLINE
  5
1F1
330
19E
100
AcDbEntity
  8
AM_4
100
AcDbPolyline
 90
       10
 70
     0
 43
0.0
 10
1.866071428571429
 20
-1.413576319543863
 10
1.884873002961952
 20
-1.415249224467161
 10
1.90307911569425
 20
-1.419750303270066
 10
1.929217885251071
 20
-1.430307512338798
 10
1.953337109747074
 20
-1.443119680503385
 10
1.984077729047631
 20
-1.461670862947223
 10
2.011269039803177
 20
-1.478775272996694
 10
2.02741722961685
 20
-1.488428965529334
 10
2.041116577571246
 20
-1.49561515394631
 10
2.055672093902081
 20
-1.5
  0
LINE
  5
1F2
330
19E
100
AcDbEntity
  8
AM_4
100
AcDbLine
 10
-1.65
 20
-1.650000000000002
 30
0.0
 11
1.65
 21
-1.650000000000002
 31
0.0
  0
LINE
  5
1F3
330
19E
100
AcDbEntity
  8
AM_4
100
AcDbLine
 10
1.65
 20
-1.650000000000002
 30
0.0
 11
1.65
 21
-3.75
 31
0.0
  0
LINE
  5
1F4
330
19E
100
AcDbEntity
  8
AM_4
100
AcDbLine
 10
-2.0625
 20
-3.75
 30
0.0
 11
2.0625
 21
-3.75
 31
0.0
  0
LINE
  5
1F5
330
19E
100
AcDbEntity
  8
AM_4
100
AcDbLine
 10
2.0625
 20
-1.5
 30
0.0
 11
2.0625
 21
-3.75
 31
0.0
  0
LINE
  5
1F6
330
19E
100
AcDbEntity
  8
AM_4
100
AcDbLine
 10
-2.0625
 20
-1.5
 30
0.0
 11
2.0625
 21
-1.5
 31
0.0
  0
LWPOLYLINE
  5
1F7
330
19E
100
AcDbEntity
  8
AM_4
100
AcDbPolyline
 90
       19
 70
     0
 43
0.0
 10
1.65
 20
-1.650000000000002
 10
1.650570795286238
 20
-1.636926638587853
 10
1.652278837048169
 20
-1.623952773349962
 10
1.65511112605664
 20
-1.611177143234623
 10
1.659046106882114
 20
-1.598696978501151
 10
1.664053831944503
 20
-1.586607260738896
 10
1.670096189432335
 20
-1.575000000000001
 10
1.677127193356652
 20
-1.563963534547343
 10
1.685093333532154
 20
-1.553581858547019
 10
1.693933982822019
 20
-1.543933982822018
 10
1.70358185854702
 20
-1.535093333532153
 10
1.713963534547344
 20
-1.527127193356651
 10
1.725000000000001
 20
-1.520096189432334
 10
1.736607260738896
 20
-1.514053831944502
 10
1.748696978501151
 20
-1.509046106882113
 10
1.761177143234624
 20
-1.505111126056639
 10
1.773952773349962
 20
-1.502278837048168
 10
1.786926638587853
 20
-1.500570795286237
 10
1.800000000000002
 20
-1.499999999999999
  0
LINE
  5
1F8
330
19E
100
AcDbEntity
  8
AM_4
100
AcDbLine
 10
-2.0625
 20
-1.5
 30
0.0
 11
-2.0625
 21
-3.75
 31
0.0
  0
LINE
  5
1F9
330
19E
100
AcDbEntity
  8
AM_4
100
AcDbLine
 10
-1.65
 20
-1.650000000000002
 30
0.0
 11
-1.65
 21
-3.75
 31
0.0
  0
LWPOLYLINE
  5
1FA
330
19E
100
AcDbEntity
  8
AM_4
100
AcDbPolyline
 90
       19
 70
     0
 43
0.0
 10
-1.800000000000002
 20
-1.499999999999999
 10
-1.786926638587853
 20
-1.500570795286237
 10
-1.773952773349962
 20
-1.502278837048168
 10
-1.761177143234623
 20
-1.505111126056639
 10
-1.748696978501151
 20
-1.509046106882113
 10
-1.736607260738896
 20
-1.514053831944502
 10
-1.725000000000001
 20
-1.520096189432334
 10
-1.713963534547344
 20
-1.527127193356651
 10
-1.70358185854702
 20
-1.535093333532153
 10
-1.693933982822018
 20
-1.543933982822018
 10
-1.685093333532154
 20
-1.553581858547019
 10
-1.677127193356651
 20
-1.563963534547343
 10
-1.670096189432334
 20
-1.575
 10
-1.664053831944502
 20
-1.586607260738895
 10
-1.659046106882114
 20
-1.59869697850115
 10
-1.65511112605664
 20
-1.611177143234623
 10
-1.652278837048169
 20
-1.623952773349961
 10
-1.650570795286238
 20
-1.636926638587853
 10
-1.65
 20
-1.650000000000001
  0
ENDBLK
  5
1A1
330
19E
100
AcDbEntity
  8
0
100
AcDbBlockEnd
  0
ENDSEC
  0
SECTION
  2
ENTITIES
  0
INSERT
  5
6F
330
1F
100
AcDbEntity
  8
0
100
AcDbBlockReference
  2
1_070407_2
 10
0.0
 20
0.0
 30
0.0
  0
POINT
  5
1FC
330
1F
100
AcDbEntity
  8
ConnectionPoints
100
AcDbPoint
 10
-2.578125
 20
0.0
 30
0.0000000000000002
  0
POINT
  5
1FD
330
1F
100
AcDbEntity
  8
ConnectionPoints
100
AcDbPoint
 10
2.455875
 20
0.0
 30
-0.0000000000000002
  0
POINT
  5
1FE
330
1F
100
AcDbEntity
  8
ConnectionPoints
100
AcDbPoint
 10
-2.578125
 20
0.0
 30
0.0000000000000002
  0
POINT
  5
1FF
330
1F
100
AcDbEntity
  8
ConnectionPoints
100
AcDbPoint
 10
0.0000000000000001
 20
3.388324392306616
 30
1.95625
  0
POINT
  5
200
330
1F
100
AcDbEntity
  8
ConnectionPoints
100
AcDbPoint
 10
-2.328125
 20
0.0
 30
0.0000000000000001
  0
POINT
  5
201
330
1F
100
AcDbEntity
  8
ConnectionPoints
100
AcDbPoint
 10
-2.578125
 20
0.0
 30
0.0000000000000002
  0
POINT
  5
202
330
1F
100
AcDbEntity
  8
ConnectionPoints
100
AcDbPoint
 10
0.0000000000000001
 20
3.388324392306616
 30
1.95625
  0
ENDSEC
  0
SECTION
  2
OBJECTS
  0
DICTIONARY
  5
C
330
0
100
AcDbDictionary
281
     1
  3
ACAD_DETAILVIEWSTYLE
350
20A
  3
ACAD_GROUP
350
D
  3
ACAD_LAYOUT
350
1A
  3
ACAD_MATERIAL
350
43
  3
ACAD_MLEADERSTYLE
350
6B
  3
ACAD_MLINESTYLE
350
17
  3
ACAD_PLOTSETTINGS
350
19
  3
ACAD_PLOTSTYLENAME
350
E
  3
ACAD_SCALELIST
350
47
  3
ACAD_SECTIONVIEWSTYLE
350
20B
  3
ACAD_TABLESTYLE
350
69
  3
ACAD_VISUALSTYLE
350
2A
  3
ACDB_RECOMPOSE_DATA
350
207
  3
AcDbVariableDictionary
350
203
  0
SUN
  5
6D
330
29
100
AcDbSun
 90
        1
290
     0
 63
     7
421
 16777215
 40
1.0
291
     1
 91
  2455826
 92
 54000000
292
     0
 70
     2
 71
   256
280
     1
  0
DICTIONARY
  5
20A
102
{ACAD_REACTORS
330
C
102
}
330
C
100
AcDbDictionary
281
     1
  0
DICTIONARY
  5
D
102
{ACAD_REACTORS
330
C
102
}
330
C
100
AcDbDictionary
281
     1
  0
DICTIONARY
  5
1A
102
{ACAD_REACTORS
330
C
102
}
330
C
100
AcDbDictionary
281
     1
  3
Layout1
350
1E
  3
Layout2
350
26
  3
Model
350
22
  0
DICTIONARY
  5
43
102
{ACAD_REACTORS
330
C
102
}
330
C
100
AcDbDictionary
281
     1
  3
ByBlock
350
45
  3
ByLayer
350
44
  3
Global
350
46
  0
DICTIONARY
  5
6B
102
{ACAD_REACTORS
330
C
102
}
330
C
100
AcDbDictionary
281
     1
  3
Standard
350
6C
  0
DICTIONARY
  5
17
102
{ACAD_REACTORS
330
C
102
}
330
C
100
AcDbDictionary
281
     1
  3
Standard
350
18
  0
DICTIONARY
  5
19
102
{ACAD_REACTORS
330
C
102
}
330
C
100
AcDbDictionary
281
     1
  0
ACDBDICTIONARYWDFLT
  5
E
102
{ACAD_REACTORS
330
C
102
}
330
C
100
AcDbDictionary
281
     1
  3
Normal
350
F
100
AcDbDictionaryWithDefault
340
F
  0
DICTIONARY
  5
47
102
{ACAD_REACTORS
330
C
102
}
330
C
100
AcDbDictionary
281
     1
  3
A0
350
48
  3
A1
350
49
  3
A2
350
4A
  3
A3
350
4B
  3
A4
350
4C
  3
A5
350
4D
  3
A6
350
4E
  3
A7
350
4F
  3
A8
350
50
  3
A9
350
51
  3
B0
350
52
  3
B1
350
53
  3
B2
350
54
  3
B3
350
55
  3
B4
350
56
  3
B5
350
57
  3
B6
350
58
  3
B7
350
59
  3
B8
350
5A
  3
B9
350
5B
  3
C0
350
5C
  3
C1
350
5D
  3
C2
350
5E
  3
C3
350
5F
  3
C4
350
60
  3
C5
350
61
  3
C6
350
62
  3
C7
350
63
  3
C8
350
64
  3
C9
350
65
  3
D0
350
66
  3
D1
350
67
  3
D2
350
68
  0
DICTIONARY
  5
20B
102
{ACAD_REACTORS
330
C
102
}
330
C
100
AcDbDictionary
281
     1
  0
DICTIONARY
  5
69
102
{ACAD_REACTORS
330
C
102
}
330
C
100
AcDbDictionary
281
     1
  3
Standard
350
6A
  0
DICTIONARY
  5
2A
102
{ACAD_REACTORS
330
C
102
}
330
C
100
AcDbDictionary
281
     1
  3
2dWireframe
350
2F
  3
Basic
350
32
  3
Brighten
350
36
  3
ColorChange
350
3A
  3
Conceptual
350
34
  3
Dim
350
35
  3
EdgeColorOff
350
3D
  3
Facepattern
350
39
  3
Flat
350
2B
  3
FlatWithEdges
350
2C
  3
Gouraud
350
2D
  3
GouraudWithEdges
350
2E
  3
Hidden
350
31
  3
JitterOff
350
3B
  3
Linepattern
350
38
  3
OverhangOff
350
3C
  3
Realistic
350
33
  3
Shaded
350
42
  3
Shaded with edges
350
41
  3
Shades of Gray
350
3E
  3
Sketchy
350
3F
  3
Thicken
350
37
  3
Wireframe
350
30
  3
X-Ray
350
40
  0
XRECORD
  5
207
102
{ACAD_REACTORS
330
C
102
}
330
C
100
AcDbXrecord
280
     1
 90
        1
330
6A
  0
DICTIONARY
  5
203
102
{ACAD_REACTORS
330
C
102
}
330
C
100
AcDbDictionary
281
     1
  3
CANNOSCALE
350
204
  3
CMLEADERSTYLE
350
209
  3
CTABLESTYLE
350
208
  0
LAYOUT
  5
1E
102
{ACAD_REACTORS
330
1A
102
}
330
1A
100
AcDbPlotSettings
  1

  2
none_device
  4

  6

 40
0.0
 41
0.0
 42
0.0
 43
0.0
 44
0.0
 45
0.0
 46
0.0
 47
0.0
 48
0.0
 49
0.0
140
0.0
141
0.0
142
1.0
143
1.0
 70
   688
 72
     0
 73
     0
 74
     5
  7

 75
    16
 76
     0
 77
     2
 78
   300
147
1.0
148
0.0
149
0.0
100
AcDbLayout
  1
Layout1
 70
     1
 71
     1
 10
0.0
 20
0.0
 11
12.0
 21
9.0
 12
0.0
 22
0.0
 32
0.0
 14
1.000000000000000E+20
 24
1.000000000000000E+20
 34
1.000000000000000E+20
 15
-1.000000000000000E+20
 25
-1.000000000000000E+20
 35
-1.000000000000000E+20
146
0.0
 13
0.0
 23
0.0
 33
0.0
 16
1.0
 26
0.0
 36
0.0
 17
0.0
 27
1.0
 37
0.0
 76
     0
330
1B
  0
LAYOUT
  5
26
102
{ACAD_REACTORS
330
1A
102
}
330
1A
100
AcDbPlotSettings
  1

  2
none_device
  4

  6

 40
0.0
 41
0.0
 42
0.0
 43
0.0
 44
0.0
 45
0.0
 46
0.0
 47
0.0
 48
0.0
 49
0.0
140
0.0
141
0.0
142
1.0
143
1.0
 70
   688
 72
     0
 73
     0
 74
     5
  7

 75
    16
 76
     0
 77
     2
 78
   300
147
1.0
148
0.0
149
0.0
100
AcDbLayout
  1
Layout2
 70
     1
 71
     2
 10
0.0
 20
0.0
 11
0.0
 21
0.0
 12
0.0
 22
0.0
 32
0.0
 14
0.0
 24
0.0
 34
0.0
 15
0.0
 25
0.0
 35
0.0
146
0.0
 13
0.0
 23
0.0
 33
0.0
 16
1.0
 26
0.0
 36
0.0
 17
0.0
 27
1.0
 37
0.0
 76
     0
330
23
  0
LAYOUT
  5
22
102
{ACAD_REACTORS
330
1A
102
}
330
1A
100
AcDbPlotSettings
  1

  2
none_device
  4
Letter_(8.50_x_11.00_Inches)
  6

 40
6.35
 41
6.35
 42
6.35000508
 43
6.35000508
 44
215.9
 45
279.4
 46
0.0
 47
0.0
 48
0.0
 49
0.0
140
0.0
141
0.0
142
1.0
143
1.0
 70
  1712
 72
     0
 73
     0
 74
     0
  7

 75
     0
 76
     0
 77
     2
 78
   300
147
1.0
148
0.0
149
0.0
100
AcDbLayout
  1
Model
 70
     1
 71
     0
 10
0.0
 20
0.0
 11
12.0
 21
9.0
 12
0.0
 22
0.0
 32
0.0
 14
1.000000000000000E+20
 24
1.000000000000000E+20
 34
1.000000000000000E+20
 15
-1.000000000000000E+20
 25
-1.000000000000000E+20
 35
-1.000000000000000E+20
146
0.0
 13
0.0
 23
0.0
 33
0.0
 16
1.0
 26
0.0
 36
0.0
 17
0.0
 27
1.0
 37
0.0
 76
     0
330
1F
331
29
  0
MATERIAL
  5
45
102
{ACAD_REACTORS
330
43
102
}
330
43
100
AcDbMaterial
  1
ByBlock
 72
     1
 94
      127
  0
MATERIAL
  5
44
102
{ACAD_REACTORS
330
43
102
}
330
43
100
AcDbMaterial
  1
ByLayer
 72
     1
 94
      127
  0
MATERIAL
  5
46
102
{ACAD_REACTORS
330
43
102
}
330
43
100
AcDbMaterial
  1
Global
 72
     1
 94
      127
  0
MLEADERSTYLE
  5
6C
102
{ACAD_REACTORS
330
6B
102
}
330
6B
100
AcDbMLeaderStyle
179
     2
170
     2
171
     1
172
     0
 90
        2
 40
0.0
 41
0.0
173
     1
 91
-1056964608
340
14
 92
       -2
290
     1
 42
0.09
291
     1
 43
0.36
  3
Standard
341
0
 44
0.18
300

342
11
174
     1
178
     6
175
     1
176
     0
 93
-1056964608
 45
0.18
292
     0
297
     0
 46
0.18
343
0
 94
-1056964608
 47
1.0
 49
1.0
140
1.0
293
     1
141
0.0
294
     1
177
     0
142
1.0
295
     0
296
     0
143
0.125
271
     0
272
     9
273
     9
298
     0
  0
MLINESTYLE
  5
18
102
{ACAD_REACTORS
330
17
102
}
330
17
100
AcDbMlineStyle
  2
Standard
 70
     0
  3

 62
   256
 51
90.0
 52
90.0
 71
     2
 49
0.5
 62
   256
  6
BYLAYER
 49
-0.5
 62
   256
  6
BYLAYER
  0
ACDBPLACEHOLDER
  5
F
102
{ACAD_REACTORS
330
E
102
}
330
E
  0
SCALE
  5
48
102
{ACAD_REACTORS
330
47
102
}
330
47
100
AcDbScale
 70
     0
300
1:1
140
1.0
141
1.0
290
     1
  0
SCALE
  5
49
102
{ACAD_REACTORS
330
47
102
}
330
47
100
AcDbScale
 70
     0
300
1:2
140
1.0
141
2.0
290
     0
  0
SCALE
  5
4A
102
{ACAD_REACTORS
330
47
102
}
330
47
100
AcDbScale
 70
     0
300
1:4
140
1.0
141
4.0
290
     0
  0
SCALE
  5
4B
102
{ACAD_REACTORS
330
47
102
}
330
47
100
AcDbScale
 70
     0
300
1:5
140
1.0
141
5.0
290
     0
  0
SCALE
  5
4C
102
{ACAD_REACTORS
330
47
102
}
330
47
100
AcDbScale
 70
     0
300
1:8
140
1.0
141
8.0
290
     0
  0
SCALE
  5
4D
102
{ACAD_REACTORS
330
47
102
}
330
47
100
AcDbScale
 70
     0
300
1:10
140
1.0
141
10.0
290
     0
  0
SCALE
  5
4E
102
{ACAD_REACTORS
330
47
102
}
330
47
100
AcDbScale
 70
     0
300
1:16
140
1.0
141
16.0
290
     0
  0
SCALE
  5
4F
102
{ACAD_REACTORS
330
47
102
}
330
47
100
AcDbScale
 70
     0
300
1:20
140
1.0
141
20.0
290
     0
  0
SCALE
  5
50
102
{ACAD_REACTORS
330
47
102
}
330
47
100
AcDbScale
 70
     0
300
1:30
140
1.0
141
30.0
290
     0
  0
SCALE
  5
51
102
{ACAD_REACTORS
330
47
102
}
330
47
100
AcDbScale
 70
     0
300
1:40
140
1.0
141
40.0
290
     0
  0
SCALE
  5
52
102
{ACAD_REACTORS
330
47
102
}
330
47
100
AcDbScale
 70
     0
300
1:50
140
1.0
141
50.0
290
     0
  0
SCALE
  5
53
102
{ACAD_REACTORS
330
47
102
}
330
47
100
AcDbScale
 70
     0
300
1:100
140
1.0
141
100.0
290
     0
  0
SCALE
  5
54
102
{ACAD_REACTORS
330
47
102
}
330
47
100
AcDbScale
 70
     0
300
2:1
140
2.0
141
1.0
290
     0
  0
SCALE
  5
55
102
{ACAD_REACTORS
330
47
102
}
330
47
100
AcDbScale
 70
     0
300
4:1
140
4.0
141
1.0
290
     0
  0
SCALE
  5
56
102
{ACAD_REACTORS
330
47
102
}
330
47
100
AcDbScale
 70
     0
300
8:1
140
8.0
141
1.0
290
     0
  0
SCALE
  5
57
102
{ACAD_REACTORS
330
47
102
}
330
47
100
AcDbScale
 70
     0
300
10:1
140
10.0
141
1.0
290
     0
  0
SCALE
  5
58
102
{ACAD_REACTORS
330
47
102
}
330
47
100
AcDbScale
 70
     0
300
100:1
140
100.0
141
1.0
290
     0
  0
SCALE
  5
59
102
{ACAD_REACTORS
330
47
102
}
330
47
100
AcDbScale
 70
     0
300
1/128" = 1'-0"
140
0.0078125
141
12.0
290
     0
  0
SCALE
  5
5A
102
{ACAD_REACTORS
330
47
102
}
330
47
100
AcDbScale
 70
     0
300
1/64" = 1'-0"
140
0.015625
141
12.0
290
     0
  0
SCALE
  5
5B
102
{ACAD_REACTORS
330
47
102
}
330
47
100
AcDbScale
 70
     0
300
1/32" = 1'-0"
140
0.03125
141
12.0
290
     0
  0
SCALE
  5
5C
102
{ACAD_REACTORS
330
47
102
}
330
47
100
AcDbScale
 70
     0
300
1/16" = 1'-0"
140
0.0625
141
12.0
290
     0
  0
SCALE
  5
5D
102
{ACAD_REACTORS
330
47
102
}
330
47
100
AcDbScale
 70
     0
300
3/32" = 1'-0"
140
0.09375
141
12.0
290
     0
  0
SCALE
  5
5E
102
{ACAD_REACTORS
330
47
102
}
330
47
100
AcDbScale
 70
     0
300
1/8" = 1'-0"
140
0.125
141
12.0
290
     0
  0
SCALE
  5
5F
102
{ACAD_REACTORS
330
47
102
}
330
47
100
AcDbScale
 70
     0
300
3/16" = 1'-0"
140
0.1875
141
12.0
290
     0
  0
SCALE
  5
60
102
{ACAD_REACTORS
330
47
102
}
330
47
100
AcDbScale
 70
     0
300
1/4" = 1'-0"
140
0.25
141
12.0
290
     0
  0
SCALE
  5
61
102
{ACAD_REACTORS
330
47
102
}
330
47
100
AcDbScale
 70
     0
300
3/8" = 1'-0"
140
0.375
141
12.0
290
     0
  0
SCALE
  5
62
102
{ACAD_REACTORS
330
47
102
}
330
47
100
AcDbScale
 70
     0
300
1/2" = 1'-0"
140
0.5
141
12.0
290
     0
  0
SCALE
  5
63
102
{ACAD_REACTORS
330
47
102
}
330
47
100
AcDbScale
 70
     0
300
3/4" = 1'-0"
140
0.75
141
12.0
290
     0
  0
SCALE
  5
64
102
{ACAD_REACTORS
330
47
102
}
330
47
100
AcDbScale
 70
     0
300
1" = 1'-0"
140
1.0
141
12.0
290
     0
  0
SCALE
  5
65
102
{ACAD_REACTORS
330
47
102
}
330
47
100
AcDbScale
 70
     0
300
1-1/2" = 1'-0"
140
1.5
141
12.0
290
     0
  0
SCALE
  5
66
102
{ACAD_REACTORS
330
47
102
}
330
47
100
AcDbScale
 70
     0
300
3" = 1'-0"
140
3.0
141
12.0
290
     0
  0
SCALE
  5
67
102
{ACAD_REACTORS
330
47
102
}
330
47
100
AcDbScale
 70
     0
300
6" = 1'-0"
140
6.0
141
12.0
290
     0
  0
SCALE
  5
68
102
{ACAD_REACTORS
330
47
102
}
330
47
100
AcDbScale
 70
     0
300
1'-0" = 1'-0"
140
12.0
141
12.0
290
     0
  0
TABLESTYLE
  5
6A
102
{ACAD_REACTORS
330
69
102
}
102
{ACAD_XDICTIONARY
360
205
102
}
330
69
100
AcDbTableStyle
  3
Standard
 70
     0
 71
     0
 40
0.06
 41
0.06
280
     0
281
     0
  7
Standard
140
0.18
170
     2
 62
     0
 63
   257
283
     0
 90
        4
 91
        0
  1

274
    -2
284
     1
 64
     0
275
    -2
285
     1
 65
     0
276
    -2
286
     1
 66
     0
277
    -2
287
     1
 67
     0
278
    -2
288
     1
 68
     0
279
    -2
289
     1
 69
     0
  7
Standard
140
0.25
170
     5
 62
     0
 63
   257
283
     0
 90
        4
 91
        0
  1

274
    -2
284
     1
 64
     0
275
    -2
285
     1
 65
     0
276
    -2
286
     1
 66
     0
277
    -2
287
     1
 67
     0
278
    -2
288
     1
 68
     0
279
    -2
289
     1
 69
     0
  7
Standard
140
0.18
170
     5
 62
     0
 63
   257
283
     0
 90
        4
 91
        0
  1

274
    -2
284
     1
 64
     0
275
    -2
285
     1
 65
     0
276
    -2
286
     1
 66
     0
277
    -2
287
     1
 67
     0
278
    -2
288
     1
 68
     0
279
    -2
289
     1
 69
     0
  0
VISUALSTYLE
  5
2F
102
{ACAD_REACTORS
330
2A
102
}
330
2A
100
AcDbVisualStyle
  2
2dWireframe
 70
     4
177
     3
291
     0
 70
    58
 90
        0
176
     1
 90
        2
176
     1
 90
        0
176
     1
 90
        0
176
     1
 40
0.6
176
     1
 40
30.0
176
     1
 62
     7
420
 16777215
176
     1
 90
        1
176
     1
 90
        4
176
     1
 62
     7
176
     1
 62
   257
176
     1
 90
        1
176
     1
 90
        1
176
     1
 40
1.0
176
     1
 90
        0
176
     1
 62
   257
176
     1
 40
1.0
176
     1
 90
        1
176
     1
 90
        6
176
     1
 90
        2
176
     1
 62
     7
176
     1
 90
        5
176
     1
 90
        0
176
     1
 90
        0
176
     1
290
     0
176
     1
 90
        1
176
     1
 40
0.0
176
     1
 90
        0
176
     1
290
     1
176
     1
290
     1
176
     1
290
     0
176
     1
290
     0
176
     1
290
     0
176
     1
290
     0
176
     1
290
     0
176
     1
290
     0
176
     1
290
     0
176
     1
 90
       50
176
     1
 40
0.0
176
     1
 40
1.0
176
     1
 90
        0
176
     1
 62
    18
420
        0
176
     1
 90
       50
176
     1
 90
        3
176
     1
 62
     5
420
      255
176
     1
290
     0
176
     1
 90
       50
176
     1
 90
       50
176
     1
 90
       50
176
     1
290
     0
176
     1
 90
       50
176
     1
 62
   256
176
     0
 40
1.0
176
     0
 90
        2
176
     1
  1
strokes_ogs.tif
176
     1
290
     0
176
     1
 40
1.0
176
     1
 40
1.0
176
     1
  0
VISUALSTYLE
  5
32
102
{ACAD_REACTORS
330
2A
102
}
330
2A
100
AcDbVisualStyle
  2
Basic
 70
     7
177
     3
291
     1
 70
    58
 90
        1
176
     1
 90
        0
176
     1
 90
        1
176
     1
 90
        0
176
     1
 40
0.6
176
     1
 40
30.0
176
     1
 62
     7
420
 16777215
176
     1
 90
        0
176
     1
 90
        4
176
     1
 62
     7
176
     1
 62
   257
176
     1
 90
        1
176
     1
 90
        1
176
     1
 40
1.0
176
     1
 90
        8
176
     1
 62
     7
176
     1
 40
1.0
176
     1
 90
        1
176
     1
 90
        6
176
     1
 90
        2
176
     1
 62
     7
176
     1
 90
        5
176
     1
 90
        0
176
     1
 90
        0
176
     1
290
     0
176
     1
 90
        1
176
     1
 40
0.0
176
     1
 90
        0
176
     1
290
     0
176
     1
290
     1
176
     1
290
     1
176
     1
290
     0
176
     1
290
     0
176
     1
290
     0
176
     1
290
     0
176
     1
290
     0
176
     1
290
     0
176
     1
 90
       50
176
     1
 40
0.0
176
     1
 40
1.0
176
     1
 90
        0
176
     1
 62
    18
420
        0
176
     1
 90
       50
176
     1
 90
        3
176
     1
 62
     5
420
      255
176
     1
290
     0
176
     1
 90
       50
176
     1
 90
       50
176
     1
 90
       50
176
     1
290
     0
176
     1
 90
       50
176
     1
 62
   256
176
     0
 40
1.0
176
     0
 90
        2
176
     1
  1
strokes_ogs.tif
176
     1
290
     0
176
     1
 40
1.0
176
     1
 40
1.0
176
     1
  0
VISUALSTYLE
  5
36
102
{ACAD_REACTORS
330
2A
102
}
330
2A
100
AcDbVisualStyle
  2
Brighten
 70
    12
177
     3
291
     1
 70
    58
 90
        2
176
     1
 90
        2
176
     1
 90
        0
176
     1
 90
        0
176
     1
 40
0.6
176
     1
 40
30.0
176
     1
 62
     7
420
 16777215
176
     1
 90
        1
176
     1
 90
        4
176
     1
 62
     7
176
     1
 62
   257
176
     1
 90
        1
176
     1
 90
        1
176
     1
 40
1.0
176
     1
 90
        8
176
     1
 62
     7
176
     1
 40
1.0
176
     1
 90
        1
176
     1
 90
        6
176
     1
 90
        2
176
     1
 62
     7
176
     1
 90
        5
176
     1
 90
        0
176
     1
 90
        0
176
     1
290
     0
176
     1
 90
        1
176
     1
 40
50.0
176
     1
 90
        0
176
     1
290
     0
176
     1
290
     1
176
     1
290
     1
176
     1
290
     0
176
     1
290
     0
176
     1
290
     0
176
     1
290
     0
176
     1
290
     0
176
     1
290
     0
176
     1
 90
       50
176
     1
 40
0.0
176
     1
 40
1.0
176
     1
 90
        0
176
     1
 62
    18
420
        0
176
     1
 90
       50
176
     1
 90
        3
176
     1
 62
     5
420
      255
176
     1
290
     0
176
     1
 90
       50
176
     1
 90
       50
176
     1
 90
       50
176
     1
290
     0
176
     1
 90
       50
176
     1
 62
   256
176
     0
 40
1.0
176
     0
 90
        2
176
     1
  1
strokes_ogs.tif
176
     1
290
     0
176
     1
 40
1.0
176
     1
 40
1.0
176
     1
  0
VISUALSTYLE
  5
3A
102
{ACAD_REACTORS
330
2A
102
}
330
2A
100
AcDbVisualStyle
  2
ColorChange
 70
    16
177
     3
291
     1
 70
    58
 90
        2
176
     1
 90
        2
176
     1
 90
        3
176
     1
 90
        0
176
     1
 40
0.6
176
     1
 40
30.0
176
     1
 62
     8
420
  8421504
176
     1
 90
        1
176
     1
 90
        4
176
     1
 62
     7
176
     1
 62
   257
176
     1
 90
        1
176
     1
 90
        1
176
     1
 40
1.0
176
     1
 90
        8
176
     1
 62
     8
420
  8421504
176
     1
 40
1.0
176
     1
 90
        1
176
     1
 90
        6
176
     1
 90
        2
176
     1
 62
     7
176
     1
 90
        5
176
     1
 90
        0
176
     1
 90
        0
176
     1
290
     0
176
     1
 90
        1
176
     1
 40
0.0
176
     1
 90
        0
176
     1
290
     0
176
     1
290
     1
176
     1
290
     1
176
     1
290
     0
176
     1
290
     0
176
     1
290
     0
176
     1
290
     0
176
     1
290
     0
176
     1
290
     0
176
     1
 90
       50
176
     1
 40
0.0
176
     1
 40
1.0
176
     1
 90
        0
176
     1
 62
    18
420
        0
176
     1
 90
       50
176
     1
 90
        3
176
     1
 62
     5
420
      255
176
     1
290
     0
176
     1
 90
       50
176
     1
 90
       50
176
     1
 90
       50
176
     1
290
     0
176
     1
 90
       50
176
     1
 62
   256
176
     0
 40
1.0
176
     0
 90
        2
176
     1
  1
strokes_ogs.tif
176
     1
290
     0
176
     1
 40
1.0
176
     1
 40
1.0
176
     1
  0
VISUALSTYLE
  5
34
102
{ACAD_REACTORS
330
2A
102
}
330
2A
100
AcDbVisualStyle
  2
Conceptual
 70
     9
177
     3
291
     0
 70
    58
 90
        3
176
     1
 90
        2
176
     1
 90
        0
176
     1
 90
        0
176
     1
 40
0.6
176
     1
 40
30.0
176
     1
 62
     7
420
 16777215
176
     1
 90
        2
176
     1
 90
        2
176
     1
 62
     7
176
     1
 62
   257
176
     1
 90
        1
176
     1
 90
        1
176
     1
 40
179.0
176
     1
 90
        8
176
     1
 62
     7
176
     1
 40
1.0
176
     1
 90
        1
176
     1
 90
        6
176
     1
 90
        2
176
     1
 62
     7
176
     1
 90
        3
176
     1
 90
        0
176
     1
 90
        0
176
     1
290
     0
176
     1
 90
        1
176
     1
 40
0.0
176
     1
 90
        0
176
     1
290
     0
176
     1
290
     1
176
     1
290
     1
176
     1
290
     0
176
     1
290
     0
176
     1
290
     0
176
     1
290
     0
176
     1
290
     0
176
     1
290
     0
176
     1
 90
       50
176
     1
 40
0.0
176
     1
 40
1.0
176
     1
 90
        0
176
     1
 62
    18
420
        0
176
     1
 90
       50
176
     1
 90
        3
176
     1
 62
     5
420
      255
176
     1
290
     0
176
     1
 90
       50
176
     1
 90
       50
176
     1
 90
       50
176
     1
290
     0
176
     1
 90
       50
176
     1
 62
   256
176
     0
 40
1.0
176
     0
 90
        2
176
     1
  1
strokes_ogs.tif
176
     1
290
     0
176
     1
 40
1.0
176
     1
 40
1.0
176
     1
  0
VISUALSTYLE
  5
35
102
{ACAD_REACTORS
330
2A
102
}
330
2A
100
AcDbVisualStyle
  2
Dim
 70
    11
177
     3
291
     1
 70
    58
 90
        2
176
     1
 90
        2
176
     1
 90
        0
176
     1
 90
        0
176
     1
 40
0.6
176
     1
 40
30.0
176
     1
 62
     7
420
 16777215
176
     1
 90
        1
176
     1
 90
        4
176
     1
 62
     7
176
     1
 62
   257
176
     1
 90
        1
176
     1
 90
        1
176
     1
 40
1.0
176
     1
 90
        8
176
     1
 62
     7
176
     1
 40
1.0
176
     1
 90
        1
176
     1
 90
        6
176
     1
 90
        2
176
     1
 62
     7
176
     1
 90
        5
176
     1
 90
        0
176
     1
 90
        0
176
     1
290
     0
176
     1
 90
        1
176
     1
 40
-50.0
176
     1
 90
        0
176
     1
290
     0
176
     1
290
     1
176
     1
290
     1
176
     1
290
     0
176
     1
290
     0
176
     1
290
     0
176
     1
290
     0
176
     1
290
     0
176
     1
290
     0
176
     1
 90
       50
176
     1
 40
0.0
176
     1
 40
1.0
176
     1
 90
        0
176
     1
 62
    18
420
        0
176
     1
 90
       50
176
     1
 90
        3
176
     1
 62
     5
420
      255
176
     1
290
     0
176
     1
 90
       50
176
     1
 90
       50
176
     1
 90
       50
176
     1
290
     0
176
     1
 90
       50
176
     1
 62
   256
176
     0
 40
1.0
176
     0
 90
        2
176
     1
  1
strokes_ogs.tif
176
     1
290
     0
176
     1
 40
1.0
176
     1
 40
1.0
176
     1
  0
VISUALSTYLE
  5
3D
102
{ACAD_REACTORS
330
2A
102
}
330
2A
100
AcDbVisualStyle
  2
EdgeColorOff
 70
    22
177
     3
291
     1
 70
    58
 90
        2
176
     0
 90
        2
176
     0
 90
        0
176
     0
 90
        0
176
     0
 40
0.6
176
     0
 40
30.0
176
     0
 62
     7
420
 16777215
176
     0
 90
        1
176
     0
 90
        4
176
     0
 62
     7
176
     0
 62
   257
176
     0
 90
        1
176
     0
 90
        1
176
     0
 40
1.0
176
     0
 90
        8
176
     2
 62
     7
176
     0
 40
1.0
176
     0
 90
        1
176
     0
 90
        6
176
     0
 90
        2
176
     0
 62
     7
176
     0
 90
        5
176
     0
 90
        0
176
     0
 90
        0
176
     0
290
     0
176
     0
 90
        1
176
     0
 40
0.0
176
     0
 90
        0
176
     0
290
     0
176
     0
290
     1
176
     0
290
     1
176
     0
290
     0
176
     0
290
     0
176
     0
290
     0
176
     0
290
     0
176
     0
290
     0
176
     0
290
     0
176
     0
 90
       50
176
     0
 40
0.0
176
     0
 40
1.0
176
     0
 90
        0
176
     0
 62
    18
420
        0
176
     0
 90
       50
176
     0
 90
        3
176
     0
 62
     5
420
      255
176
     0
290
     0
176
     0
 90
       50
176
     0
 90
       50
176
     0
 90
       50
176
     0
290
     0
176
     0
 90
       50
176
     0
 62
   256
176
     0
 40
1.0
176
     0
 90
        2
176
     0
  1
strokes_ogs.tif
176
     0
290
     0
176
     0
 40
1.0
176
     0
 40
1.0
176
     0
  0
VISUALSTYLE
  5
39
102
{ACAD_REACTORS
330
2A
102
}
330
2A
100
AcDbVisualStyle
  2
Facepattern
 70
    15
177
     3
291
     1
 70
    58
 90
        2
176
     1
 90
        2
176
     1
 90
        0
176
     1
 90
        0
176
     1
 40
0.6
176
     1
 40
30.0
176
     1
 62
     7
420
 16777215
176
     1
 90
        1
176
     1
 90
        4
176
     1
 62
     7
176
     1
 62
   257
176
     1
 90
        1
176
     1
 90
        1
176
     1
 40
1.0
176
     1
 90
        8
176
     1
 62
     7
176
     1
 40
1.0
176
     1
 90
        1
176
     1
 90
        6
176
     1
 90
        2
176
     1
 62
     7
176
     1
 90
        5
176
     1
 90
        0
176
     1
 90
        0
176
     1
290
     0
176
     1
 90
        1
176
     1
 40
0.0
176
     1
 90
        0
176
     1
290
     0
176
     1
290
     1
176
     1
290
     1
176
     1
290
     0
176
     1
290
     0
176
     1
290
     0
176
     1
290
     0
176
     1
290
     0
176
     1
290
     0
176
     1
 90
       50
176
     1
 40
0.0
176
     1
 40
1.0
176
     1
 90
        0
176
     1
 62
    18
420
        0
176
     1
 90
       50
176
     1
 90
        3
176
     1
 62
     5
420
      255
176
     1
290
     0
176
     1
 90
       50
176
     1
 90
       50
176
     1
 90
       50
176
     1
290
     0
176
     1
 90
       50
176
     1
 62
   256
176
     0
 40
1.0
176
     0
 90
        2
176
     1
  1
strokes_ogs.tif
176
     1
290
     0
176
     1
 40
1.0
176
     1
 40
1.0
176
     1
  0
VISUALSTYLE
  5
2B
102
{ACAD_REACTORS
330
2A
102
}
330
2A
100
AcDbVisualStyle
  2
Flat
 70
     0
177
     3
291
     1
 70
    58
 90
        2
176
     1
 90
        1
176
     1
 90
        1
176
     1
 90
        2
176
     1
 40
0.6
176
     1
 40
30.0
176
     1
 62
     7
420
 16777215
176
     1
 90
        0
176
     1
 90
        0
176
     1
 62
     7
176
     1
 62
   257
176
     1
 90
        1
176
     1
 90
        1
176
     1
 40
1.0
176
     1
 90
        8
176
     1
 62
     7
176
     1
 40
1.0
176
     1
 90
        1
176
     1
 90
        6
176
     1
 90
        2
176
     1
 62
     7
176
     1
 90
        5
176
     1
 90
        0
176
     1
 90
        0
176
     1
290
     0
176
     1
 90
       13
176
     1
 40
0.0
176
     1
 90
        0
176
     1
290
     0
176
     1
290
     1
176
     1
290
     1
176
     1
290
     0
176
     1
290
     0
176
     1
290
     0
176
     1
290
     0
176
     1
290
     0
176
     1
290
     0
176
     1
 90
       50
176
     1
 40
0.0
176
     1
 40
1.0
176
     1
 90
        0
176
     1
 62
    18
420
        0
176
     1
 90
       50
176
     1
 90
        3
176
     1
 62
     5
420
      255
176
     1
290
     0
176
     1
 90
       50
176
     1
 90
       50
176
     1
 90
       50
176
     1
290
     0
176
     1
 90
       50
176
     1
 62
   256
176
     0
 40
1.0
176
     0
 90
        2
176
     1
  1
strokes_ogs.tif
176
     1
290
     0
176
     1
 40
1.0
176
     1
 40
1.0
176
     1
  0
VISUALSTYLE
  5
2C
102
{ACAD_REACTORS
330
2A
102
}
330
2A
100
AcDbVisualStyle
  2
FlatWithEdges
 70
     1
177
     3
291
     1
 70
    58
 90
        2
176
     1
 90
        1
176
     1
 90
        1
176
     1
 90
        2
176
     1
 40
0.6
176
     1
 40
30.0
176
     1
 62
     7
420
 16777215
176
     1
 90
        1
176
     1
 90
        0
176
     1
 62
     7
176
     1
 62
   257
176
     1
 90
        1
176
     1
 90
        1
176
     1
 40
1.0
176
     1
 90
        0
176
     1
 62
   257
176
     1
 40
1.0
176
     1
 90
        1
176
     1
 90
        6
176
     1
 90
        2
176
     1
 62
     7
176
     1
 90
        5
176
     1
 90
        0
176
     1
 90
        0
176
     1
290
     0
176
     1
 90
       13
176
     1
 40
0.0
176
     1
 90
        0
176
     1
290
     0
176
     1
290
     1
176
     1
290
     1
176
     1
290
     0
176
     1
290
     0
176
     1
290
     0
176
     1
290
     0
176
     1
290
     0
176
     1
290
     0
176
     1
 90
       50
176
     1
 40
0.0
176
     1
 40
1.0
176
     1
 90
        0
176
     1
 62
    18
420
        0
176
     1
 90
       50
176
     1
 90
        3
176
     1
 62
     5
420
      255
176
     1
290
     0
176
     1
 90
       50
176
     1
 90
       50
176
     1
 90
       50
176
     1
290
     0
176
     1
 90
       50
176
     1
 62
   256
176
     0
 40
1.0
176
     0
 90
        2
176
     1
  1
strokes_ogs.tif
176
     1
290
     0
176
     1
 40
1.0
176
     1
 40
1.0
176
     1
  0
VISUALSTYLE
  5
2D
102
{ACAD_REACTORS
330
2A
102
}
330
2A
100
AcDbVisualStyle
  2
Gouraud
 70
     2
177
     3
291
     1
 70
    58
 90
        2
176
     1
 90
        2
176
     1
 90
        1
176
     1
 90
        2
176
     1
 40
0.6
176
     1
 40
30.0
176
     1
 62
     7
420
 16777215
176
     1
 90
        0
176
     1
 90
        0
176
     1
 62
     7
176
     1
 62
   257
176
     1
 90
        1
176
     1
 90
        1
176
     1
 40
1.0
176
     1
 90
        0
176
     1
 62
     7
176
     1
 40
1.0
176
     1
 90
        1
176
     1
 90
        6
176
     1
 90
        2
176
     1
 62
     7
176
     1
 90
        5
176
     1
 90
        0
176
     1
 90
        0
176
     1
290
     0
176
     1
 90
       13
176
     1
 40
0.0
176
     1
 90
        0
176
     1
290
     0
176
     1
290
     1
176
     1
290
     1
176
     1
290
     0
176
     1
290
     0
176
     1
290
     0
176
     1
290
     0
176
     1
290
     0
176
     1
290
     0
176
     1
 90
       50
176
     1
 40
0.0
176
     1
 40
1.0
176
     1
 90
        0
176
     1
 62
    18
420
        0
176
     1
 90
       50
176
     1
 90
        3
176
     1
 62
     5
420
      255
176
     1
290
     0
176
     1
 90
       50
176
     1
 90
       50
176
     1
 90
       50
176
     1
290
     0
176
     1
 90
       50
176
     1
 62
   256
176
     0
 40
1.0
176
     0
 90
        2
176
     1
  1
strokes_ogs.tif
176
     1
290
     0
176
     1
 40
1.0
176
     1
 40
1.0
176
     1
  0
VISUALSTYLE
  5
2E
102
{ACAD_REACTORS
330
2A
102
}
330
2A
100
AcDbVisualStyle
  2
GouraudWithEdges
 70
     3
177
     3
291
     1
 70
    58
 90
        2
176
     1
 90
        2
176
     1
 90
        1
176
     1
 90
        2
176
     1
 40
0.6
176
     1
 40
30.0
176
     1
 62
     7
420
 16777215
176
     1
 90
        1
176
     1
 90
        0
176
     1
 62
     7
176
     1
 62
   257
176
     1
 90
        1
176
     1
 90
        1
176
     1
 40
1.0
176
     1
 90
        0
176
     1
 62
   257
176
     1
 40
1.0
176
     1
 90
        1
176
     1
 90
        6
176
     1
 90
        2
176
     1
 62
     7
176
     1
 90
        5
176
     1
 90
        0
176
     1
 90
        0
176
     1
290
     0
176
     1
 90
       13
176
     1
 40
0.0
176
     1
 90
        0
176
     1
290
     0
176
     1
290
     1
176
     1
290
     1
176
     1
290
     0
176
     1
290
     0
176
     1
290
     0
176
     1
290
     0
176
     1
290
     0
176
     1
290
     0
176
     1
 90
       50
176
     1
 40
0.0
176
     1
 40
1.0
176
     1
 90
        0
176
     1
 62
    18
420
        0
176
     1
 90
       50
176
     1
 90
        3
176
     1
 62
     5
420
      255
176
     1
290
     0
176
     1
 90
       50
176
     1
 90
       50
176
     1
 90
       50
176
     1
290
     0
176
     1
 90
       50
176
     1
 62
   256
176
     0
 40
1.0
176
     0
 90
        2
176
     1
  1
strokes_ogs.tif
176
     1
290
     0
176
     1
 40
1.0
176
     1
 40
1.0
176
     1
  0
VISUALSTYLE
  5
31
102
{ACAD_REACTORS
330
2A
102
}
330
2A
100
AcDbVisualStyle
  2
Hidden
 70
     6
177
     3
291
     0
 70
    58
 90
        1
176
     1
 90
        2
176
     1
 90
        2
176
     1
 90
        0
176
     1
 40
0.6
176
     1
 40
30.0
176
     1
 62
     7
420
 16777215
176
     1
 90
        2
176
     1
 90
        2
176
     1
 62
     7
176
     1
 62
   257
176
     1
 90
        2
176
     1
 90
        1
176
     1
 40
40.0
176
     1
 90
        0
176
     1
 62
   257
176
     1
 40
1.0
176
     1
 90
        1
176
     1
 90
        6
176
     1
 90
        2
176
     1
 62
     7
176
     1
 90
        3
176
     1
 90
        0
176
     1
 90
        0
176
     1
290
     0
176
     1
 90
        1
176
     1
 40
0.0
176
     1
 90
        0
176
     1
290
     0
176
     1
290
     1
176
     1
290
     1
176
     1
290
     0
176
     1
290
     0
176
     1
290
     0
176
     1
290
     0
176
     1
290
     0
176
     1
290
     0
176
     1
 90
       50
176
     1
 40
0.0
176
     1
 40
1.0
176
     1
 90
        0
176
     1
 62
    18
420
        0
176
     1
 90
       50
176
     1
 90
        3
176
     1
 62
     5
420
      255
176
     1
290
     0
176
     1
 90
       50
176
     1
 90
       50
176
     1
 90
       50
176
     1
290
     0
176
     1
 90
       50
176
     1
 62
   256
176
     0
 40
1.0
176
     0
 90
        2
176
     1
  1
strokes_ogs.tif
176
     1
290
     0
176
     1
 40
1.0
176
     1
 40
1.0
176
     1
  0
VISUALSTYLE
  5
3B
102
{ACAD_REACTORS
330
2A
102
}
330
2A
100
AcDbVisualStyle
  2
JitterOff
 70
    20
177
     3
291
     1
 70
    58
 90
        2
176
     0
 90
        2
176
     0
 90
        0
176
     0
 90
        0
176
     0
 40
0.6
176
     0
 40
30.0
176
     0
 62
     7
420
 16777215
176
     0
 90
        1
176
     0
 90
        4
176
     0
 62
     7
176
     0
 62
   257
176
     0
 90
        1
176
     0
 90
        1
176
     0
 40
1.0
176
     0
 90
       10
176
     2
 62
     7
176
     0
 40
1.0
176
     0
 90
        1
176
     0
 90
        6
176
     0
 90
        2
176
     0
 62
     7
176
     0
 90
        5
176
     0
 90
        0
176
     0
 90
        0
176
     0
290
     0
176
     0
 90
        1
176
     0
 40
0.0
176
     0
 90
        0
176
     0
290
     0
176
     0
290
     1
176
     0
290
     1
176
     0
290
     0
176
     0
290
     0
176
     0
290
     0
176
     0
290
     0
176
     0
290
     0
176
     0
290
     0
176
     0
 90
       50
176
     0
 40
0.0
176
     0
 40
1.0
176
     0
 90
        0
176
     0
 62
    18
420
        0
176
     0
 90
       50
176
     0
 90
        3
176
     0
 62
     5
420
      255
176
     0
290
     0
176
     0
 90
       50
176
     0
 90
       50
176
     0
 90
       50
176
     0
290
     0
176
     0
 90
       50
176
     0
 62
   256
176
     0
 40
1.0
176
     0
 90
        2
176
     0
  1
strokes_ogs.tif
176
     0
290
     0
176
     0
 40
1.0
176
     0
 40
1.0
176
     0
  0
VISUALSTYLE
  5
38
102
{ACAD_REACTORS
330
2A
102
}
330
2A
100
AcDbVisualStyle
  2
Linepattern
 70
    14
177
     3
291
     1
 70
    58
 90
        2
176
     1
 90
        2
176
     1
 90
        0
176
     1
 90
        0
176
     1
 40
0.6
176
     1
 40
30.0
176
     1
 62
     7
420
 16777215
176
     1
 90
        1
176
     1
 90
        4
176
     1
 62
     7
176
     1
 62
   257
176
     1
 90
        7
176
     1
 90
        7
176
     1
 40
1.0
176
     1
 90
        8
176
     1
 62
     7
176
     1
 40
1.0
176
     1
 90
        1
176
     1
 90
        6
176
     1
 90
        2
176
     1
 62
     7
176
     1
 90
        5
176
     1
 90
        0
176
     1
 90
        0
176
     1
290
     0
176
     1
 90
        1
176
     1
 40
0.0
176
     1
 90
        0
176
     1
290
     0
176
     1
290
     1
176
     1
290
     1
176
     1
290
     0
176
     1
290
     0
176
     1
290
     0
176
     1
290
     0
176
     1
290
     0
176
     1
290
     0
176
     1
 90
       50
176
     1
 40
0.0
176
     1
 40
1.0
176
     1
 90
        0
176
     1
 62
    18
420
        0
176
     1
 90
       50
176
     1
 90
        3
176
     1
 62
     5
420
      255
176
     1
290
     0
176
     1
 90
       50
176
     1
 90
       50
176
     1
 90
       50
176
     1
290
     0
176
     1
 90
       50
176
     1
 62
   256
176
     0
 40
1.0
176
     0
 90
        2
176
     1
  1
strokes_ogs.tif
176
     1
290
     0
176
     1
 40
1.0
176
     1
 40
1.0
176
     1
  0
VISUALSTYLE
  5
3C
102
{ACAD_REACTORS
330
2A
102
}
330
2A
100
AcDbVisualStyle
  2
OverhangOff
 70
    21
177
     3
291
     1
 70
    58
 90
        2
176
     0
 90
        2
176
     0
 90
        0
176
     0
 90
        0
176
     0
 40
0.6
176
     0
 40
30.0
176
     0
 62
     7
420
 16777215
176
     0
 90
        1
176
     0
 90
        4
176
     0
 62
     7
176
     0
 62
   257
176
     0
 90
        1
176
     0
 90
        1
176
     0
 40
1.0
176
     0
 90
        9
176
     2
 62
     7
176
     0
 40
1.0
176
     0
 90
        1
176
     0
 90
        6
176
     0
 90
        2
176
     0
 62
     7
176
     0
 90
        5
176
     0
 90
        0
176
     0
 90
        0
176
     0
290
     0
176
     0
 90
        1
176
     0
 40
0.0
176
     0
 90
        0
176
     0
290
     0
176
     0
290
     1
176
     0
290
     1
176
     0
290
     0
176
     0
290
     0
176
     0
290
     0
176
     0
290
     0
176
     0
290
     0
176
     0
290
     0
176
     0
 90
       50
176
     0
 40
0.0
176
     0
 40
1.0
176
     0
 90
        0
176
     0
 62
    18
420
        0
176
     0
 90
       50
176
     0
 90
        3
176
     0
 62
     5
420
      255
176
     0
290
     0
176
     0
 90
       50
176
     0
 90
       50
176
     0
 90
       50
176
     0
290
     0
176
     0
 90
       50
176
     0
 62
   256
176
     0
 40
1.0
176
     0
 90
        2
176
     0
  1
strokes_ogs.tif
176
     0
290
     0
176
     0
 40
1.0
176
     0
 40
1.0
176
     0
  0
VISUALSTYLE
  5
33
102
{ACAD_REACTORS
330
2A
102
}
330
2A
100
AcDbVisualStyle
  2
Realistic
 70
     8
177
     3
291
     0
 70
    58
 90
        2
176
     1
 90
        3
176
     1
 90
        0
176
     1
 90
        2
176
     1
 40
0.6
176
     1
 40
30.0
176
     1
 62
     7
420
 16777215
176
     1
 90
        0
176
     1
 90
        0
176
     1
 62
     7
176
     1
 62
   257
176
     1
 90
        1
176
     1
 90
        1
176
     1
 40
1.0
176
     1
 90
        8
176
     1
 62
   257
176
     1
 40
1.0
176
     1
 90
        1
176
     1
 90
        6
176
     1
 90
        2
176
     1
 62
     7
176
     1
 90
        3
176
     1
 90
        0
176
     1
 90
        0
176
     1
290
     0
176
     1
 90
       13
176
     1
 40
0.0
176
     1
 90
        0
176
     1
290
     0
176
     1
290
     1
176
     1
290
     1
176
     1
290
     0
176
     1
290
     0
176
     1
290
     0
176
     1
290
     0
176
     1
290
     0
176
     1
290
     0
176
     1
 90
       50
176
     1
 40
0.0
176
     1
 40
1.0
176
     1
 90
        0
176
     1
 62
    18
420
        0
176
     1
 90
       50
176
     1
 90
        3
176
     1
 62
     5
420
      255
176
     1
290
     0
176
     1
 90
       50
176
     1
 90
       50
176
     1
 90
       50
176
     1
290
     0
176
     1
 90
       50
176
     1
 62
   256
176
     0
 40
1.0
176
     0
 90
        2
176
     1
  1
strokes_ogs.tif
176
     1
290
     0
176
     1
 40
1.0
176
     1
 40
1.0
176
     1
  0
VISUALSTYLE
  5
42
102
{ACAD_REACTORS
330
2A
102
}
330
2A
100
AcDbVisualStyle
  2
Shaded
 70
    27
177
     3
291
     0
 70
    58
 90
        2
176
     1
 90
        2
176
     1
 90
        1
176
     1
 90
        2
176
     1
 40
0.6
176
     1
 40
30.0
176
     1
 62
     7
420
 16777215
176
     1
 90
        0
176
     1
 90
        4
176
     1
 62
     7
176
     1
 62
   257
176
     1
 90
        1
176
     1
 90
        1
176
     1
 40
1.0
176
     1
 90
        8
176
     1
 62
   257
176
     1
 40
1.0
176
     1
 90
        1
176
     1
 90
        6
176
     1
 90
        2
176
     1
 62
     8
420
  7895160
176
     1
 90
        3
176
     1
 90
        0
176
     1
 90
        0
176
     1
290
     0
176
     1
 90
        5
176
     1
 40
0.0
176
     1
 90
        0
176
     1
290
     0
176
     1
290
     1
176
     1
290
     1
176
     1
290
     0
176
     1
290
     0
176
     1
290
     0
176
     1
290
     0
176
     1
290
     0
176
     1
290
     0
176
     1
 90
       50
176
     1
 40
0.0
176
     1
 40
1.0
176
     1
 90
        0
176
     1
 62
    18
420
        0
176
     1
 90
       50
176
     1
 90
        3
176
     1
 62
     5
420
      255
176
     1
290
     0
176
     1
 90
       50
176
     1
 90
       50
176
     1
 90
       50
176
     1
290
     0
176
     1
 90
       50
176
     1
 62
   256
176
     0
 40
1.0
176
     0
 90
        2
176
     1
  1
strokes_ogs.tif
176
     1
290
     0
176
     1
 40
1.0
176
     1
 40
1.0
176
     1
  0
VISUALSTYLE
  5
41
102
{ACAD_REACTORS
330
2A
102
}
330
2A
100
AcDbVisualStyle
  2
Shaded with edges
 70
    26
177
     3
291
     0
 70
    58
 90
        2
176
     1
 90
        2
176
     1
 90
        1
176
     1
 90
        2
176
     1
 40
0.6
176
     1
 40
30.0
176
     1
 62
     7
420
 16777215
176
     1
 90
        1
176
     1
 90
       10
176
     1
 62
     7
176
     1
 62
   257
176
     1
 90
        2
176
     1
 90
        1
176
     1
 40
1.0
176
     1
 90
        8
176
     1
 62
   257
176
     1
 40
1.0
176
     1
 90
        1
176
     1
 90
        6
176
     1
 90
        2
176
     1
 62
     7
176
     1
 90
        3
176
     1
 90
        0
176
     1
 90
        0
176
     1
290
     0
176
     1
 90
        5
176
     1
 40
0.0
176
     1
 90
        0
176
     1
290
     0
176
     1
290
     1
176
     1
290
     1
176
     1
290
     0
176
     1
290
     0
176
     1
290
     0
176
     1
290
     0
176
     1
290
     0
176
     1
290
     0
176
     1
 90
       50
176
     1
 40
0.0
176
     1
 40
1.0
176
     1
 90
        0
176
     1
 62
    18
420
        0
176
     1
 90
       50
176
     1
 90
        3
176
     1
 62
     5
420
      255
176
     1
290
     0
176
     1
 90
       50
176
     1
 90
       50
176
     1
 90
       50
176
     1
290
     0
176
     1
 90
       50
176
     1
 62
   256
176
     0
 40
1.0
176
     0
 90
        2
176
     1
  1
strokes_ogs.tif
176
     1
290
     0
176
     1
 40
1.0
176
     1
 40
1.0
176
     1
  0
VISUALSTYLE
  5
3E
102
{ACAD_REACTORS
330
2A
102
}
330
2A
100
AcDbVisualStyle
  2
Shades of Gray
 70
    23
177
     3
291
     0
 70
    58
 90
        2
176
     1
 90
        2
176
     1
 90
        3
176
     1
 90
        0
176
     1
 40
0.6
176
     1
 40
30.0
176
     1
 62
     7
420
 16777215
176
     1
 90
        2
176
     1
 90
        2
176
     1
 62
     7
176
     1
 62
     7
176
     1
 90
        1
176
     1
 90
        1
176
     1
 40
40.0
176
     1
 90
        8
176
     1
 62
     7
176
     1
 40
1.0
176
     1
 90
        1
176
     1
 90
        6
176
     1
 90
        2
176
     1
 62
     7
176
     1
 90
        3
176
     1
 90
        0
176
     1
 90
        0
176
     1
290
     0
176
     1
 90
        1
176
     1
 40
0.0
176
     1
 90
        0
176
     1
290
     0
176
     1
290
     1
176
     1
290
     1
176
     1
290
     0
176
     1
290
     0
176
     1
290
     0
176
     1
290
     0
176
     1
290
     0
176
     1
290
     0
176
     1
 90
       50
176
     1
 40
0.0
176
     1
 40
1.0
176
     1
 90
        0
176
     1
 62
    18
420
        0
176
     1
 90
       50
176
     1
 90
        3
176
     1
 62
     5
420
      255
176
     1
290
     0
176
     1
 90
       50
176
     1
 90
       50
176
     1
 90
       50
176
     1
290
     0
176
     1
 90
       50
176
     1
 62
   256
176
     0
 40
1.0
176
     0
 90
        2
176
     1
  1
strokes_ogs.tif
176
     1
290
     0
176
     1
 40
1.0
176
     1
 40
1.0
176
     1
  0
VISUALSTYLE
  5
3F
102
{ACAD_REACTORS
330
2A
102
}
330
2A
100
AcDbVisualStyle
  2
Sketchy
 70
    24
177
     3
291
     0
 70
    58
 90
        1
176
     1
 90
        2
176
     1
 90
        2
176
     1
 90
        0
176
     1
 40
0.6
176
     1
 40
30.0
176
     1
 62
     7
420
 16777215
176
     1
 90
        2
176
     1
 90
        2
176
     1
 62
     7
176
     1
 62
     7
176
     1
 90
        1
176
     1
 90
        1
176
     1
 40
40.0
176
     1
 90
       11
176
     1
 62
     7
176
     1
 40
1.0
176
     1
 90
        1
176
     1
 90
        6
176
     1
 90
        2
176
     1
 62
     7
176
     1
 90
        6
176
     1
 90
        0
176
     1
 90
        0
176
     1
290
     0
176
     1
 90
        1
176
     1
 40
0.0
176
     1
 90
        0
176
     1
290
     0
176
     1
290
     1
176
     1
290
     1
176
     1
290
     0
176
     1
290
     0
176
     1
290
     0
176
     1
290
     0
176
     1
290
     0
176
     1
290
     0
176
     1
 90
       50
176
     1
 40
0.0
176
     1
 40
1.0
176
     1
 90
        0
176
     1
 62
    18
420
        0
176
     1
 90
       50
176
     1
 90
        3
176
     1
 62
     5
420
      255
176
     1
290
     0
176
     1
 90
       50
176
     1
 90
       50
176
     1
 90
       50
176
     1
290
     0
176
     1
 90
       50
176
     1
 62
   256
176
     0
 40
1.0
176
     0
 90
        2
176
     1
  1
strokes_ogs.tif
176
     1
290
     0
176
     1
 40
1.0
176
     1
 40
1.0
176
     1
  0
VISUALSTYLE
  5
37
102
{ACAD_REACTORS
330
2A
102
}
330
2A
100
AcDbVisualStyle
  2
Thicken
 70
    13
177
     3
291
     1
 70
    58
 90
        2
176
     1
 90
        2
176
     1
 90
        0
176
     1
 90
        0
176
     1
 40
0.6
176
     1
 40
30.0
176
     1
 62
     7
420
 16777215
176
     1
 90
        1
176
     1
 90
        4
176
     1
 62
     7
176
     1
 62
   257
176
     1
 90
        1
176
     1
 90
        1
176
     1
 40
1.0
176
     1
 90
       12
176
     1
 62
     7
176
     1
 40
1.0
176
     1
 90
        1
176
     1
 90
        6
176
     1
 90
        2
176
     1
 62
     7
176
     1
 90
        5
176
     1
 90
        0
176
     1
 90
        0
176
     1
290
     0
176
     1
 90
        1
176
     1
 40
0.0
176
     1
 90
        0
176
     1
290
     0
176
     1
290
     1
176
     1
290
     1
176
     1
290
     0
176
     1
290
     0
176
     1
290
     0
176
     1
290
     0
176
     1
290
     0
176
     1
290
     0
176
     1
 90
       50
176
     1
 40
0.0
176
     1
 40
1.0
176
     1
 90
        0
176
     1
 62
    18
420
        0
176
     1
 90
       50
176
     1
 90
        3
176
     1
 62
     5
420
      255
176
     1
290
     0
176
     1
 90
       50
176
     1
 90
       50
176
     1
 90
       50
176
     1
290
     0
176
     1
 90
       50
176
     1
 62
   256
176
     0
 40
1.0
176
     0
 90
        2
176
     1
  1
strokes_ogs.tif
176
     1
290
     0
176
     1
 40
1.0
176
     1
 40
1.0
176
     1
  0
VISUALSTYLE
  5
30
102
{ACAD_REACTORS
330
2A
102
}
330
2A
100
AcDbVisualStyle
  2
Wireframe
 70
     5
177
     3
291
     0
 70
    58
 90
        0
176
     1
 90
        2
176
     1
 90
        0
176
     1
 90
        0
176
     1
 40
0.6
176
     1
 40
30.0
176
     1
 62
     7
420
 16777215
176
     1
 90
        1
176
     1
 90
        4
176
     1
 62
     7
176
     1
 62
   257
176
     1
 90
        1
176
     1
 90
        1
176
     1
 40
1.0
176
     1
 90
        0
176
     1
 62
   257
176
     1
 40
1.0
176
     1
 90
        1
176
     1
 90
        6
176
     1
 90
        2
176
     1
 62
     7
176
     1
 90
        3
176
     1
 90
        0
176
     1
 90
        0
176
     1
290
     0
176
     1
 90
        1
176
     1
 40
0.0
176
     1
 90
        0
176
     1
290
     0
176
     1
290
     1
176
     1
290
     1
176
     1
290
     0
176
     1
290
     0
176
     1
290
     0
176
     1
290
     0
176
     1
290
     0
176
     1
290
     0
176
     1
 90
       50
176
     1
 40
0.0
176
     1
 40
1.0
176
     1
 90
        0
176
     1
 62
    18
420
        0
176
     1
 90
       50
176
     1
 90
        3
176
     1
 62
     5
420
      255
176
     1
290
     0
176
     1
 90
       50
176
     1
 90
       50
176
     1
 90
       50
176
     1
290
     0
176
     1
 90
       50
176
     1
 62
   256
176
     0
 40
1.0
176
     0
 90
        2
176
     1
  1
strokes_ogs.tif
176
     1
290
     0
176
     1
 40
1.0
176
     1
 40
1.0
176
     1
  0
VISUALSTYLE
  5
40
102
{ACAD_REACTORS
330
2A
102
}
330
2A
100
AcDbVisualStyle
  2
X-Ray
 70
    25
177
     3
291
     0
 70
    58
 90
        2
176
     1
 90
        2
176
     1
 90
        1
176
     1
 90
        1
176
     1
 40
0.5
176
     1
 40
30.0
176
     1
 62
     7
420
 16777215
176
     1
 90
        1
176
     1
 90
        0
176
     1
 62
     7
176
     1
 62
   257
176
     1
 90
        1
176
     1
 90
        1
176
     1
 40
1.0
176
     1
 90
        8
176
     1
 62
     7
176
     1
 40
1.0
176
     1
 90
        1
176
     1
 90
        6
176
     1
 90
        2
176
     1
 62
     7
176
     1
 90
        3
176
     1
 90
        0
176
     1
 90
        0
176
     1
290
     0
176
     1
 90
       13
176
     1
 40
0.0
176
     1
 90
        0
176
     1
290
     0
176
     1
290
     1
176
     1
290
     1
176
     1
290
     0
176
     1
290
     0
176
     1
290
     0
176
     1
290
     0
176
     1
290
     0
176
     1
290
     0
176
     1
 90
       50
176
     1
 40
0.0
176
     1
 40
1.0
176
     1
 90
        0
176
     1
 62
    18
420
        0
176
     1
 90
       50
176
     1
 90
        3
176
     1
 62
     5
420
      255
176
     1
290
     0
176
     1
 90
       50
176
     1
 90
       50
176
     1
 90
       50
176
     1
290
     0
176
     1
 90
       50
176
     1
 62
   256
176
     0
 40
1.0
176
     0
 90
        2
176
     1
  1
strokes_ogs.tif
176
     1
290
     0
176
     1
 40
1.0
176
     1
 40
1.0
176
     1
  0
DICTIONARYVAR
  5
204
102
{ACAD_REACTORS
330
203
102
}
330
203
100
DictionaryVariables
280
     0
  1
1:1
  0
DICTIONARYVAR
  5
209
102
{ACAD_REACTORS
330
203
102
}
330
203
100
DictionaryVariables
280
     0
  1
Standard
  0
DICTIONARYVAR
  5
208
102
{ACAD_REACTORS
330
203
102
}
330
203
100
DictionaryVariables
280
     0
  1
Standard
  0
DICTIONARY
  5
205
330
6A
100
AcDbDictionary
280
     1
281
     1
  3
ACAD_ROUNDTRIP_2008_TABLESTYLE_CELLSTYLEMAP
360
206
  0
CELLSTYLEMAP
  5
206
102
{ACAD_REACTORS
330
205
102
}
330
205
100
AcDbCellStyleMap
 90
        3
300
CELLSTYLE
  1
TABLEFORMAT_BEGIN
 90
        5
170
     1
 91
        0
 92
    32768
 62
   257
 93
        1
300
CONTENTFORMAT
  1
CONTENTFORMAT_BEGIN
 90
        0
 91
        0
 92
        4
 93
        0
300

 40
0.0
140
1.0
 94
        5
 62
     0
340
11
144
0.25
309
CONTENTFORMAT_END
171
     1
301
MARGIN
  1
CELLMARGIN_BEGIN
 40
0.06
 40
0.06
 40
0.06
 40
0.06
 40
0.06
 40
0.06
309
CELLMARGIN_END
 94
        6
 95
        1
302
GRIDFORMAT
  1
GRIDFORMAT_BEGIN
 90
        0
 91
        1
 62
     0
 92
       -2
340
14
 93
        0
 40
0.045
309
GRIDFORMAT_END
 95
        2
302
GRIDFORMAT
  1
GRIDFORMAT_BEGIN
 90
        0
 91
        1
 62
     0
 92
       -2
340
14
 93
        0
 40
0.045
309
GRIDFORMAT_END
 95
        4
302
GRIDFORMAT
  1
GRIDFORMAT_BEGIN
 90
        0
 91
        1
 62
     0
 92
       -2
340
14
 93
        0
 40
0.045
309
GRIDFORMAT_END
 95
        8
302
GRIDFORMAT
  1
GRIDFORMAT_BEGIN
 90
        0
 91
        1
 62
     0
 92
       -2
340
14
 93
        0
 40
0.045
309
GRIDFORMAT_END
 95
       16
302
GRIDFORMAT
  1
GRIDFORMAT_BEGIN
 90
        0
 91
        1
 62
     0
 92
       -2
340
14
 93
        0
 40
0.045
309
GRIDFORMAT_END
 95
       32
302
GRIDFORMAT
  1
GRIDFORMAT_BEGIN
 90
        0
 91
        1
 62
     0
 92
       -2
340
14
 93
        0
 40
0.045
309
GRIDFORMAT_END
309
TABLEFORMAT_END
  1
CELLSTYLE_BEGIN
 90
        1
 91
        1
300
_TITLE
309
CELLSTYLE_END
300
CELLSTYLE
  1
TABLEFORMAT_BEGIN
 90
        5
170
     1
 91
        0
 92
        0
 62
   257
 93
        1
300
CONTENTFORMAT
  1
CONTENTFORMAT_BEGIN
 90
        0
 91
        0
 92
        4
 93
        0
300

 40
0.0
140
1.0
 94
        5
 62
     0
340
11
144
0.18
309
CONTENTFORMAT_END
171
     1
301
MARGIN
  1
CELLMARGIN_BEGIN
 40
0.06
 40
0.06
 40
0.06
 40
0.06
 40
0.06
 40
0.06
309
CELLMARGIN_END
 94
        6
 95
        1
302
GRIDFORMAT
  1
GRIDFORMAT_BEGIN
 90
        0
 91
        1
 62
     0
 92
       -2
340
14
 93
        0
 40
0.045
309
GRIDFORMAT_END
 95
        2
302
GRIDFORMAT
  1
GRIDFORMAT_BEGIN
 90
        0
 91
        1
 62
     0
 92
       -2
340
14
 93
        0
 40
0.045
309
GRIDFORMAT_END
 95
        4
302
GRIDFORMAT
  1
GRIDFORMAT_BEGIN
 90
        0
 91
        1
 62
     0
 92
       -2
340
14
 93
        0
 40
0.045
309
GRIDFORMAT_END
 95
        8
302
GRIDFORMAT
  1
GRIDFORMAT_BEGIN
 90
        0
 91
        1
 62
     0
 92
       -2
340
14
 93
        0
 40
0.045
309
GRIDFORMAT_END
 95
       16
302
GRIDFORMAT
  1
GRIDFORMAT_BEGIN
 90
        0
 91
        1
 62
     0
 92
       -2
340
14
 93
        0
 40
0.045
309
GRIDFORMAT_END
 95
       32
302
GRIDFORMAT
  1
GRIDFORMAT_BEGIN
 90
        0
 91
        1
 62
     0
 92
       -2
340
14
 93
        0
 40
0.045
309
GRIDFORMAT_END
309
TABLEFORMAT_END
  1
CELLSTYLE_BEGIN
 90
        2
 91
        1
300
_HEADER
309
CELLSTYLE_END
300
CELLSTYLE
  1
TABLEFORMAT_BEGIN
 90
        5
170
     1
 91
        0
 92
        0
 62
   257
 93
        1
300
CONTENTFORMAT
  1
CONTENTFORMAT_BEGIN
 90
        0
 91
        0
 92
        4
 93
        0
300

 40
0.0
140
1.0
 94
        2
 62
     0
340
11
144
0.18
309
CONTENTFORMAT_END
171
     1
301
MARGIN
  1
CELLMARGIN_BEGIN
 40
0.06
 40
0.06
 40
0.06
 40
0.06
 40
0.06
 40
0.06
309
CELLMARGIN_END
 94
        6
 95
        1
302
GRIDFORMAT
  1
GRIDFORMAT_BEGIN
 90
        0
 91
        1
 62
     0
 92
       -2
340
14
 93
        0
 40
0.045
309
GRIDFORMAT_END
 95
        2
302
GRIDFORMAT
  1
GRIDFORMAT_BEGIN
 90
        0
 91
        1
 62
     0
 92
       -2
340
14
 93
        0
 40
0.045
309
GRIDFORMAT_END
 95
        4
302
GRIDFORMAT
  1
GRIDFORMAT_BEGIN
 90
        0
 91
        1
 62
     0
 92
       -2
340
14
 93
        0
 40
0.045
309
GRIDFORMAT_END
 95
        8
302
GRIDFORMAT
  1
GRIDFORMAT_BEGIN
 90
        0
 91
        1
 62
     0
 92
       -2
340
14
 93
        0
 40
0.045
309
GRIDFORMAT_END
 95
       16
302
GRIDFORMAT
  1
GRIDFORMAT_BEGIN
 90
        0
 91
        1
 62
     0
 92
       -2
340
14
 93
        0
 40
0.045
309
GRIDFORMAT_END
 95
       32
302
GRIDFORMAT
  1
GRIDFORMAT_BEGIN
 90
        0
 91
        1
 62
     0
 92
       -2
340
14
 93
        0
 40
0.045
309
GRIDFORMAT_END
309
TABLEFORMAT_END
  1
CELLSTYLE_BEGIN
 90
        3
 91
        2
300
_DATA
309
CELLSTYLE_END
  0
ENDSEC
  0
EOF