0
SECTION
  2
HEADER
  9
$ACADVER
  1
AC1027
  9
$ACADMAINTVER
 70
     8
  9
$DWGCODEPAGE
  3
ANSI_1252
  9
$REQUIREDVERSIONS
160
                 0
  9
$COMMENTS
  1
File was created by Cadenas
  9
$CUSTOMPROPERTYTAG
  1
NN
  9
$CUSTOMPROPERTY
  1
S-2000 Pillow Block 4-Bolt Inch Bore (Contact Seal)
  9
$CUSTOMPROPERTYTAG
  1
NT
  9
$CUSTOMPROPERTY
  1
S-2000 Pillow Block Bearing -Inch (4-Bolt Base)
  9
$CUSTOMPROPERTYTAG
  1
NB
  9
$CUSTOMPROPERTY
  1
070373
  9
$CUSTOMPROPERTYTAG
  1
NBSYN
  9
$CUSTOMPROPERTY
  1
$PN.
  9
$CUSTOMPROPERTYTAG
  1
LINA
  9
$CUSTOMPROPERTY
  1
070373
  9
$CUSTOMPROPERTYTAG
  1
SS
  9
$CUSTOMPROPERTY
  1
3-15/16
  9
$CUSTOMPROPERTYTAG
  1
PN
  9
$CUSTOMPROPERTY
  1
070373
  9
$CUSTOMPROPERTYTAG
  1
DESCRIPTION
  9
$CUSTOMPROPERTY
  1
P4B-S2-315R
  9
$CUSTOMPROPERTYTAG
  1
EF
  9
$CUSTOMPROPERTY
  1
Non-Expansion Type
  9
$CUSTOMPROPERTYTAG
  1
ST
  9
$CUSTOMPROPERTY
  1
Contact Seal
  9
$CUSTOMPROPERTYTAG
  1
A
  9
$CUSTOMPROPERTY
  1
4-15/32
  9
$CUSTOMPROPERTYTAG
  1
B
  9
$CUSTOMPROPERTY
  1
15-1/4
  9
$CUSTOMPROPERTYTAG
  1
C
  9
$CUSTOMPROPERTY
  1
4-1/2
  9
$CUSTOMPROPERTYTAG
  1
DMIN
  9
$CUSTOMPROPERTY
  1
12-1/8
  9
$CUSTOMPROPERTYTAG
  1
DMAX
  9
$CUSTOMPROPERTY
  1
12-7/8
  9
$CUSTOMPROPERTYTAG
  1
E
  9
$CUSTOMPROPERTY
  1
2-1/4
  9
$CUSTOMPROPERTYTAG
  1
F
  9
$CUSTOMPROPERTY
  1
3/4
  9
$CUSTOMPROPERTYTAG
  1
G
  9
$CUSTOMPROPERTY
  1
1-1/4
  9
$CUSTOMPROPERTYTAG
  1
H
  9
$CUSTOMPROPERTY
  1
2-7/16
  9
$CUSTOMPROPERTYTAG
  1
J
  9
$CUSTOMPROPERTY
  1
8-7/16
  9
$CUSTOMPROPERTYTAG
  1
L
  9
$CUSTOMPROPERTY
  1
6
  9
$CUSTOMPROPERTYTAG
  1
M
  9
$CUSTOMPROPERTY
  1
4-1/4
  9
$CUSTOMPROPERTYTAG
  1
R
  9
$CUSTOMPROPERTY
  1
1-41/64
  9
$CUSTOMPROPERTYTAG
  1
S
  9
$CUSTOMPROPERTY
  1
2-53/64
  9
$CUSTOMPROPERTYTAG
  1
X
  9
$CUSTOMPROPERTY
  1
5/16
  9
$CUSTOMPROPERTYTAG
  1
Y
  9
$CUSTOMPROPERTY
  1
0.025
  9
$CUSTOMPROPERTYTAG
  1
Z
  9
$CUSTOMPROPERTY
  1
4-1/2
  9
$CUSTOMPROPERTYTAG
  1
COMPANY
  9
$CUSTOMPROPERTY
  1
baldor
  9
$INSBASE
 10
0.0
 20
0.0
 30
0.0
  9
$EXTMIN
 10
1.000000000000000E+20
 20
1.000000000000000E+20
 30
1.000000000000000E+20
  9
$EXTMAX
 10
-1.000000000000000E+20
 20
-1.000000000000000E+20
 30
-1.000000000000000E+20
  9
$LIMMIN
 10
0.0
 20
0.0
  9
$LIMMAX
 10
12.0
 20
9.0
  9
$ORTHOMODE
 70
     0
  9
$REGENMODE
 70
     1
  9
$FILLMODE
 70
     1
  9
$QTEXTMODE
 70
     0
  9
$MIRRTEXT
 70
     1
  9
$LTSCALE
 40
1.0
  9
$ATTMODE
 70
     1
  9
$TEXTSIZE
 40
0.2
  9
$TRACEWID
 40
0.05
  9
$TEXTSTYLE
  7
Standard
  9
$CLAYER
  8
0
  9
$CELTYPE
  6
ByLayer
  9
$CECOLOR
 62
   256
  9
$CELTSCALE
 40
1.0
  9
$DISPSILH
 70
     0
  9
$DIMSCALE
 40
1.0
  9
$DIMASZ
 40
0.18
  9
$DIMEXO
 40
0.0625
  9
$DIMDLI
 40
0.38
  9
$DIMRND
 40
0.0
  9
$DIMDLE
 40
0.0
  9
$DIMEXE
 40
0.18
  9
$DIMTP
 40
0.0
  9
$DIMTM
 40
0.0
  9
$DIMTXT
 40
0.18
  9
$DIMCEN
 40
0.09
  9
$DIMTSZ
 40
0.0
  9
$DIMTOL
 70
     0
  9
$DIMLIM
 70
     0
  9
$DIMTIH
 70
     1
  9
$DIMTOH
 70
     1
  9
$DIMSE1
 70
     0
  9
$DIMSE2
 70
     0
  9
$DIMTAD
 70
     0
  9
$DIMZIN
 70
     0
  9
$DIMBLK
  1

  9
$DIMASO
 70
     1
  9
$DIMSHO
 70
     1
  9
$DIMPOST
  1

  9
$DIMAPOST
  1

  9
$DIMALT
 70
     0
  9
$DIMALTD
 70
     2
  9
$DIMALTF
 40
25.4
  9
$DIMLFAC
 40
1.0
  9
$DIMTOFL
 70
     0
  9
$DIMTVP
 40
0.0
  9
$DIMTIX
 70
     0
  9
$DIMSOXD
 70
     0
  9
$DIMSAH
 70
     0
  9
$DIMBLK1
  1

  9
$DIMBLK2
  1

  9
$DIMSTYLE
  2
Standard
  9
$DIMCLRD
 70
     0
  9
$DIMCLRE
 70
     0
  9
$DIMCLRT
 70
     0
  9
$DIMTFAC
 40
1.0
  9
$DIMGAP
 40
0.09
  9
$DIMJUST
 70
     0
  9
$DIMSD1
 70
     0
  9
$DIMSD2
 70
     0
  9
$DIMTOLJ
 70
     1
  9
$DIMTZIN
 70
     0
  9
$DIMALTZ
 70
     0
  9
$DIMALTTZ
 70
     0
  9
$DIMUPT
 70
     0
  9
$DIMDEC
 70
     4
  9
$DIMTDEC
 70
     4
  9
$DIMALTU
 70
     2
  9
$DIMALTTD
 70
     2
  9
$DIMTXSTY
  7
Standard
  9
$DIMAUNIT
 70
     0
  9
$DIMADEC
 70
     0
  9
$DIMALTRND
 40
0.0
  9
$DIMAZIN
 70
     0
  9
$DIMDSEP
 70
    46
  9
$DIMATFIT
 70
     3
  9
$DIMFRAC
 70
     0
  9
$DIMLDRBLK
  1

  9
$DIMLUNIT
 70
     2
  9
$DIMLWD
 70
    -2
  9
$DIMLWE
 70
    -2
  9
$DIMTMOVE
 70
     0
  9
$DIMFXL
 40
1.0
  9
$DIMFXLON
 70
     0
  9
$DIMJOGANG
 40
0.7853981633974483
  9
$DIMTFILL
 70
     0
  9
$DIMTFILLCLR
 70
     0
  9
$DIMARCSYM
 70
     0
  9
$DIMLTYPE
  6

  9
$DIMLTEX1
  6

  9
$DIMLTEX2
  6

  9
$DIMTXTDIRECTION
 70
     0
  9
$LUNITS
 70
     2
  9
$LUPREC
 70
     4
  9
$SKETCHINC
 40
0.1
  9
$FILLETRAD
 40
0.5
  9
$AUNITS
 70
     0
  9
$AUPREC
 70
     0
  9
$MENU
  1
.
  9
$ELEVATION
 40
0.0
  9
$PELEVATION
 40
0.0
  9
$THICKNESS
 40
0.0
  9
$LIMCHECK
 70
     0
  9
$CHAMFERA
 40
0.0
  9
$CHAMFERB
 40
0.0
  9
$CHAMFERC
 40
0.0
  9
$CHAMFERD
 40
0.0
  9
$SKPOLY
 70
     0
  9
$TDCREATE
 40
2458168.984175417
  9
$TDUCREATE
 40
2458168.94250875
  9
$TDUPDATE
 40
2458168.98417559
  9
$TDUUPDATE
 40
2458168.942508924
  9
$TDINDWG
 40
0.0000000116
  9
$TDUSRTIMER
 40
0.0000000116
  9
$USRTIMER
 70
     1
  9
$ANGBASE
 50
0.0
  9
$ANGDIR
 70
     0
  9
$PDMODE
 70
     0
  9
$PDSIZE
 40
0.0
  9
$PLINEWID
 40
0.0
  9
$SPLFRAME
 70
     0
  9
$SPLINETYPE
 70
     6
  9
$SPLINESEGS
 70
     8
  9
$HANDSEED
  5
20F
  9
$SURFTAB1
 70
     6
  9
$SURFTAB2
 70
     6
  9
$SURFTYPE
 70
     6
  9
$SURFU
 70
     6
  9
$SURFV
 70
     6
  9
$UCSBASE
  2

  9
$UCSNAME
  2

  9
$UCSORG
 10
0.0
 20
0.0
 30
0.0
  9
$UCSXDIR
 10
1.0
 20
0.0
 30
0.0
  9
$UCSYDIR
 10
0.0
 20
1.0
 30
0.0
  9
$UCSORTHOREF
  2

  9
$UCSORTHOVIEW
 70
     0
  9
$UCSORGTOP
 10
0.0
 20
0.0
 30
0.0
  9
$UCSORGBOTTOM
 10
0.0
 20
0.0
 30
0.0
  9
$UCSORGLEFT
 10
0.0
 20
0.0
 30
0.0
  9
$UCSORGRIGHT
 10
0.0
 20
0.0
 30
0.0
  9
$UCSORGFRONT
 10
0.0
 20
0.0
 30
0.0
  9
$UCSORGBACK
 10
0.0
 20
0.0
 30
0.0
  9
$PUCSBASE
  2

  9
$PUCSNAME
  2

  9
$PUCSORG
 10
0.0
 20
0.0
 30
0.0
  9
$PUCSXDIR
 10
1.0
 20
0.0
 30
0.0
  9
$PUCSYDIR
 10
0.0
 20
1.0
 30
0.0
  9
$PUCSORTHOREF
  2

  9
$PUCSORTHOVIEW
 70
     0
  9
$PUCSORGTOP
 10
0.0
 20
0.0
 30
0.0
  9
$PUCSORGBOTTOM
 10
0.0
 20
0.0
 30
0.0
  9
$PUCSORGLEFT
 10
0.0
 20
0.0
 30
0.0
  9
$PUCSORGRIGHT
 10
0.0
 20
0.0
 30
0.0
  9
$PUCSORGFRONT
 10
0.0
 20
0.0
 30
0.0
  9
$PUCSORGBACK
 10
0.0
 20
0.0
 30
0.0
  9
$USERI1
 70
     0
  9
$USERI2
 70
     0
  9
$USERI3
 70
     0
  9
$USERI4
 70
     0
  9
$USERI5
 70
     0
  9
$USERR1
 40
0.0
  9
$USERR2
 40
0.0
  9
$USERR3
 40
0.0
  9
$USERR4
 40
0.0
  9
$USERR5
 40
0.0
  9
$WORLDVIEW
 70
     1
  9
$SHADEDGE
 70
     3
  9
$SHADEDIF
 70
    70
  9
$TILEMODE
 70
     1
  9
$MAXACTVP
 70
    64
  9
$PINSBASE
 10
0.0
 20
0.0
 30
0.0
  9
$PLIMCHECK
 70
     0
  9
$PEXTMIN
 10
1.000000000000000E+20
 20
1.000000000000000E+20
 30
1.000000000000000E+20
  9
$PEXTMAX
 10
-1.000000000000000E+20
 20
-1.000000000000000E+20
 30
-1.000000000000000E+20
  9
$PLIMMIN
 10
0.0
 20
0.0
  9
$PLIMMAX
 10
12.0
 20
9.0
  9
$UNITMODE
 70
     0
  9
$VISRETAIN
 70
     1
  9
$PLINEGEN
 70
     0
  9
$PSLTSCALE
 70
     1
  9
$TREEDEPTH
 70
  3020
  9
$CMLSTYLE
  2
Standard
  9
$CMLJUST
 70
     0
  9
$CMLSCALE
 40
1.0
  9
$PROXYGRAPHICS
 70
     1
  9
$MEASUREMENT
 70
     0
  9
$CELWEIGHT
370
    -1
  9
$ENDCAPS
280
     0
  9
$JOINSTYLE
280
     0
  9
$LWDISPLAY
290
     0
  9
$INSUNITS
 70
     1
  9
$HYPERLINKBASE
  1

  9
$STYLESHEET
  1

  9
$XEDIT
290
     1
  9
$CEPSNTYPE
380
     0
  9
$PSTYLEMODE
290
     1
  9
$FINGERPRINTGUID
  2
{8214D906-B2CA-4097-8490-9326BC5D0C77}
  9
$VERSIONGUID
  2
{FAEB1C32-E019-11D5-929B-00C0DF256EC4}
  9
$EXTNAMES
290
     1
  9
$PSVPSCALE
 40
0.0
  9
$OLESTARTUP
290
     0
  9
$SORTENTS
280
   127
  9
$INDEXCTL
280
     0
  9
$HIDETEXT
280
     1
  9
$XCLIPFRAME
280
     2
  9
$HALOGAP
280
     0
  9
$OBSCOLOR
 70
   257
  9
$OBSLTYPE
280
     0
  9
$INTERSECTIONDISPLAY
280
     0
  9
$INTERSECTIONCOLOR
 70
   257
  9
$DIMASSOC
280
     2
  9
$PROJECTNAME
  1

  9
$CAMERADISPLAY
290
     0
  9
$LENSLENGTH
 40
50.0
  9
$CAMERAHEIGHT
 40
0.0
  9
$STEPSPERSEC
 40
2.0
  9
$STEPSIZE
 40
6.0
  9
$3DDWFPREC
 40
2.0
  9
$PSOLWIDTH
 40
0.25
  9
$PSOLHEIGHT
 40
4.0
  9
$LOFTANG1
 40
1.570796326794897
  9
$LOFTANG2
 40
1.570796326794897
  9
$LOFTMAG1
 40
0.0
  9
$LOFTMAG2
 40
0.0
  9
$LOFTPARAM
 70
     7
  9
$LOFTNORMALS
280
     1
  9
$LATITUDE
 40
37.795
  9
$LONGITUDE
 40
-122.394
  9
$NORTHDIRECTION
 40
0.0
  9
$TIMEZONE
 70
 -8000
  9
$LIGHTGLYPHDISPLAY
280
     1
  9
$TILEMODELIGHTSYNCH
280
     1
  9
$CMATERIAL
347
44
  9
$SOLIDHIST
280
     0
  9
$SHOWHIST
280
     1
  9
$DWFFRAME
280
     2
  9
$DGNFRAME
280
     2
  9
$REALWORLDSCALE
290
     1
  9
$INTERFERECOLOR
 62
   256
  9
$CSHADOW
280
     0
  9
$SHADOWPLANELOCATION
 40
0.0
  0
ENDSEC
  0
SECTION
  2
CLASSES
  0
CLASS
  1
ACDBDICTIONARYWDFLT
  2
AcDbDictionaryWithDefault
  3
ObjectDBX Classes
 90
        0
 91
        4
280
     0
281
     0
  0
CLASS
  1
VISUALSTYLE
  2
AcDbVisualStyle
  3
ObjectDBX Classes
 90
     4095
 91
        4
280
     0
281
     0
  0
CLASS
  1
MATERIAL
  2
AcDbMaterial
  3
ObjectDBX Classes
 90
     1153
 91
        4
280
     0
281
     0
  0
CLASS
  1
SCALE
  2
AcDbScale
  3
ObjectDBX Classes
 90
     1153
 91
        4
280
     0
281
     0
  0
CLASS
  1
TABLESTYLE
  2
AcDbTableStyle
  3
ObjectDBX Classes
 90
     4095
 91
        4
280
     0
281
     0
  0
CLASS
  1
MLEADERSTYLE
  2
AcDbMLeaderStyle
  3
ACDB_MLEADERSTYLE_CLASS
 90
     4095
 91
        4
280
     0
281
     0
  0
CLASS
  1
SUN
  2
AcDbSun
  3
SCENEOE
 90
     1153
 91
        4
280
     0
281
     0
  0
CLASS
  1
DICTIONARYVAR
  2
AcDbDictionaryVar
  3
ObjectDBX Classes
 90
        0
 91
        4
280
     0
281
     0
  0
CLASS
  1
CELLSTYLEMAP
  2
AcDbCellStyleMap
  3
ObjectDBX Classes
 90
     1152
 91
        4
280
     0
281
     0
  0
ENDSEC
  0
SECTION
  2
TABLES
  0
TABLE
  2
VPORT
  5
8
330
0
100
AcDbSymbolTable
 70
     1
  0
VPORT
  5
29
330
8
100
AcDbSymbolTableRecord
100
AcDbViewportTableRecord
  2
*Active
 70
     0
 10
0.0
 20
0.0
 11
1.0
 21
1.0
 12
0.0
 22
-0.1018593750000001
 13
0.0
 23
0.0
 14
0.5
 24
0.5
 15
0.5
 25
0.5
 16
0.0
 26
0.0
 36
1.0
 17
0.0
 27
0.0
 37
0.0
 40
6.018988125000001
 41
2.584321430273631
 42
50.0
 43
0.0
 44
0.0
 50
0.0
 51
0.0
 71
     0
 72
   100
 73
     1
 74
     3
 75
     0
 76
     0
 77
     0
 78
     0
281
     0
 65
     1
110
0.0
120
0.0
130
0.0
111
1.0
121
0.0
131
0.0
112
0.0
122
1.0
132
0.0
 79
     0
146
0.0
348
2F
 60
     3
 61
     5
292
     1
282
     1
141
0.0
142
0.0
 63
   250
361
6D
  0
ENDTAB
  0
TABLE
  2
LTYPE
  5
5
330
0
100
AcDbSymbolTable
 70
     3
  0
LTYPE
  5
14
330
5
100
AcDbSymbolTableRecord
100
AcDbLinetypeTableRecord
  2
ByBlock
 70
     0
  3

 72
    65
 73
     0
 40
0.0
  0
LTYPE
  5
15
330
5
100
AcDbSymbolTableRecord
100
AcDbLinetypeTableRecord
  2
ByLayer
 70
     0
  3

 72
    65
 73
     0
 40
0.0
  0
LTYPE
  5
16
330
5
100
AcDbSymbolTableRecord
100
AcDbLinetypeTableRecord
  2
Continuous
 70
     0
  3
Solid line
 72
    65
 73
     0
 40
0.0
  0
LTYPE
  5
A8
330
5
100
AcDbSymbolTableRecord
100
AcDbLinetypeTableRecord
  2
Dashed
 70
     0
  3

 72
    65
 73
     2
 40
2.0
 49
1.0
 74
     0
 49
-1.0
 74
     0
  0
LTYPE
  5
BC
330
5
100
AcDbSymbolTableRecord
100
AcDbLinetypeTableRecord
  2
Center
 70
     0
  3

 72
    65
 73
     4
 40
1.5
 49
0.45
 74
     0
 49
-0.5
 74
     0
 49
0.05
 74
     0
 49
-0.5
 74
     0
  0
ENDTAB
  0
TABLE
  2
LAYER
  5
2
330
0
100
AcDbSymbolTable
 70
     7
  0
LAYER
  5
10
330
2
100
AcDbSymbolTableRecord
100
AcDbLayerTableRecord
  2
0
 70
     0
 62
     7
  6
Continuous
370
    -3
390
F
347
46
348
0
  0
LAYER
  5
72
330
2
100
AcDbSymbolTableRecord
100
AcDbLayerTableRecord
  2
AM_6
 70
     0
 62
    -2
  6
Continuous
370
    35
390
F
347
46
348
0
  0
LAYER
  5
A9
330
2
100
AcDbSymbolTableRecord
100
AcDbLayerTableRecord
  2
AM_9
 70
     0
 62
     6
  6
Dashed
370
    25
390
F
347
46
348
0
  0
LAYER
  5
BD
330
2
100
AcDbSymbolTableRecord
100
AcDbLayerTableRecord
  2
AM_7
 70
     0
 62
     7
  6
Center
370
    25
390
F
347
46
348
0
  0
LAYER
  5
BF
330
2
100
AcDbSymbolTableRecord
100
AcDbLayerTableRecord
  2
AM_4
 70
     0
 62
     7
  6
Continuous
370
    50
390
F
347
46
348
0
  0
LAYER
  5
DD
330
2
100
AcDbSymbolTableRecord
100
AcDbLayerTableRecord
  2
AM_5
 70
     0
 62
     3
  6
Continuous
370
    25
390
F
347
46
348
0
  0
LAYER
  5
1FE
330
2
100
AcDbSymbolTableRecord
100
AcDbLayerTableRecord
  2
ConnectionPoints
 70
     0
 62
     7
  6
Continuous
370
    50
390
F
347
46
348
0
  0
ENDTAB
  0
TABLE
  2
STYLE
  5
3
330
0
100
AcDbSymbolTable
 70
     1
  0
STYLE
  5
11
330
3
100
AcDbSymbolTableRecord
100
AcDbTextStyleTableRecord
  2
Standard
 70
     0
 40
0.0
 41
1.0
 50
0.0
 71
     0
 42
0.2
  3
txt
  4

  0
ENDTAB
  0
TABLE
  2
VIEW
  5
6
330
0
100
AcDbSymbolTable
 70
     0
  0
ENDTAB
  0
TABLE
  2
UCS
  5
7
330
0
100
AcDbSymbolTable
 70
     0
  0
ENDTAB
  0
TABLE
  2
APPID
  5
9
330
0
100
AcDbSymbolTable
 70
     1
  0
APPID
  5
12
330
9
100
AcDbSymbolTableRecord
100
AcDbRegAppTableRecord
  2
ACAD
 70
     0
  0
ENDTAB
  0
TABLE
  2
DIMSTYLE
  5
A
330
0
100
AcDbSymbolTable
 70
     1
100
AcDbDimStyleTable
  0
DIMSTYLE
105
27
330
A
100
AcDbSymbolTableRecord
100
AcDbDimStyleTableRecord
  2
Standard
 70
     0
178
     0
340
11
  0
ENDTAB
  0
TABLE
  2
BLOCK_RECORD
  5
1
330
0
100
AcDbSymbolTable
 70
     6
  0
BLOCK_RECORD
  5
1F
330
1
100
AcDbSymbolTableRecord
100
AcDbBlockTableRecord
  2
*Model_Space
340
22
 70
     0
280
     1
281
     0
  0
BLOCK_RECORD
  5
1B
330
1
100
AcDbSymbolTableRecord
100
AcDbBlockTableRecord
  2
*Paper_Space
340
1E
 70
     0
280
     1
281
     0
  0
BLOCK_RECORD
  5
23
330
1
100
AcDbSymbolTableRecord
100
AcDbBlockTableRecord
  2
*Paper_Space0
340
26
 70
     0
280
     1
281
     0
  0
BLOCK_RECORD
  5
6E
330
1
100
AcDbSymbolTableRecord
100
AcDbBlockTableRecord
  2
1_070373_4
340
0
102
{BLKREFS
331
6F
102
}
 70
     0
280
     1
281
     0
  0
BLOCK_RECORD
  5
8F
330
1
100
AcDbSymbolTableRecord
100
AcDbBlockTableRecord
  2
2_3_15_16CS2i_0_in_070373_4
340
0
102
{BLKREFS
331
90
102
}
 70
     0
280
     1
281
     0
  0
BLOCK_RECORD
  5
DF
330
1
100
AcDbSymbolTableRecord
100
AcDbBlockTableRecord
  2
3_070013i_0_in_070373_4
340
0
102
{BLKREFS
331
E0
102
}
 70
     0
280
     1
281
     0
  0
BLOCK_RECORD
  5
131
330
1
100
AcDbSymbolTableRecord
100
AcDbBlockTableRecord
  2
4_405015E_Inch_0_in_070373_4
340
0
102
{BLKREFS
331
132
102
}
 70
     0
280
     1
281
     0
  0
BLOCK_RECORD
  5
170
330
1
100
AcDbSymbolTableRecord
100
AcDbBlockTableRecord
  2
5_070373H_0_in_070373_4
340
0
102
{BLKREFS
331
171
102
}
 70
     0
280
     1
281
     0
  0
ENDTAB
  0
ENDSEC
  0
SECTION
  2
BLOCKS
  0
BLOCK
  5
20
330
1F
100
AcDbEntity
  8
0
100
AcDbBlockBegin
  2
*Model_Space
 70
     0
 10
0.0
 20
0.0
 30
0.0
  3
*Model_Space
  1

  0
ENDBLK
  5
21
330
1F
100
AcDbEntity
  8
0
100
AcDbBlockEnd
  0
BLOCK
  5
1C
330
1B
100
AcDbEntity
 67
     1
  8
0
100
AcDbBlockBegin
  2
*Paper_Space
 70
     0
 10
0.0
 20
0.0
 30
0.0
  3
*Paper_Space
  1

  0
ENDBLK
  5
1D
330
1B
100
AcDbEntity
 67
     1
  8
0
100
AcDbBlockEnd
  0
BLOCK
  5
24
330
23
100
AcDbEntity
  8
0
100
AcDbBlockBegin
  2
*Paper_Space0
 70
     0
 10
0.0
 20
0.0
 30
0.0
  3
*Paper_Space0
  1

  0
ENDBLK
  5
25
330
23
100
AcDbEntity
  8
0
100
AcDbBlockEnd
  0
BLOCK
  5
70
330
6E
100
AcDbEntity
  8
0
100
AcDbBlockBegin
  2
1_070373_4
 70
     2
 10
0.0
 20
0.0
 30
0.0
  3
1_070373_4
  1

  0
ATTDEF
  5
73
330
6E
100
AcDbEntity
  8
AM_6
100
AcDbText
 10
12.625
 20
2.538461538461539
 30
0.0
 40
0.5
  1
S-2000 Pillow Block 4-Bolt Inch Bore (Contact Seal)
100
AcDbAttributeDefinition
  3

  2
NN
 70
     8
280
     0
  0
ATTDEF
  5
74
330
6E
100
AcDbEntity
  8
AM_6
100
AcDbText
 10
12.625
 20
2.038461538461539
 30
0.0
 40
0.5
  1
S-2000 Pillow Block Bearing -Inch (4-Bolt Base)
100
AcDbAttributeDefinition
  3

  2
NT
 70
     8
280
     0
  0
ATTDEF
  5
75
330
6E
100
AcDbEntity
  8
AM_6
100
AcDbText
 10
12.625
 20
1.538461538461539
 30
0.0
 40
0.5
  1
070373
100
AcDbAttributeDefinition
  3

  2
NB
 70
     8
280
     0
  0
ATTDEF
  5
76
330
6E
100
AcDbEntity
  8
AM_6
100
AcDbText
 10
12.625
 20
1.038461538461539
 30
0.0
 40
0.5
  1
$PN.
100
AcDbAttributeDefinition
  3

  2
NBSYN
 70
     8
280
     0
  0
ATTDEF
  5
77
330
6E
100
AcDbEntity
  8
AM_6
100
AcDbText
 10
12.625
 20
0.5384615384615388
 30
0.0
 40
0.5
  1
070373
100
AcDbAttributeDefinition
  3

  2
LINA
 70
     8
280
     0
  0
ATTDEF
  5
78
330
6E
100
AcDbEntity
  8
AM_6
100
AcDbText
 10
12.625
 20
0.0384615384615388
 30
0.0
 40
0.5
  1
3-15/16
100
AcDbAttributeDefinition
  3

  2
SS
 70
     8
280
     0
  0
ATTDEF
  5
79
330
6E
100
AcDbEntity
  8
AM_6
100
AcDbText
 10
12.625
 20
-0.4615384615384612
 30
0.0
 40
0.5
  1
070373
100
AcDbAttributeDefinition
  3

  2
PN
 70
     8
280
     0
  0
ATTDEF
  5
7A
330
6E
100
AcDbEntity
  8
AM_6
100
AcDbText
 10
12.625
 20
-0.9615384615384612
 30
0.0
 40
0.5
  1
P4B-S2-315R
100
AcDbAttributeDefinition
  3

  2
DESCRIPTION
 70
     8
280
     0
  0
ATTDEF
  5
7B
330
6E
100
AcDbEntity
  8
AM_6
100
AcDbText
 10
12.625
 20
-1.461538461538461
 30
0.0
 40
0.5
  1
Non-Expansion Type
100
AcDbAttributeDefinition
  3

  2
EF
 70
     8
280
     0
  0
ATTDEF
  5
7C
330
6E
100
AcDbEntity
  8
AM_6
100
AcDbText
 10
12.625
 20
-1.961538461538461
 30
0.0
 40
0.5
  1
Contact Seal
100
AcDbAttributeDefinition
  3

  2
ST
 70
     8
280
     0
  0
ATTDEF
  5
7D
330
6E
100
AcDbEntity
  8
AM_6
100
AcDbText
 10
12.625
 20
-2.461538461538461
 30
0.0
 40
0.5
  1
4-15/32
100
AcDbAttributeDefinition
  3

  2
A
 70
     8
280
     0
  0
ATTDEF
  5
7E
330
6E
100
AcDbEntity
  8
AM_6
100
AcDbText
 10
12.625
 20
-2.961538461538461
 30
0.0
 40
0.5
  1
15-1/4
100
AcDbAttributeDefinition
  3

  2
B
 70
     8
280
     0
  0
ATTDEF
  5
7F
330
6E
100
AcDbEntity
  8
AM_6
100
AcDbText
 10
12.625
 20
-3.461538461538461
 30
0.0
 40
0.5
  1
4-1/2
100
AcDbAttributeDefinition
  3

  2
C
 70
     8
280
     0
  0
ATTDEF
  5
80
330
6E
100
AcDbEntity
  8
AM_6
100
AcDbText
 10
12.625
 20
-3.961538461538461
 30
0.0
 40
0.5
  1
12-1/8
100
AcDbAttributeDefinition
  3

  2
DMIN
 70
     8
280
     0
  0
ATTDEF
  5
81
330
6E
100
AcDbEntity
  8
AM_6
100
AcDbText
 10
12.625
 20
-4.461538461538462
 30
0.0
 40
0.5
  1
12-7/8
100
AcDbAttributeDefinition
  3

  2
DMAX
 70
     8
280
     0
  0
ATTDEF
  5
82
330
6E
100
AcDbEntity
  8
AM_6
100
AcDbText
 10
12.625
 20
-4.961538461538462
 30
0.0
 40
0.5
  1
2-1/4
100
AcDbAttributeDefinition
  3

  2
E
 70
     8
280
     0
  0
ATTDEF
  5
83
330
6E
100
AcDbEntity
  8
AM_6
100
AcDbText
 10
12.625
 20
-5.461538461538462
 30
0.0
 40
0.5
  1
3/4
100
AcDbAttributeDefinition
  3

  2
F
 70
     8
280
     0
  0
ATTDEF
  5
84
330
6E
100
AcDbEntity
  8
AM_6
100
AcDbText
 10
12.625
 20
-5.961538461538462
 30
0.0
 40
0.5
  1
1-1/4
100
AcDbAttributeDefinition
  3

  2
G
 70
     8
280
     0
  0
ATTDEF
  5
85
330
6E
100
AcDbEntity
  8
AM_6
100
AcDbText
 10
12.625
 20
-6.461538461538462
 30
0.0
 40
0.5
  1
2-7/16
100
AcDbAttributeDefinition
  3

  2
H
 70
     8
280
     0
  0
ATTDEF
  5
86
330
6E
100
AcDbEntity
  8
AM_6
100
AcDbText
 10
12.625
 20
-6.961538461538462
 30
0.0
 40
0.5
  1
8-7/16
100
AcDbAttributeDefinition
  3

  2
J
 70
     8
280
     0
  0
ATTDEF
  5
87
330
6E
100
AcDbEntity
  8
AM_6
100
AcDbText
 10
12.625
 20
-7.461538461538462
 30
0.0
 40
0.5
  1
6
100
AcDbAttributeDefinition
  3

  2
L
 70
     8
280
     0
  0
ATTDEF
  5
88
330
6E
100
AcDbEntity
  8
AM_6
100
AcDbText
 10
12.625
 20
-7.961538461538462
 30
0.0
 40
0.5
  1
4-1/4
100
AcDbAttributeDefinition
  3

  2
M
 70
     8
280
     0
  0
ATTDEF
  5
89
330
6E
100
AcDbEntity
  8
AM_6
100
AcDbText
 10
12.625
 20
-8.461538461538462
 30
0.0
 40
0.5
  1
1-41/64
100
AcDbAttributeDefinition
  3

  2
R
 70
     8
280
     0
  0
ATTDEF
  5
8A
330
6E
100
AcDbEntity
  8
AM_6
100
AcDbText
 10
12.625
 20
-8.961538461538462
 30
0.0
 40
0.5
  1
2-53/64
100
AcDbAttributeDefinition
  3

  2
S
 70
     8
280
     0
  0
ATTDEF
  5
8B
330
6E
100
AcDbEntity
  8
AM_6
100
AcDbText
 10
12.625
 20
-9.461538461538462
 30
0.0
 40
0.5
  1
5/16
100
AcDbAttributeDefinition
  3

  2
X
 70
     8
280
     0
  0
ATTDEF
  5
8C
330
6E
100
AcDbEntity
  8
AM_6
100
AcDbText
 10
12.625
 20
-9.961538461538462
 30
0.0
 40
0.5
  1
0.025
100
AcDbAttributeDefinition
  3

  2
Y
 70
     8
280
     0
  0
ATTDEF
  5
8D
330
6E
100
AcDbEntity
  8
AM_6
100
AcDbText
 10
12.625
 20
-10.46153846153846
 30
0.0
 40
0.5
  1
4-1/2
100
AcDbAttributeDefinition
  3

  2
Z
 70
     8
280
     0
  0
ATTDEF
  5
8E
330
6E
100
AcDbEntity
  8
AM_6
100
AcDbText
 10
12.625
 20
-10.96153846153846
 30
0.0
 40
0.5
  1
baldor
100
AcDbAttributeDefinition
  3

  2
COMPANY
 70
     8
280
     0
  0
INSERT
  5
90
330
6E
100
AcDbEntity
  8
0
100
AcDbBlockReference
  2
2_3_15_16CS2i_0_in_070373_4
 10
0.0
 20
0.0
 30
0.0
  0
INSERT
  5
E0
330
6E
100
AcDbEntity
  8
0
100
AcDbBlockReference
  2
3_070013i_0_in_070373_4
 10
0.0
 20
0.0
 30
0.0
  0
INSERT
  5
132
330
6E
100
AcDbEntity
  8
0
100
AcDbBlockReference
  2
4_405015E_Inch_0_in_070373_4
 10
0.0
 20
0.0
 30
0.0
  0
INSERT
  5
171
330
6E
100
AcDbEntity
  8
0
100
AcDbBlockReference
  2
5_070373H_0_in_070373_4
 10
0.0
 20
0.0
 30
0.0
  0
ENDBLK
  5
71
330
6E
100
AcDbEntity
  8
0
100
AcDbBlockEnd
  0
BLOCK
  5
91
330
8F
100
AcDbEntity
  8
0
100
AcDbBlockBegin
  2
2_3_15_16CS2i_0_in_070373_4
 70
     2
 10
0.0
 20
0.0
 30
0.0
  3
2_3_15_16CS2i_0_in_070373_4
  1

  0
ATTDEF
  5
93
330
8F
100
AcDbEntity
  8
AM_6
100
AcDbText
 10
8.0
 20
-1.818125
 30
0.0
 40
0.5
  1
S-2000 Collar -Inch
100
AcDbAttributeDefinition
  3

  2
NN
 70
     8
280
     0
  0
ATTDEF
  5
94
330
8F
100
AcDbEntity
  8
AM_6
100
AcDbText
 10
8.0
 20
-2.318125
 30
0.0
 40
0.5
  1
S-2000 Bearings
100
AcDbAttributeDefinition
  3

  2
NT
 70
     8
280
     0
  0
ATTDEF
  5
95
330
8F
100
AcDbEntity
  8
AM_6
100
AcDbText
 10
8.0
 20
-2.818125
 30
0.0
 40
0.5
  1
3-15/16CS2i
100
AcDbAttributeDefinition
  3

  2
NB
 70
     8
280
     0
  0
ATTDEF
  5
96
330
8F
100
AcDbEntity
  8
AM_6
100
AcDbText
 10
8.0
 20
-3.318125
 30
0.0
 40
0.5
  1
$BORE.CS2i
100
AcDbAttributeDefinition
  3

  2
NBSYN
 70
     8
280
     0
  0
ATTDEF
  5
97
330
8F
100
AcDbEntity
  8
AM_6
100
AcDbText
 10
8.0
 20
-3.818125
 30
0.0
 40
0.5
  1
3-15/16CS2i
100
AcDbAttributeDefinition
  3

  2
LINA
 70
     8
280
     0
  0
ATTDEF
  5
98
330
8F
100
AcDbEntity
  8
AM_6
100
AcDbText
 10
8.0
 20
-4.318125
 30
0.0
 40
0.5
  1
3-15/16
100
AcDbAttributeDefinition
  3

  2
BORE
 70
     8
280
     0
  0
ATTDEF
  5
99
330
8F
100
AcDbEntity
  8
AM_6
100
AcDbText
 10
8.0
 20
-4.818125
 30
0.0
 40
0.5
  1
3.937500
100
AcDbAttributeDefinition
  3

  2
BORE1
 70
     8
280
     0
  0
ATTDEF
  5
9A
330
8F
100
AcDbEntity
  8
AM_6
100
AcDbText
 10
8.0
 20
-5.318125
 30
0.0
 40
0.5
  1
6
100
AcDbAttributeDefinition
  3

  2
L1
 70
     8
280
     0
  0
ATTDEF
  5
9B
330
8F
100
AcDbEntity
  8
AM_6
100
AcDbText
 10
8.0
 20
-5.818125
 30
0.0
 40
0.5
  1
6.00000
100
AcDbAttributeDefinition
  3

  2
L
 70
     8
280
     0
  0
ATTDEF
  5
9C
330
8F
100
AcDbEntity
  8
AM_6
100
AcDbText
 10
8.0
 20
-6.318125
 30
0.0
 40
0.5
  1
6.00000
100
AcDbAttributeDefinition
  3

  2
L2
 70
     8
280
     0
  0
ATTDEF
  5
9D
330
8F
100
AcDbEntity
  8
AM_6
100
AcDbText
 10
8.0
 20
-6.818125
 30
0.0
 40
0.5
  1
6.25
100
AcDbAttributeDefinition
  3

  2
A
 70
     8
280
     0
  0
ATTDEF
  5
9E
330
8F
100
AcDbEntity
  8
AM_6
100
AcDbText
 10
8.0
 20
-7.318125
 30
0.0
 40
0.5
  1
3.12
100
AcDbAttributeDefinition
  3

  2
B
 70
     8
280
     0
  0
ATTDEF
  5
9F
330
8F
100
AcDbEntity
  8
AM_6
100
AcDbText
 10
8.0
 20
-7.818125
 30
0.0
 40
0.5
  1
4.50
100
AcDbAttributeDefinition
  3

  2
C
 70
     8
280
     0
  0
ATTDEF
  5
A0
330
8F
100
AcDbEntity
  8
AM_6
100
AcDbText
 10
8.0
 20
-8.318125
 30
0.0
 40
0.5
  1
6.38
100
AcDbAttributeDefinition
  3

  2
D
 70
     8
280
     0
  0
ATTDEF
  5
A1
330
8F
100
AcDbEntity
  8
AM_6
100
AcDbText
 10
8.0
 20
-8.818125
 30
0.0
 40
0.5
  1
0.66
100
AcDbAttributeDefinition
  3

  2
E
 70
     8
280
     0
  0
ATTDEF
  5
A2
330
8F
100
AcDbEntity
  8
AM_6
100
AcDbText
 10
8.0
 20
-9.318125
 30
0.0
 40
0.5
  1
0.505
100
AcDbAttributeDefinition
  3

  2
F
 70
     8
280
     0
  0
ATTDEF
  5
A3
330
8F
100
AcDbEntity
  8
AM_6
100
AcDbText
 10
8.0
 20
-9.818125
 30
0.0
 40
0.5
  1
5/8-11
100
AcDbAttributeDefinition
  3

  2
CS
 70
     8
280
     0
  0
ATTDEF
  5
A4
330
8F
100
AcDbEntity
  8
AM_6
100
AcDbText
 10
8.0
 20
-10.318125
 30
0.0
 40
0.5
  1
0.6250
100
AcDbAttributeDefinition
  3

  2
NDM
 70
     8
280
     0
  0
ATTDEF
  5
A5
330
8F
100
AcDbEntity
  8
AM_6
100
AcDbText
 10
8.0
 20
-10.818125
 30
0.0
 40
0.5
  1
0.5270
100
AcDbAttributeDefinition
  3

  2
KDM
 70
     8
280
     0
  0
ATTDEF
  5
A6
330
8F
100
AcDbEntity
  8
AM_6
100
AcDbText
 10
8.0
 20
-11.318125
 30
0.0
 40
0.5
  1
2
100
AcDbAttributeDefinition
  3

  2
DD
 70
     8
280
     0
  0
ATTDEF
  5
A7
330
8F
100
AcDbEntity
  8
AM_6
100
AcDbText
 10
8.0
 20
-11.818125
 30
0.0
 40
0.5
  1
baldor
100
AcDbAttributeDefinition
  3

  2
COMPANY
 70
     8
280
     0
  0
LINE
  5
AA
330
8F
100
AcDbEntity
  8
AM_9
100
AcDbLine
 10
-2.09790860523088
 20
-2.556046134079552
 30
0.0
 11
-2.090010523318072
 21
-2.565897305702136
 31
0.0
  0
LINE
  5
AB
330
8F
100
AcDbEntity
  8
AM_9
100
AcDbLine
 10
-2.09007375881969
 20
-2.080431567090773
 30
0.0
 11
-2.09790860523088
 21
-2.090203865920448
 31
0.0
  0
LWPOLYLINE
  5
AC
330
8F
100
AcDbEntity
  8
AM_9
100
AcDbPolyline
 90
        5
 70
     0
 43
0.0
 10
-2.031288916724862
 20
-2.052850291845512
 10
-2.031394605856817
 20
-2.052835563360625
 10
-2.052838304806677
 20
-2.054044465138445
 10
-2.072676576287661
 20
-2.063567175541579
 10
-2.089981533701793
 20
-2.080316535938951
  0
LWPOLYLINE
  5
AD
330
8F
100
AcDbEntity
  8
AM_9
100
AcDbPolyline
 90
       22
 70
     0
 43
0.0
 10
-2.089981691871334
 20
-2.565933266778889
 10
-2.073169564031961
 20
-2.582326068495304
 10
-2.053746884821736
 20
-2.591959159892087
 10
-2.032763272717587
 20
-2.593587607440461
 10
-2.010323310485024
 20
-2.586743068610811
 10
-1.988154047994732
 20
-2.571771827757244
 10
-1.965989395886057
 20
-2.548125172924427
 10
-1.946351958637909
 20
-2.518276131989309
 10
-1.928589132796398
 20
-2.48071808984657
 10
-1.915350045533363
 20
-2.44095270580223
 10
-1.905609981472747
 20
-2.395768841859466
 10
-1.900820351081274
 20
-2.352826320489271
 10
-1.900132207928191
 20
-2.307564621316519
 10
-1.903370466244898
 20
-2.266245692678948
 10
-1.910388058324633
 20
-2.225373441284868
 10
-1.920534357908922
 20
-2.18793222837866
 10
-1.933791260752487
 20
-2.153146789540425
 10
-1.9498319610801
 20
-2.121944443424514
 10
-1.968116166296122
 20
-2.095438639702128
 10
-1.988378436291518
 20
-2.07428502859325
 10
-2.009742879236897
 20
-2.05979498964712
 10
-2.031288916724862
 20
-2.052850291845512
  0
LWPOLYLINE
  5
AE
330
8F
100
AcDbEntity
  8
AM_9
100
AcDbPolyline
 90
        4
 70
     0
 43
0.0
 10
-2.089981533701793
 20
-2.080316535938951
 10
-2.091167402921127
 20
-2.081821355065426
 10
-2.104386989741615
 20
-2.102530345489851
 10
-2.116145170315186
 20
-2.128860211364561
  0
LINE
  5
AF
330
8F
100
AcDbEntity
  8
AM_9
100
AcDbLine
 10
-2.046020039494807
 20
-2.059825
 30
0.0
 11
-2.674333017987747
 21
-2.059825
 31
0.0
  0
LINE
  5
B0
330
8F
100
AcDbEntity
  8
AM_9
100
AcDbLine
 10
-2.674333017987747
 20
-2.586425
 30
0.0
 11
-2.046020039494807
 21
-2.586425
 31
0.0
  0
LINE
  5
B1
330
8F
100
AcDbEntity
  8
AM_9
100
AcDbLine
 10
-2.622444452251672
 20
-2.09020386592045
 30
0.0
 11
-2.653418663984541
 21
-2.051570147123495
 31
0.0
  0
LINE
  5
B2
330
8F
100
AcDbEntity
  8
AM_9
100
AcDbLine
 10
-2.654793346057128
 20
-2.596394475385242
 30
0.0
 11
-2.622444452251672
 21
-2.55604613407955
 31
0.0
  0
ELLIPSE
  5
B3
330
8F
100
AcDbEntity
  8
AM_9
100
AcDbEllipse
 10
-2.674333017987746
 20
-2.323125000000008
 30
0.0
 11
1.612247511077543E-17
 21
0.2633000000000085
 31
0.0
210
0.0
220
0.0
230
1.0
 40
0.4226182617406943
 41
3.491074782333442
 42
5.942487659246759
  0
LWPOLYLINE
  5
B4
330
8F
100
AcDbEntity
  8
AM_9
100
AcDbPolyline
 90
        3
 70
     0
 43
0.0
 10
-2.097178858225613
 20
-2.555962700248295
 10
-2.090364483813966
 20
-2.565453153422487
 10
-2.089981691871334
 20
-2.565933266778889
  0
LWPOLYLINE
  5
B5
330
8F
100
AcDbEntity
  8
AM_9
100
AcDbPolyline
 90
       13
 70
     0
 43
0.0
 10
-2.116145170315186
 20
-2.128860211364561
 10
-2.125625505217487
 20
-2.158564735924682
 10
-2.133423410842157
 20
-2.192965353049987
 10
-2.139635963735514
 20
-2.234260796202667
 10
-2.143462075827083
 20
-2.279899836284429
 10
-2.144602866949908
 20
-2.322660921085055
 10
-2.143440562341229
 20
-2.366752155212641
 10
-2.140198413113936
 20
-2.406988902850181
 10
-2.134739441714002
 20
-2.446005977350694
 10
-2.127188561616894
 20
-2.481715902897188
 10
-2.117360887623854
 20
-2.514092199008948
 10
-2.105054119190362
 20
-2.542455235923445
 10
-2.097178858225613
 20
-2.555962700248295
  0
LWPOLYLINE
  5
B6
330
8F
100
AcDbEntity
  8
AM_9
100
AcDbPolyline
 90
       39
 70
     0
 43
0.0
 10
0.1938703118744629
 20
-2.122207972374701
 10
0.1608222830230702
 20
-2.098097826598441
 10
0.1239519686303262
 20
-2.078484313984088
 10
0.0780890341945334
 20
-2.062378261054201
 10
0.0288947699956691
 20
-2.053650839022779
 10
-0.0213182146142885
 20
-2.053030675973036
 10
-0.0723491015655274
 20
-2.060926822298492
 10
-0.1203044678683075
 20
-2.076890811161917
 10
-0.1661334341670259
 20
-2.101506185166672
 10
-0.205016739002424
 20
-2.132137108091877
 10
-0.2388908850873998
 20
-2.170375357517012
 10
-0.2632092227875849
 20
-2.210527801008145
 10
-0.2804385038247809
 20
-2.255920473323701
 10
-0.2883708637791359
 20
-2.298867185322314
 10
-0.2886794020329329
 20
-2.343945447616849
 10
-0.2818236116010893
 20
-2.385078936365339
 10
-0.2679032718614698
 20
-2.425617995204235
 10
-0.2479145035042433
 20
-2.462758543703656
 10
-0.221641255676652
 20
-2.497116935643686
 10
-0.1892942330739295
 20
-2.527826796669555
 10
-0.1515689590722257
 20
-2.553715758007778
 10
-0.1085483409521393
 20
-2.574110926567897
 10
-0.0615738178060728
 20
-2.587731347972985
 10
-0.0121315822681475
 20
-2.59371922739318
 10
0.0390256398414236
 20
-2.591473926536563
 10
0.088498876325297
 20
-2.580932654395756
 10
0.1368377956003033
 20
-2.561661016522359
 10
0.1794331858123518
 20
-2.535463027630897
 10
0.2179283638638966
 20
-2.50117001513362
 10
0.2474842227312753
 20
-2.463423141071972
 10
0.2704889406862722
 20
-2.419517751805567
 10
0.2837631343340037
 20
-2.376820328898885
 10
0.2894189645939441
 20
-2.3309618690661
 10
0.2872099722381273
 20
-2.288919757154366
 10
0.2776972540850463
 20
-2.24664668124918
 10
0.2619417462802831
 20
-2.207979463128269
 10
0.2396412663493755
 20
-2.171405229800551
 10
0.2184139757087103
 20
-2.145601018481636
 10
0.193870311874463
 20
-2.122207972374701
  0
LINE
  5
B7
330
8F
100
AcDbEntity
  8
AM_9
100
AcDbLine
 10
2.25
 20
-2.828125
 30
0.0
 11
2.25
 21
-1.818125
 31
0.0
  0
LINE
  5
B8
330
8F
100
AcDbEntity
  8
AM_9
100
AcDbLine
 10
-2.25
 20
-1.818125
 30
0.0
 11
-2.25
 21
-2.828125
 31
0.0
  0
LINE
  5
B9
330
8F
100
AcDbEntity
  8
AM_9
100
AcDbLine
 10
-2.65374695071967
 20
-2.052870141648021
 30
0.0
 11
-2.778672397794984
 21
-2.052870141648021
 31
0.0
  0
LINE
  5
BA
330
8F
100
AcDbEntity
  8
AM_9
100
AcDbLine
 10
0.1493562326913089
 20
-2.052870141648021
 30
0.0
 11
-0.1493562326913255
 21
-2.052870141648021
 31
0.0
  0
ELLIPSE
  5
BB
330
8F
100
AcDbEntity
  8
AM_9
100
AcDbEllipse
 10
-2.046020039494807
 20
-2.323125
 30
0.0
 11
1.612247511077491E-17
 21
0.2633000000000001
 31
0.0
210
0.0
220
0.0
230
1.0
 40
0.4226182617406978
 41
0.0
 42
6.283185307179586
  0
LINE
  5
BE
330
8F
100
AcDbEntity
  8
AM_7
100
AcDbLine
 10
-0.276465
 20
-2.323125
 30
0.0
 11
0.276465
 21
-2.323125
 31
0.0
  0
ELLIPSE
  5
C0
330
8F
100
AcDbEntity
  8
AM_4
100
AcDbEllipse
 10
-2.674333017987747
 20
-2.323125
 30
0.0
 11
1.612247511077491E-17
 21
0.2633000000000001
 31
0.0
210
0.0
220
0.0
230
1.0
 40
0.4226182617406995
 41
5.942487659246745
 42
9.774260089513024
  0
LWPOLYLINE
  5
C1
330
8F
100
AcDbEntity
  8
AM_4
100
AcDbPolyline
 90
       20
 70
     0
 43
0.0
 10
-2.654875321875844
 20
-2.596496722098557
 10
-2.674500909664865
 20
-2.616890676987254
 10
-2.696753146280653
 20
-2.630901987821323
 10
-2.717294336909843
 20
-2.635598821966354
 10
-2.737784268838571
 20
-2.63196811582029
 10
-2.756071313397392
 20
-2.620689123520329
 10
-2.773242896440979
 20
-2.601558449712219
 10
-2.788289287828025
 20
-2.575761571702578
 10
-2.801512906542085
 20
-2.543015687048852
 10
-2.812517023786697
 20
-2.504236639665393
 10
-2.821195633468779
 20
-2.459815320257429
 10
-2.827294190405781
 20
-2.410995814788354
 10
-2.830677371516832
 20
-2.358487284379947
 10
-2.831145397010778
 20
-2.304879997410897
 10
-2.82857357873125
 20
-2.250271941020062
 10
-2.823044174149146
 20
-2.198808372953395
 10
-2.814227074826813
 20
-2.149478573302442
 10
-2.805473554966384
 20
-2.115649516241088
 10
-2.794729050993865
 20
-2.084985745092534
 10
-2.778672397794984
 20
-2.052870141648021
  0
LINE
  5
C2
330
8F
100
AcDbEntity
  8
AM_4
100
AcDbLine
 10
-2.653369512741448
 20
-2.051631458903663
 30
0.0
 11
-2.652431054914698
 21
-2.052870141648009
 31
0.0
  0
CIRCLE
  5
C3
330
8F
100
AcDbEntity
  8
AM_4
100
AcDbCircle
 10
0.0
 20
-2.323125
 30
0.0
 40
0.2633
  0
LINE
  5
C4
330
8F
100
AcDbEntity
  8
AM_4
100
AcDbLine
 10
2.857142857142857
 20
-1.836771922183507
 30
0.0
 11
2.857142857142857
 21
-1.818125
 31
0.0
  0
LINE
  5
C5
330
8F
100
AcDbEntity
  8
AM_4
100
AcDbLine
 10
-2.857142857142857
 20
-1.818125
 30
0.0
 11
-2.857142857142857
 21
-1.836771922183507
 31
0.0
  0
LINE
  5
C6
330
8F
100
AcDbEntity
  8
AM_4
100
AcDbLine
 10
-2.857142857142857
 20
-1.818125
 30
0.0
 11
2.857142857142857
 21
-1.818125
 31
0.0
  0
LINE
  5
C7
330
8F
100
AcDbEntity
  8
AM_4
100
AcDbLine
 10
-2.857142857142857
 20
-1.836771922183507
 30
0.0
 11
-2.926829268292683
 21
-1.906458333333333
 31
0.0
  0
LINE
  5
C8
330
8F
100
AcDbEntity
  8
AM_4
100
AcDbLine
 10
2.926829268292683
 20
-1.906458333333333
 30
0.0
 11
2.857142857142857
 21
-1.836771922183507
 31
0.0
  0
LINE
  5
C9
330
8F
100
AcDbEntity
  8
AM_4
100
AcDbLine
 10
-2.857142857142857
 20
-1.836771922183507
 30
0.0
 11
2.857142857142857
 21
-1.836771922183507
 31
0.0
  0
LINE
  5
CA
330
8F
100
AcDbEntity
  8
AM_4
100
AcDbLine
 10
2.926829268292683
 20
-2.010625
 30
0.0
 11
2.926829268292683
 21
-1.906458333333333
 31
0.0
  0
LINE
  5
CB
330
8F
100
AcDbEntity
  8
AM_4
100
AcDbLine
 10
-2.926829268292683
 20
-1.906458333333333
 30
0.0
 11
-2.926829268292683
 21
-2.010625
 31
0.0
  0
LINE
  5
CC
330
8F
100
AcDbEntity
  8
AM_4
100
AcDbLine
 10
-2.926829268292683
 20
-1.906458333333333
 30
0.0
 11
2.926829268292683
 21
-1.906458333333333
 31
0.0
  0
LWPOLYLINE
  5
CD
330
8F
100
AcDbEntity
  8
AM_4
100
AcDbPolyline
 90
       33
 70
     0
 43
0.0
 10
0.1493562326913089
 20
-2.052870141648012
 10
0.1803309217469387
 20
-2.074577326167853
 10
0.2133107072611068
 20
-2.105256444297213
 10
0.2420165560904348
 20
-2.14127716784804
 10
0.2672516601294315
 20
-2.185573896834479
 10
0.2854945974614457
 20
-2.234666961948553
 10
0.2956527488741232
 20
-2.286635324910899
 10
0.2972020767335385
 20
-2.341050862772161
 10
0.2898053807376939
 20
-2.394516753063951
 10
0.2730698463332664
 20
-2.447465812245213
 10
0.2484164396791247
 20
-2.495207574901551
 10
0.2149004285129223
 20
-2.539265279055363
 10
0.176519328001054
 20
-2.574671500258515
 10
0.131079354486174
 20
-2.603646007225607
 10
0.0850296690807879
 20
-2.622581803293699
 10
0.0348061972151044
 20
-2.63347741295304
 10
-0.0127537568251617
 20
-2.635337505788837
 10
-0.0613496757909176
 20
-2.628903938395098
 10
-0.1061283005449501
 20
-2.615054684912907
 10
-0.1491847907735975
 20
-2.593484289742345
 10
-0.1879781789723729
 20
-2.565345507517167
 10
-0.2226470399412725
 20
-2.530446356389244
 10
-0.2518107246655221
 20
-2.48968714220744
 10
-0.2746534968121725
 20
-2.443566433730955
 10
-0.2900321849002998
 20
-2.393496357320157
 10
-0.2972503979998116
 20
-2.340146954526157
 10
-0.2956251387894155
 20
-2.286390130579194
 10
-0.2847742027257127
 20
-2.232148282560687
 10
-0.265446479641058
 20
-2.18177905828238
 10
-0.2369606395988469
 20
-2.134086344280545
 10
-0.2024261457221717
 20
-2.09409789705408
 10
-0.1601091678706964
 20
-2.059748133971536
 10
-0.1493562326913255
 20
-2.052870141648021
  0
LWPOLYLINE
  5
CE
330
8F
100
AcDbEntity
  8
AM_4
100
AcDbPolyline
 90
       15
 70
     0
 43
0.0
 10
-2.652431054914719
 20
-2.052870141647983
 10
-2.646781641482874
 20
-2.060609006632576
 10
-2.628845304769761
 20
-2.090789958800034
 10
-2.612685624169607
 20
-2.127553551198745
 10
-2.599093674042147
 20
-2.169992307863414
 10
-2.588646077725789
 20
-2.217526140104653
 10
-2.58204005396351
 20
-2.268567771813926
 10
-2.579693583163861
 20
-2.322506691648928
 10
-2.581915265906454
 20
-2.376220824239786
 10
-2.588861159196925
 20
-2.429952675890445
 10
-2.59988766319645
 20
-2.47917626479883
 10
-2.615220753464328
 20
-2.525245778962604
 10
-2.63291507099559
 20
-2.563141375650638
 10
-2.653697370733845
 20
-2.595011618165172
 10
-2.654875321875844
 20
-2.596496722098557
  0
LINE
  5
CF
330
8F
100
AcDbEntity
  8
AM_4
100
AcDbLine
 10
3.0
 20
-2.659791666666667
 30
0.0
 11
3.0
 21
-2.052870141648021
 31
0.0
  0
LINE
  5
D0
330
8F
100
AcDbEntity
  8
AM_4
100
AcDbLine
 10
-3.0
 20
-2.052870141648021
 30
0.0
 11
-3.0
 21
-2.659791666666667
 31
0.0
  0
LINE
  5
D1
330
8F
100
AcDbEntity
  8
AM_4
100
AcDbLine
 10
-2.831666666666667
 20
-2.828125
 30
0.0
 11
2.831666666666667
 21
-2.828125
 31
0.0
  0
ARC
  5
D2
330
8F
100
AcDbEntity
  8
AM_4
100
AcDbCircle
 10
2.831666666666666
 20
-2.659791666666667
 30
0.0
 40
0.1683333333333339
100
AcDbArc
 50
270.0
 51
0.0
  0
ARC
  5
D3
330
8F
100
AcDbEntity
  8
AM_4
100
AcDbCircle
 10
-2.831666666666666
 20
-2.659791666666667
 30
0.0
 40
0.1683333333333339
100
AcDbArc
 50
180.0
 51
270.0
  0
LINE
  5
D4
330
8F
100
AcDbEntity
  8
AM_4
100
AcDbLine
 10
-3.0
 20
-2.659791666666667
 30
0.0
 11
3.0
 21
-2.659791666666667
 31
0.0
  0
LWPOLYLINE
  5
D5
330
8F
100
AcDbEntity
  8
AM_4
100
AcDbPolyline
 90
        6
 70
     0
 43
0.0
 10
-2.778672397794984
 20
-2.052870141648021
 10
-2.732274882477905
 20
-2.04145641042474
 10
-2.711762944306529
 20
-2.038386417035385
 10
-2.693779627988369
 20
-2.037410354536923
 10
-2.668067872657386
 20
-2.041422327016094
 10
-2.653369512741448
 20
-2.051631458903663
  0
LINE
  5
D6
330
8F
100
AcDbEntity
  8
AM_4
100
AcDbLine
 10
-2.65243105491472
 20
-2.052870141647982
 30
0.0
 11
-0.1493562326913255
 21
-2.052870141648021
 31
0.0
  0
LWPOLYLINE
  5
D7
330
8F
100
AcDbEntity
  8
AM_4
100
AcDbPolyline
 90
        5
 70
     0
 43
0.0
 10
-0.1493562326913255
 20
-2.052870141648021
 10
-0.0760697940912174
 20
-2.041456410424741
 10
0.00206984099024
 20
-2.037410354536923
 10
0.0757478832551122
 20
-2.041422327016094
 10
0.1493562326913089
 20
-2.052870141648012
  0
LINE
  5
D8
330
8F
100
AcDbEntity
  8
AM_4
100
AcDbLine
 10
0.1493562326913089
 20
-2.052870141648012
 30
0.0
 11
3.0
 21
-2.052870141648021
 31
0.0
  0
LINE
  5
D9
330
8F
100
AcDbEntity
  8
AM_4
100
AcDbLine
 10
-2.926829268292683
 20
-2.010625
 30
0.0
 11
-2.999999999999999
 21
-2.052870141648021
 31
0.0
  0
LINE
  5
DA
330
8F
100
AcDbEntity
  8
AM_4
100
AcDbLine
 10
3.0
 20
-2.052870141648021
 30
0.0
 11
2.926829268292683
 21
-2.010625
 31
0.0
  0
LINE
  5
DB
330
8F
100
AcDbEntity
  8
AM_4
100
AcDbLine
 10
-2.999999999999999
 20
-2.052870141648021
 30
0.0
 11
-2.778672397794984
 21
-2.052870141648021
 31
0.0
  0
LINE
  5
DC
330
8F
100
AcDbEntity
  8
AM_4
100
AcDbLine
 10
-2.926829268292683
 20
-2.010625
 30
0.0
 11
2.926829268292683
 21
-2.010625
 31
0.0
  0
CIRCLE
  5
DE
330
8F
100
AcDbEntity
  8
AM_5
100
AcDbCircle
 10
0.0000000000000002
 20
-2.323125000000001
 30
0.0
 40
0.3124999999999997
  0
ENDBLK
  5
92
330
8F
100
AcDbEntity
  8
0
100
AcDbBlockEnd
  0
BLOCK
  5
E1
330
DF
100
AcDbEntity
  8
0
100
AcDbBlockBegin
  2
3_070013i_0_in_070373_4
 70
     2
 10
0.0
 20
0.0
 30
0.0
  3
3_070013i_0_in_070373_4
  1

  0
ATTDEF
  5
E3
330
DF
100
AcDbEntity
  8
AM_6
100
AcDbText
 10
8.5433
 20
1.65625
 30
0.0
 40
0.5
  1
S-2000 Insert -Inch
100
AcDbAttributeDefinition
  3

  2
NN
 70
     8
280
     0
  0
ATTDEF
  5
E4
330
DF
100
AcDbEntity
  8
AM_6
100
AcDbText
 10
8.5433
 20
1.15625
 30
0.0
 40
0.5
  1
S-2000 Bearings
100
AcDbAttributeDefinition
  3

  2
NT
 70
     8
280
     0
  0
ATTDEF
  5
E5
330
DF
100
AcDbEntity
  8
AM_6
100
AcDbText
 10
8.5433
 20
0.6562499999999998
 30
0.0
 40
0.5
  1
070013i
100
AcDbAttributeDefinition
  3

  2
NB
 70
     8
280
     0
  0
ATTDEF
  5
E6
330
DF
100
AcDbEntity
  8
AM_6
100
AcDbText
 10
8.5433
 20
0.1562499999999998
 30
0.0
 40
0.5
  1
$PN.i
100
AcDbAttributeDefinition
  3

  2
NBSYN
 70
     8
280
     0
  0
ATTDEF
  5
E7
330
DF
100
AcDbEntity
  8
AM_6
100
AcDbText
 10
8.5433
 20
-0.3437500000000002
 30
0.0
 40
0.5
  1
070013i
100
AcDbAttributeDefinition
  3

  2
LINA
 70
     8
280
     0
  0
ATTDEF
  5
E8
330
DF
100
AcDbEntity
  8
AM_6
100
AcDbText
 10
8.5433
 20
-0.8437500000000002
 30
0.0
 40
0.5
  1
3-15/16
100
AcDbAttributeDefinition
  3

  2
SS
 70
     8
280
     0
  0
ATTDEF
  5
E9
330
DF
100
AcDbEntity
  8
AM_6
100
AcDbText
 10
8.5433
 20
-1.34375
 30
0.0
 40
0.5
  1
4.50
100
AcDbAttributeDefinition
  3

  2
CC
 70
     8
280
     0
  0
ATTDEF
  5
EA
330
DF
100
AcDbEntity
  8
AM_6
100
AcDbText
 10
8.5433
 20
-1.84375
 30
0.0
 40
0.5
  1
3.937500
100
AcDbAttributeDefinition
  3

  2
SS1
 70
     8
280
     0
  0
ATTDEF
  5
EB
330
DF
100
AcDbEntity
  8
AM_6
100
AcDbText
 10
8.5433
 20
-2.34375
 30
0.0
 40
0.5
  1
070013
100
AcDbAttributeDefinition
  3

  2
PN
 70
     8
280
     0
  0
ATTDEF
  5
EC
330
DF
100
AcDbEntity
  8
AM_6
100
AcDbText
 10
8.5433
 20
-2.84375
 30
0.0
 40
0.5
  1
INS-S2-315R
100
AcDbAttributeDefinition
  3

  2
DESCRIPTION
 70
     8
280
     0
  0
ATTDEF
  5
ED
330
DF
100
AcDbEntity
  8
AM_6
100
AcDbText
 10
8.5433
 20
-3.34375
 30
0.0
 40
0.5
  1
Contact Seal
100
AcDbAttributeDefinition
  3

  2
ST
 70
     8
280
     0
  0
ATTDEF
  5
EE
330
DF
100
AcDbEntity
  8
AM_6
100
AcDbText
 10
8.5433
 20
-3.84375
 30
0.0
 40
0.5
  1
1
100
AcDbAttributeDefinition
  3

  2
ST1
 70
     8
280
     0
  0
ATTDEF
  5
EF
330
DF
100
AcDbEntity
  8
AM_6
100
AcDbText
 10
8.5433
 20
-4.34375
 30
0.0
 40
0.5
  1
7.0866
100
AcDbAttributeDefinition
  3

  2
A
 70
     8
280
     0
  0
ATTDEF
  5
F0
330
DF
100
AcDbEntity
  8
AM_6
100
AcDbText
 10
8.5433
 20
-4.84375
 30
0.0
 40
0.5
  1
1-7/8
100
AcDbAttributeDefinition
  3

  2
B
 70
     8
280
     0
  0
ATTDEF
  5
F1
330
DF
100
AcDbEntity
  8
AM_6
100
AcDbText
 10
8.5433
 20
-5.34375
 30
0.0
 40
0.5
  1
4-31/64
100
AcDbAttributeDefinition
  3

  2
C
 70
     8
280
     0
  0
ATTDEF
  5
F2
330
DF
100
AcDbEntity
  8
AM_6
100
AcDbText
 10
8.5433
 20
-5.84375
 30
0.0
 40
0.5
  1
1.646
100
AcDbAttributeDefinition
  3

  2
D
 70
     8
280
     0
  0
ATTDEF
  5
F3
330
DF
100
AcDbEntity
  8
AM_6
100
AcDbText
 10
8.5433
 20
-6.34375
 30
0.0
 40
0.5
  1
6
100
AcDbAttributeDefinition
  3

  2
E
 70
     8
280
     0
  0
ATTDEF
  5
F4
330
DF
100
AcDbEntity
  8
AM_6
100
AcDbText
 10
8.5433
 20
-6.84375
 30
0.0
 40
0.5
  1
0.34375
100
AcDbAttributeDefinition
  3

  2
F
 70
     8
280
     0
  0
ATTDEF
  5
F5
330
DF
100
AcDbEntity
  8
AM_6
100
AcDbText
 10
8.5433
 20
-7.34375
 30
0.0
 40
0.5
  1
2
100
AcDbAttributeDefinition
  3

  2
DD
 70
     8
280
     0
  0
ATTDEF
  5
F6
330
DF
100
AcDbEntity
  8
AM_6
100
AcDbText
 10
8.5433
 20
-7.84375
 30
0.0
 40
0.5
  1
baldor
100
AcDbAttributeDefinition
  3

  2
COMPANY
 70
     8
280
     0
  0
LINE
  5
F7
330
DF
100
AcDbEntity
  8
AM_9
100
AcDbLine
 10
-2.039047367951276
 20
-2.653125
 30
0.0
 11
-1.784250547255242
 21
-2.653125
 31
0.0
  0
LINE
  5
F8
330
DF
100
AcDbEntity
  8
AM_9
100
AcDbLine
 10
-1.784125865163847
 20
-1.993125
 30
0.0
 11
-2.039171386860798
 21
-1.993125
 31
0.0
  0
LWPOLYLINE
  5
F9
330
DF
100
AcDbEntity
  8
AM_9
100
AcDbPolyline
 90
        9
 70
     0
 43
0.0
 10
-1.891793235985211
 20
-2.447878103367214
 10
-1.884964355752125
 20
-2.495128868682407
 10
-1.875360662700118
 20
-2.539071747866934
 10
-1.862691368900239
 20
-2.57811902012058
 10
-1.847481842991392
 20
-2.609355323847795
 10
-1.829058502630537
 20
-2.633223461516363
 10
-1.808805981813702
 20
-2.647631986309721
 10
-1.785862173958416
 20
-2.653104038394185
 10
-1.784301994950286
 20
-2.653124999381406
  0
LWPOLYLINE
  5
FA
330
DF
100
AcDbEntity
  8
AM_9
100
AcDbPolyline
 90
        7
 70
     0
 43
0.0
 10
-1.891748871127149
 20
-2.197984977916819
 10
-1.894746336576238
 20
-2.228505452555976
 10
-1.89788633926064
 20
-2.283988381715791
 10
-1.898418554856063
 20
-2.33835588535326
 10
-1.896438970547202
 20
-2.3938653203112
 10
-1.892061676862794
 20
-2.445504212185563
 10
-1.891793235985211
 20
-2.447878103367214
  0
LWPOLYLINE
  5
FB
330
DF
100
AcDbEntity
  8
AM_9
100
AcDbPolyline
 90
        9
 70
     0
 43
0.0
 10
-1.784282218704358
 20
-1.993125001071148
 10
-1.799207056063455
 20
-1.995093884608024
 10
-1.820115872399585
 20
-2.005377690649287
 10
-1.83935426699404
 20
-2.024835374747981
 10
-1.855624193035854
 20
-2.051979809681275
 10
-1.869604705225741
 20
-2.087492910331735
 10
-1.880607346618944
 20
-2.129004219369559
 10
-1.889120458567551
 20
-2.177335447890908
 10
-1.891748871127149
 20
-2.197984977916819
  0
LWPOLYLINE
  5
FC
330
DF
100
AcDbEntity
  8
AM_9
100
AcDbPolyline
 90
       11
 70
     0
 43
0.0
 10
-1.784301994950286
 20
-2.653124999381406
 10
-1.762424109866271
 20
-2.649258895755807
 10
-1.737587238445396
 20
-2.636122818446589
 10
-1.71360493756089
 20
-2.614840203039832
 10
-1.690006752340035
 20
-2.584823055650594
 10
-1.668784399066291
 20
-2.548076939230084
 10
-1.64996808991248
 20
-2.503850872719702
 10
-1.635374200105956
 20
-2.455460758440679
 10
-1.625043471100621
 20
-2.401746342220627
 10
-1.620979645834828
 20
-2.363022970987586
 10
-1.619584964076881
 20
-2.323125
  0
LWPOLYLINE
  5
FD
330
DF
100
AcDbEntity
  8
AM_9
100
AcDbPolyline
 90
       12
 70
     0
 43
0.0
 10
-2.156516217378479
 20
-2.308898885901912
 10
-2.156487582250162
 20
-2.306759018273192
 10
-2.154304044894745
 20
-2.25118830734216
 10
-2.149550237951628
 20
-2.199436332007016
 10
-2.1419146829614
 20
-2.149737749819562
 10
-2.131707008251539
 20
-2.105879585205574
 10
-2.118381845544202
 20
-2.066970228979192
 10
-2.102603710335661
 20
-2.036004403641973
 10
-2.083706083454754
 20
-2.012434699709472
 10
-2.063129713807727
 20
-1.99830810633916
 10
-2.040046614745504
 20
-1.993131200298957
 10
-2.039197691613255
 20
-1.993125000226818
  0
LWPOLYLINE
  5
FE
330
DF
100
AcDbEntity
  8
AM_9
100
AcDbPolyline
 90
       11
 70
     0
 43
0.0
 10
-2.039180688804821
 20
-2.653124998812411
 10
-2.054354107032967
 20
-2.651099039456843
 10
-2.075499103311954
 20
-2.64068625368856
 10
-2.095117138549551
 20
-2.621039660889279
 10
-2.111834880402628
 20
-2.59369258459073
 10
-2.126328153443735
 20
-2.557935786466518
 10
-2.137796018928014
 20
-2.516299978250673
 10
-2.14673361499658
 20
-2.467874495644122
 10
-2.152664410948696
 20
-2.416675588888605
 10
-2.155967670132255
 20
-2.361221912303111
 10
-2.156363718113533
 20
-2.346591516660218
  0
LWPOLYLINE
  5
FF
330
DF
100
AcDbEntity
  8
AM_9
100
AcDbPolyline
 90
       11
 70
     0
 43
0.0
 10
-2.039197691613255
 20
-1.993125000226818
 10
-2.016596527053113
 20
-1.997274811186708
 10
-1.991935160115817
 20
-2.010755468604248
 10
-1.968276762592857
 20
-2.032414633129889
 10
-1.945145832673892
 20
-2.062855272438296
 10
-1.924533475964657
 20
-2.099925488208413
 10
-1.906376639579519
 20
-2.144451728268981
 10
-1.892424358752717
 20
-2.192987390363738
 10
-1.882649144469622
 20
-2.246759936451604
 10
-1.878944954118964
 20
-2.284408342933921
 10
-1.877676611179535
 20
-2.323125
  0
LWPOLYLINE
  5
100
330
DF
100
AcDbEntity
  8
AM_9
100
AcDbPolyline
 90
       11
 70
     0
 43
0.0
 10
-1.619584964076881
 20
-2.323125
 10
-1.622162668942793
 20
-2.268945415197573
 10
-1.630057211331448
 20
-2.214765830395146
 10
-1.642419594751424
 20
-2.16515310805087
 10
-1.659324207819381
 20
-2.11863614189252
 10
-1.679247820188735
 20
-2.078691873728532
 10
-1.702272310825656
 20
-2.04459918670843
 10
-1.726305013036321
 20
-2.019063901119035
 10
-1.751626746005861
 20
-2.001595654594451
 10
-1.77564592752785
 20
-1.993746198468465
 10
-1.784282218704358
 20
-1.993125001071148
  0
LINE
  5
101
330
DF
100
AcDbEntity
  8
AM_9
100
AcDbLine
 10
-1.96875
 20
1.65625
 30
0.0
 11
-1.96875
 21
-2.828125
 31
0.0
  0
LINE
  5
102
330
DF
100
AcDbEntity
  8
AM_9
100
AcDbLine
 10
1.96875
 20
-2.828125
 30
0.0
 11
1.96875
 21
1.65625
 31
0.0
  0
LINE
  5
103
330
DF
100
AcDbEntity
  8
AM_9
100
AcDbLine
 10
2.25
 20
1.65625
 30
0.0
 11
-2.25
 21
1.65625
 31
0.0
  0
LINE
  5
104
330
DF
100
AcDbEntity
  8
AM_9
100
AcDbLine
 10
-2.25
 20
1.65625
 30
0.0
 11
-2.25
 21
1.494875
 31
0.0
  0
LINE
  5
105
330
DF
100
AcDbEntity
  8
AM_9
100
AcDbLine
 10
2.25
 20
1.494875
 30
0.0
 11
2.25
 21
1.65625
 31
0.0
  0
LWPOLYLINE
  5
106
330
DF
100
AcDbEntity
  8
AM_9
100
AcDbPolyline
 90
       39
 70
     0
 43
0.0
 10
0.33
 20
-2.323125
 10
0.3255049089045431
 20
-2.377407172755382
 10
0.3116308439224521
 20
-2.431689345510763
 10
0.2895666932252116
 20
-2.481400488230541
 10
0.2586975059833155
 20
-2.528004477737553
 10
0.2213073632188
 20
-2.567916852366745
 10
0.1764997378573133
 20
-2.60195800116073
 10
0.1277643244134047
 20
-2.627388499958812
 10
0.0738544741392967
 20
-2.644754471052651
 10
0.0197516239306235
 20
-2.65253336867345
 10
-0.0365106757313635
 20
-2.651099039456843
 10
-0.0897488170158791
 20
-2.64068625368856
 10
-0.1419396168348564
 20
-2.621039660889279
 10
-0.1889263935206995
 20
-2.59369258459073
 10
-0.2318704262276136
 20
-2.557935786466518
 10
-0.2675507947621389
 20
-2.516299978250673
 10
-0.2965595783493974
 20
-2.467874495644122
 10
-0.316462141999
 20
-2.416675588888606
 10
-0.3277935711281859
 20
-2.361221912303111
 10
-0.329593923854973
 20
-2.306759018273192
 10
-0.3220638325696499
 20
-2.25118830734216
 10
-0.3059429904575708
 20
-2.199436332007016
 10
-0.2807790260594014
 20
-2.149737749819561
 10
-0.2484037635600508
 20
-2.105879585205573
 10
-0.2080498336535679
 20
-2.066970228979191
 10
-0.1626707200052011
 20
-2.036004403641972
 10
-0.1112274125626494
 20
-2.012434699709472
 10
-0.0582579230021326
 20
-1.998308106339159
 10
-0.0020229085169292
 20
-1.993131200298957
 10
0.0521694781490275
 20
-1.997274811186708
 10
0.1064202793437354
 20
-2.010755468604248
 10
0.1561649211386653
 20
-2.032414633129889
 10
0.2028784584793472
 20
-2.062855272438295
 10
0.2430678463639257
 20
-2.099925488208412
 10
0.2774452413881583
 20
-2.144451728268981
 10
0.3032560016853086
 20
-2.192987390363738
 10
0.3210426405779294
 20
-2.246759936451605
 10
0.3277209490795907
 20
-2.284408342933921
 10
0.33
 20
-2.323125
  0
LWPOLYLINE
  5
107
330
DF
100
AcDbEntity
  8
AM_9
100
AcDbPolyline
 90
       11
 70
     0
 43
0.0
 10
-1.877676611179535
 20
-2.323125
 10
-1.880176158353896
 20
-2.377407172755382
 10
-1.88783804136864
 20
-2.431689345510763
 10
-1.899858530644973
 20
-2.481400488230541
 10
-1.916338697914035
 20
-2.528004477737553
 10
-1.935775971970438
 20
-2.567916852366745
 10
-1.958316728253736
 20
-2.60195800116073
 10
-1.98190670369008
 20
-2.627388499958812
 10
-2.006881432904629
 20
-2.644754471052651
 10
-2.030766550164572
 20
-2.65253336867345
 10
-2.039180688804821
 20
-2.653124998812411
  0
LINE
  5
108
330
DF
100
AcDbEntity
  8
AM_9
100
AcDbLine
 10
-2.25
 20
-1.818125
 30
0.0
 11
-2.25
 21
-2.828125
 31
0.0
  0
LINE
  5
109
330
DF
100
AcDbEntity
  8
AM_9
100
AcDbLine
 10
-2.25
 20
-1.474375
 30
0.0
 11
-2.25
 21
-1.8
 31
0.0
  0
LINE
  5
10A
330
DF
100
AcDbEntity
  8
AM_9
100
AcDbLine
 10
2.25
 20
-1.8
 30
0.0
 11
2.25
 21
-1.474375
 31
0.0
  0
LINE
  5
10B
330
DF
100
AcDbEntity
  8
AM_9
100
AcDbLine
 10
2.25
 20
-2.828125
 30
0.0
 11
2.25
 21
-1.818125
 31
0.0
  0
LINE
  5
10C
330
DF
100
AcDbEntity
  8
AM_9
100
AcDbLine
 10
2.647139999999999
 20
1.494875
 30
0.0
 11
-2.647139999989766
 21
1.494875
 31
0.0
  0
ARC
  5
10D
330
DF
100
AcDbEntity
  8
AM_9
100
AcDbCircle
 10
-2.647140000000001
 20
1.307375000000001
 30
0.0
 40
0.1874999999999991
100
AcDbArc
 50
90.0
 51
180.0
  0
ARC
  5
10E
330
DF
100
AcDbEntity
  8
AM_9
100
AcDbCircle
 10
2.64714
 20
1.307375
 30
0.0
 40
0.1874999999999996
100
AcDbArc
 50
0.0
 51
90.0
  0
LINE
  5
10F
330
DF
100
AcDbEntity
  8
AM_9
100
AcDbLine
 10
2.834639999999999
 20
1.307375
 30
0.0
 11
-2.834639999999999
 21
1.307375
 31
0.0
  0
LINE
  5
110
330
DF
100
AcDbEntity
  8
AM_9
100
AcDbLine
 10
-2.834639999999999
 20
1.307375
 30
0.0
 11
-2.834639999999999
 21
0.9477500000000002
 31
0.0
  0
LINE
  5
111
330
DF
100
AcDbEntity
  8
AM_9
100
AcDbLine
 10
2.834639999999999
 20
0.9477500000000002
 30
0.0
 11
2.834639999999999
 21
1.307375
 31
0.0
  0
LINE
  5
112
330
DF
100
AcDbEntity
  8
AM_9
100
AcDbLine
 10
2.64714
 20
-1.474375
 30
0.0
 11
-2.647139999989767
 21
-1.474375
 31
0.0
  0
ARC
  5
113
330
DF
100
AcDbEntity
  8
AM_9
100
AcDbCircle
 10
-2.647139999999999
 20
-1.286875
 30
0.0
 40
0.1875
100
AcDbArc
 50
180.0
 51
270.0
  0
ARC
  5
114
330
DF
100
AcDbEntity
  8
AM_9
100
AcDbCircle
 10
2.64714
 20
-1.286875
 30
0.0
 40
0.1874999999999998
100
AcDbArc
 50
270.0
 51
0.0
  0
LINE
  5
115
330
DF
100
AcDbEntity
  8
AM_9
100
AcDbLine
 10
2.834639999999999
 20
-1.286875
 30
0.0
 11
-2.834639999999999
 21
-1.286875
 31
0.0
  0
LINE
  5
116
330
DF
100
AcDbEntity
  8
AM_9
100
AcDbLine
 10
-2.834639999999999
 20
-0.9272499999999999
 30
0.0
 11
-2.834639999999999
 21
-1.286875
 31
0.0
  0
LINE
  5
117
330
DF
100
AcDbEntity
  8
AM_9
100
AcDbLine
 10
2.834639999999999
 20
-1.286875
 30
0.0
 11
2.834639999999999
 21
-0.9272499999999999
 31
0.0
  0
LINE
  5
118
330
DF
100
AcDbEntity
  8
AM_9
100
AcDbLine
 10
-3.401568
 20
0.1040000000000012
 30
0.0
 11
-3.401568
 21
-0.083500000000001
 31
0.0
  0
LINE
  5
119
330
DF
100
AcDbEntity
  8
AM_9
100
AcDbLine
 10
3.401568
 20
-0.083500000000001
 30
0.0
 11
3.401568
 21
0.1040000000000012
 31
0.0
  0
LINE
  5
11A
330
DF
100
AcDbEntity
  8
AM_9
100
AcDbLine
 10
2.361774009539176
 20
0.1040000000000014
 30
0.0
 11
-3.401568
 21
0.1040000000000012
 31
0.0
  0
LINE
  5
11B
330
DF
100
AcDbEntity
  8
AM_9
100
AcDbLine
 10
3.401568
 20
0.1040000000000012
 30
0.0
 11
2.365793611396282
 21
0.1040000000000014
 31
0.0
  0
LINE
  5
11C
330
DF
100
AcDbEntity
  8
AM_9
100
AcDbLine
 10
3.401568
 20
0.1040000000000012
 30
0.0
 11
3.5433
 21
0.1858290083527855
 31
0.0
  0
LINE
  5
11D
330
DF
100
AcDbEntity
  8
AM_9
100
AcDbLine
 10
-3.5433
 20
0.1858290083527855
 30
0.0
 11
-3.401568
 21
0.1040000000000012
 31
0.0
  0
LINE
  5
11E
330
DF
100
AcDbEntity
  8
AM_9
100
AcDbLine
 10
3.3558
 20
-0.9272499999999999
 30
0.0
 11
-3.355799999989808
 21
-0.9272499999999999
 31
0.0
  0
ARC
  5
11F
330
DF
100
AcDbEntity
  8
AM_9
100
AcDbCircle
 10
-3.355799999999999
 20
-0.739749999999999
 30
0.0
 40
0.1875000000000004
100
AcDbArc
 50
180.0
 51
270.0
  0
ARC
  5
120
330
DF
100
AcDbEntity
  8
AM_9
100
AcDbCircle
 10
3.355799999999999
 20
-0.7397499999999992
 30
0.0
 40
0.1875000000000007
100
AcDbArc
 50
270.0
 51
0.0
  0
LINE
  5
121
330
DF
100
AcDbEntity
  8
AM_9
100
AcDbLine
 10
3.5433
 20
-0.7397499999999998
 30
0.0
 11
-3.5433
 21
-0.7397499999999998
 31
0.0
  0
LINE
  5
122
330
DF
100
AcDbEntity
  8
AM_9
100
AcDbLine
 10
-3.5433
 20
-0.1653290083527853
 30
0.0
 11
-3.5433
 21
-0.7397499999999998
 31
0.0
  0
LINE
  5
123
330
DF
100
AcDbEntity
  8
AM_9
100
AcDbLine
 10
3.5433
 20
-0.7397499999999998
 30
0.0
 11
3.5433
 21
-0.1653290083527853
 31
0.0
  0
LINE
  5
124
330
DF
100
AcDbEntity
  8
AM_9
100
AcDbLine
 10
3.401568
 20
-0.083500000000001
 30
0.0
 11
-3.401568
 21
-0.083500000000001
 31
0.0
  0
LINE
  5
125
330
DF
100
AcDbEntity
  8
AM_9
100
AcDbLine
 10
3.5433
 20
-0.1653290083527853
 30
0.0
 11
-3.5433
 21
-0.1653290083527853
 31
0.0
  0
LINE
  5
126
330
DF
100
AcDbEntity
  8
AM_9
100
AcDbLine
 10
-3.401568
 20
-0.083500000000001
 30
0.0
 11
-3.5433
 21
-0.1653290083527853
 31
0.0
  0
LINE
  5
127
330
DF
100
AcDbEntity
  8
AM_9
100
AcDbLine
 10
3.5433
 20
-0.1653290083527853
 30
0.0
 11
3.401568
 21
-0.083500000000001
 31
0.0
  0
LINE
  5
128
330
DF
100
AcDbEntity
  8
AM_9
100
AcDbLine
 10
3.3558
 20
0.9477500000000002
 30
0.0
 11
-3.355799999989808
 21
0.9477500000000002
 31
0.0
  0
ARC
  5
129
330
DF
100
AcDbEntity
  8
AM_9
100
AcDbCircle
 10
-3.355799999999999
 20
0.7602499999999992
 30
0.0
 40
0.187500000000001
100
AcDbArc
 50
90.0
 51
180.0
  0
ARC
  5
12A
330
DF
100
AcDbEntity
  8
AM_9
100
AcDbCircle
 10
3.355799999999999
 20
0.7602499999999992
 30
0.0
 40
0.1875000000000004
100
AcDbArc
 50
0.0
 51
90.0
  0
LINE
  5
12B
330
DF
100
AcDbEntity
  8
AM_9
100
AcDbLine
 10
3.5433
 20
0.7602500000000001
 30
0.0
 11
-3.5433
 21
0.7602500000000001
 31
0.0
  0
LINE
  5
12C
330
DF
100
AcDbEntity
  8
AM_9
100
AcDbLine
 10
3.5433
 20
0.1858290083527855
 30
0.0
 11
-3.5433
 21
0.1858290083527855
 31
0.0
  0
LINE
  5
12D
330
DF
100
AcDbEntity
  8
AM_9
100
AcDbLine
 10
-3.5433
 20
0.7602500000000001
 30
0.0
 11
-3.5433
 21
0.1858290083527855
 31
0.0
  0
LINE
  5
12E
330
DF
100
AcDbEntity
  8
AM_9
100
AcDbLine
 10
3.5433
 20
0.1858290083527855
 30
0.0
 11
3.5433
 21
0.7602500000000001
 31
0.0
  0
LINE
  5
12F
330
DF
100
AcDbEntity
  8
AM_4
100
AcDbLine
 10
-2.25
 20
-1.8
 30
0.0
 11
-2.25
 21
-1.818125
 31
0.0
  0
LINE
  5
130
330
DF
100
AcDbEntity
  8
AM_4
100
AcDbLine
 10
2.25
 20
-1.818125
 30
0.0
 11
2.25
 21
-1.8
 31
0.0
  0
ENDBLK
  5
E2
330
DF
100
AcDbEntity
  8
0
100
AcDbBlockEnd
  0
BLOCK
  5
133
330
131
100
AcDbEntity
  8
0
100
AcDbBlockBegin
  2
4_405015E_Inch_0_in_070373_4
 70
     2
 10
0.0
 20
0.0
 30
0.0
  3
4_405015E_Inch_0_in_070373_4
  1

  0
ATTDEF
  5
135
330
131
100
AcDbEntity
  8
AM_6
100
AcDbText
 10
7.420171671481429
 20
0.2187500000000002
 30
0.0
 40
0.5
  1
405015E -Inch
100
AcDbAttributeDefinition
  3

  2
NN
 70
     8
280
     0
  0
ATTDEF
  5
136
330
131
100
AcDbEntity
  8
AM_6
100
AcDbText
 10
7.420171671481429
 20
-0.2812499999999998
 30
0.0
 40
0.5
  1
Grease Fitting
100
AcDbAttributeDefinition
  3

  2
NT
 70
     8
280
     0
  0
ATTDEF
  5
137
330
131
100
AcDbEntity
  8
AM_6
100
AcDbText
 10
7.420171671481429
 20
-0.7812499999999998
 30
0.0
 40
0.5
  1
405015E-Inch
100
AcDbAttributeDefinition
  3

  2
NB
 70
     8
280
     0
  0
ATTDEF
  5
138
330
131
100
AcDbEntity
  8
AM_6
100
AcDbText
 10
7.420171671481429
 20
-1.28125
 30
0.0
 40
0.5
  1
$MN.-Inch
100
AcDbAttributeDefinition
  3

  2
NBSYN
 70
     8
280
     0
  0
ATTDEF
  5
139
330
131
100
AcDbEntity
  8
AM_6
100
AcDbText
 10
7.420171671481429
 20
-1.78125
 30
0.0
 40
0.5
  1
405015E
100
AcDbAttributeDefinition
  3

  2
LINA
 70
     8
280
     0
  0
ATTDEF
  5
13A
330
131
100
AcDbEntity
  8
AM_6
100
AcDbText
 10
7.420171671481429
 20
-2.28125
 30
0.0
 40
0.5
  1
405015E
100
AcDbAttributeDefinition
  3

  2
MN
 70
     8
280
     0
  0
ATTDEF
  5
13B
330
131
100
AcDbEntity
  8
AM_6
100
AcDbText
 10
7.420171671481429
 20
-2.78125
 30
0.0
 40
0.5
  1
1/8 x 27PTF
100
AcDbAttributeDefinition
  3

  2
T
 70
     8
280
     0
  0
ATTDEF
  5
13C
330
131
100
AcDbEntity
  8
AM_6
100
AcDbText
 10
7.420171671481429
 20
-3.28125
 30
0.0
 40
0.5
  1
baldor
100
AcDbAttributeDefinition
  3

  2
COMPANY
 70
     8
280
     0
  0
ELLIPSE
  5
13D
330
131
100
AcDbEntity
  8
AM_9
100
AcDbEllipse
 10
2.01125
 20
0.0000000000000002
 30
0.0
 11
9.913691727296317E-18
 21
0.161902872472269
 31
0.0
210
0.0
220
0.0
230
1.0
 40
0.8660254037844397
 41
0.0
 42
6.283185307179586
  0
LINE
  5
13E
330
131
100
AcDbEntity
  8
AM_9
100
AcDbLine
 10
2.326612088780945
 20
-0.0728550046915581
 30
0.0
 11
2.3078125
 21
-0.1093749999999998
 31
0.0
  0
LINE
  5
13F
330
131
100
AcDbEntity
  8
AM_9
100
AcDbLine
 10
2.367033799848307
 20
0.0000000000000002
 30
0.0
 11
2.346114242939128
 21
-0.0369129949744351
 31
0.0
  0
LINE
  5
140
330
131
100
AcDbEntity
  8
AM_9
100
AcDbLine
 10
2.345385232025015
 20
0.0382269311302807
 30
0.0
 11
2.367033799848307
 21
0.0000000000000002
 31
0.0
  0
LINE
  5
141
330
131
100
AcDbEntity
  8
AM_9
100
AcDbLine
 10
2.3078125
 20
0.1093750000000002
 30
0.0
 11
2.330733594848582
 21
0.0651114943326974
 31
0.0
  0
LWPOLYLINE
  5
142
330
131
100
AcDbEntity
  8
AM_9
100
AcDbPolyline
 90
        4
 70
     0
 43
0.0
 10
2.3578125
 20
-0.1093749999999998
 10
2.371180667998001
 20
-0.0820312499999998
 10
2.383974604221101
 20
-0.0546545855167826
 10
2.407966200151693
 20
0.0000000000000002
  0
LWPOLYLINE
  5
143
330
131
100
AcDbEntity
  8
AM_9
100
AcDbPolyline
 90
        4
 70
     0
 43
0.0
 10
2.407966200151693
 20
0.0000000000000002
 10
2.390236748285697
 20
0.0408050906197753
 10
2.371257718547504
 20
0.0818700010907653
 10
2.3578125
 20
0.1093750000000001
  0
LWPOLYLINE
  5
144
330
131
100
AcDbEntity
  8
AM_9
100
AcDbPolyline
 90
        4
 70
     0
 43
0.0
 10
2.3078125
 20
-0.1093749999999998
 10
2.294444332002
 20
-0.1367187499999997
 10
2.281665440392518
 20
-0.1640624999999997
 10
2.257658799848308
 20
-0.2187499999999998
  0
LWPOLYLINE
  5
145
330
131
100
AcDbEntity
  8
AM_9
100
AcDbPolyline
 90
        4
 70
     0
 43
0.0
 10
2.257658799848308
 20
0.2187500000000002
 10
2.275388251714304
 20
0.1779449093802252
 10
2.294367281452497
 20
0.1368799989092351
 10
2.3078125
 20
0.1093750000000002
  0
LINE
  5
146
330
131
100
AcDbEntity
  8
AM_9
100
AcDbLine
 10
2.407966200151693
 20
0.0000000000000002
 30
0.0
 11
2.367033799848307
 21
0.0000000000000002
 31
0.0
  0
LINE
  5
147
330
131
100
AcDbEntity
  8
AM_9
100
AcDbLine
 10
2.020296710626155
 20
-0.1983264404626877
 30
0.0
 11
2.134104897832291
 21
-0.2054502516015132
 31
0.0
  0
LINE
  5
148
330
131
100
AcDbEntity
  8
AM_9
100
AcDbLine
 10
2.134104897832291
 20
0.2054502516015137
 30
0.0
 11
2.020296710626155
 21
0.1983264404626882
 31
0.0
  0
ELLIPSE
  5
149
330
131
100
AcDbEntity
  8
AM_9
100
AcDbEllipse
 10
2.193750000003622
 20
0.0000000000066366
 30
0.0
 11
-4.018372309462521E-17
 21
-0.2187499999869496
 31
0.0
210
0.0
220
0.0
230
1.0
 40
0.8660254038085554
 41
1.032970329566871
 42
2.108622323970813
  0
ELLIPSE
  5
14A
330
131
100
AcDbEntity
  8
AM_9
100
AcDbEllipse
 10
2.193750000000009
 20
-0.0000000000000023
 30
0.0
 11
-3.926523799766082E-17
 21
-0.2137499999999935
 31
0.0
210
0.0
220
0.0
230
1.0
 40
0.8660254037844237
 41
0.9862868522353452
 42
2.155305801354469
  0
ELLIPSE
  5
14B
330
131
100
AcDbEntity
  8
AM_9
100
AcDbEllipse
 10
2.20290909927044
 20
0.0000000000000011
 30
0.0
 11
-3.169399141454488E-17
 21
-0.1725340532830172
 31
0.0
210
0.0
220
0.0
230
1.0
 40
0.8660254037844392
 41
0.6732704101475999
 42
2.468322243442187
  0
LINE
  5
14C
330
131
100
AcDbEntity
  8
AM_9
100
AcDbLine
 10
2.313750000000001
 20
0.0703562363973518
 30
0.0
 11
2.306510904853149
 21
0.0796165180238022
 31
0.0
  0
LINE
  5
14D
330
131
100
AcDbEntity
  8
AM_9
100
AcDbLine
 10
2.306510904853149
 20
-0.0796165180238017
 30
0.0
 11
2.313750000000001
 21
-0.0703562363973513
 31
0.0
  0
ELLIPSE
  5
14E
330
131
100
AcDbEntity
  8
AM_9
100
AcDbEllipse
 10
2.230126560809285
 20
-0.0000000000000005
 30
0.0
 11
-2.182689656893343E-17
 21
-0.1188200907348969
 31
0.0
210
0.0
220
0.0
230
1.0
 40
0.8660254037844448
 41
0.0521714424111437
 42
3.089421211178651
  0
LINE
  5
14F
330
131
100
AcDbEntity
  8
AM_9
100
AcDbLine
 10
2.24625
 20
-0.1049999999999998
 30
0.0
 11
2.26125
 21
-0.1049999999999998
 31
0.0
  0
LINE
  5
150
330
131
100
AcDbEntity
  8
AM_9
100
AcDbLine
 10
2.26125
 20
0.1050000000000002
 30
0.0
 11
2.24625
 21
0.1050000000000002
 31
0.0
  0
ELLIPSE
  5
151
330
131
100
AcDbEntity
  8
AM_9
100
AcDbEllipse
 10
2.261250000000001
 20
-0.0000000000000004
 30
0.0
 11
-1.928818708657093E-17
 21
-0.1050000000000006
 31
0.0
210
0.0
220
0.0
230
1.0
 40
0.8660254037844438
 41
5.235987755982982
 42
10.47197551196597
  0
ELLIPSE
  5
152
330
131
100
AcDbEntity
  8
AM_9
100
AcDbEllipse
 10
2.246249999999999
 20
0.0000000000000007
 30
0.0
 11
-1.928818708657089E-17
 21
-0.1050000000000004
 31
0.0
210
0.0
220
0.0
230
1.0
 40
0.8660254037844328
 41
5.858105981270841
 42
9.849857286678127
  0
ELLIPSE
  5
153
330
131
100
AcDbEntity
  8
AM_9
100
AcDbEllipse
 10
2.291249999999996
 20
-0.0000000000000016
 30
0.0
 11
-2.479909768273454E-17
 21
-0.1350000000000035
 31
0.0
210
0.0
220
0.0
230
1.0
 40
0.8660254037844484
 41
0.7751090107151501
 42
2.366483642874663
  0
ELLIPSE
  5
154
330
131
100
AcDbEntity
  8
AM_9
100
AcDbEllipse
 10
2.14375
 20
0.0000000000000007
 30
0.0
 11
-3.779601035290901E-17
 21
-0.2057518972230691
 31
0.0
210
0.0
220
0.0
230
1.0
 40
0.8660254037844397
 41
0.0
 42
6.283185307179586
  0
ELLIPSE
  5
155
330
131
100
AcDbEntity
  8
AM_9
100
AcDbEllipse
 10
2.029607377154474
 20
0.0000000000000001
 30
0.0
 11
-3.648546613377890E-17
 21
-0.1986176267812156
 31
0.0
210
0.0
220
0.0
230
1.0
 40
0.8660254037844388
 41
0.0
 42
6.283185307179586
  0
ELLIPSE
  5
156
330
131
100
AcDbEntity
  8
AM_9
100
AcDbEllipse
 10
2.143749999999999
 20
0.0000000000000002
 30
0.0
 11
-4.018372309702245E-17
 21
-0.2187499999999996
 31
0.0
210
0.0
220
0.0
230
1.0
 40
0.8660254037844335
 41
0.0
 42
6.283185307179586
  0
LWPOLYLINE
  5
157
330
131
100
AcDbEntity
  8
AM_4
100
AcDbPolyline
 90
        4
 70
     0
 43
0.0
 10
2.3578125
 20
0.1093750000000001
 10
2.343836917998001
 20
0.1367187500000002
 10
2.329254189737884
 20
0.1640954144832174
 10
2.298591200151693
 20
0.2187500000000002
  0
LWPOLYLINE
  5
158
330
131
100
AcDbEntity
  8
AM_4
100
AcDbPolyline
 90
        4
 70
     0
 43
0.0
 10
2.298591200151693
 20
-0.2187499999999998
 10
2.321666838905472
 20
-0.1779449093802247
 10
2.343752719638269
 20
-0.1368799989092347
 10
2.3578125
 20
-0.1093749999999998
  0
ELLIPSE
  5
159
330
131
100
AcDbEntity
  8
AM_4
100
AcDbEllipse
 10
2.193749999999999
 20
-0.0000000000000009
 30
0.0
 11
-4.018372309702275E-17
 21
-0.2187500000000012
 31
0.0
210
0.0
220
0.0
230
1.0
 40
0.8660254037844392
 41
2.108622323974823
 42
7.316155636794563
  0
ELLIPSE
  5
15A
330
131
100
AcDbEntity
  8
AM_4
100
AcDbEllipse
 10
2.193750000000001
 20
0.0000000000000002
 30
0.0
 11
-3.926523799766203E-17
 21
-0.2137500000000001
 31
0.0
210
0.0
220
0.0
230
1.0
 40
0.8660254037844385
 41
2.155305801354442
 42
7.269472159414938
  0
LWPOLYLINE
  5
15B
330
131
100
AcDbEntity
  8
AM_4
100
AcDbPolyline
 90
        4
 70
     0
 43
0.0
 10
2.079841200151693
 20
0.2187500000000002
 10
2.062111748285697
 20
0.1779449093802251
 10
2.043132718547504
 20
0.1368799989092351
 10
2.0296875
 20
0.1093750000000001
  0
LINE
  5
15C
330
131
100
AcDbEntity
  8
AM_4
100
AcDbLine
 10
2.298591200151693
 20
0.2187500000000002
 30
0.0
 11
2.038908799848308
 21
0.2187500000000002
 31
0.0
  0
LWPOLYLINE
  5
15D
330
131
100
AcDbEntity
  8
AM_4
100
AcDbPolyline
 90
        4
 70
     0
 43
0.0
 10
1.9796875
 20
0.1093750000000002
 10
1.993663082002
 20
0.1367187500000002
 10
2.008245810262117
 20
0.1640954144832174
 10
2.038908799848308
 20
0.2187500000000002
  0
LWPOLYLINE
  5
15E
330
131
100
AcDbEntity
  8
AM_4
100
AcDbPolyline
 90
        4
 70
     0
 43
0.0
 10
1.929533799848308
 20
0.0000000000000002
 10
1.947263251714304
 20
0.0408050906197753
 10
1.966242281452496
 20
0.0818700010907653
 10
1.9796875
 20
0.1093750000000002
  0
LWPOLYLINE
  5
15F
330
131
100
AcDbEntity
  8
AM_4
100
AcDbPolyline
 90
        4
 70
     0
 43
0.0
 10
2.0296875
 20
0.1093750000000001
 10
2.015711917998001
 20
0.0820312500000002
 10
1.986025417171637
 20
0.0273136508384385
 10
1.970466200151693
 20
0.0000000000000002
  0
LINE
  5
160
330
131
100
AcDbEntity
  8
AM_4
100
AcDbLine
 10
2.298591200151693
 20
-0.2187499999999998
 30
0.0
 11
2.038908799848308
 21
-0.2187499999999998
 31
0.0
  0
LWPOLYLINE
  5
161
330
131
100
AcDbEntity
  8
AM_4
100
AcDbPolyline
 90
        4
 70
     0
 43
0.0
 10
2.0296875
 20
-0.1093749999999998
 10
2.043055667998001
 20
-0.1367187499999998
 10
2.055849604221101
 20
-0.1640954144832169
 10
2.079841200151693
 20
-0.2187499999999998
  0
LWPOLYLINE
  5
162
330
131
100
AcDbEntity
  8
AM_4
100
AcDbPolyline
 90
        4
 70
     0
 43
0.0
 10
1.970466200151693
 20
0.0000000000000002
 10
1.993541838905472
 20
-0.0408050906197748
 10
2.015627719638269
 20
-0.0818700010907649
 10
2.0296875
 20
-0.1093749999999998
  0
LINE
  5
163
330
131
100
AcDbEntity
  8
AM_4
100
AcDbLine
 10
1.970466200151693
 20
0.0000000000000002
 30
0.0
 11
1.929533799848308
 21
0.0000000000000002
 31
0.0
  0
LWPOLYLINE
  5
164
330
131
100
AcDbEntity
  8
AM_4
100
AcDbPolyline
 90
        4
 70
     0
 43
0.0
 10
1.9796875
 20
-0.1093749999999998
 10
1.966319332002
 20
-0.0820312499999998
 10
1.941288233666801
 20
-0.027313650838438
 10
1.929533799848308
 20
0.0000000000000002
  0
LWPOLYLINE
  5
165
330
131
100
AcDbEntity
  8
AM_4
100
AcDbPolyline
 90
        4
 70
     0
 43
0.0
 10
2.038908799848308
 20
-0.2187499999999998
 10
2.015833161094529
 20
-0.1779449093802247
 10
1.993747280361732
 20
-0.1368799989092347
 10
1.9796875
 20
-0.1093749999999998
  0
ELLIPSE
  5
166
330
131
100
AcDbEntity
  8
AM_4
100
AcDbEllipse
 10
2.202909099270441
 20
0.0000000000000002
 30
0.0
 11
-3.169399141454451E-17
 21
-0.1725340532830152
 31
0.0
210
0.0
220
0.0
230
1.0
 40
0.8660254037844388
 41
2.468322243442195
 42
6.956455717327184
  0
ELLIPSE
  5
167
330
131
100
AcDbEntity
  8
AM_4
100
AcDbEllipse
 10
2.230126560809286
 20
0.0000000000000002
 30
0.0
 11
-2.182689656893350E-17
 21
-0.1188200907348972
 31
0.0
210
0.0
220
0.0
230
1.0
 40
0.8660254037844234
 41
3.089421211178666
 42
6.335356749590713
  0
ELLIPSE
  5
168
330
131
100
AcDbEntity
  8
AM_4
100
AcDbEllipse
 10
2.24625
 20
0.0000000000000002
 30
0.0
 11
-1.928818708657088E-17
 21
-0.1050000000000004
 31
0.0
210
0.0
220
0.0
230
1.0
 40
0.8660254037844335
 41
3.566671979498553
 42
5.858105981270826
  0
LINE
  5
169
330
131
100
AcDbEntity
  8
AM_4
100
AcDbLine
 10
2.1825
 20
-0.0524999999999998
 30
0.0
 11
2.19
 21
-0.0674999999999998
 31
0.0
  0
LINE
  5
16A
330
131
100
AcDbEntity
  8
AM_4
100
AcDbLine
 10
2.19
 20
0.0675000000000003
 30
0.0
 11
2.1825
 21
0.0525000000000003
 31
0.0
  0
ELLIPSE
  5
16B
330
131
100
AcDbEntity
  8
AM_4
100
AcDbEllipse
 10
2.291249999999998
 20
0.0000000000000002
 30
0.0
 11
-2.479909768273360E-17
 21
-0.1349999999999984
 31
0.0
210
0.0
220
0.0
230
1.0
 40
0.8660254037844285
 41
2.366483642874653
 42
7.058294317894727
  0
ELLIPSE
  5
16C
330
131
100
AcDbEntity
  8
AM_4
100
AcDbEllipse
 10
2.261250000000003
 20
0.0000000000000002
 30
0.0
 11
-1.928818708657114E-17
 21
-0.1050000000000018
 31
0.0
210
0.0
220
0.0
230
1.0
 40
0.8660254037844471
 41
4.1887902047864
 42
5.235987755982978
  0
LINE
  5
16D
330
131
100
AcDbEntity
  8
AM_4
100
AcDbLine
 10
2.393476847792107
 20
0.0733474205218689
 30
0.0
 11
2.37306531073162
 21
0.0964365416902993
 31
0.0
  0
LINE
  5
16E
330
131
100
AcDbEntity
  8
AM_4
100
AcDbLine
 10
2.37306531073162
 20
-0.0964365416902988
 30
0.0
 11
2.393476847792107
 21
-0.0733474205218684
 31
0.0
  0
ELLIPSE
  5
16F
330
131
100
AcDbEntity
  8
AM_4
100
AcDbEllipse
 10
2.33125
 20
0.0000000000000005
 30
0.0
 11
-1.886162459184657E-17
 21
-0.1026779019331874
 31
0.0
210
0.0
220
0.0
230
1.0
 40
0.8660254037844404
 41
0.0
 42
6.283185307179586
  0
ENDBLK
  5
134
330
131
100
AcDbEntity
  8
0
100
AcDbBlockEnd
  0
BLOCK
  5
172
330
170
100
AcDbEntity
  8
0
100
AcDbBlockBegin
  2
5_070373H_0_in_070373_4
 70
     2
 10
0.0
 20
0.0
 30
0.0
  3
5_070373H_0_in_070373_4
  1

  0
ATTDEF
  5
174
330
170
100
AcDbEntity
  8
AM_6
100
AcDbText
 10
12.625
 20
2.538461538461539
 30
0.0
 40
0.5
  1
P4B-S2-(Contact Seal)-Housing
100
AcDbAttributeDefinition
  3

  2
NN
 70
     8
280
     0
  0
ATTDEF
  5
175
330
170
100
AcDbEntity
  8
AM_6
100
AcDbText
 10
12.625
 20
2.038461538461539
 30
0.0
 40
0.5
  1
S-2000 Pillow Block Bearing -Inch (4-Bolt Base)
100
AcDbAttributeDefinition
  3

  2
NT
 70
     8
280
     0
  0
ATTDEF
  5
176
330
170
100
AcDbEntity
  8
AM_6
100
AcDbText
 10
12.625
 20
1.538461538461539
 30
0.0
 40
0.5
  1
070373H
100
AcDbAttributeDefinition
  3

  2
NB
 70
     8
280
     0
  0
ATTDEF
  5
177
330
170
100
AcDbEntity
  8
AM_6
100
AcDbText
 10
12.625
 20
1.038461538461539
 30
0.0
 40
0.5
  1
$PN.H
100
AcDbAttributeDefinition
  3

  2
NBSYN
 70
     8
280
     0
  0
ATTDEF
  5
178
330
170
100
AcDbEntity
  8
AM_6
100
AcDbText
 10
12.625
 20
0.5384615384615388
 30
0.0
 40
0.5
  1
070373
100
AcDbAttributeDefinition
  3

  2
LINA
 70
     8
280
     0
  0
ATTDEF
  5
179
330
170
100
AcDbEntity
  8
AM_6
100
AcDbText
 10
12.625
 20
0.0384615384615388
 30
0.0
 40
0.5
  1
3-15/16
100
AcDbAttributeDefinition
  3

  2
SS
 70
     8
280
     0
  0
ATTDEF
  5
17A
330
170
100
AcDbEntity
  8
AM_6
100
AcDbText
 10
12.625
 20
-0.4615384615384612
 30
0.0
 40
0.5
  1
070373
100
AcDbAttributeDefinition
  3

  2
PN
 70
     8
280
     0
  0
ATTDEF
  5
17B
330
170
100
AcDbEntity
  8
AM_6
100
AcDbText
 10
12.625
 20
-0.9615384615384612
 30
0.0
 40
0.5
  1
P4B-S2-315R
100
AcDbAttributeDefinition
  3

  2
DESCRIPTION
 70
     8
280
     0
  0
ATTDEF
  5
17C
330
170
100
AcDbEntity
  8
AM_6
100
AcDbText
 10
12.625
 20
-1.461538461538461
 30
0.0
 40
0.5
  1
Non-Expansion Type
100
AcDbAttributeDefinition
  3

  2
EF
 70
     8
280
     0
  0
ATTDEF
  5
17D
330
170
100
AcDbEntity
  8
AM_6
100
AcDbText
 10
12.625
 20
-1.961538461538461
 30
0.0
 40
0.5
  1
1
100
AcDbAttributeDefinition
  3

  2
EF1
 70
     8
280
     0
  0
ATTDEF
  5
17E
330
170
100
AcDbEntity
  8
AM_6
100
AcDbText
 10
12.625
 20
-2.461538461538461
 30
0.0
 40
0.5
  1
4-15/32
100
AcDbAttributeDefinition
  3

  2
A
 70
     8
280
     0
  0
ATTDEF
  5
17F
330
170
100
AcDbEntity
  8
AM_6
100
AcDbText
 10
12.625
 20
-2.961538461538461
 30
0.0
 40
0.5
  1
15-1/4
100
AcDbAttributeDefinition
  3

  2
B
 70
     8
280
     0
  0
ATTDEF
  5
180
330
170
100
AcDbEntity
  8
AM_6
100
AcDbText
 10
12.625
 20
-3.461538461538461
 30
0.0
 40
0.5
  1
4-1/2
100
AcDbAttributeDefinition
  3

  2
C
 70
     8
280
     0
  0
ATTDEF
  5
181
330
170
100
AcDbEntity
  8
AM_6
100
AcDbText
 10
12.625
 20
-3.961538461538461
 30
0.0
 40
0.5
  1
12-1/8
100
AcDbAttributeDefinition
  3

  2
DMIN
 70
     8
280
     0
  0
ATTDEF
  5
182
330
170
100
AcDbEntity
  8
AM_6
100
AcDbText
 10
12.625
 20
-4.461538461538462
 30
0.0
 40
0.5
  1
12-7/8
100
AcDbAttributeDefinition
  3

  2
DMAX
 70
     8
280
     0
  0
ATTDEF
  5
183
330
170
100
AcDbEntity
  8
AM_6
100
AcDbText
 10
12.625
 20
-4.961538461538462
 30
0.0
 40
0.5
  1
2-1/4
100
AcDbAttributeDefinition
  3

  2
E
 70
     8
280
     0
  0
ATTDEF
  5
184
330
170
100
AcDbEntity
  8
AM_6
100
AcDbText
 10
12.625
 20
-5.461538461538462
 30
0.0
 40
0.5
  1
2.250000
100
AcDbAttributeDefinition
  3

  2
E1
 70
     8
280
     0
  0
ATTDEF
  5
185
330
170
100
AcDbEntity
  8
AM_6
100
AcDbText
 10
12.625
 20
-5.961538461538462
 30
0.0
 40
0.5
  1
3/4
100
AcDbAttributeDefinition
  3

  2
F
 70
     8
280
     0
  0
ATTDEF
  5
186
330
170
100
AcDbEntity
  8
AM_6
100
AcDbText
 10
12.625
 20
-6.461538461538462
 30
0.0
 40
0.5
  1
1-1/4
100
AcDbAttributeDefinition
  3

  2
G
 70
     8
280
     0
  0
ATTDEF
  5
187
330
170
100
AcDbEntity
  8
AM_6
100
AcDbText
 10
12.625
 20
-6.961538461538462
 30
0.0
 40
0.5
  1
2-7/16
100
AcDbAttributeDefinition
  3

  2
H
 70
     8
280
     0
  0
ATTDEF
  5
188
330
170
100
AcDbEntity
  8
AM_6
100
AcDbText
 10
12.625
 20
-7.461538461538462
 30
0.0
 40
0.5
  1
8-7/16
100
AcDbAttributeDefinition
  3

  2
J
 70
     8
280
     0
  0
ATTDEF
  5
189
330
170
100
AcDbEntity
  8
AM_6
100
AcDbText
 10
12.625
 20
-7.961538461538462
 30
0.0
 40
0.5
  1
6
100
AcDbAttributeDefinition
  3

  2
L
 70
     8
280
     0
  0
ATTDEF
  5
18A
330
170
100
AcDbEntity
  8
AM_6
100
AcDbText
 10
12.625
 20
-8.461538461538462
 30
0.0
 40
0.5
  1
4-1/4
100
AcDbAttributeDefinition
  3

  2
M
 70
     8
280
     0
  0
ATTDEF
  5
18B
330
170
100
AcDbEntity
  8
AM_6
100
AcDbText
 10
12.625
 20
-8.961538461538462
 30
0.0
 40
0.5
  1
1-41/64
100
AcDbAttributeDefinition
  3

  2
R
 70
     8
280
     0
  0
ATTDEF
  5
18C
330
170
100
AcDbEntity
  8
AM_6
100
AcDbText
 10
12.625
 20
-9.461538461538462
 30
0.0
 40
0.5
  1
2-53/64
100
AcDbAttributeDefinition
  3

  2
S
 70
     8
280
     0
  0
ATTDEF
  5
18D
330
170
100
AcDbEntity
  8
AM_6
100
AcDbText
 10
12.625
 20
-9.961538461538462
 30
0.0
 40
0.5
  1
5/16
100
AcDbAttributeDefinition
  3

  2
X
 70
     8
280
     0
  0
ATTDEF
  5
18E
330
170
100
AcDbEntity
  8
AM_6
100
AcDbText
 10
12.625
 20
-10.46153846153846
 30
0.0
 40
0.5
  1
0.025
100
AcDbAttributeDefinition
  3

  2
Y
 70
     8
280
     0
  0
ATTDEF
  5
18F
330
170
100
AcDbEntity
  8
AM_6
100
AcDbText
 10
12.625
 20
-10.96153846153846
 30
0.0
 40
0.5
  1
4-1/2
100
AcDbAttributeDefinition
  3

  2
Z
 70
     8
280
     0
  0
ATTDEF
  5
190
330
170
100
AcDbEntity
  8
AM_6
100
AcDbText
 10
12.625
 20
-11.46153846153846
 30
0.0
 40
0.5
  1
1
100
AcDbAttributeDefinition
  3

  2
ST1
 70
     8
280
     0
  0
ATTDEF
  5
191
330
170
100
AcDbEntity
  8
AM_6
100
AcDbText
 10
12.625
 20
-11.96153846153846
 30
0.0
 40
0.5
  1
baldor
100
AcDbAttributeDefinition
  3

  2
COMPANY
 70
     8
280
     0
  0
LINE
  5
192
330
170
100
AcDbEntity
  8
AM_9
100
AcDbLine
 10
-3.229489063207213
 20
-1.5625
 30
0.0
 11
-3.229489063207213
 21
1.5625
 31
0.0
  0
LINE
  5
193
330
170
100
AcDbEntity
  8
AM_9
100
AcDbLine
 10
3.229489063207213
 20
-1.5625
 30
0.0
 11
3.229489063207213
 21
1.5625
 31
0.0
  0
LINE
  5
194
330
170
100
AcDbEntity
  8
AM_9
100
AcDbLine
 10
6.875
 20
-1.125
 30
0.0
 11
6.875
 21
1.125
 31
0.0
  0
LINE
  5
195
330
170
100
AcDbEntity
  8
AM_9
100
AcDbLine
 10
-1.083804751366806
 20
1.5625
 30
0.0
 11
-6.0625
 21
1.5625
 31
0.0
  0
LINE
  5
196
330
170
100
AcDbEntity
  8
AM_9
100
AcDbLine
 10
-1.083804751366806
 20
-1.5625
 30
0.0
 11
-6.0625
 21
-1.5625
 31
0.0
  0
LINE
  5
197
330
170
100
AcDbEntity
  8
AM_9
100
AcDbLine
 10
-6.875
 20
1.125000000000001
 30
0.0
 11
-6.875
 21
-1.124999999999999
 31
0.0
  0
LINE
  5
198
330
170
100
AcDbEntity
  8
AM_9
100
AcDbLine
 10
1.083804751366805
 20
1.5625
 30
0.0
 11
6.062500000000001
 21
1.5625
 31
0.0
  0
LINE
  5
199
330
170
100
AcDbEntity
  8
AM_9
100
AcDbLine
 10
1.083804751366805
 20
-1.5625
 30
0.0
 11
6.062500000000001
 21
-1.5625
 31
0.0
  0
LINE
  5
19A
330
170
100
AcDbEntity
  8
AM_9
100
AcDbLine
 10
3.5433
 20
-1.8
 30
0.0
 11
3.5433
 21
1.8
 31
0.0
  0
LINE
  5
19B
330
170
100
AcDbEntity
  8
AM_9
100
AcDbLine
 10
-3.5433
 20
1.8
 30
0.0
 11
-3.5433
 21
-1.8
 31
0.0
  0
LWPOLYLINE
  5
19C
330
170
100
AcDbEntity
  8
AM_9
100
AcDbPolyline
 90
        6
 70
     0
 43
0.0
 10
2.417095585022121
 20
-0.3207889058117313
 10
2.449018083991795
 20
-0.2672732295998506
 10
2.480640905188895
 20
-0.1923480215842531
 10
2.501547247495298
 20
-0.1119322582080757
 10
2.509210124403496
 20
-0.0563282561065047
 10
2.511783748087542
 20
0.0000000000000002
  0
LWPOLYLINE
  5
19D
330
170
100
AcDbEntity
  8
AM_9
100
AcDbPolyline
 90
        7
 70
     0
 43
0.0
 10
2.093748628420152
 20
-0.4999999999974914
 10
2.165424294128249
 20
-0.4929702805273938
 10
2.234485478634567
 20
-0.4722100304966804
 10
2.298809460003588
 20
-0.4381473152055139
 10
2.356865901427167
 20
-0.3919255617591976
 10
2.407421815817725
 20
-0.3343014950860689
 10
2.417095585022121
 20
-0.3207889058117313
  0
ELLIPSE
  5
19E
330
170
100
AcDbEntity
  8
AM_9
100
AcDbEllipse
 10
2.118749999999999
 20
0.0000000000000002
 30
0.0
 11
3.061616997868383E-17
 21
0.5
 31
0.0
210
0.0
220
0.0
230
1.0
 40
0.8660254037844392
 41
3.273514826603808
 42
6.283185307179586
  0
ELLIPSE
  5
19F
330
170
100
AcDbEntity
  8
AM_9
100
AcDbEllipse
 10
2.118750000000072
 20
0.0000000000000887
 30
0.0
 11
3.061616997868924E-17
 21
0.5000000000000884
 31
0.0
210
0.0
220
0.0
230
1.0
 40
0.8660254037844284
 41
3.141592653589793
 42
3.262994511719074
  0
LINE
  5
1A0
330
170
100
AcDbEntity
  8
AM_9
100
AcDbLine
 10
2.098734399622731
 20
0.4999668469355535
 30
0.0
 11
2.093788731624457
 21
0.4999999979998028
 31
0.0
  0
LINE
  5
1A1
330
170
100
AcDbEntity
  8
AM_9
100
AcDbLine
 10
2.117624465689073
 20
0.4992365278233562
 30
0.0
 11
2.098734399622731
 21
0.4999668469355535
 31
0.0
  0
LWPOLYLINE
  5
1A2
330
170
100
AcDbEntity
  8
AM_9
100
AcDbPolyline
 90
        7
 70
     0
 43
0.0
 10
2.417153951983034
 20
0.3207037895871516
 10
2.376105629613368
 20
0.3722581266909342
 10
2.320399135270317
 20
0.4229837376089781
 10
2.25750996451622
 20
0.4617641419921307
 10
2.189293876266918
 20
0.4874830448569856
 10
2.117853734288403
 20
0.4991699046547042
 10
2.117624465689073
 20
0.4992365278233562
  0
LWPOLYLINE
  5
1A3
330
170
100
AcDbEntity
  8
AM_9
100
AcDbPolyline
 90
        6
 70
     0
 43
0.0
 10
2.511783748087542
 20
0.0000000000000002
 10
2.506069875519462
 20
0.083598874860891
 10
2.489210386526839
 20
0.1648331951321649
 10
2.461458626205557
 20
0.241336307776807
 10
2.423587385748319
 20
0.311073689368545
 10
2.417153951983034
 20
0.3207037895871516
  0
LINE
  5
1A4
330
170
100
AcDbEntity
  8
AM_7
100
AcDbLine
 10
0.0
 20
2.538461538461539
 30
0.0
 11
0.0
 21
-3.052343749999999
 31
0.0
  0
LINE
  5
1A5
330
170
100
AcDbEntity
  8
AM_7
100
AcDbLine
 10
5.603125000000001
 20
1.125
 30
0.0
 11
6.896874999999999
 21
1.125
 31
0.0
  0
LINE
  5
1A6
330
170
100
AcDbEntity
  8
AM_7
100
AcDbLine
 10
6.437499999999999
 20
0.6656250000000001
 30
0.0
 11
6.437499999999999
 21
1.584375
 31
0.0
  0
LINE
  5
1A7
330
170
100
AcDbEntity
  8
AM_7
100
AcDbLine
 10
-6.896874999999999
 20
1.125000000000001
 30
0.0
 11
-5.603125
 21
1.125000000000001
 31
0.0
  0
LINE
  5
1A8
330
170
100
AcDbEntity
  8
AM_7
100
AcDbLine
 10
-6.0625
 20
0.6656250000000006
 30
0.0
 11
-6.0625
 21
1.584375000000001
 31
0.0
  0
LINE
  5
1A9
330
170
100
AcDbEntity
  8
AM_7
100
AcDbLine
 10
-6.896875
 20
-1.124999999999999
 30
0.0
 11
-5.603125000000001
 21
-1.124999999999999
 31
0.0
  0
LINE
  5
1AA
330
170
100
AcDbEntity
  8
AM_7
100
AcDbLine
 10
-6.062500000000001
 20
-1.584374999999999
 30
0.0
 11
-6.062500000000001
 21
-0.665624999999999
 31
0.0
  0
LINE
  5
1AB
330
170
100
AcDbEntity
  8
AM_7
100
AcDbLine
 10
-6.437499999999999
 20
0.6656250000000008
 30
0.0
 11
-6.437499999999999
 21
1.584375000000001
 31
0.0
  0
LINE
  5
1AC
330
170
100
AcDbEntity
  8
AM_7
100
AcDbLine
 10
6.062500000000001
 20
0.6656249999999999
 30
0.0
 11
6.062500000000001
 21
1.584375
 31
0.0
  0
LINE
  5
1AD
330
170
100
AcDbEntity
  8
AM_7
100
AcDbLine
 10
5.603125000000001
 20
-1.125
 30
0.0
 11
6.896874999999999
 21
-1.125
 31
0.0
  0
LINE
  5
1AE
330
170
100
AcDbEntity
  8
AM_7
100
AcDbLine
 10
6.062500000000001
 20
-1.584375
 30
0.0
 11
6.062500000000001
 21
-0.6656249999999999
 31
0.0
  0
LINE
  5
1AF
330
170
100
AcDbEntity
  8
AM_7
100
AcDbLine
 10
-6.4375
 20
-1.584374999999999
 30
0.0
 11
-6.4375
 21
-0.665624999999999
 31
0.0
  0
LINE
  5
1B0
330
170
100
AcDbEntity
  8
AM_7
100
AcDbLine
 10
6.437499999999999
 20
-1.584375
 30
0.0
 11
6.437499999999999
 21
-0.6656249999999997
 31
0.0
  0
LINE
  5
1B1
330
170
100
AcDbEntity
  8
AM_4
100
AcDbLine
 10
-7.625
 20
-1.8
 30
0.0
 11
-7.175
 21
-2.25
 31
0.0
  0
LINE
  5
1B2
330
170
100
AcDbEntity
  8
AM_4
100
AcDbLine
 10
-7.175
 20
2.25
 30
0.0
 11
-7.625
 21
1.8
 31
0.0
  0
LINE
  5
1B3
330
170
100
AcDbEntity
  8
AM_4
100
AcDbLine
 10
-7.625
 20
-1.8
 30
0.0
 11
-7.625
 21
1.8
 31
0.0
  0
LINE
  5
1B4
330
170
100
AcDbEntity
  8
AM_4
100
AcDbLine
 10
7.175
 20
-2.25
 30
0.0
 11
7.625
 21
-1.8
 31
0.0
  0
LINE
  5
1B5
330
170
100
AcDbEntity
  8
AM_4
100
AcDbLine
 10
7.625
 20
1.8
 30
0.0
 11
7.175
 21
2.25
 31
0.0
  0
LINE
  5
1B6
330
170
100
AcDbEntity
  8
AM_4
100
AcDbLine
 10
7.625
 20
-1.8
 30
0.0
 11
7.625
 21
1.8
 31
0.0
  0
ARC
  5
1B7
330
170
100
AcDbEntity
  8
AM_4
100
AcDbCircle
 10
4.645535714285728
 20
2.035714285714144
 30
0.0
 40
0.2142857142858556
100
AcDbArc
 50
90.0
 51
104.6880849351748
  0
ARC
  5
1B8
330
170
100
AcDbEntity
  8
AM_4
100
AcDbCircle
 10
4.645535714285711
 20
-2.0357142857143
 30
0.0
 40
0.2142857142857001
100
AcDbArc
 50
255.311915064819
 51
270.0
  0
LINE
  5
1B9
330
170
100
AcDbEntity
  8
AM_4
100
AcDbLine
 10
6.437499999999999
 20
-0.6875000000000001
 30
0.0
 11
6.062500000000001
 21
-0.6875000000000001
 31
0.0
  0
ARC
  5
1BA
330
170
100
AcDbEntity
  8
AM_4
100
AcDbCircle
 10
6.437499999999999
 20
-1.125
 30
0.0
 40
0.4375000000000002
100
AcDbArc
 50
270.0
 51
90.0
  0
LINE
  5
1BB
330
170
100
AcDbEntity
  8
AM_4
100
AcDbLine
 10
6.062500000000001
 20
-1.5625
 30
0.0
 11
6.4375
 21
-1.5625
 31
0.0
  0
ARC
  5
1BC
330
170
100
AcDbEntity
  8
AM_4
100
AcDbCircle
 10
6.062500000000001
 20
-1.125
 30
0.0
 40
0.4374999999999999
100
AcDbArc
 50
90.0
 51
270.0
  0
LINE
  5
1BD
330
170
100
AcDbEntity
  8
AM_4
100
AcDbLine
 10
6.437499999999999
 20
1.5625
 30
0.0
 11
6.062500000000001
 21
1.5625
 31
0.0
  0
ARC
  5
1BE
330
170
100
AcDbEntity
  8
AM_4
100
AcDbCircle
 10
6.437499999999999
 20
1.125
 30
0.0
 40
0.4375000000000003
100
AcDbArc
 50
270.0
 51
90.0
  0
LINE
  5
1BF
330
170
100
AcDbEntity
  8
AM_4
100
AcDbLine
 10
6.062500000000001
 20
0.6874999999999999
 30
0.0
 11
6.4375
 21
0.6874999999999999
 31
0.0
  0
ARC
  5
1C0
330
170
100
AcDbEntity
  8
AM_4
100
AcDbCircle
 10
6.062500000000001
 20
1.125
 30
0.0
 40
0.4375
100
AcDbArc
 50
90.0
 51
270.0
  0
LINE
  5
1C1
330
170
100
AcDbEntity
  8
AM_4
100
AcDbLine
 10
7.5
 20
-1.924999999999999
 30
0.0
 11
7.5
 21
1.924999999999998
 31
0.0
  0
LINE
  5
1C2
330
170
100
AcDbEntity
  8
AM_4
100
AcDbLine
 10
7.175
 20
2.25
 30
0.0
 11
4.645535714285715
 21
2.25
 31
0.0
  0
LINE
  5
1C3
330
170
100
AcDbEntity
  8
AM_4
100
AcDbLine
 10
7.175
 20
-2.25
 30
0.0
 11
4.645535714285716
 21
-2.250000000000001
 31
0.0
  0
ARC
  5
1C4
330
170
100
AcDbEntity
  8
AM_4
100
AcDbCircle
 10
-4.645535714285713
 20
-2.035714285714274
 30
0.0
 40
0.214285714285726
100
AcDbArc
 50
270.0
 51
284.6880849351792
  0
ARC
  5
1C5
330
170
100
AcDbEntity
  8
AM_4
100
AcDbCircle
 10
-4.645535714285713
 20
2.035714285714274
 30
0.0
 40
0.2142857142857246
100
AcDbArc
 50
75.31191506482074
 51
90.0
  0
LINE
  5
1C6
330
170
100
AcDbEntity
  8
AM_4
100
AcDbLine
 10
-6.0625
 20
1.562500000000001
 30
0.0
 11
-6.437499999999999
 21
1.562500000000001
 31
0.0
  0
ARC
  5
1C7
330
170
100
AcDbEntity
  8
AM_4
100
AcDbCircle
 10
-6.0625
 20
1.125000000000001
 30
0.0
 40
0.4375
100
AcDbArc
 50
270.0
 51
90.0
  0
LINE
  5
1C8
330
170
100
AcDbEntity
  8
AM_4
100
AcDbLine
 10
-6.437499999999999
 20
0.6875000000000007
 30
0.0
 11
-6.0625
 21
0.6875000000000007
 31
0.0
  0
ARC
  5
1C9
330
170
100
AcDbEntity
  8
AM_4
100
AcDbCircle
 10
-6.437499999999999
 20
1.125000000000001
 30
0.0
 40
0.4375
100
AcDbArc
 50
90.0
 51
270.0
  0
LINE
  5
1CA
330
170
100
AcDbEntity
  8
AM_4
100
AcDbLine
 10
-6.062500000000001
 20
-0.6874999999999993
 30
0.0
 11
-6.4375
 21
-0.6874999999999993
 31
0.0
  0
ARC
  5
1CB
330
170
100
AcDbEntity
  8
AM_4
100
AcDbCircle
 10
-6.062500000000001
 20
-1.124999999999999
 30
0.0
 40
0.4375000000000002
100
AcDbArc
 50
270.0
 51
90.0
  0
LINE
  5
1CC
330
170
100
AcDbEntity
  8
AM_4
100
AcDbLine
 10
-6.4375
 20
-1.562499999999999
 30
0.0
 11
-6.0625
 21
-1.562499999999999
 31
0.0
  0
ARC
  5
1CD
330
170
100
AcDbEntity
  8
AM_4
100
AcDbCircle
 10
-6.4375
 20
-1.124999999999999
 30
0.0
 40
0.4374999999999998
100
AcDbArc
 50
90.0
 51
270.0
  0
LINE
  5
1CE
330
170
100
AcDbEntity
  8
AM_4
100
AcDbLine
 10
-4.645535714285714
 20
2.25
 30
0.0
 11
-7.175
 21
2.25
 31
0.0
  0
LINE
  5
1CF
330
170
100
AcDbEntity
  8
AM_4
100
AcDbLine
 10
-7.5
 20
-1.924999999999999
 30
0.0
 11
-7.5
 21
1.924999999999999
 31
0.0
  0
LINE
  5
1D0
330
170
100
AcDbEntity
  8
AM_4
100
AcDbLine
 10
-4.645535714285714
 20
-2.25
 30
0.0
 11
-7.175
 21
-2.25
 31
0.0
  0
LINE
  5
1D1
330
170
100
AcDbEntity
  8
AM_4
100
AcDbLine
 10
4.187499999999991
 20
1.35
 30
0.0
 11
4.591202116666187
 21
1.35
 31
0.0
  0
LWPOLYLINE
  5
1D2
330
170
100
AcDbEntity
  8
AM_4
100
AcDbPolyline
 90
        5
 70
     0
 43
0.0
 10
4.43125
 20
2.014285714285714
 10
4.429150597258052
 20
1.984363539558752
 10
4.423568798312752
 20
1.957426742074728
 10
4.416704703903228
 20
1.936683312978448
 10
4.412449776792559
 20
1.926514476828179
  0
LINE
  5
1D3
330
170
100
AcDbEntity
  8
AM_4
100
AcDbLine
 10
4.591202116666187
 20
1.35
 30
0.0
 11
4.591202116666185
 21
2.242997250563446
 31
0.0
  0
LWPOLYLINE
  5
1D4
330
170
100
AcDbEntity
  8
AM_4
100
AcDbPolyline
 90
       10
 70
     0
 43
0.0
 10
4.43125
 20
2.035714288907392
 10
4.432192840734166
 20
2.055677073270657
 10
4.434881849000713
 20
2.074999351419042
 10
4.442087235247437
 20
2.103019809452311
 10
4.452564716025879
 20
2.128883814947514
 10
4.473085751874522
 20
2.162925457053197
 10
4.500083450379466
 20
2.193073766748909
 10
4.522169079936267
 20
2.210913049110826
 10
4.547175135348633
 20
2.226091710473895
 10
4.591202116666185
 20
2.242997250563445
  0
LINE
  5
1D5
330
170
100
AcDbEntity
  8
AM_4
100
AcDbLine
 10
4.43125
 20
2.014285714285714
 30
0.0
 11
4.43125
 21
2.035714288907392
 31
0.0
  0
LINE
  5
1D6
330
170
100
AcDbEntity
  8
AM_4
100
AcDbLine
 10
4.187499999999991
 20
-1.35
 30
0.0
 11
4.591202116666187
 21
-1.35
 31
0.0
  0
LWPOLYLINE
  5
1D7
330
170
100
AcDbEntity
  8
AM_4
100
AcDbPolyline
 90
        6
 70
     0
 43
0.0
 10
4.41244977679256
 20
-1.926514476828191
 10
4.416965633355971
 20
-1.937358292071968
 10
4.422973276749503
 20
-1.955305523038211
 10
4.428367994365145
 20
-1.979259448204352
 10
4.431175652198438
 20
-2.008641441442199
 10
4.43125
 20
-2.014285711092603
  0
LINE
  5
1D8
330
170
100
AcDbEntity
  8
AM_4
100
AcDbLine
 10
4.43125
 20
-2.035714285714285
 30
0.0
 11
4.43125
 21
-2.014285711092609
 31
0.0
  0
LWPOLYLINE
  5
1D9
330
170
100
AcDbEntity
  8
AM_4
100
AcDbPolyline
 90
       11
 70
     0
 43
0.0
 10
4.591202116666185
 20
-2.242997250563445
 10
4.564374084904157
 20
-2.234012595789567
 10
4.539340592726124
 20
-2.221835116101115
 10
4.516910186947972
 20
-2.207094416631745
 10
4.49702237680056
 20
-2.190188089111364
 10
4.471956332864725
 20
-2.161366845148804
 10
4.452230728794345
 20
-2.128188876446659
 10
4.442572798163424
 20
-2.104465460182027
 10
4.435653647831193
 20
-2.078933326977585
 10
4.432399391106603
 20
-2.057735157893906
 10
4.43125
 20
-2.035714285714284
  0
LINE
  5
1DA
330
170
100
AcDbEntity
  8
AM_4
100
AcDbLine
 10
4.591202116666185
 20
-2.242997250563445
 30
0.0
 11
4.591202116666187
 21
-1.35
 31
0.0
  0
LINE
  5
1DB
330
170
100
AcDbEntity
  8
AM_4
100
AcDbLine
 10
-4.591202116666187
 20
1.35
 30
0.0
 11
-4.187500000000001
 21
1.35
 31
0.0
  0
LWPOLYLINE
  5
1DC
330
170
100
AcDbEntity
  8
AM_4
100
AcDbPolyline
 90
        6
 70
     0
 43
0.0
 10
-4.412449776792561
 20
1.926514476828195
 10
-4.416965633355971
 20
1.937358292071971
 10
-4.422973276749503
 20
1.955305523038214
 10
-4.428367994365145
 20
1.979259448204354
 10
-4.431175652198437
 20
2.008641441442199
 10
-4.43125
 20
2.014285714285709
  0
LINE
  5
1DD
330
170
100
AcDbEntity
  8
AM_4
100
AcDbLine
 10
-4.591202116666187
 20
1.35
 30
0.0
 11
-4.591202116666187
 21
2.242997250563445
 31
0.0
  0
LINE
  5
1DE
330
170
100
AcDbEntity
  8
AM_4
100
AcDbLine
 10
-4.43125
 20
2.035714285714286
 30
0.0
 11
-4.43125
 21
2.014285714285716
 31
0.0
  0
LWPOLYLINE
  5
1DF
330
170
100
AcDbEntity
  8
AM_4
100
AcDbPolyline
 90
       11
 70
     0
 43
0.0
 10
-4.591202116666187
 20
2.242997250563446
 10
-4.564801303798964
 20
2.234209430013324
 10
-4.539340592726128
 20
2.221835116101117
 10
-4.517118921899288
 20
2.207258725379698
 10
-4.497022376800563
 20
2.190188089111368
 10
-4.471956332864728
 20
2.161366845148809
 10
-4.452230728794348
 20
2.128188876446667
 10
-4.442648090916265
 20
2.104670646047726
 10
-4.435653647831194
 20
2.078933326977589
 10
-4.432428744457924
 20
2.058159480250212
 10
-4.43125
 20
2.035714285714286
  0
LINE
  5
1E0
330
170
100
AcDbEntity
  8
AM_4
100
AcDbLine
 10
-4.591202116666187
 20
-1.35
 30
0.0
 11
-4.187500000000001
 21
-1.35
 31
0.0
  0
LWPOLYLINE
  5
1E1
330
170
100
AcDbEntity
  8
AM_4
100
AcDbPolyline
 90
        5
 70
     0
 43
0.0
 10
-4.43125
 20
-2.014285714285714
 10
-4.429150597258052
 20
-1.984363539558753
 10
-4.423568798312753
 20
-1.95742674207473
 10
-4.416704703903229
 20
-1.93668331297845
 10
-4.41244977679256
 20
-1.926514476828182
  0
LINE
  5
1E2
330
170
100
AcDbEntity
  8
AM_4
100
AcDbLine
 10
-4.591202116666187
 20
-2.242997250563446
 30
0.0
 11
-4.591202116666187
 21
-1.35
 31
0.0
  0
LWPOLYLINE
  5
1E3
330
170
100
AcDbEntity
  8
AM_4
100
AcDbPolyline
 90
       10
 70
     0
 43
0.0
 10
-4.431250000000001
 20
-2.035714285714287
 10
-4.432152166796602
 20
-2.05535681630228
 10
-4.434881848156137
 20
-2.074999346890272
 10
-4.441990319808311
 20
-2.102704133706179
 10
-4.452564712435001
 20
-2.128883807510153
 10
-4.472728081359329
 20
-2.162426121583388
 10
-4.500083445421051
 20
-2.193073762165692
 10
-4.521865663055967
 20
-2.210711673625565
 10
-4.547175130471343
 20
-2.226091707953991
 10
-4.591202116666187
 20
-2.242997250563446
  0
LINE
  5
1E4
330
170
100
AcDbEntity
  8
AM_4
100
AcDbLine
 10
-4.43125
 20
-2.014285714285714
 30
0.0
 11
-4.43125
 21
-2.035714285714287
 31
0.0
  0
LINE
  5
1E5
330
170
100
AcDbEntity
  8
AM_4
100
AcDbLine
 10
4.41244977679256
 20
-1.926514476828189
 30
0.0
 11
4.41244977679256
 21
1.926514476828188
 31
0.0
  0
LINE
  5
1E6
330
170
100
AcDbEntity
  8
AM_4
100
AcDbLine
 10
4.187499999999991
 20
1.35
 30
0.0
 11
4.187499999999991
 21
-1.35
 31
0.0
  0
LWPOLYLINE
  5
1E7
330
170
100
AcDbEntity
  8
AM_4
100
AcDbPolyline
 90
       15
 70
     0
 43
0.0
 10
4.216964285714286
 20
1.8
 10
4.23564051630307
 20
1.800815421837483
 10
4.254174609500057
 20
1.803255481497384
 10
4.272425509664826
 20
1.807301608652343
 10
4.290254316426929
 20
1.812923009831591
 10
4.307525341801579
 20
1.820076902777861
 10
4.324107142857143
 20
1.828708842046192
 10
4.339873522075224
 20
1.838753133366645
 10
4.354704487789973
 20
1.850133333617362
 10
4.368487167397118
 20
1.862762832602883
 10
4.381116666382638
 20
1.876545512210027
 10
4.392496866633356
 20
1.891376477924776
 10
4.402541157953809
 20
1.907142857142857
 10
4.411173097222139
 20
1.923724658198422
 10
4.412449776792559
 20
1.926514476828189
  0
LWPOLYLINE
  5
1E8
330
170
100
AcDbEntity
  8
AM_4
100
AcDbPolyline
 90
       15
 70
     0
 43
0.0
 10
4.412449776792559
 20
-1.926514476828189
 10
4.404056128087831
 20
-1.909810789714259
 10
4.394238597493497
 20
-1.893902219860001
 10
4.383071902345367
 20
-1.878909841087864
 10
4.370641027936154
 20
-1.864947754452951
 10
4.357040580726078
 20
-1.85212221986509
 10
4.342374068330583
 20
-1.840530847386765
 10
4.326753111764881
 20
-1.830261854361598
 10
4.310296595940629
 20
-1.821393394027098
 10
4.293129764879964
 20
-1.813992960721334
 10
4.275383268532874
 20
-1.808116876210266
 10
4.257192168452189
 20
-1.803809861045101
 10
4.238694909893608
 20
-1.801104694211891
 10
4.220032268163714
 20
-1.800021963663663
 10
4.216964285714255
 20
-1.8
  0
LINE
  5
1E9
330
170
100
AcDbEntity
  8
AM_4
100
AcDbLine
 10
4.216964285714286
 20
1.8
 30
0.0
 11
-4.216964285714285
 21
1.8
 31
0.0
  0
LINE
  5
1EA
330
170
100
AcDbEntity
  8
AM_4
100
AcDbLine
 10
-4.216964285714285
 20
-1.8
 30
0.0
 11
4.216964285714271
 21
-1.8
 31
0.0
  0
LINE
  5
1EB
330
170
100
AcDbEntity
  8
AM_4
100
AcDbLine
 10
-4.187500000000001
 20
-1.35
 30
0.0
 11
-4.187500000000001
 21
1.35
 31
0.0
  0
LINE
  5
1EC
330
170
100
AcDbEntity
  8
AM_4
100
AcDbLine
 10
-4.412449776792561
 20
-1.926514476828193
 30
0.0
 11
-4.412449776792561
 21
1.926514476828195
 31
0.0
  0
LWPOLYLINE
  5
1ED
330
170
100
AcDbEntity
  8
AM_4
100
AcDbPolyline
 90
       15
 70
     0
 43
0.0
 10
-4.216964285714285
 20
-1.8
 10
-4.235640516303069
 20
-1.800815421837483
 10
-4.254174609500056
 20
-1.803255481497384
 10
-4.272425509664826
 20
-1.807301608652342
 10
-4.290254316426929
 20
-1.812923009831591
 10
-4.307525341801578
 20
-1.820076902777861
 10
-4.324107142857143
 20
-1.828708842046192
 10
-4.339873522075224
 20
-1.838753133366644
 10
-4.354704487789973
 20
-1.850133333617362
 10
-4.368487167397118
 20
-1.862762832602883
 10
-4.381116666382638
 20
-1.876545512210027
 10
-4.392496866633356
 20
-1.891376477924776
 10
-4.402541157953809
 20
-1.907142857142857
 10
-4.411173097222139
 20
-1.923724658198422
 10
-4.412449776792561
 20
-1.926514476828193
  0
LWPOLYLINE
  5
1EE
330
170
100
AcDbEntity
  8
AM_4
100
AcDbPolyline
 90
       15
 70
     0
 43
0.0
 10
-4.412449776792561
 20
1.926514476828194
 10
-4.404056128087833
 20
1.909810789714263
 10
-4.3942385974935
 20
1.893902219860005
 10
-4.38307190234537
 20
1.878909841087868
 10
-4.370641027936157
 20
1.864947754452954
 10
-4.357040580726082
 20
1.852122219865093
 10
-4.342374068330587
 20
1.840530847386768
 10
-4.326753111764885
 20
1.8302618543616
 10
-4.310296595940633
 20
1.821393394027101
 10
-4.293129764879968
 20
1.813992960721336
 10
-4.275383268532878
 20
1.808116876210268
 10
-4.257192168452193
 20
1.803809861045102
 10
-4.238694909893613
 20
1.801104694211892
 10
-4.220032268163719
 20
1.800021963663663
 10
-4.216964285714283
 20
1.8
  0
LINE
  5
1EF
330
170
100
AcDbEntity
  8
AM_4
100
AcDbLine
 10
2.118749999999999
 20
0.5000000000000001
 30
0.0
 11
2.093652535450299
 21
0.5000000000000001
 31
0.0
  0
LINE
  5
1F0
330
170
100
AcDbEntity
  8
AM_4
100
AcDbLine
 10
2.093748878088145
 20
-0.4999999999999997
 30
0.0
 11
2.118749999999999
 21
-0.4999999999999997
 31
0.0
  0
LWPOLYLINE
  5
1F1
330
170
100
AcDbEntity
  8
AM_4
100
AcDbPolyline
 90
       21
 70
     0
 43
0.0
 10
2.093788731624457
 20
0.4999999979998028
 10
2.04490452560372
 20
0.4968332994569555
 10
1.972897153118042
 20
0.4804623973086058
 10
1.903556411303045
 20
0.4507514083413124
 10
1.838848517589556
 20
0.4082536655516684
 10
1.780851430722619
 20
0.3543921398185771
 10
1.731197882768154
 20
0.2900912497322046
 10
1.691751652424516
 20
0.2175804511145849
 10
1.663977405696633
 20
0.1387637957763409
 10
1.648669366890405
 20
0.0559811335737933
 10
1.646530435897442
 20
-0.0279084226592375
 10
1.657305738814771
 20
-0.1110072828857439
 10
1.680719250735377
 20
-0.1906827606674682
 10
1.715809047465558
 20
-0.2650231791237841
 10
1.761816922666402
 20
-0.3321827398489548
 10
1.816968934540496
 20
-0.3900376188170466
 10
1.879980144289968
 20
-0.4370499547808362
 10
1.948530565700081
 20
-0.4717137652796742
 10
2.020394014806429
 20
-0.4928055719315962
 10
2.093555765696325
 20
-0.4999999496989329
 10
2.093748628420152
 20
-0.4999999999974914
  0
ELLIPSE
  5
1F2
330
170
100
AcDbEntity
  8
AM_4
100
AcDbEllipse
 10
2.118750000000728
 20
0.0000000000056768
 30
0.0
 11
3.061616997903142E-17
 21
0.5000000000056765
 31
0.0
210
0.0
220
0.0
230
1.0
 40
0.8660254037844501
 41
3.128687112160155
 42
3.141592653589793
  0
ELLIPSE
  5
1F3
330
170
100
AcDbEntity
  8
AM_4
100
AcDbEllipse
 10
2.143749999999999
 20
0.0000000000000002
 30
0.0
 11
-8.266365894244637E-17
 21
-0.4500000000000002
 31
0.0
210
0.0
220
0.0
230
1.0
 40
0.8660254037844385
 41
0.0
 42
6.283185307179586
  0
LINE
  5
1F4
330
170
100
AcDbEntity
  8
AM_4
100
AcDbLine
 10
2.116727320319411
 20
0.4999947209614315
 30
0.0
 11
2.114609792834854
 21
0.4999778816799139
 31
0.0
  0
LWPOLYLINE
  5
1F5
330
170
100
AcDbEntity
  8
AM_4
100
AcDbPolyline
 90
       20
 70
     0
 43
0.0
 10
2.558461431702997
 20
0.0000000000000002
 10
2.557980495893645
 20
0.0234007501067661
 10
2.55459616074865
 20
0.0662114198968846
 10
2.547991979180188
 20
0.1085550487248538
 10
2.538212967132337
 20
0.1501103832242733
 10
2.525326659147066
 20
0.1905700703343849
 10
2.509423439460922
 20
0.2296333593913759
 10
2.490616468552437
 20
0.2670081556737303
 10
2.469041534811376
 20
0.3024132283095043
 10
2.44485675388958
 20
0.3355806046234577
 10
2.418242004546139
 20
0.3662581629794822
 10
2.389397965563052
 20
0.3942123872409602
 10
2.358544618290776
 20
0.4192311759224742
 10
2.325919119536262
 20
0.4411265203520673
 10
2.291773037750659
 20
0.4597368037111082
 10
2.256369072036551
 20
0.474928458680839
 10
2.219977506541798
 20
0.4865967808694237
 10
2.182872745774169
 20
0.4946658301063996
 10
2.14533028704011
 20
0.4990875316745473
 10
2.116727320319411
 20
0.4999947209614315
  0
LWPOLYLINE
  5
1F6
330
170
100
AcDbEntity
  8
AM_4
100
AcDbPolyline
 90
       20
 70
     0
 43
0.0
 10
2.115950081303515
 20
-0.4999898843551574
 10
2.146229555357749
 20
-0.4990246837905044
 10
2.183695092781917
 20
-0.4945273670625869
 10
2.220662539268489
 20
-0.4864121962280479
 10
2.256870921701294
 20
-0.4747403557626129
 10
2.292064278111703
 20
-0.4595951320713781
 10
2.325992040756466
 20
-0.4410822772641782
 10
2.358409975110701
 20
-0.4193306402385439
 10
2.389081761580548
 20
-0.3944927048628564
 10
2.417781131884654
 20
-0.3667447060852922
 10
2.444294338791208
 20
-0.3362861096436065
 10
2.468422681506626
 20
-0.3033383942633351
 10
2.489984831945326
 20
-0.2681432156135132
 10
2.508818785633658
 20
-0.2309601216948936
 10
2.524783359151424
 20
-0.1920640177886032
 10
2.537759241921764
 20
-0.1517425567237459
 10
2.547649666230098
 20
-0.1102935800669984
 10
2.554380783315314
 20
-0.0680226805324583
 10
2.557901832985716
 20
-0.0252409102235567
 10
2.558461431702997
 20
0.0000000000000002
  0
LINE
  5
1F7
330
170
100
AcDbEntity
  8
AM_4
100
AcDbLine
 10
2.112991691290295
 20
-0.4999572134822395
 30
0.0
 11
2.115950081303515
 21
-0.4999898843551574
 31
0.0
  0
ELLIPSE
  5
1F8
330
170
100
AcDbEntity
  8
AM_4
100
AcDbEllipse
 10
2.118749999999999
 20
0.0000000000000002
 30
0.0
 11
3.061616997868381E-17
 21
0.4999999999999997
 31
0.0
210
0.0
220
0.0
230
1.0
 40
0.8660254037844362
 41
0.0092511554869077
 42
3.128687112161695
  0
ELLIPSE
  5
1F9
330
170
100
AcDbEntity
  8
AM_4
100
AcDbEllipse
 10
2.118749999983543
 20
-0.0000000000043522
 30
0.0
 11
3.061616997895033E-17
 21
0.5000000000043523
 31
0.0
210
0.0
220
0.0
230
1.0
 40
0.8660254037842736
 41
0.0
 42
0.0092511554488399
  0
LINE
  5
1FA
330
170
100
AcDbEntity
  8
AM_4
100
AcDbLine
 10
4.158474573448942
 20
-1.8
 30
0.0
 11
4.158474573448942
 21
1.8
 31
0.0
  0
LINE
  5
1FB
330
170
100
AcDbEntity
  8
AM_4
100
AcDbLine
 10
-4.158474573448942
 20
-1.8
 30
0.0
 11
-4.158474573448942
 21
1.8
 31
0.0
  0
LINE
  5
1FC
330
170
100
AcDbEntity
  8
AM_4
100
AcDbLine
 10
1.083804751366806
 20
-1.8
 30
0.0
 11
1.083804751366806
 21
1.8
 31
0.0
  0
LINE
  5
1FD
330
170
100
AcDbEntity
  8
AM_4
100
AcDbLine
 10
-1.083804751366806
 20
-1.8
 30
0.0
 11
-1.083804751366806
 21
1.8
 31
0.0
  0
ENDBLK
  5
173
330
170
100
AcDbEntity
  8
0
100
AcDbBlockEnd
  0
ENDSEC
  0
SECTION
  2
ENTITIES
  0
INSERT
  5
6F
330
1F
100
AcDbEntity
  8
0
100
AcDbBlockReference
  2
1_070373_4
 10
0.0
 20
0.0
 30
0.0
  0
POINT
  5
1FF
330
1F
100
AcDbEntity
  8
ConnectionPoints
100
AcDbPoint
 10
0.0
 20
-2.828125
 30
0.0000000000000002
  0
POINT
  5
200
330
1F
100
AcDbEntity
  8
ConnectionPoints
100
AcDbPoint
 10
0.0
 20
2.848625
 30
-0.0000000000000002
  0
POINT
  5
201
330
1F
100
AcDbEntity
  8
ConnectionPoints
100
AcDbPoint
 10
0.0
 20
-2.828125
 30
0.0000000000000002
  0
POINT
  5
202
330
1F
100
AcDbEntity
  8
ConnectionPoints
100
AcDbPoint
 10
2.14375
 20
0.0000000000000002
 30
3.71308391872578
  0
POINT
  5
203
330
1F
100
AcDbEntity
  8
ConnectionPoints
100
AcDbPoint
 10
0.0
 20
-2.515625
 30
0.0000000000000002
  0
POINT
  5
204
330
1F
100
AcDbEntity
  8
ConnectionPoints
100
AcDbPoint
 10
0.0
 20
-2.828125
 30
0.0000000000000002
  0
POINT
  5
205
330
1F
100
AcDbEntity
  8
ConnectionPoints
100
AcDbPoint
 10
2.14375
 20
0.0000000000000002
 30
3.71308391872578
  0
ENDSEC
  0
SECTION
  2
OBJECTS
  0
DICTIONARY
  5
C
330
0
100
AcDbDictionary
281
     1
  3
ACAD_DETAILVIEWSTYLE
350
20D
  3
ACAD_GROUP
350
D
  3
ACAD_LAYOUT
350
1A
  3
ACAD_MATERIAL
350
43
  3
ACAD_MLEADERSTYLE
350
6B
  3
ACAD_MLINESTYLE
350
17
  3
ACAD_PLOTSETTINGS
350
19
  3
ACAD_PLOTSTYLENAME
350
E
  3
ACAD_SCALELIST
350
47
  3
ACAD_SECTIONVIEWSTYLE
350
20E
  3
ACAD_TABLESTYLE
350
69
  3
ACAD_VISUALSTYLE
350
2A
  3
ACDB_RECOMPOSE_DATA
350
20A
  3
AcDbVariableDictionary
350
206
  0
SUN
  5
6D
330
29
100
AcDbSun
 90
        1
290
     0
 63
     7
421
 16777215
 40
1.0
291
     1
 91
  2455826
 92
 54000000
292
     0
 70
     2
 71
   256
280
     1
  0
DICTIONARY
  5
20D
102
{ACAD_REACTORS
330
C
102
}
330
C
100
AcDbDictionary
281
     1
  0
DICTIONARY
  5
D
102
{ACAD_REACTORS
330
C
102
}
330
C
100
AcDbDictionary
281
     1
  0
DICTIONARY
  5
1A
102
{ACAD_REACTORS
330
C
102
}
330
C
100
AcDbDictionary
281
     1
  3
Layout1
350
1E
  3
Layout2
350
26
  3
Model
350
22
  0
DICTIONARY
  5
43
102
{ACAD_REACTORS
330
C
102
}
330
C
100
AcDbDictionary
281
     1
  3
ByBlock
350
45
  3
ByLayer
350
44
  3
Global
350
46
  0
DICTIONARY
  5
6B
102
{ACAD_REACTORS
330
C
102
}
330
C
100
AcDbDictionary
281
     1
  3
Standard
350
6C
  0
DICTIONARY
  5
17
102
{ACAD_REACTORS
330
C
102
}
330
C
100
AcDbDictionary
281
     1
  3
Standard
350
18
  0
DICTIONARY
  5
19
102
{ACAD_REACTORS
330
C
102
}
330
C
100
AcDbDictionary
281
     1
  0
ACDBDICTIONARYWDFLT
  5
E
102
{ACAD_REACTORS
330
C
102
}
330
C
100
AcDbDictionary
281
     1
  3
Normal
350
F
100
AcDbDictionaryWithDefault
340
F
  0
DICTIONARY
  5
47
102
{ACAD_REACTORS
330
C
102
}
330
C
100
AcDbDictionary
281
     1
  3
A0
350
48
  3
A1
350
49
  3
A2
350
4A
  3
A3
350
4B
  3
A4
350
4C
  3
A5
350
4D
  3
A6
350
4E
  3
A7
350
4F
  3
A8
350
50
  3
A9
350
51
  3
B0
350
52
  3
B1
350
53
  3
B2
350
54
  3
B3
350
55
  3
B4
350
56
  3
B5
350
57
  3
B6
350
58
  3
B7
350
59
  3
B8
350
5A
  3
B9
350
5B
  3
C0
350
5C
  3
C1
350
5D
  3
C2
350
5E
  3
C3
350
5F
  3
C4
350
60
  3
C5
350
61
  3
C6
350
62
  3
C7
350
63
  3
C8
350
64
  3
C9
350
65
  3
D0
350
66
  3
D1
350
67
  3
D2
350
68
  0
DICTIONARY
  5
20E
102
{ACAD_REACTORS
330
C
102
}
330
C
100
AcDbDictionary
281
     1
  0
DICTIONARY
  5
69
102
{ACAD_REACTORS
330
C
102
}
330
C
100
AcDbDictionary
281
     1
  3
Standard
350
6A
  0
DICTIONARY
  5
2A
102
{ACAD_REACTORS
330
C
102
}
330
C
100
AcDbDictionary
281
     1
  3
2dWireframe
350
2F
  3
Basic
350
32
  3
Brighten
350
36
  3
ColorChange
350
3A
  3
Conceptual
350
34
  3
Dim
350
35
  3
EdgeColorOff
350
3D
  3
Facepattern
350
39
  3
Flat
350
2B
  3
FlatWithEdges
350
2C
  3
Gouraud
350
2D
  3
GouraudWithEdges
350
2E
  3
Hidden
350
31
  3
JitterOff
350
3B
  3
Linepattern
350
38
  3
OverhangOff
350
3C
  3
Realistic
350
33
  3
Shaded
350
42
  3
Shaded with edges
350
41
  3
Shades of Gray
350
3E
  3
Sketchy
350
3F
  3
Thicken
350
37
  3
Wireframe
350
30
  3
X-Ray
350
40
  0
XRECORD
  5
20A
102
{ACAD_REACTORS
330
C
102
}
330
C
100
AcDbXrecord
280
     1
 90
        1
330
6A
  0
DICTIONARY
  5
206
102
{ACAD_REACTORS
330
C
102
}
330
C
100
AcDbDictionary
281
     1
  3
CANNOSCALE
350
207
  3
CMLEADERSTYLE
350
20C
  3
CTABLESTYLE
350
20B
  0
LAYOUT
  5
1E
102
{ACAD_REACTORS
330
1A
102
}
330
1A
100
AcDbPlotSettings
  1

  2
none_device
  4

  6

 40
0.0
 41
0.0
 42
0.0
 43
0.0
 44
0.0
 45
0.0
 46
0.0
 47
0.0
 48
0.0
 49
0.0
140
0.0
141
0.0
142
1.0
143
1.0
 70
   688
 72
     0
 73
     0
 74
     5
  7

 75
    16
 76
     0
 77
     2
 78
   300
147
1.0
148
0.0
149
0.0
100
AcDbLayout
  1
Layout1
 70
     1
 71
     1
 10
0.0
 20
0.0
 11
12.0
 21
9.0
 12
0.0
 22
0.0
 32
0.0
 14
1.000000000000000E+20
 24
1.000000000000000E+20
 34
1.000000000000000E+20
 15
-1.000000000000000E+20
 25
-1.000000000000000E+20
 35
-1.000000000000000E+20
146
0.0
 13
0.0
 23
0.0
 33
0.0
 16
1.0
 26
0.0
 36
0.0
 17
0.0
 27
1.0
 37
0.0
 76
     0
330
1B
  0
LAYOUT
  5
26
102
{ACAD_REACTORS
330
1A
102
}
330
1A
100
AcDbPlotSettings
  1

  2
none_device
  4

  6

 40
0.0
 41
0.0
 42
0.0
 43
0.0
 44
0.0
 45
0.0
 46
0.0
 47
0.0
 48
0.0
 49
0.0
140
0.0
141
0.0
142
1.0
143
1.0
 70
   688
 72
     0
 73
     0
 74
     5
  7

 75
    16
 76
     0
 77
     2
 78
   300
147
1.0
148
0.0
149
0.0
100
AcDbLayout
  1
Layout2
 70
     1
 71
     2
 10
0.0
 20
0.0
 11
0.0
 21
0.0
 12
0.0
 22
0.0
 32
0.0
 14
0.0
 24
0.0
 34
0.0
 15
0.0
 25
0.0
 35
0.0
146
0.0
 13
0.0
 23
0.0
 33
0.0
 16
1.0
 26
0.0
 36
0.0
 17
0.0
 27
1.0
 37
0.0
 76
     0
330
23
  0
LAYOUT
  5
22
102
{ACAD_REACTORS
330
1A
102
}
330
1A
100
AcDbPlotSettings
  1

  2
none_device
  4
Letter_(8.50_x_11.00_Inches)
  6

 40
6.35
 41
6.35
 42
6.35000508
 43
6.35000508
 44
215.9
 45
279.4
 46
0.0
 47
0.0
 48
0.0
 49
0.0
140
0.0
141
0.0
142
1.0
143
1.0
 70
  1712
 72
     0
 73
     0
 74
     0
  7

 75
     0
 76
     0
 77
     2
 78
   300
147
1.0
148
0.0
149
0.0
100
AcDbLayout
  1
Model
 70
     1
 71
     0
 10
0.0
 20
0.0
 11
12.0
 21
9.0
 12
0.0
 22
0.0
 32
0.0
 14
1.000000000000000E+20
 24
1.000000000000000E+20
 34
1.000000000000000E+20
 15
-1.000000000000000E+20
 25
-1.000000000000000E+20
 35
-1.000000000000000E+20
146
0.0
 13
0.0
 23
0.0
 33
0.0
 16
1.0
 26
0.0
 36
0.0
 17
0.0
 27
1.0
 37
0.0
 76
     0
330
1F
331
29
  0
MATERIAL
  5
45
102
{ACAD_REACTORS
330
43
102
}
330
43
100
AcDbMaterial
  1
ByBlock
 72
     1
 94
      127
  0
MATERIAL
  5
44
102
{ACAD_REACTORS
330
43
102
}
330
43
100
AcDbMaterial
  1
ByLayer
 72
     1
 94
      127
  0
MATERIAL
  5
46
102
{ACAD_REACTORS
330
43
102
}
330
43
100
AcDbMaterial
  1
Global
 72
     1
 94
      127
  0
MLEADERSTYLE
  5
6C
102
{ACAD_REACTORS
330
6B
102
}
330
6B
100
AcDbMLeaderStyle
179
     2
170
     2
171
     1
172
     0
 90
        2
 40
0.0
 41
0.0
173
     1
 91
-1056964608
340
14
 92
       -2
290
     1
 42
0.09
291
     1
 43
0.36
  3
Standard
341
0
 44
0.18
300

342
11
174
     1
178
     6
175
     1
176
     0
 93
-1056964608
 45
0.18
292
     0
297
     0
 46
0.18
343
0
 94
-1056964608
 47
1.0
 49
1.0
140
1.0
293
     1
141
0.0
294
     1
177
     0
142
1.0
295
     0
296
     0
143
0.125
271
     0
272
     9
273
     9
298
     0
  0
MLINESTYLE
  5
18
102
{ACAD_REACTORS
330
17
102
}
330
17
100
AcDbMlineStyle
  2
Standard
 70
     0
  3

 62
   256
 51
90.0
 52
90.0
 71
     2
 49
0.5
 62
   256
  6
BYLAYER
 49
-0.5
 62
   256
  6
BYLAYER
  0
ACDBPLACEHOLDER
  5
F
102
{ACAD_REACTORS
330
E
102
}
330
E
  0
SCALE
  5
48
102
{ACAD_REACTORS
330
47
102
}
330
47
100
AcDbScale
 70
     0
300
1:1
140
1.0
141
1.0
290
     1
  0
SCALE
  5
49
102
{ACAD_REACTORS
330
47
102
}
330
47
100
AcDbScale
 70
     0
300
1:2
140
1.0
141
2.0
290
     0
  0
SCALE
  5
4A
102
{ACAD_REACTORS
330
47
102
}
330
47
100
AcDbScale
 70
     0
300
1:4
140
1.0
141
4.0
290
     0
  0
SCALE
  5
4B
102
{ACAD_REACTORS
330
47
102
}
330
47
100
AcDbScale
 70
     0
300
1:5
140
1.0
141
5.0
290
     0
  0
SCALE
  5
4C
102
{ACAD_REACTORS
330
47
102
}
330
47
100
AcDbScale
 70
     0
300
1:8
140
1.0
141
8.0
290
     0
  0
SCALE
  5
4D
102
{ACAD_REACTORS
330
47
102
}
330
47
100
AcDbScale
 70
     0
300
1:10
140
1.0
141
10.0
290
     0
  0
SCALE
  5
4E
102
{ACAD_REACTORS
330
47
102
}
330
47
100
AcDbScale
 70
     0
300
1:16
140
1.0
141
16.0
290
     0
  0
SCALE
  5
4F
102
{ACAD_REACTORS
330
47
102
}
330
47
100
AcDbScale
 70
     0
300
1:20
140
1.0
141
20.0
290
     0
  0
SCALE
  5
50
102
{ACAD_REACTORS
330
47
102
}
330
47
100
AcDbScale
 70
     0
300
1:30
140
1.0
141
30.0
290
     0
  0
SCALE
  5
51
102
{ACAD_REACTORS
330
47
102
}
330
47
100
AcDbScale
 70
     0
300
1:40
140
1.0
141
40.0
290
     0
  0
SCALE
  5
52
102
{ACAD_REACTORS
330
47
102
}
330
47
100
AcDbScale
 70
     0
300
1:50
140
1.0
141
50.0
290
     0
  0
SCALE
  5
53
102
{ACAD_REACTORS
330
47
102
}
330
47
100
AcDbScale
 70
     0
300
1:100
140
1.0
141
100.0
290
     0
  0
SCALE
  5
54
102
{ACAD_REACTORS
330
47
102
}
330
47
100
AcDbScale
 70
     0
300
2:1
140
2.0
141
1.0
290
     0
  0
SCALE
  5
55
102
{ACAD_REACTORS
330
47
102
}
330
47
100
AcDbScale
 70
     0
300
4:1
140
4.0
141
1.0
290
     0
  0
SCALE
  5
56
102
{ACAD_REACTORS
330
47
102
}
330
47
100
AcDbScale
 70
     0
300
8:1
140
8.0
141
1.0
290
     0
  0
SCALE
  5
57
102
{ACAD_REACTORS
330
47
102
}
330
47
100
AcDbScale
 70
     0
300
10:1
140
10.0
141
1.0
290
     0
  0
SCALE
  5
58
102
{ACAD_REACTORS
330
47
102
}
330
47
100
AcDbScale
 70
     0
300
100:1
140
100.0
141
1.0
290
     0
  0
SCALE
  5
59
102
{ACAD_REACTORS
330
47
102
}
330
47
100
AcDbScale
 70
     0
300
1/128" = 1'-0"
140
0.0078125
141
12.0
290
     0
  0
SCALE
  5
5A
102
{ACAD_REACTORS
330
47
102
}
330
47
100
AcDbScale
 70
     0
300
1/64" = 1'-0"
140
0.015625
141
12.0
290
     0
  0
SCALE
  5
5B
102
{ACAD_REACTORS
330
47
102
}
330
47
100
AcDbScale
 70
     0
300
1/32" = 1'-0"
140
0.03125
141
12.0
290
     0
  0
SCALE
  5
5C
102
{ACAD_REACTORS
330
47
102
}
330
47
100
AcDbScale
 70
     0
300
1/16" = 1'-0"
140
0.0625
141
12.0
290
     0
  0
SCALE
  5
5D
102
{ACAD_REACTORS
330
47
102
}
330
47
100
AcDbScale
 70
     0
300
3/32" = 1'-0"
140
0.09375
141
12.0
290
     0
  0
SCALE
  5
5E
102
{ACAD_REACTORS
330
47
102
}
330
47
100
AcDbScale
 70
     0
300
1/8" = 1'-0"
140
0.125
141
12.0
290
     0
  0
SCALE
  5
5F
102
{ACAD_REACTORS
330
47
102
}
330
47
100
AcDbScale
 70
     0
300
3/16" = 1'-0"
140
0.1875
141
12.0
290
     0
  0
SCALE
  5
60
102
{ACAD_REACTORS
330
47
102
}
330
47
100
AcDbScale
 70
     0
300
1/4" = 1'-0"
140
0.25
141
12.0
290
     0
  0
SCALE
  5
61
102
{ACAD_REACTORS
330
47
102
}
330
47
100
AcDbScale
 70
     0
300
3/8" = 1'-0"
140
0.375
141
12.0
290
     0
  0
SCALE
  5
62
102
{ACAD_REACTORS
330
47
102
}
330
47
100
AcDbScale
 70
     0
300
1/2" = 1'-0"
140
0.5
141
12.0
290
     0
  0
SCALE
  5
63
102
{ACAD_REACTORS
330
47
102
}
330
47
100
AcDbScale
 70
     0
300
3/4" = 1'-0"
140
0.75
141
12.0
290
     0
  0
SCALE
  5
64
102
{ACAD_REACTORS
330
47
102
}
330
47
100
AcDbScale
 70
     0
300
1" = 1'-0"
140
1.0
141
12.0
290
     0
  0
SCALE
  5
65
102
{ACAD_REACTORS
330
47
102
}
330
47
100
AcDbScale
 70
     0
300
1-1/2" = 1'-0"
140
1.5
141
12.0
290
     0
  0
SCALE
  5
66
102
{ACAD_REACTORS
330
47
102
}
330
47
100
AcDbScale
 70
     0
300
3" = 1'-0"
140
3.0
141
12.0
290
     0
  0
SCALE
  5
67
102
{ACAD_REACTORS
330
47
102
}
330
47
100
AcDbScale
 70
     0
300
6" = 1'-0"
140
6.0
141
12.0
290
     0
  0
SCALE
  5
68
102
{ACAD_REACTORS
330
47
102
}
330
47
100
AcDbScale
 70
     0
300
1'-0" = 1'-0"
140
12.0
141
12.0
290
     0
  0
TABLESTYLE
  5
6A
102
{ACAD_REACTORS
330
69
102
}
102
{ACAD_XDICTIONARY
360
208
102
}
330
69
100
AcDbTableStyle
  3
Standard
 70
     0
 71
     0
 40
0.06
 41
0.06
280
     0
281
     0
  7
Standard
140
0.18
170
     2
 62
     0
 63
   257
283
     0
 90
        4
 91
        0
  1

274
    -2
284
     1
 64
     0
275
    -2
285
     1
 65
     0
276
    -2
286
     1
 66
     0
277
    -2
287
     1
 67
     0
278
    -2
288
     1
 68
     0
279
    -2
289
     1
 69
     0
  7
Standard
140
0.25
170
     5
 62
     0
 63
   257
283
     0
 90
        4
 91
        0
  1

274
    -2
284
     1
 64
     0
275
    -2
285
     1
 65
     0
276
    -2
286
     1
 66
     0
277
    -2
287
     1
 67
     0
278
    -2
288
     1
 68
     0
279
    -2
289
     1
 69
     0
  7
Standard
140
0.18
170
     5
 62
     0
 63
   257
283
     0
 90
        4
 91
        0
  1

274
    -2
284
     1
 64
     0
275
    -2
285
     1
 65
     0
276
    -2
286
     1
 66
     0
277
    -2
287
     1
 67
     0
278
    -2
288
     1
 68
     0
279
    -2
289
     1
 69
     0
  0
VISUALSTYLE
  5
2F
102
{ACAD_REACTORS
330
2A
102
}
330
2A
100
AcDbVisualStyle
  2
2dWireframe
 70
     4
177
     3
291
     0
 70
    58
 90
        0
176
     1
 90
        2
176
     1
 90
        0
176
     1
 90
        0
176
     1
 40
0.6
176
     1
 40
30.0
176
     1
 62
     7
420
 16777215
176
     1
 90
        1
176
     1
 90
        4
176
     1
 62
     7
176
     1
 62
   257
176
     1
 90
        1
176
     1
 90
        1
176
     1
 40
1.0
176
     1
 90
        0
176
     1
 62
   257
176
     1
 40
1.0
176
     1
 90
        1
176
     1
 90
        6
176
     1
 90
        2
176
     1
 62
     7
176
     1
 90
        5
176
     1
 90
        0
176
     1
 90
        0
176
     1
290
     0
176
     1
 90
        1
176
     1
 40
0.0
176
     1
 90
        0
176
     1
290
     1
176
     1
290
     1
176
     1
290
     0
176
     1
290
     0
176
     1
290
     0
176
     1
290
     0
176
     1
290
     0
176
     1
290
     0
176
     1
290
     0
176
     1
 90
       50
176
     1
 40
0.0
176
     1
 40
1.0
176
     1
 90
        0
176
     1
 62
    18
420
        0
176
     1
 90
       50
176
     1
 90
        3
176
     1
 62
     5
420
      255
176
     1
290
     0
176
     1
 90
       50
176
     1
 90
       50
176
     1
 90
       50
176
     1
290
     0
176
     1
 90
       50
176
     1
 62
   256
176
     0
 40
1.0
176
     0
 90
        2
176
     1
  1
strokes_ogs.tif
176
     1
290
     0
176
     1
 40
1.0
176
     1
 40
1.0
176
     1
  0
VISUALSTYLE
  5
32
102
{ACAD_REACTORS
330
2A
102
}
330
2A
100
AcDbVisualStyle
  2
Basic
 70
     7
177
     3
291
     1
 70
    58
 90
        1
176
     1
 90
        0
176
     1
 90
        1
176
     1
 90
        0
176
     1
 40
0.6
176
     1
 40
30.0
176
     1
 62
     7
420
 16777215
176
     1
 90
        0
176
     1
 90
        4
176
     1
 62
     7
176
     1
 62
   257
176
     1
 90
        1
176
     1
 90
        1
176
     1
 40
1.0
176
     1
 90
        8
176
     1
 62
     7
176
     1
 40
1.0
176
     1
 90
        1
176
     1
 90
        6
176
     1
 90
        2
176
     1
 62
     7
176
     1
 90
        5
176
     1
 90
        0
176
     1
 90
        0
176
     1
290
     0
176
     1
 90
        1
176
     1
 40
0.0
176
     1
 90
        0
176
     1
290
     0
176
     1
290
     1
176
     1
290
     1
176
     1
290
     0
176
     1
290
     0
176
     1
290
     0
176
     1
290
     0
176
     1
290
     0
176
     1
290
     0
176
     1
 90
       50
176
     1
 40
0.0
176
     1
 40
1.0
176
     1
 90
        0
176
     1
 62
    18
420
        0
176
     1
 90
       50
176
     1
 90
        3
176
     1
 62
     5
420
      255
176
     1
290
     0
176
     1
 90
       50
176
     1
 90
       50
176
     1
 90
       50
176
     1
290
     0
176
     1
 90
       50
176
     1
 62
   256
176
     0
 40
1.0
176
     0
 90
        2
176
     1
  1
strokes_ogs.tif
176
     1
290
     0
176
     1
 40
1.0
176
     1
 40
1.0
176
     1
  0
VISUALSTYLE
  5
36
102
{ACAD_REACTORS
330
2A
102
}
330
2A
100
AcDbVisualStyle
  2
Brighten
 70
    12
177
     3
291
     1
 70
    58
 90
        2
176
     1
 90
        2
176
     1
 90
        0
176
     1
 90
        0
176
     1
 40
0.6
176
     1
 40
30.0
176
     1
 62
     7
420
 16777215
176
     1
 90
        1
176
     1
 90
        4
176
     1
 62
     7
176
     1
 62
   257
176
     1
 90
        1
176
     1
 90
        1
176
     1
 40
1.0
176
     1
 90
        8
176
     1
 62
     7
176
     1
 40
1.0
176
     1
 90
        1
176
     1
 90
        6
176
     1
 90
        2
176
     1
 62
     7
176
     1
 90
        5
176
     1
 90
        0
176
     1
 90
        0
176
     1
290
     0
176
     1
 90
        1
176
     1
 40
50.0
176
     1
 90
        0
176
     1
290
     0
176
     1
290
     1
176
     1
290
     1
176
     1
290
     0
176
     1
290
     0
176
     1
290
     0
176
     1
290
     0
176
     1
290
     0
176
     1
290
     0
176
     1
 90
       50
176
     1
 40
0.0
176
     1
 40
1.0
176
     1
 90
        0
176
     1
 62
    18
420
        0
176
     1
 90
       50
176
     1
 90
        3
176
     1
 62
     5
420
      255
176
     1
290
     0
176
     1
 90
       50
176
     1
 90
       50
176
     1
 90
       50
176
     1
290
     0
176
     1
 90
       50
176
     1
 62
   256
176
     0
 40
1.0
176
     0
 90
        2
176
     1
  1
strokes_ogs.tif
176
     1
290
     0
176
     1
 40
1.0
176
     1
 40
1.0
176
     1
  0
VISUALSTYLE
  5
3A
102
{ACAD_REACTORS
330
2A
102
}
330
2A
100
AcDbVisualStyle
  2
ColorChange
 70
    16
177
     3
291
     1
 70
    58
 90
        2
176
     1
 90
        2
176
     1
 90
        3
176
     1
 90
        0
176
     1
 40
0.6
176
     1
 40
30.0
176
     1
 62
     8
420
  8421504
176
     1
 90
        1
176
     1
 90
        4
176
     1
 62
     7
176
     1
 62
   257
176
     1
 90
        1
176
     1
 90
        1
176
     1
 40
1.0
176
     1
 90
        8
176
     1
 62
     8
420
  8421504
176
     1
 40
1.0
176
     1
 90
        1
176
     1
 90
        6
176
     1
 90
        2
176
     1
 62
     7
176
     1
 90
        5
176
     1
 90
        0
176
     1
 90
        0
176
     1
290
     0
176
     1
 90
        1
176
     1
 40
0.0
176
     1
 90
        0
176
     1
290
     0
176
     1
290
     1
176
     1
290
     1
176
     1
290
     0
176
     1
290
     0
176
     1
290
     0
176
     1
290
     0
176
     1
290
     0
176
     1
290
     0
176
     1
 90
       50
176
     1
 40
0.0
176
     1
 40
1.0
176
     1
 90
        0
176
     1
 62
    18
420
        0
176
     1
 90
       50
176
     1
 90
        3
176
     1
 62
     5
420
      255
176
     1
290
     0
176
     1
 90
       50
176
     1
 90
       50
176
     1
 90
       50
176
     1
290
     0
176
     1
 90
       50
176
     1
 62
   256
176
     0
 40
1.0
176
     0
 90
        2
176
     1
  1
strokes_ogs.tif
176
     1
290
     0
176
     1
 40
1.0
176
     1
 40
1.0
176
     1
  0
VISUALSTYLE
  5
34
102
{ACAD_REACTORS
330
2A
102
}
330
2A
100
AcDbVisualStyle
  2
Conceptual
 70
     9
177
     3
291
     0
 70
    58
 90
        3
176
     1
 90
        2
176
     1
 90
        0
176
     1
 90
        0
176
     1
 40
0.6
176
     1
 40
30.0
176
     1
 62
     7
420
 16777215
176
     1
 90
        2
176
     1
 90
        2
176
     1
 62
     7
176
     1
 62
   257
176
     1
 90
        1
176
     1
 90
        1
176
     1
 40
179.0
176
     1
 90
        8
176
     1
 62
     7
176
     1
 40
1.0
176
     1
 90
        1
176
     1
 90
        6
176
     1
 90
        2
176
     1
 62
     7
176
     1
 90
        3
176
     1
 90
        0
176
     1
 90
        0
176
     1
290
     0
176
     1
 90
        1
176
     1
 40
0.0
176
     1
 90
        0
176
     1
290
     0
176
     1
290
     1
176
     1
290
     1
176
     1
290
     0
176
     1
290
     0
176
     1
290
     0
176
     1
290
     0
176
     1
290
     0
176
     1
290
     0
176
     1
 90
       50
176
     1
 40
0.0
176
     1
 40
1.0
176
     1
 90
        0
176
     1
 62
    18
420
        0
176
     1
 90
       50
176
     1
 90
        3
176
     1
 62
     5
420
      255
176
     1
290
     0
176
     1
 90
       50
176
     1
 90
       50
176
     1
 90
       50
176
     1
290
     0
176
     1
 90
       50
176
     1
 62
   256
176
     0
 40
1.0
176
     0
 90
        2
176
     1
  1
strokes_ogs.tif
176
     1
290
     0
176
     1
 40
1.0
176
     1
 40
1.0
176
     1
  0
VISUALSTYLE
  5
35
102
{ACAD_REACTORS
330
2A
102
}
330
2A
100
AcDbVisualStyle
  2
Dim
 70
    11
177
     3
291
     1
 70
    58
 90
        2
176
     1
 90
        2
176
     1
 90
        0
176
     1
 90
        0
176
     1
 40
0.6
176
     1
 40
30.0
176
     1
 62
     7
420
 16777215
176
     1
 90
        1
176
     1
 90
        4
176
     1
 62
     7
176
     1
 62
   257
176
     1
 90
        1
176
     1
 90
        1
176
     1
 40
1.0
176
     1
 90
        8
176
     1
 62
     7
176
     1
 40
1.0
176
     1
 90
        1
176
     1
 90
        6
176
     1
 90
        2
176
     1
 62
     7
176
     1
 90
        5
176
     1
 90
        0
176
     1
 90
        0
176
     1
290
     0
176
     1
 90
        1
176
     1
 40
-50.0
176
     1
 90
        0
176
     1
290
     0
176
     1
290
     1
176
     1
290
     1
176
     1
290
     0
176
     1
290
     0
176
     1
290
     0
176
     1
290
     0
176
     1
290
     0
176
     1
290
     0
176
     1
 90
       50
176
     1
 40
0.0
176
     1
 40
1.0
176
     1
 90
        0
176
     1
 62
    18
420
        0
176
     1
 90
       50
176
     1
 90
        3
176
     1
 62
     5
420
      255
176
     1
290
     0
176
     1
 90
       50
176
     1
 90
       50
176
     1
 90
       50
176
     1
290
     0
176
     1
 90
       50
176
     1
 62
   256
176
     0
 40
1.0
176
     0
 90
        2
176
     1
  1
strokes_ogs.tif
176
     1
290
     0
176
     1
 40
1.0
176
     1
 40
1.0
176
     1
  0
VISUALSTYLE
  5
3D
102
{ACAD_REACTORS
330
2A
102
}
330
2A
100
AcDbVisualStyle
  2
EdgeColorOff
 70
    22
177
     3
291
     1
 70
    58
 90
        2
176
     0
 90
        2
176
     0
 90
        0
176
     0
 90
        0
176
     0
 40
0.6
176
     0
 40
30.0
176
     0
 62
     7
420
 16777215
176
     0
 90
        1
176
     0
 90
        4
176
     0
 62
     7
176
     0
 62
   257
176
     0
 90
        1
176
     0
 90
        1
176
     0
 40
1.0
176
     0
 90
        8
176
     2
 62
     7
176
     0
 40
1.0
176
     0
 90
        1
176
     0
 90
        6
176
     0
 90
        2
176
     0
 62
     7
176
     0
 90
        5
176
     0
 90
        0
176
     0
 90
        0
176
     0
290
     0
176
     0
 90
        1
176
     0
 40
0.0
176
     0
 90
        0
176
     0
290
     0
176
     0
290
     1
176
     0
290
     1
176
     0
290
     0
176
     0
290
     0
176
     0
290
     0
176
     0
290
     0
176
     0
290
     0
176
     0
290
     0
176
     0
 90
       50
176
     0
 40
0.0
176
     0
 40
1.0
176
     0
 90
        0
176
     0
 62
    18
420
        0
176
     0
 90
       50
176
     0
 90
        3
176
     0
 62
     5
420
      255
176
     0
290
     0
176
     0
 90
       50
176
     0
 90
       50
176
     0
 90
       50
176
     0
290
     0
176
     0
 90
       50
176
     0
 62
   256
176
     0
 40
1.0
176
     0
 90
        2
176
     0
  1
strokes_ogs.tif
176
     0
290
     0
176
     0
 40
1.0
176
     0
 40
1.0
176
     0
  0
VISUALSTYLE
  5
39
102
{ACAD_REACTORS
330
2A
102
}
330
2A
100
AcDbVisualStyle
  2
Facepattern
 70
    15
177
     3
291
     1
 70
    58
 90
        2
176
     1
 90
        2
176
     1
 90
        0
176
     1
 90
        0
176
     1
 40
0.6
176
     1
 40
30.0
176
     1
 62
     7
420
 16777215
176
     1
 90
        1
176
     1
 90
        4
176
     1
 62
     7
176
     1
 62
   257
176
     1
 90
        1
176
     1
 90
        1
176
     1
 40
1.0
176
     1
 90
        8
176
     1
 62
     7
176
     1
 40
1.0
176
     1
 90
        1
176
     1
 90
        6
176
     1
 90
        2
176
     1
 62
     7
176
     1
 90
        5
176
     1
 90
        0
176
     1
 90
        0
176
     1
290
     0
176
     1
 90
        1
176
     1
 40
0.0
176
     1
 90
        0
176
     1
290
     0
176
     1
290
     1
176
     1
290
     1
176
     1
290
     0
176
     1
290
     0
176
     1
290
     0
176
     1
290
     0
176
     1
290
     0
176
     1
290
     0
176
     1
 90
       50
176
     1
 40
0.0
176
     1
 40
1.0
176
     1
 90
        0
176
     1
 62
    18
420
        0
176
     1
 90
       50
176
     1
 90
        3
176
     1
 62
     5
420
      255
176
     1
290
     0
176
     1
 90
       50
176
     1
 90
       50
176
     1
 90
       50
176
     1
290
     0
176
     1
 90
       50
176
     1
 62
   256
176
     0
 40
1.0
176
     0
 90
        2
176
     1
  1
strokes_ogs.tif
176
     1
290
     0
176
     1
 40
1.0
176
     1
 40
1.0
176
     1
  0
VISUALSTYLE
  5
2B
102
{ACAD_REACTORS
330
2A
102
}
330
2A
100
AcDbVisualStyle
  2
Flat
 70
     0
177
     3
291
     1
 70
    58
 90
        2
176
     1
 90
        1
176
     1
 90
        1
176
     1
 90
        2
176
     1
 40
0.6
176
     1
 40
30.0
176
     1
 62
     7
420
 16777215
176
     1
 90
        0
176
     1
 90
        0
176
     1
 62
     7
176
     1
 62
   257
176
     1
 90
        1
176
     1
 90
        1
176
     1
 40
1.0
176
     1
 90
        8
176
     1
 62
     7
176
     1
 40
1.0
176
     1
 90
        1
176
     1
 90
        6
176
     1
 90
        2
176
     1
 62
     7
176
     1
 90
        5
176
     1
 90
        0
176
     1
 90
        0
176
     1
290
     0
176
     1
 90
       13
176
     1
 40
0.0
176
     1
 90
        0
176
     1
290
     0
176
     1
290
     1
176
     1
290
     1
176
     1
290
     0
176
     1
290
     0
176
     1
290
     0
176
     1
290
     0
176
     1
290
     0
176
     1
290
     0
176
     1
 90
       50
176
     1
 40
0.0
176
     1
 40
1.0
176
     1
 90
        0
176
     1
 62
    18
420
        0
176
     1
 90
       50
176
     1
 90
        3
176
     1
 62
     5
420
      255
176
     1
290
     0
176
     1
 90
       50
176
     1
 90
       50
176
     1
 90
       50
176
     1
290
     0
176
     1
 90
       50
176
     1
 62
   256
176
     0
 40
1.0
176
     0
 90
        2
176
     1
  1
strokes_ogs.tif
176
     1
290
     0
176
     1
 40
1.0
176
     1
 40
1.0
176
     1
  0
VISUALSTYLE
  5
2C
102
{ACAD_REACTORS
330
2A
102
}
330
2A
100
AcDbVisualStyle
  2
FlatWithEdges
 70
     1
177
     3
291
     1
 70
    58
 90
        2
176
     1
 90
        1
176
     1
 90
        1
176
     1
 90
        2
176
     1
 40
0.6
176
     1
 40
30.0
176
     1
 62
     7
420
 16777215
176
     1
 90
        1
176
     1
 90
        0
176
     1
 62
     7
176
     1
 62
   257
176
     1
 90
        1
176
     1
 90
        1
176
     1
 40
1.0
176
     1
 90
        0
176
     1
 62
   257
176
     1
 40
1.0
176
     1
 90
        1
176
     1
 90
        6
176
     1
 90
        2
176
     1
 62
     7
176
     1
 90
        5
176
     1
 90
        0
176
     1
 90
        0
176
     1
290
     0
176
     1
 90
       13
176
     1
 40
0.0
176
     1
 90
        0
176
     1
290
     0
176
     1
290
     1
176
     1
290
     1
176
     1
290
     0
176
     1
290
     0
176
     1
290
     0
176
     1
290
     0
176
     1
290
     0
176
     1
290
     0
176
     1
 90
       50
176
     1
 40
0.0
176
     1
 40
1.0
176
     1
 90
        0
176
     1
 62
    18
420
        0
176
     1
 90
       50
176
     1
 90
        3
176
     1
 62
     5
420
      255
176
     1
290
     0
176
     1
 90
       50
176
     1
 90
       50
176
     1
 90
       50
176
     1
290
     0
176
     1
 90
       50
176
     1
 62
   256
176
     0
 40
1.0
176
     0
 90
        2
176
     1
  1
strokes_ogs.tif
176
     1
290
     0
176
     1
 40
1.0
176
     1
 40
1.0
176
     1
  0
VISUALSTYLE
  5
2D
102
{ACAD_REACTORS
330
2A
102
}
330
2A
100
AcDbVisualStyle
  2
Gouraud
 70
     2
177
     3
291
     1
 70
    58
 90
        2
176
     1
 90
        2
176
     1
 90
        1
176
     1
 90
        2
176
     1
 40
0.6
176
     1
 40
30.0
176
     1
 62
     7
420
 16777215
176
     1
 90
        0
176
     1
 90
        0
176
     1
 62
     7
176
     1
 62
   257
176
     1
 90
        1
176
     1
 90
        1
176
     1
 40
1.0
176
     1
 90
        0
176
     1
 62
     7
176
     1
 40
1.0
176
     1
 90
        1
176
     1
 90
        6
176
     1
 90
        2
176
     1
 62
     7
176
     1
 90
        5
176
     1
 90
        0
176
     1
 90
        0
176
     1
290
     0
176
     1
 90
       13
176
     1
 40
0.0
176
     1
 90
        0
176
     1
290
     0
176
     1
290
     1
176
     1
290
     1
176
     1
290
     0
176
     1
290
     0
176
     1
290
     0
176
     1
290
     0
176
     1
290
     0
176
     1
290
     0
176
     1
 90
       50
176
     1
 40
0.0
176
     1
 40
1.0
176
     1
 90
        0
176
     1
 62
    18
420
        0
176
     1
 90
       50
176
     1
 90
        3
176
     1
 62
     5
420
      255
176
     1
290
     0
176
     1
 90
       50
176
     1
 90
       50
176
     1
 90
       50
176
     1
290
     0
176
     1
 90
       50
176
     1
 62
   256
176
     0
 40
1.0
176
     0
 90
        2
176
     1
  1
strokes_ogs.tif
176
     1
290
     0
176
     1
 40
1.0
176
     1
 40
1.0
176
     1
  0
VISUALSTYLE
  5
2E
102
{ACAD_REACTORS
330
2A
102
}
330
2A
100
AcDbVisualStyle
  2
GouraudWithEdges
 70
     3
177
     3
291
     1
 70
    58
 90
        2
176
     1
 90
        2
176
     1
 90
        1
176
     1
 90
        2
176
     1
 40
0.6
176
     1
 40
30.0
176
     1
 62
     7
420
 16777215
176
     1
 90
        1
176
     1
 90
        0
176
     1
 62
     7
176
     1
 62
   257
176
     1
 90
        1
176
     1
 90
        1
176
     1
 40
1.0
176
     1
 90
        0
176
     1
 62
   257
176
     1
 40
1.0
176
     1
 90
        1
176
     1
 90
        6
176
     1
 90
        2
176
     1
 62
     7
176
     1
 90
        5
176
     1
 90
        0
176
     1
 90
        0
176
     1
290
     0
176
     1
 90
       13
176
     1
 40
0.0
176
     1
 90
        0
176
     1
290
     0
176
     1
290
     1
176
     1
290
     1
176
     1
290
     0
176
     1
290
     0
176
     1
290
     0
176
     1
290
     0
176
     1
290
     0
176
     1
290
     0
176
     1
 90
       50
176
     1
 40
0.0
176
     1
 40
1.0
176
     1
 90
        0
176
     1
 62
    18
420
        0
176
     1
 90
       50
176
     1
 90
        3
176
     1
 62
     5
420
      255
176
     1
290
     0
176
     1
 90
       50
176
     1
 90
       50
176
     1
 90
       50
176
     1
290
     0
176
     1
 90
       50
176
     1
 62
   256
176
     0
 40
1.0
176
     0
 90
        2
176
     1
  1
strokes_ogs.tif
176
     1
290
     0
176
     1
 40
1.0
176
     1
 40
1.0
176
     1
  0
VISUALSTYLE
  5
31
102
{ACAD_REACTORS
330
2A
102
}
330
2A
100
AcDbVisualStyle
  2
Hidden
 70
     6
177
     3
291
     0
 70
    58
 90
        1
176
     1
 90
        2
176
     1
 90
        2
176
     1
 90
        0
176
     1
 40
0.6
176
     1
 40
30.0
176
     1
 62
     7
420
 16777215
176
     1
 90
        2
176
     1
 90
        2
176
     1
 62
     7
176
     1
 62
   257
176
     1
 90
        2
176
     1
 90
        1
176
     1
 40
40.0
176
     1
 90
        0
176
     1
 62
   257
176
     1
 40
1.0
176
     1
 90
        1
176
     1
 90
        6
176
     1
 90
        2
176
     1
 62
     7
176
     1
 90
        3
176
     1
 90
        0
176
     1
 90
        0
176
     1
290
     0
176
     1
 90
        1
176
     1
 40
0.0
176
     1
 90
        0
176
     1
290
     0
176
     1
290
     1
176
     1
290
     1
176
     1
290
     0
176
     1
290
     0
176
     1
290
     0
176
     1
290
     0
176
     1
290
     0
176
     1
290
     0
176
     1
 90
       50
176
     1
 40
0.0
176
     1
 40
1.0
176
     1
 90
        0
176
     1
 62
    18
420
        0
176
     1
 90
       50
176
     1
 90
        3
176
     1
 62
     5
420
      255
176
     1
290
     0
176
     1
 90
       50
176
     1
 90
       50
176
     1
 90
       50
176
     1
290
     0
176
     1
 90
       50
176
     1
 62
   256
176
     0
 40
1.0
176
     0
 90
        2
176
     1
  1
strokes_ogs.tif
176
     1
290
     0
176
     1
 40
1.0
176
     1
 40
1.0
176
     1
  0
VISUALSTYLE
  5
3B
102
{ACAD_REACTORS
330
2A
102
}
330
2A
100
AcDbVisualStyle
  2
JitterOff
 70
    20
177
     3
291
     1
 70
    58
 90
        2
176
     0
 90
        2
176
     0
 90
        0
176
     0
 90
        0
176
     0
 40
0.6
176
     0
 40
30.0
176
     0
 62
     7
420
 16777215
176
     0
 90
        1
176
     0
 90
        4
176
     0
 62
     7
176
     0
 62
   257
176
     0
 90
        1
176
     0
 90
        1
176
     0
 40
1.0
176
     0
 90
       10
176
     2
 62
     7
176
     0
 40
1.0
176
     0
 90
        1
176
     0
 90
        6
176
     0
 90
        2
176
     0
 62
     7
176
     0
 90
        5
176
     0
 90
        0
176
     0
 90
        0
176
     0
290
     0
176
     0
 90
        1
176
     0
 40
0.0
176
     0
 90
        0
176
     0
290
     0
176
     0
290
     1
176
     0
290
     1
176
     0
290
     0
176
     0
290
     0
176
     0
290
     0
176
     0
290
     0
176
     0
290
     0
176
     0
290
     0
176
     0
 90
       50
176
     0
 40
0.0
176
     0
 40
1.0
176
     0
 90
        0
176
     0
 62
    18
420
        0
176
     0
 90
       50
176
     0
 90
        3
176
     0
 62
     5
420
      255
176
     0
290
     0
176
     0
 90
       50
176
     0
 90
       50
176
     0
 90
       50
176
     0
290
     0
176
     0
 90
       50
176
     0
 62
   256
176
     0
 40
1.0
176
     0
 90
        2
176
     0
  1
strokes_ogs.tif
176
     0
290
     0
176
     0
 40
1.0
176
     0
 40
1.0
176
     0
  0
VISUALSTYLE
  5
38
102
{ACAD_REACTORS
330
2A
102
}
330
2A
100
AcDbVisualStyle
  2
Linepattern
 70
    14
177
     3
291
     1
 70
    58
 90
        2
176
     1
 90
        2
176
     1
 90
        0
176
     1
 90
        0
176
     1
 40
0.6
176
     1
 40
30.0
176
     1
 62
     7
420
 16777215
176
     1
 90
        1
176
     1
 90
        4
176
     1
 62
     7
176
     1
 62
   257
176
     1
 90
        7
176
     1
 90
        7
176
     1
 40
1.0
176
     1
 90
        8
176
     1
 62
     7
176
     1
 40
1.0
176
     1
 90
        1
176
     1
 90
        6
176
     1
 90
        2
176
     1
 62
     7
176
     1
 90
        5
176
     1
 90
        0
176
     1
 90
        0
176
     1
290
     0
176
     1
 90
        1
176
     1
 40
0.0
176
     1
 90
        0
176
     1
290
     0
176
     1
290
     1
176
     1
290
     1
176
     1
290
     0
176
     1
290
     0
176
     1
290
     0
176
     1
290
     0
176
     1
290
     0
176
     1
290
     0
176
     1
 90
       50
176
     1
 40
0.0
176
     1
 40
1.0
176
     1
 90
        0
176
     1
 62
    18
420
        0
176
     1
 90
       50
176
     1
 90
        3
176
     1
 62
     5
420
      255
176
     1
290
     0
176
     1
 90
       50
176
     1
 90
       50
176
     1
 90
       50
176
     1
290
     0
176
     1
 90
       50
176
     1
 62
   256
176
     0
 40
1.0
176
     0
 90
        2
176
     1
  1
strokes_ogs.tif
176
     1
290
     0
176
     1
 40
1.0
176
     1
 40
1.0
176
     1
  0
VISUALSTYLE
  5
3C
102
{ACAD_REACTORS
330
2A
102
}
330
2A
100
AcDbVisualStyle
  2
OverhangOff
 70
    21
177
     3
291
     1
 70
    58
 90
        2
176
     0
 90
        2
176
     0
 90
        0
176
     0
 90
        0
176
     0
 40
0.6
176
     0
 40
30.0
176
     0
 62
     7
420
 16777215
176
     0
 90
        1
176
     0
 90
        4
176
     0
 62
     7
176
     0
 62
   257
176
     0
 90
        1
176
     0
 90
        1
176
     0
 40
1.0
176
     0
 90
        9
176
     2
 62
     7
176
     0
 40
1.0
176
     0
 90
        1
176
     0
 90
        6
176
     0
 90
        2
176
     0
 62
     7
176
     0
 90
        5
176
     0
 90
        0
176
     0
 90
        0
176
     0
290
     0
176
     0
 90
        1
176
     0
 40
0.0
176
     0
 90
        0
176
     0
290
     0
176
     0
290
     1
176
     0
290
     1
176
     0
290
     0
176
     0
290
     0
176
     0
290
     0
176
     0
290
     0
176
     0
290
     0
176
     0
290
     0
176
     0
 90
       50
176
     0
 40
0.0
176
     0
 40
1.0
176
     0
 90
        0
176
     0
 62
    18
420
        0
176
     0
 90
       50
176
     0
 90
        3
176
     0
 62
     5
420
      255
176
     0
290
     0
176
     0
 90
       50
176
     0
 90
       50
176
     0
 90
       50
176
     0
290
     0
176
     0
 90
       50
176
     0
 62
   256
176
     0
 40
1.0
176
     0
 90
        2
176
     0
  1
strokes_ogs.tif
176
     0
290
     0
176
     0
 40
1.0
176
     0
 40
1.0
176
     0
  0
VISUALSTYLE
  5
33
102
{ACAD_REACTORS
330
2A
102
}
330
2A
100
AcDbVisualStyle
  2
Realistic
 70
     8
177
     3
291
     0
 70
    58
 90
        2
176
     1
 90
        3
176
     1
 90
        0
176
     1
 90
        2
176
     1
 40
0.6
176
     1
 40
30.0
176
     1
 62
     7
420
 16777215
176
     1
 90
        0
176
     1
 90
        0
176
     1
 62
     7
176
     1
 62
   257
176
     1
 90
        1
176
     1
 90
        1
176
     1
 40
1.0
176
     1
 90
        8
176
     1
 62
   257
176
     1
 40
1.0
176
     1
 90
        1
176
     1
 90
        6
176
     1
 90
        2
176
     1
 62
     7
176
     1
 90
        3
176
     1
 90
        0
176
     1
 90
        0
176
     1
290
     0
176
     1
 90
       13
176
     1
 40
0.0
176
     1
 90
        0
176
     1
290
     0
176
     1
290
     1
176
     1
290
     1
176
     1
290
     0
176
     1
290
     0
176
     1
290
     0
176
     1
290
     0
176
     1
290
     0
176
     1
290
     0
176
     1
 90
       50
176
     1
 40
0.0
176
     1
 40
1.0
176
     1
 90
        0
176
     1
 62
    18
420
        0
176
     1
 90
       50
176
     1
 90
        3
176
     1
 62
     5
420
      255
176
     1
290
     0
176
     1
 90
       50
176
     1
 90
       50
176
     1
 90
       50
176
     1
290
     0
176
     1
 90
       50
176
     1
 62
   256
176
     0
 40
1.0
176
     0
 90
        2
176
     1
  1
strokes_ogs.tif
176
     1
290
     0
176
     1
 40
1.0
176
     1
 40
1.0
176
     1
  0
VISUALSTYLE
  5
42
102
{ACAD_REACTORS
330
2A
102
}
330
2A
100
AcDbVisualStyle
  2
Shaded
 70
    27
177
     3
291
     0
 70
    58
 90
        2
176
     1
 90
        2
176
     1
 90
        1
176
     1
 90
        2
176
     1
 40
0.6
176
     1
 40
30.0
176
     1
 62
     7
420
 16777215
176
     1
 90
        0
176
     1
 90
        4
176
     1
 62
     7
176
     1
 62
   257
176
     1
 90
        1
176
     1
 90
        1
176
     1
 40
1.0
176
     1
 90
        8
176
     1
 62
   257
176
     1
 40
1.0
176
     1
 90
        1
176
     1
 90
        6
176
     1
 90
        2
176
     1
 62
     8
420
  7895160
176
     1
 90
        3
176
     1
 90
        0
176
     1
 90
        0
176
     1
290
     0
176
     1
 90
        5
176
     1
 40
0.0
176
     1
 90
        0
176
     1
290
     0
176
     1
290
     1
176
     1
290
     1
176
     1
290
     0
176
     1
290
     0
176
     1
290
     0
176
     1
290
     0
176
     1
290
     0
176
     1
290
     0
176
     1
 90
       50
176
     1
 40
0.0
176
     1
 40
1.0
176
     1
 90
        0
176
     1
 62
    18
420
        0
176
     1
 90
       50
176
     1
 90
        3
176
     1
 62
     5
420
      255
176
     1
290
     0
176
     1
 90
       50
176
     1
 90
       50
176
     1
 90
       50
176
     1
290
     0
176
     1
 90
       50
176
     1
 62
   256
176
     0
 40
1.0
176
     0
 90
        2
176
     1
  1
strokes_ogs.tif
176
     1
290
     0
176
     1
 40
1.0
176
     1
 40
1.0
176
     1
  0
VISUALSTYLE
  5
41
102
{ACAD_REACTORS
330
2A
102
}
330
2A
100
AcDbVisualStyle
  2
Shaded with edges
 70
    26
177
     3
291
     0
 70
    58
 90
        2
176
     1
 90
        2
176
     1
 90
        1
176
     1
 90
        2
176
     1
 40
0.6
176
     1
 40
30.0
176
     1
 62
     7
420
 16777215
176
     1
 90
        1
176
     1
 90
       10
176
     1
 62
     7
176
     1
 62
   257
176
     1
 90
        2
176
     1
 90
        1
176
     1
 40
1.0
176
     1
 90
        8
176
     1
 62
   257
176
     1
 40
1.0
176
     1
 90
        1
176
     1
 90
        6
176
     1
 90
        2
176
     1
 62
     7
176
     1
 90
        3
176
     1
 90
        0
176
     1
 90
        0
176
     1
290
     0
176
     1
 90
        5
176
     1
 40
0.0
176
     1
 90
        0
176
     1
290
     0
176
     1
290
     1
176
     1
290
     1
176
     1
290
     0
176
     1
290
     0
176
     1
290
     0
176
     1
290
     0
176
     1
290
     0
176
     1
290
     0
176
     1
 90
       50
176
     1
 40
0.0
176
     1
 40
1.0
176
     1
 90
        0
176
     1
 62
    18
420
        0
176
     1
 90
       50
176
     1
 90
        3
176
     1
 62
     5
420
      255
176
     1
290
     0
176
     1
 90
       50
176
     1
 90
       50
176
     1
 90
       50
176
     1
290
     0
176
     1
 90
       50
176
     1
 62
   256
176
     0
 40
1.0
176
     0
 90
        2
176
     1
  1
strokes_ogs.tif
176
     1
290
     0
176
     1
 40
1.0
176
     1
 40
1.0
176
     1
  0
VISUALSTYLE
  5
3E
102
{ACAD_REACTORS
330
2A
102
}
330
2A
100
AcDbVisualStyle
  2
Shades of Gray
 70
    23
177
     3
291
     0
 70
    58
 90
        2
176
     1
 90
        2
176
     1
 90
        3
176
     1
 90
        0
176
     1
 40
0.6
176
     1
 40
30.0
176
     1
 62
     7
420
 16777215
176
     1
 90
        2
176
     1
 90
        2
176
     1
 62
     7
176
     1
 62
     7
176
     1
 90
        1
176
     1
 90
        1
176
     1
 40
40.0
176
     1
 90
        8
176
     1
 62
     7
176
     1
 40
1.0
176
     1
 90
        1
176
     1
 90
        6
176
     1
 90
        2
176
     1
 62
     7
176
     1
 90
        3
176
     1
 90
        0
176
     1
 90
        0
176
     1
290
     0
176
     1
 90
        1
176
     1
 40
0.0
176
     1
 90
        0
176
     1
290
     0
176
     1
290
     1
176
     1
290
     1
176
     1
290
     0
176
     1
290
     0
176
     1
290
     0
176
     1
290
     0
176
     1
290
     0
176
     1
290
     0
176
     1
 90
       50
176
     1
 40
0.0
176
     1
 40
1.0
176
     1
 90
        0
176
     1
 62
    18
420
        0
176
     1
 90
       50
176
     1
 90
        3
176
     1
 62
     5
420
      255
176
     1
290
     0
176
     1
 90
       50
176
     1
 90
       50
176
     1
 90
       50
176
     1
290
     0
176
     1
 90
       50
176
     1
 62
   256
176
     0
 40
1.0
176
     0
 90
        2
176
     1
  1
strokes_ogs.tif
176
     1
290
     0
176
     1
 40
1.0
176
     1
 40
1.0
176
     1
  0
VISUALSTYLE
  5
3F
102
{ACAD_REACTORS
330
2A
102
}
330
2A
100
AcDbVisualStyle
  2
Sketchy
 70
    24
177
     3
291
     0
 70
    58
 90
        1
176
     1
 90
        2
176
     1
 90
        2
176
     1
 90
        0
176
     1
 40
0.6
176
     1
 40
30.0
176
     1
 62
     7
420
 16777215
176
     1
 90
        2
176
     1
 90
        2
176
     1
 62
     7
176
     1
 62
     7
176
     1
 90
        1
176
     1
 90
        1
176
     1
 40
40.0
176
     1
 90
       11
176
     1
 62
     7
176
     1
 40
1.0
176
     1
 90
        1
176
     1
 90
        6
176
     1
 90
        2
176
     1
 62
     7
176
     1
 90
        6
176
     1
 90
        0
176
     1
 90
        0
176
     1
290
     0
176
     1
 90
        1
176
     1
 40
0.0
176
     1
 90
        0
176
     1
290
     0
176
     1
290
     1
176
     1
290
     1
176
     1
290
     0
176
     1
290
     0
176
     1
290
     0
176
     1
290
     0
176
     1
290
     0
176
     1
290
     0
176
     1
 90
       50
176
     1
 40
0.0
176
     1
 40
1.0
176
     1
 90
        0
176
     1
 62
    18
420
        0
176
     1
 90
       50
176
     1
 90
        3
176
     1
 62
     5
420
      255
176
     1
290
     0
176
     1
 90
       50
176
     1
 90
       50
176
     1
 90
       50
176
     1
290
     0
176
     1
 90
       50
176
     1
 62
   256
176
     0
 40
1.0
176
     0
 90
        2
176
     1
  1
strokes_ogs.tif
176
     1
290
     0
176
     1
 40
1.0
176
     1
 40
1.0
176
     1
  0
VISUALSTYLE
  5
37
102
{ACAD_REACTORS
330
2A
102
}
330
2A
100
AcDbVisualStyle
  2
Thicken
 70
    13
177
     3
291
     1
 70
    58
 90
        2
176
     1
 90
        2
176
     1
 90
        0
176
     1
 90
        0
176
     1
 40
0.6
176
     1
 40
30.0
176
     1
 62
     7
420
 16777215
176
     1
 90
        1
176
     1
 90
        4
176
     1
 62
     7
176
     1
 62
   257
176
     1
 90
        1
176
     1
 90
        1
176
     1
 40
1.0
176
     1
 90
       12
176
     1
 62
     7
176
     1
 40
1.0
176
     1
 90
        1
176
     1
 90
        6
176
     1
 90
        2
176
     1
 62
     7
176
     1
 90
        5
176
     1
 90
        0
176
     1
 90
        0
176
     1
290
     0
176
     1
 90
        1
176
     1
 40
0.0
176
     1
 90
        0
176
     1
290
     0
176
     1
290
     1
176
     1
290
     1
176
     1
290
     0
176
     1
290
     0
176
     1
290
     0
176
     1
290
     0
176
     1
290
     0
176
     1
290
     0
176
     1
 90
       50
176
     1
 40
0.0
176
     1
 40
1.0
176
     1
 90
        0
176
     1
 62
    18
420
        0
176
     1
 90
       50
176
     1
 90
        3
176
     1
 62
     5
420
      255
176
     1
290
     0
176
     1
 90
       50
176
     1
 90
       50
176
     1
 90
       50
176
     1
290
     0
176
     1
 90
       50
176
     1
 62
   256
176
     0
 40
1.0
176
     0
 90
        2
176
     1
  1
strokes_ogs.tif
176
     1
290
     0
176
     1
 40
1.0
176
     1
 40
1.0
176
     1
  0
VISUALSTYLE
  5
30
102
{ACAD_REACTORS
330
2A
102
}
330
2A
100
AcDbVisualStyle
  2
Wireframe
 70
     5
177
     3
291
     0
 70
    58
 90
        0
176
     1
 90
        2
176
     1
 90
        0
176
     1
 90
        0
176
     1
 40
0.6
176
     1
 40
30.0
176
     1
 62
     7
420
 16777215
176
     1
 90
        1
176
     1
 90
        4
176
     1
 62
     7
176
     1
 62
   257
176
     1
 90
        1
176
     1
 90
        1
176
     1
 40
1.0
176
     1
 90
        0
176
     1
 62
   257
176
     1
 40
1.0
176
     1
 90
        1
176
     1
 90
        6
176
     1
 90
        2
176
     1
 62
     7
176
     1
 90
        3
176
     1
 90
        0
176
     1
 90
        0
176
     1
290
     0
176
     1
 90
        1
176
     1
 40
0.0
176
     1
 90
        0
176
     1
290
     0
176
     1
290
     1
176
     1
290
     1
176
     1
290
     0
176
     1
290
     0
176
     1
290
     0
176
     1
290
     0
176
     1
290
     0
176
     1
290
     0
176
     1
 90
       50
176
     1
 40
0.0
176
     1
 40
1.0
176
     1
 90
        0
176
     1
 62
    18
420
        0
176
     1
 90
       50
176
     1
 90
        3
176
     1
 62
     5
420
      255
176
     1
290
     0
176
     1
 90
       50
176
     1
 90
       50
176
     1
 90
       50
176
     1
290
     0
176
     1
 90
       50
176
     1
 62
   256
176
     0
 40
1.0
176
     0
 90
        2
176
     1
  1
strokes_ogs.tif
176
     1
290
     0
176
     1
 40
1.0
176
     1
 40
1.0
176
     1
  0
VISUALSTYLE
  5
40
102
{ACAD_REACTORS
330
2A
102
}
330
2A
100
AcDbVisualStyle
  2
X-Ray
 70
    25
177
     3
291
     0
 70
    58
 90
        2
176
     1
 90
        2
176
     1
 90
        1
176
     1
 90
        1
176
     1
 40
0.5
176
     1
 40
30.0
176
     1
 62
     7
420
 16777215
176
     1
 90
        1
176
     1
 90
        0
176
     1
 62
     7
176
     1
 62
   257
176
     1
 90
        1
176
     1
 90
        1
176
     1
 40
1.0
176
     1
 90
        8
176
     1
 62
     7
176
     1
 40
1.0
176
     1
 90
        1
176
     1
 90
        6
176
     1
 90
        2
176
     1
 62
     7
176
     1
 90
        3
176
     1
 90
        0
176
     1
 90
        0
176
     1
290
     0
176
     1
 90
       13
176
     1
 40
0.0
176
     1
 90
        0
176
     1
290
     0
176
     1
290
     1
176
     1
290
     1
176
     1
290
     0
176
     1
290
     0
176
     1
290
     0
176
     1
290
     0
176
     1
290
     0
176
     1
290
     0
176
     1
 90
       50
176
     1
 40
0.0
176
     1
 40
1.0
176
     1
 90
        0
176
     1
 62
    18
420
        0
176
     1
 90
       50
176
     1
 90
        3
176
     1
 62
     5
420
      255
176
     1
290
     0
176
     1
 90
       50
176
     1
 90
       50
176
     1
 90
       50
176
     1
290
     0
176
     1
 90
       50
176
     1
 62
   256
176
     0
 40
1.0
176
     0
 90
        2
176
     1
  1
strokes_ogs.tif
176
     1
290
     0
176
     1
 40
1.0
176
     1
 40
1.0
176
     1
  0
DICTIONARYVAR
  5
207
102
{ACAD_REACTORS
330
206
102
}
330
206
100
DictionaryVariables
280
     0
  1
1:1
  0
DICTIONARYVAR
  5
20C
102
{ACAD_REACTORS
330
206
102
}
330
206
100
DictionaryVariables
280
     0
  1
Standard
  0
DICTIONARYVAR
  5
20B
102
{ACAD_REACTORS
330
206
102
}
330
206
100
DictionaryVariables
280
     0
  1
Standard
  0
DICTIONARY
  5
208
330
6A
100
AcDbDictionary
280
     1
281
     1
  3
ACAD_ROUNDTRIP_2008_TABLESTYLE_CELLSTYLEMAP
360
209
  0
CELLSTYLEMAP
  5
209
102
{ACAD_REACTORS
330
208
102
}
330
208
100
AcDbCellStyleMap
 90
        3
300
CELLSTYLE
  1
TABLEFORMAT_BEGIN
 90
        5
170
     1
 91
        0
 92
    32768
 62
   257
 93
        1
300
CONTENTFORMAT
  1
CONTENTFORMAT_BEGIN
 90
        0
 91
        0
 92
        4
 93
        0
300

 40
0.0
140
1.0
 94
        5
 62
     0
340
11
144
0.25
309
CONTENTFORMAT_END
171
     1
301
MARGIN
  1
CELLMARGIN_BEGIN
 40
0.06
 40
0.06
 40
0.06
 40
0.06
 40
0.06
 40
0.06
309
CELLMARGIN_END
 94
        6
 95
        1
302
GRIDFORMAT
  1
GRIDFORMAT_BEGIN
 90
        0
 91
        1
 62
     0
 92
       -2
340
14
 93
        0
 40
0.045
309
GRIDFORMAT_END
 95
        2
302
GRIDFORMAT
  1
GRIDFORMAT_BEGIN
 90
        0
 91
        1
 62
     0
 92
       -2
340
14
 93
        0
 40
0.045
309
GRIDFORMAT_END
 95
        4
302
GRIDFORMAT
  1
GRIDFORMAT_BEGIN
 90
        0
 91
        1
 62
     0
 92
       -2
340
14
 93
        0
 40
0.045
309
GRIDFORMAT_END
 95
        8
302
GRIDFORMAT
  1
GRIDFORMAT_BEGIN
 90
        0
 91
        1
 62
     0
 92
       -2
340
14
 93
        0
 40
0.045
309
GRIDFORMAT_END
 95
       16
302
GRIDFORMAT
  1
GRIDFORMAT_BEGIN
 90
        0
 91
        1
 62
     0
 92
       -2
340
14
 93
        0
 40
0.045
309
GRIDFORMAT_END
 95
       32
302
GRIDFORMAT
  1
GRIDFORMAT_BEGIN
 90
        0
 91
        1
 62
     0
 92
       -2
340
14
 93
        0
 40
0.045
309
GRIDFORMAT_END
309
TABLEFORMAT_END
  1
CELLSTYLE_BEGIN
 90
        1
 91
        1
300
_TITLE
309
CELLSTYLE_END
300
CELLSTYLE
  1
TABLEFORMAT_BEGIN
 90
        5
170
     1
 91
        0
 92
        0
 62
   257
 93
        1
300
CONTENTFORMAT
  1
CONTENTFORMAT_BEGIN
 90
        0
 91
        0
 92
        4
 93
        0
300

 40
0.0
140
1.0
 94
        5
 62
     0
340
11
144
0.18
309
CONTENTFORMAT_END
171
     1
301
MARGIN
  1
CELLMARGIN_BEGIN
 40
0.06
 40
0.06
 40
0.06
 40
0.06
 40
0.06
 40
0.06
309
CELLMARGIN_END
 94
        6
 95
        1
302
GRIDFORMAT
  1
GRIDFORMAT_BEGIN
 90
        0
 91
        1
 62
     0
 92
       -2
340
14
 93
        0
 40
0.045
309
GRIDFORMAT_END
 95
        2
302
GRIDFORMAT
  1
GRIDFORMAT_BEGIN
 90
        0
 91
        1
 62
     0
 92
       -2
340
14
 93
        0
 40
0.045
309
GRIDFORMAT_END
 95
        4
302
GRIDFORMAT
  1
GRIDFORMAT_BEGIN
 90
        0
 91
        1
 62
     0
 92
       -2
340
14
 93
        0
 40
0.045
309
GRIDFORMAT_END
 95
        8
302
GRIDFORMAT
  1
GRIDFORMAT_BEGIN
 90
        0
 91
        1
 62
     0
 92
       -2
340
14
 93
        0
 40
0.045
309
GRIDFORMAT_END
 95
       16
302
GRIDFORMAT
  1
GRIDFORMAT_BEGIN
 90
        0
 91
        1
 62
     0
 92
       -2
340
14
 93
        0
 40
0.045
309
GRIDFORMAT_END
 95
       32
302
GRIDFORMAT
  1
GRIDFORMAT_BEGIN
 90
        0
 91
        1
 62
     0
 92
       -2
340
14
 93
        0
 40
0.045
309
GRIDFORMAT_END
309
TABLEFORMAT_END
  1
CELLSTYLE_BEGIN
 90
        2
 91
        1
300
_HEADER
309
CELLSTYLE_END
300
CELLSTYLE
  1
TABLEFORMAT_BEGIN
 90
        5
170
     1
 91
        0
 92
        0
 62
   257
 93
        1
300
CONTENTFORMAT
  1
CONTENTFORMAT_BEGIN
 90
        0
 91
        0
 92
        4
 93
        0
300

 40
0.0
140
1.0
 94
        2
 62
     0
340
11
144
0.18
309
CONTENTFORMAT_END
171
     1
301
MARGIN
  1
CELLMARGIN_BEGIN
 40
0.06
 40
0.06
 40
0.06
 40
0.06
 40
0.06
 40
0.06
309
CELLMARGIN_END
 94
        6
 95
        1
302
GRIDFORMAT
  1
GRIDFORMAT_BEGIN
 90
        0
 91
        1
 62
     0
 92
       -2
340
14
 93
        0
 40
0.045
309
GRIDFORMAT_END
 95
        2
302
GRIDFORMAT
  1
GRIDFORMAT_BEGIN
 90
        0
 91
        1
 62
     0
 92
       -2
340
14
 93
        0
 40
0.045
309
GRIDFORMAT_END
 95
        4
302
GRIDFORMAT
  1
GRIDFORMAT_BEGIN
 90
        0
 91
        1
 62
     0
 92
       -2
340
14
 93
        0
 40
0.045
309
GRIDFORMAT_END
 95
        8
302
GRIDFORMAT
  1
GRIDFORMAT_BEGIN
 90
        0
 91
        1
 62
     0
 92
       -2
340
14
 93
        0
 40
0.045
309
GRIDFORMAT_END
 95
       16
302
GRIDFORMAT
  1
GRIDFORMAT_BEGIN
 90
        0
 91
        1
 62
     0
 92
       -2
340
14
 93
        0
 40
0.045
309
GRIDFORMAT_END
 95
       32
302
GRIDFORMAT
  1
GRIDFORMAT_BEGIN
 90
        0
 91
        1
 62
     0
 92
       -2
340
14
 93
        0
 40
0.045
309
GRIDFORMAT_END
309
TABLEFORMAT_END
  1
CELLSTYLE_BEGIN
 90
        3
 91
        2
300
_DATA
309
CELLSTYLE_END
  0
ENDSEC
  0
EOF