0
SECTION
  2
HEADER
  9
$ACADVER
  1
AC1027
  9
$ACADMAINTVER
 70
     8
  9
$DWGCODEPAGE
  3
ANSI_1252
  9
$REQUIREDVERSIONS
160
                 0
  9
$COMMENTS
  1
File was created by Cadenas
  9
$CUSTOMPROPERTYTAG
  1
NN
  9
$CUSTOMPROPERTY
  1
S-2000 Pillow Block 4-Bolt Inch Bore (Contact Seal)
  9
$CUSTOMPROPERTYTAG
  1
NT
  9
$CUSTOMPROPERTY
  1
S-2000 Pillow Block Bearing -Inch (4-Bolt Base)
  9
$CUSTOMPROPERTYTAG
  1
NB
  9
$CUSTOMPROPERTY
  1
070367
  9
$CUSTOMPROPERTYTAG
  1
NBSYN
  9
$CUSTOMPROPERTY
  1
$PN.
  9
$CUSTOMPROPERTYTAG
  1
LINA
  9
$CUSTOMPROPERTY
  1
070367
  9
$CUSTOMPROPERTYTAG
  1
SS
  9
$CUSTOMPROPERTY
  1
2-11/16
  9
$CUSTOMPROPERTYTAG
  1
PN
  9
$CUSTOMPROPERTY
  1
070367
  9
$CUSTOMPROPERTYTAG
  1
DESCRIPTION
  9
$CUSTOMPROPERTY
  1
P4B-S2-211R
  9
$CUSTOMPROPERTYTAG
  1
EF
  9
$CUSTOMPROPERTY
  1
Non-Expansion Type
  9
$CUSTOMPROPERTYTAG
  1
ST
  9
$CUSTOMPROPERTY
  1
Contact Seal
  9
$CUSTOMPROPERTYTAG
  1
A
  9
$CUSTOMPROPERTY
  1
3-19/32
  9
$CUSTOMPROPERTYTAG
  1
B
  9
$CUSTOMPROPERTY
  1
10-7/16
  9
$CUSTOMPROPERTYTAG
  1
C
  9
$CUSTOMPROPERTY
  1
3-3/4
  9
$CUSTOMPROPERTYTAG
  1
DMIN
  9
$CUSTOMPROPERTY
  1
7-15/16
  9
$CUSTOMPROPERTYTAG
  1
DMAX
  9
$CUSTOMPROPERTY
  1
8-5/16
  9
$CUSTOMPROPERTYTAG
  1
E
  9
$CUSTOMPROPERTY
  1
1-7/8
  9
$CUSTOMPROPERTYTAG
  1
F
  9
$CUSTOMPROPERTY
  1
5/8
  9
$CUSTOMPROPERTYTAG
  1
G
  9
$CUSTOMPROPERTY
  1
15/16
  9
$CUSTOMPROPERTYTAG
  1
H
  9
$CUSTOMPROPERTY
  1
1-7/8
  9
$CUSTOMPROPERTYTAG
  1
J
  9
$CUSTOMPROPERTY
  1
6-7/16
  9
$CUSTOMPROPERTYTAG
  1
L
  9
$CUSTOMPROPERTY
  1
4-45/64
  9
$CUSTOMPROPERTYTAG
  1
M
  9
$CUSTOMPROPERTY
  1
3-1/4
  9
$CUSTOMPROPERTYTAG
  1
R
  9
$CUSTOMPROPERTY
  1
1-3/32
  9
$CUSTOMPROPERTYTAG
  1
S
  9
$CUSTOMPROPERTY
  1
2-1/2
  9
$CUSTOMPROPERTYTAG
  1
X
  9
$CUSTOMPROPERTY
  1
1/4
  9
$CUSTOMPROPERTYTAG
  1
Y
  9
$CUSTOMPROPERTY
  1
0.025
  9
$CUSTOMPROPERTYTAG
  1
Z
  9
$CUSTOMPROPERTY
  1
3-15/32
  9
$CUSTOMPROPERTYTAG
  1
COMPANY
  9
$CUSTOMPROPERTY
  1
baldor
  9
$INSBASE
 10
0.0
 20
0.0
 30
0.0
  9
$EXTMIN
 10
1.000000000000000E+20
 20
1.000000000000000E+20
 30
1.000000000000000E+20
  9
$EXTMAX
 10
-1.000000000000000E+20
 20
-1.000000000000000E+20
 30
-1.000000000000000E+20
  9
$LIMMIN
 10
0.0
 20
0.0
  9
$LIMMAX
 10
12.0
 20
9.0
  9
$ORTHOMODE
 70
     0
  9
$REGENMODE
 70
     1
  9
$FILLMODE
 70
     1
  9
$QTEXTMODE
 70
     0
  9
$MIRRTEXT
 70
     1
  9
$LTSCALE
 40
1.0
  9
$ATTMODE
 70
     1
  9
$TEXTSIZE
 40
0.2
  9
$TRACEWID
 40
0.05
  9
$TEXTSTYLE
  7
Standard
  9
$CLAYER
  8
0
  9
$CELTYPE
  6
ByLayer
  9
$CECOLOR
 62
   256
  9
$CELTSCALE
 40
1.0
  9
$DISPSILH
 70
     0
  9
$DIMSCALE
 40
1.0
  9
$DIMASZ
 40
0.18
  9
$DIMEXO
 40
0.0625
  9
$DIMDLI
 40
0.38
  9
$DIMRND
 40
0.0
  9
$DIMDLE
 40
0.0
  9
$DIMEXE
 40
0.18
  9
$DIMTP
 40
0.0
  9
$DIMTM
 40
0.0
  9
$DIMTXT
 40
0.18
  9
$DIMCEN
 40
0.09
  9
$DIMTSZ
 40
0.0
  9
$DIMTOL
 70
     0
  9
$DIMLIM
 70
     0
  9
$DIMTIH
 70
     1
  9
$DIMTOH
 70
     1
  9
$DIMSE1
 70
     0
  9
$DIMSE2
 70
     0
  9
$DIMTAD
 70
     0
  9
$DIMZIN
 70
     0
  9
$DIMBLK
  1

  9
$DIMASO
 70
     1
  9
$DIMSHO
 70
     1
  9
$DIMPOST
  1

  9
$DIMAPOST
  1

  9
$DIMALT
 70
     0
  9
$DIMALTD
 70
     2
  9
$DIMALTF
 40
25.4
  9
$DIMLFAC
 40
1.0
  9
$DIMTOFL
 70
     0
  9
$DIMTVP
 40
0.0
  9
$DIMTIX
 70
     0
  9
$DIMSOXD
 70
     0
  9
$DIMSAH
 70
     0
  9
$DIMBLK1
  1

  9
$DIMBLK2
  1

  9
$DIMSTYLE
  2
Standard
  9
$DIMCLRD
 70
     0
  9
$DIMCLRE
 70
     0
  9
$DIMCLRT
 70
     0
  9
$DIMTFAC
 40
1.0
  9
$DIMGAP
 40
0.09
  9
$DIMJUST
 70
     0
  9
$DIMSD1
 70
     0
  9
$DIMSD2
 70
     0
  9
$DIMTOLJ
 70
     1
  9
$DIMTZIN
 70
     0
  9
$DIMALTZ
 70
     0
  9
$DIMALTTZ
 70
     0
  9
$DIMUPT
 70
     0
  9
$DIMDEC
 70
     4
  9
$DIMTDEC
 70
     4
  9
$DIMALTU
 70
     2
  9
$DIMALTTD
 70
     2
  9
$DIMTXSTY
  7
Standard
  9
$DIMAUNIT
 70
     0
  9
$DIMADEC
 70
     0
  9
$DIMALTRND
 40
0.0
  9
$DIMAZIN
 70
     0
  9
$DIMDSEP
 70
    46
  9
$DIMATFIT
 70
     3
  9
$DIMFRAC
 70
     0
  9
$DIMLDRBLK
  1

  9
$DIMLUNIT
 70
     2
  9
$DIMLWD
 70
    -2
  9
$DIMLWE
 70
    -2
  9
$DIMTMOVE
 70
     0
  9
$DIMFXL
 40
1.0
  9
$DIMFXLON
 70
     0
  9
$DIMJOGANG
 40
0.7853981633974483
  9
$DIMTFILL
 70
     0
  9
$DIMTFILLCLR
 70
     0
  9
$DIMARCSYM
 70
     0
  9
$DIMLTYPE
  6

  9
$DIMLTEX1
  6

  9
$DIMLTEX2
  6

  9
$DIMTXTDIRECTION
 70
     0
  9
$LUNITS
 70
     2
  9
$LUPREC
 70
     4
  9
$SKETCHINC
 40
0.1
  9
$FILLETRAD
 40
0.5
  9
$AUNITS
 70
     0
  9
$AUPREC
 70
     0
  9
$MENU
  1
.
  9
$ELEVATION
 40
0.0
  9
$PELEVATION
 40
0.0
  9
$THICKNESS
 40
0.0
  9
$LIMCHECK
 70
     0
  9
$CHAMFERA
 40
0.0
  9
$CHAMFERB
 40
0.0
  9
$CHAMFERC
 40
0.0
  9
$CHAMFERD
 40
0.0
  9
$SKPOLY
 70
     0
  9
$TDCREATE
 40
2458168.98487669
  9
$TDUCREATE
 40
2458168.943210023
  9
$TDUPDATE
 40
2458168.984876875
  9
$TDUUPDATE
 40
2458168.943210208
  9
$TDINDWG
 40
0.0000000116
  9
$TDUSRTIMER
 40
0.0000000116
  9
$USRTIMER
 70
     1
  9
$ANGBASE
 50
0.0
  9
$ANGDIR
 70
     0
  9
$PDMODE
 70
     0
  9
$PDSIZE
 40
0.0
  9
$PLINEWID
 40
0.0
  9
$SPLFRAME
 70
     0
  9
$SPLINETYPE
 70
     6
  9
$SPLINESEGS
 70
     8
  9
$HANDSEED
  5
20E
  9
$SURFTAB1
 70
     6
  9
$SURFTAB2
 70
     6
  9
$SURFTYPE
 70
     6
  9
$SURFU
 70
     6
  9
$SURFV
 70
     6
  9
$UCSBASE
  2

  9
$UCSNAME
  2

  9
$UCSORG
 10
0.0
 20
0.0
 30
0.0
  9
$UCSXDIR
 10
1.0
 20
0.0
 30
0.0
  9
$UCSYDIR
 10
0.0
 20
1.0
 30
0.0
  9
$UCSORTHOREF
  2

  9
$UCSORTHOVIEW
 70
     0
  9
$UCSORGTOP
 10
0.0
 20
0.0
 30
0.0
  9
$UCSORGBOTTOM
 10
0.0
 20
0.0
 30
0.0
  9
$UCSORGLEFT
 10
0.0
 20
0.0
 30
0.0
  9
$UCSORGRIGHT
 10
0.0
 20
0.0
 30
0.0
  9
$UCSORGFRONT
 10
0.0
 20
0.0
 30
0.0
  9
$UCSORGBACK
 10
0.0
 20
0.0
 30
0.0
  9
$PUCSBASE
  2

  9
$PUCSNAME
  2

  9
$PUCSORG
 10
0.0
 20
0.0
 30
0.0
  9
$PUCSXDIR
 10
1.0
 20
0.0
 30
0.0
  9
$PUCSYDIR
 10
0.0
 20
1.0
 30
0.0
  9
$PUCSORTHOREF
  2

  9
$PUCSORTHOVIEW
 70
     0
  9
$PUCSORGTOP
 10
0.0
 20
0.0
 30
0.0
  9
$PUCSORGBOTTOM
 10
0.0
 20
0.0
 30
0.0
  9
$PUCSORGLEFT
 10
0.0
 20
0.0
 30
0.0
  9
$PUCSORGRIGHT
 10
0.0
 20
0.0
 30
0.0
  9
$PUCSORGFRONT
 10
0.0
 20
0.0
 30
0.0
  9
$PUCSORGBACK
 10
0.0
 20
0.0
 30
0.0
  9
$USERI1
 70
     0
  9
$USERI2
 70
     0
  9
$USERI3
 70
     0
  9
$USERI4
 70
     0
  9
$USERI5
 70
     0
  9
$USERR1
 40
0.0
  9
$USERR2
 40
0.0
  9
$USERR3
 40
0.0
  9
$USERR4
 40
0.0
  9
$USERR5
 40
0.0
  9
$WORLDVIEW
 70
     1
  9
$SHADEDGE
 70
     3
  9
$SHADEDIF
 70
    70
  9
$TILEMODE
 70
     1
  9
$MAXACTVP
 70
    64
  9
$PINSBASE
 10
0.0
 20
0.0
 30
0.0
  9
$PLIMCHECK
 70
     0
  9
$PEXTMIN
 10
1.000000000000000E+20
 20
1.000000000000000E+20
 30
1.000000000000000E+20
  9
$PEXTMAX
 10
-1.000000000000000E+20
 20
-1.000000000000000E+20
 30
-1.000000000000000E+20
  9
$PLIMMIN
 10
0.0
 20
0.0
  9
$PLIMMAX
 10
12.0
 20
9.0
  9
$UNITMODE
 70
     0
  9
$VISRETAIN
 70
     1
  9
$PLINEGEN
 70
     0
  9
$PSLTSCALE
 70
     1
  9
$TREEDEPTH
 70
  3020
  9
$CMLSTYLE
  2
Standard
  9
$CMLJUST
 70
     0
  9
$CMLSCALE
 40
1.0
  9
$PROXYGRAPHICS
 70
     1
  9
$MEASUREMENT
 70
     0
  9
$CELWEIGHT
370
    -1
  9
$ENDCAPS
280
     0
  9
$JOINSTYLE
280
     0
  9
$LWDISPLAY
290
     0
  9
$INSUNITS
 70
     1
  9
$HYPERLINKBASE
  1

  9
$STYLESHEET
  1

  9
$XEDIT
290
     1
  9
$CEPSNTYPE
380
     0
  9
$PSTYLEMODE
290
     1
  9
$FINGERPRINTGUID
  2
{B4604CA1-8936-4D17-AF07-5D72667124B5}
  9
$VERSIONGUID
  2
{FAEB1C32-E019-11D5-929B-00C0DF256EC4}
  9
$EXTNAMES
290
     1
  9
$PSVPSCALE
 40
0.0
  9
$OLESTARTUP
290
     0
  9
$SORTENTS
280
   127
  9
$INDEXCTL
280
     0
  9
$HIDETEXT
280
     1
  9
$XCLIPFRAME
280
     2
  9
$HALOGAP
280
     0
  9
$OBSCOLOR
 70
   257
  9
$OBSLTYPE
280
     0
  9
$INTERSECTIONDISPLAY
280
     0
  9
$INTERSECTIONCOLOR
 70
   257
  9
$DIMASSOC
280
     2
  9
$PROJECTNAME
  1

  9
$CAMERADISPLAY
290
     0
  9
$LENSLENGTH
 40
50.0
  9
$CAMERAHEIGHT
 40
0.0
  9
$STEPSPERSEC
 40
2.0
  9
$STEPSIZE
 40
6.0
  9
$3DDWFPREC
 40
2.0
  9
$PSOLWIDTH
 40
0.25
  9
$PSOLHEIGHT
 40
4.0
  9
$LOFTANG1
 40
1.570796326794897
  9
$LOFTANG2
 40
1.570796326794897
  9
$LOFTMAG1
 40
0.0
  9
$LOFTMAG2
 40
0.0
  9
$LOFTPARAM
 70
     7
  9
$LOFTNORMALS
280
     1
  9
$LATITUDE
 40
37.795
  9
$LONGITUDE
 40
-122.394
  9
$NORTHDIRECTION
 40
0.0
  9
$TIMEZONE
 70
 -8000
  9
$LIGHTGLYPHDISPLAY
280
     1
  9
$TILEMODELIGHTSYNCH
280
     1
  9
$CMATERIAL
347
44
  9
$SOLIDHIST
280
     0
  9
$SHOWHIST
280
     1
  9
$DWFFRAME
280
     2
  9
$DGNFRAME
280
     2
  9
$REALWORLDSCALE
290
     1
  9
$INTERFERECOLOR
 62
   256
  9
$CSHADOW
280
     0
  9
$SHADOWPLANELOCATION
 40
0.0
  0
ENDSEC
  0
SECTION
  2
CLASSES
  0
CLASS
  1
ACDBDICTIONARYWDFLT
  2
AcDbDictionaryWithDefault
  3
ObjectDBX Classes
 90
        0
 91
        4
280
     0
281
     0
  0
CLASS
  1
VISUALSTYLE
  2
AcDbVisualStyle
  3
ObjectDBX Classes
 90
     4095
 91
        4
280
     0
281
     0
  0
CLASS
  1
MATERIAL
  2
AcDbMaterial
  3
ObjectDBX Classes
 90
     1153
 91
        4
280
     0
281
     0
  0
CLASS
  1
SCALE
  2
AcDbScale
  3
ObjectDBX Classes
 90
     1153
 91
        4
280
     0
281
     0
  0
CLASS
  1
TABLESTYLE
  2
AcDbTableStyle
  3
ObjectDBX Classes
 90
     4095
 91
        4
280
     0
281
     0
  0
CLASS
  1
MLEADERSTYLE
  2
AcDbMLeaderStyle
  3
ACDB_MLEADERSTYLE_CLASS
 90
     4095
 91
        4
280
     0
281
     0
  0
CLASS
  1
SUN
  2
AcDbSun
  3
SCENEOE
 90
     1153
 91
        4
280
     0
281
     0
  0
CLASS
  1
DICTIONARYVAR
  2
AcDbDictionaryVar
  3
ObjectDBX Classes
 90
        0
 91
        4
280
     0
281
     0
  0
CLASS
  1
CELLSTYLEMAP
  2
AcDbCellStyleMap
  3
ObjectDBX Classes
 90
     1152
 91
        4
280
     0
281
     0
  0
ENDSEC
  0
SECTION
  2
TABLES
  0
TABLE
  2
VPORT
  5
8
330
0
100
AcDbSymbolTable
 70
     1
  0
VPORT
  5
29
330
8
100
AcDbSymbolTableRecord
100
AcDbViewportTableRecord
  2
*Active
 70
     0
 10
0.0
 20
0.0
 11
1.0
 21
1.0
 12
0.0
 22
-0.2150937500000003
 13
0.0
 23
0.0
 14
0.5
 24
0.5
 15
0.5
 25
0.5
 16
0.0
 26
0.0
 36
1.0
 17
0.0
 27
0.0
 37
0.0
 40
5.02777125
 41
2.117488937071272
 42
50.0
 43
0.0
 44
0.0
 50
0.0
 51
0.0
 71
     0
 72
   100
 73
     1
 74
     3
 75
     0
 76
     0
 77
     0
 78
     0
281
     0
 65
     1
110
0.0
120
0.0
130
0.0
111
1.0
121
0.0
131
0.0
112
0.0
122
1.0
132
0.0
 79
     0
146
0.0
348
2F
 60
     3
 61
     5
292
     1
282
     1
141
0.0
142
0.0
 63
   250
361
6D
  0
ENDTAB
  0
TABLE
  2
LTYPE
  5
5
330
0
100
AcDbSymbolTable
 70
     3
  0
LTYPE
  5
14
330
5
100
AcDbSymbolTableRecord
100
AcDbLinetypeTableRecord
  2
ByBlock
 70
     0
  3

 72
    65
 73
     0
 40
0.0
  0
LTYPE
  5
15
330
5
100
AcDbSymbolTableRecord
100
AcDbLinetypeTableRecord
  2
ByLayer
 70
     0
  3

 72
    65
 73
     0
 40
0.0
  0
LTYPE
  5
16
330
5
100
AcDbSymbolTableRecord
100
AcDbLinetypeTableRecord
  2
Continuous
 70
     0
  3
Solid line
 72
    65
 73
     0
 40
0.0
  0
LTYPE
  5
A8
330
5
100
AcDbSymbolTableRecord
100
AcDbLinetypeTableRecord
  2
Dashed
 70
     0
  3

 72
    65
 73
     2
 40
2.0
 49
1.0
 74
     0
 49
-1.0
 74
     0
  0
LTYPE
  5
19E
330
5
100
AcDbSymbolTableRecord
100
AcDbLinetypeTableRecord
  2
Center
 70
     0
  3

 72
    65
 73
     4
 40
1.5
 49
0.45
 74
     0
 49
-0.5
 74
     0
 49
0.05
 74
     0
 49
-0.5
 74
     0
  0
ENDTAB
  0
TABLE
  2
LAYER
  5
2
330
0
100
AcDbSymbolTable
 70
     7
  0
LAYER
  5
10
330
2
100
AcDbSymbolTableRecord
100
AcDbLayerTableRecord
  2
0
 70
     0
 62
     7
  6
Continuous
370
    -3
390
F
347
46
348
0
  0
LAYER
  5
72
330
2
100
AcDbSymbolTableRecord
100
AcDbLayerTableRecord
  2
AM_6
 70
     0
 62
    -2
  6
Continuous
370
    35
390
F
347
46
348
0
  0
LAYER
  5
A9
330
2
100
AcDbSymbolTableRecord
100
AcDbLayerTableRecord
  2
AM_9
 70
     0
 62
     6
  6
Dashed
370
    25
390
F
347
46
348
0
  0
LAYER
  5
B7
330
2
100
AcDbSymbolTableRecord
100
AcDbLayerTableRecord
  2
AM_5
 70
     0
 62
     3
  6
Continuous
370
    25
390
F
347
46
348
0
  0
LAYER
  5
BA
330
2
100
AcDbSymbolTableRecord
100
AcDbLayerTableRecord
  2
AM_4
 70
     0
 62
     7
  6
Continuous
370
    50
390
F
347
46
348
0
  0
LAYER
  5
19F
330
2
100
AcDbSymbolTableRecord
100
AcDbLayerTableRecord
  2
AM_7
 70
     0
 62
     7
  6
Center
370
    25
390
F
347
46
348
0
  0
LAYER
  5
1FD
330
2
100
AcDbSymbolTableRecord
100
AcDbLayerTableRecord
  2
ConnectionPoints
 70
     0
 62
     7
  6
Continuous
370
    50
390
F
347
46
348
0
  0
ENDTAB
  0
TABLE
  2
STYLE
  5
3
330
0
100
AcDbSymbolTable
 70
     1
  0
STYLE
  5
11
330
3
100
AcDbSymbolTableRecord
100
AcDbTextStyleTableRecord
  2
Standard
 70
     0
 40
0.0
 41
1.0
 50
0.0
 71
     0
 42
0.2
  3
txt
  4

  0
ENDTAB
  0
TABLE
  2
VIEW
  5
6
330
0
100
AcDbSymbolTable
 70
     0
  0
ENDTAB
  0
TABLE
  2
UCS
  5
7
330
0
100
AcDbSymbolTable
 70
     0
  0
ENDTAB
  0
TABLE
  2
APPID
  5
9
330
0
100
AcDbSymbolTable
 70
     1
  0
APPID
  5
12
330
9
100
AcDbSymbolTableRecord
100
AcDbRegAppTableRecord
  2
ACAD
 70
     0
  0
ENDTAB
  0
TABLE
  2
DIMSTYLE
  5
A
330
0
100
AcDbSymbolTable
 70
     1
100
AcDbDimStyleTable
  0
DIMSTYLE
105
27
330
A
100
AcDbSymbolTableRecord
100
AcDbDimStyleTableRecord
  2
Standard
 70
     0
178
     0
340
11
  0
ENDTAB
  0
TABLE
  2
BLOCK_RECORD
  5
1
330
0
100
AcDbSymbolTable
 70
     6
  0
BLOCK_RECORD
  5
1F
330
1
100
AcDbSymbolTableRecord
100
AcDbBlockTableRecord
  2
*Model_Space
340
22
 70
     0
280
     1
281
     0
  0
BLOCK_RECORD
  5
1B
330
1
100
AcDbSymbolTableRecord
100
AcDbBlockTableRecord
  2
*Paper_Space
340
1E
 70
     0
280
     1
281
     0
  0
BLOCK_RECORD
  5
23
330
1
100
AcDbSymbolTableRecord
100
AcDbBlockTableRecord
  2
*Paper_Space0
340
26
 70
     0
280
     1
281
     0
  0
BLOCK_RECORD
  5
6E
330
1
100
AcDbSymbolTableRecord
100
AcDbBlockTableRecord
  2
1_070367_4
340
0
102
{BLKREFS
331
6F
102
}
 70
     0
280
     1
281
     0
  0
BLOCK_RECORD
  5
8F
330
1
100
AcDbSymbolTableRecord
100
AcDbBlockTableRecord
  2
2_2_11_16CS2i_0_in_070367_4
340
0
102
{BLKREFS
331
90
102
}
 70
     0
280
     1
281
     0
  0
BLOCK_RECORD
  5
DC
330
1
100
AcDbSymbolTableRecord
100
AcDbBlockTableRecord
  2
3_070009i_0_in_070367_4
340
0
102
{BLKREFS
331
DD
102
}
 70
     0
280
     1
281
     0
  0
BLOCK_RECORD
  5
12B
330
1
100
AcDbSymbolTableRecord
100
AcDbBlockTableRecord
  2
4_405015E_Inch_0_in_070367_4
340
0
102
{BLKREFS
331
12C
102
}
 70
     0
280
     1
281
     0
  0
BLOCK_RECORD
  5
16A
330
1
100
AcDbSymbolTableRecord
100
AcDbBlockTableRecord
  2
5_070367H_0_in_070367_4
340
0
102
{BLKREFS
331
16B
102
}
 70
     0
280
     1
281
     0
  0
ENDTAB
  0
ENDSEC
  0
SECTION
  2
BLOCKS
  0
BLOCK
  5
20
330
1F
100
AcDbEntity
  8
0
100
AcDbBlockBegin
  2
*Model_Space
 70
     0
 10
0.0
 20
0.0
 30
0.0
  3
*Model_Space
  1

  0
ENDBLK
  5
21
330
1F
100
AcDbEntity
  8
0
100
AcDbBlockEnd
  0
BLOCK
  5
1C
330
1B
100
AcDbEntity
 67
     1
  8
0
100
AcDbBlockBegin
  2
*Paper_Space
 70
     0
 10
0.0
 20
0.0
 30
0.0
  3
*Paper_Space
  1

  0
ENDBLK
  5
1D
330
1B
100
AcDbEntity
 67
     1
  8
0
100
AcDbBlockEnd
  0
BLOCK
  5
24
330
23
100
AcDbEntity
  8
0
100
AcDbBlockBegin
  2
*Paper_Space0
 70
     0
 10
0.0
 20
0.0
 30
0.0
  3
*Paper_Space0
  1

  0
ENDBLK
  5
25
330
23
100
AcDbEntity
  8
0
100
AcDbBlockEnd
  0
BLOCK
  5
70
330
6E
100
AcDbEntity
  8
0
100
AcDbBlockBegin
  2
1_070367_4
 70
     2
 10
0.0
 20
0.0
 30
0.0
  3
1_070367_4
  1

  0
ATTDEF
  5
73
330
6E
100
AcDbEntity
  8
AM_6
100
AcDbText
 10
10.21875
 20
2.115384615384615
 30
0.0
 40
0.5
  1
S-2000 Pillow Block 4-Bolt Inch Bore (Contact Seal)
100
AcDbAttributeDefinition
  3

  2
NN
 70
     8
280
     0
  0
ATTDEF
  5
74
330
6E
100
AcDbEntity
  8
AM_6
100
AcDbText
 10
10.21875
 20
1.615384615384615
 30
0.0
 40
0.5
  1
S-2000 Pillow Block Bearing -Inch (4-Bolt Base)
100
AcDbAttributeDefinition
  3

  2
NT
 70
     8
280
     0
  0
ATTDEF
  5
75
330
6E
100
AcDbEntity
  8
AM_6
100
AcDbText
 10
10.21875
 20
1.115384615384615
 30
0.0
 40
0.5
  1
070367
100
AcDbAttributeDefinition
  3

  2
NB
 70
     8
280
     0
  0
ATTDEF
  5
76
330
6E
100
AcDbEntity
  8
AM_6
100
AcDbText
 10
10.21875
 20
0.6153846153846154
 30
0.0
 40
0.5
  1
$PN.
100
AcDbAttributeDefinition
  3

  2
NBSYN
 70
     8
280
     0
  0
ATTDEF
  5
77
330
6E
100
AcDbEntity
  8
AM_6
100
AcDbText
 10
10.21875
 20
0.1153846153846154
 30
0.0
 40
0.5
  1
070367
100
AcDbAttributeDefinition
  3

  2
LINA
 70
     8
280
     0
  0
ATTDEF
  5
78
330
6E
100
AcDbEntity
  8
AM_6
100
AcDbText
 10
10.21875
 20
-0.3846153846153846
 30
0.0
 40
0.5
  1
2-11/16
100
AcDbAttributeDefinition
  3

  2
SS
 70
     8
280
     0
  0
ATTDEF
  5
79
330
6E
100
AcDbEntity
  8
AM_6
100
AcDbText
 10
10.21875
 20
-0.8846153846153846
 30
0.0
 40
0.5
  1
070367
100
AcDbAttributeDefinition
  3

  2
PN
 70
     8
280
     0
  0
ATTDEF
  5
7A
330
6E
100
AcDbEntity
  8
AM_6
100
AcDbText
 10
10.21875
 20
-1.384615384615385
 30
0.0
 40
0.5
  1
P4B-S2-211R
100
AcDbAttributeDefinition
  3

  2
DESCRIPTION
 70
     8
280
     0
  0
ATTDEF
  5
7B
330
6E
100
AcDbEntity
  8
AM_6
100
AcDbText
 10
10.21875
 20
-1.884615384615385
 30
0.0
 40
0.5
  1
Non-Expansion Type
100
AcDbAttributeDefinition
  3

  2
EF
 70
     8
280
     0
  0
ATTDEF
  5
7C
330
6E
100
AcDbEntity
  8
AM_6
100
AcDbText
 10
10.21875
 20
-2.384615384615385
 30
0.0
 40
0.5
  1
Contact Seal
100
AcDbAttributeDefinition
  3

  2
ST
 70
     8
280
     0
  0
ATTDEF
  5
7D
330
6E
100
AcDbEntity
  8
AM_6
100
AcDbText
 10
10.21875
 20
-2.884615384615385
 30
0.0
 40
0.5
  1
3-19/32
100
AcDbAttributeDefinition
  3

  2
A
 70
     8
280
     0
  0
ATTDEF
  5
7E
330
6E
100
AcDbEntity
  8
AM_6
100
AcDbText
 10
10.21875
 20
-3.384615384615385
 30
0.0
 40
0.5
  1
10-7/16
100
AcDbAttributeDefinition
  3

  2
B
 70
     8
280
     0
  0
ATTDEF
  5
7F
330
6E
100
AcDbEntity
  8
AM_6
100
AcDbText
 10
10.21875
 20
-3.884615384615385
 30
0.0
 40
0.5
  1
3-3/4
100
AcDbAttributeDefinition
  3

  2
C
 70
     8
280
     0
  0
ATTDEF
  5
80
330
6E
100
AcDbEntity
  8
AM_6
100
AcDbText
 10
10.21875
 20
-4.384615384615385
 30
0.0
 40
0.5
  1
7-15/16
100
AcDbAttributeDefinition
  3

  2
DMIN
 70
     8
280
     0
  0
ATTDEF
  5
81
330
6E
100
AcDbEntity
  8
AM_6
100
AcDbText
 10
10.21875
 20
-4.884615384615385
 30
0.0
 40
0.5
  1
8-5/16
100
AcDbAttributeDefinition
  3

  2
DMAX
 70
     8
280
     0
  0
ATTDEF
  5
82
330
6E
100
AcDbEntity
  8
AM_6
100
AcDbText
 10
10.21875
 20
-5.384615384615385
 30
0.0
 40
0.5
  1
1-7/8
100
AcDbAttributeDefinition
  3

  2
E
 70
     8
280
     0
  0
ATTDEF
  5
83
330
6E
100
AcDbEntity
  8
AM_6
100
AcDbText
 10
10.21875
 20
-5.884615384615385
 30
0.0
 40
0.5
  1
5/8
100
AcDbAttributeDefinition
  3

  2
F
 70
     8
280
     0
  0
ATTDEF
  5
84
330
6E
100
AcDbEntity
  8
AM_6
100
AcDbText
 10
10.21875
 20
-6.384615384615385
 30
0.0
 40
0.5
  1
15/16
100
AcDbAttributeDefinition
  3

  2
G
 70
     8
280
     0
  0
ATTDEF
  5
85
330
6E
100
AcDbEntity
  8
AM_6
100
AcDbText
 10
10.21875
 20
-6.884615384615385
 30
0.0
 40
0.5
  1
1-7/8
100
AcDbAttributeDefinition
  3

  2
H
 70
     8
280
     0
  0
ATTDEF
  5
86
330
6E
100
AcDbEntity
  8
AM_6
100
AcDbText
 10
10.21875
 20
-7.384615384615385
 30
0.0
 40
0.5
  1
6-7/16
100
AcDbAttributeDefinition
  3

  2
J
 70
     8
280
     0
  0
ATTDEF
  5
87
330
6E
100
AcDbEntity
  8
AM_6
100
AcDbText
 10
10.21875
 20
-7.884615384615385
 30
0.0
 40
0.5
  1
4-45/64
100
AcDbAttributeDefinition
  3

  2
L
 70
     8
280
     0
  0
ATTDEF
  5
88
330
6E
100
AcDbEntity
  8
AM_6
100
AcDbText
 10
10.21875
 20
-8.384615384615385
 30
0.0
 40
0.5
  1
3-1/4
100
AcDbAttributeDefinition
  3

  2
M
 70
     8
280
     0
  0
ATTDEF
  5
89
330
6E
100
AcDbEntity
  8
AM_6
100
AcDbText
 10
10.21875
 20
-8.884615384615385
 30
0.0
 40
0.5
  1
1-3/32
100
AcDbAttributeDefinition
  3

  2
R
 70
     8
280
     0
  0
ATTDEF
  5
8A
330
6E
100
AcDbEntity
  8
AM_6
100
AcDbText
 10
10.21875
 20
-9.384615384615385
 30
0.0
 40
0.5
  1
2-1/2
100
AcDbAttributeDefinition
  3

  2
S
 70
     8
280
     0
  0
ATTDEF
  5
8B
330
6E
100
AcDbEntity
  8
AM_6
100
AcDbText
 10
10.21875
 20
-9.884615384615385
 30
0.0
 40
0.5
  1
1/4
100
AcDbAttributeDefinition
  3

  2
X
 70
     8
280
     0
  0
ATTDEF
  5
8C
330
6E
100
AcDbEntity
  8
AM_6
100
AcDbText
 10
10.21875
 20
-10.38461538461539
 30
0.0
 40
0.5
  1
0.025
100
AcDbAttributeDefinition
  3

  2
Y
 70
     8
280
     0
  0
ATTDEF
  5
8D
330
6E
100
AcDbEntity
  8
AM_6
100
AcDbText
 10
10.21875
 20
-10.88461538461539
 30
0.0
 40
0.5
  1
3-15/32
100
AcDbAttributeDefinition
  3

  2
Z
 70
     8
280
     0
  0
ATTDEF
  5
8E
330
6E
100
AcDbEntity
  8
AM_6
100
AcDbText
 10
10.21875
 20
-11.38461538461539
 30
0.0
 40
0.5
  1
baldor
100
AcDbAttributeDefinition
  3

  2
COMPANY
 70
     8
280
     0
  0
INSERT
  5
90
330
6E
100
AcDbEntity
  8
0
100
AcDbBlockReference
  2
2_2_11_16CS2i_0_in_070367_4
 10
0.0
 20
0.0
 30
0.0
  0
INSERT
  5
DD
330
6E
100
AcDbEntity
  8
0
100
AcDbBlockReference
  2
3_070009i_0_in_070367_4
 10
0.0
 20
0.0
 30
0.0
  0
INSERT
  5
12C
330
6E
100
AcDbEntity
  8
0
100
AcDbBlockReference
  2
4_405015E_Inch_0_in_070367_4
 10
0.0
 20
0.0
 30
0.0
  0
INSERT
  5
16B
330
6E
100
AcDbEntity
  8
0
100
AcDbBlockReference
  2
5_070367H_0_in_070367_4
 10
0.0
 20
0.0
 30
0.0
  0
ENDBLK
  5
71
330
6E
100
AcDbEntity
  8
0
100
AcDbBlockEnd
  0
BLOCK
  5
91
330
8F
100
AcDbEntity
  8
0
100
AcDbBlockBegin
  2
2_2_11_16CS2i_0_in_070367_4
 70
     2
 10
0.0
 20
0.0
 30
0.0
  3
2_2_11_16CS2i_0_in_070367_4
  1

  0
ATTDEF
  5
93
330
8F
100
AcDbEntity
  8
AM_6
100
AcDbText
 10
7.3125
 20
-1.616
 30
0.0
 40
0.5
  1
S-2000 Collar -Inch
100
AcDbAttributeDefinition
  3

  2
NN
 70
     8
280
     0
  0
ATTDEF
  5
94
330
8F
100
AcDbEntity
  8
AM_6
100
AcDbText
 10
7.3125
 20
-2.116
 30
0.0
 40
0.5
  1
S-2000 Bearings
100
AcDbAttributeDefinition
  3

  2
NT
 70
     8
280
     0
  0
ATTDEF
  5
95
330
8F
100
AcDbEntity
  8
AM_6
100
AcDbText
 10
7.3125
 20
-2.616
 30
0.0
 40
0.5
  1
2-11/16CS2i
100
AcDbAttributeDefinition
  3

  2
NB
 70
     8
280
     0
  0
ATTDEF
  5
96
330
8F
100
AcDbEntity
  8
AM_6
100
AcDbText
 10
7.3125
 20
-3.116
 30
0.0
 40
0.5
  1
$BORE.CS2i
100
AcDbAttributeDefinition
  3

  2
NBSYN
 70
     8
280
     0
  0
ATTDEF
  5
97
330
8F
100
AcDbEntity
  8
AM_6
100
AcDbText
 10
7.3125
 20
-3.616
 30
0.0
 40
0.5
  1
2-11/16CS2i
100
AcDbAttributeDefinition
  3

  2
LINA
 70
     8
280
     0
  0
ATTDEF
  5
98
330
8F
100
AcDbEntity
  8
AM_6
100
AcDbText
 10
7.3125
 20
-4.116
 30
0.0
 40
0.5
  1
2-11/16
100
AcDbAttributeDefinition
  3

  2
BORE
 70
     8
280
     0
  0
ATTDEF
  5
99
330
8F
100
AcDbEntity
  8
AM_6
100
AcDbText
 10
7.3125
 20
-4.616
 30
0.0
 40
0.5
  1
2.687500
100
AcDbAttributeDefinition
  3

  2
BORE1
 70
     8
280
     0
  0
ATTDEF
  5
9A
330
8F
100
AcDbEntity
  8
AM_6
100
AcDbText
 10
7.3125
 20
-5.116
 30
0.0
 40
0.5
  1
4-45/64
100
AcDbAttributeDefinition
  3

  2
L1
 70
     8
280
     0
  0
ATTDEF
  5
9B
330
8F
100
AcDbEntity
  8
AM_6
100
AcDbText
 10
7.3125
 20
-5.616
 30
0.0
 40
0.5
  1
4.70313
100
AcDbAttributeDefinition
  3

  2
L
 70
     8
280
     0
  0
ATTDEF
  5
9C
330
8F
100
AcDbEntity
  8
AM_6
100
AcDbText
 10
7.3125
 20
-6.116
 30
0.0
 40
0.5
  1
4.62500
100
AcDbAttributeDefinition
  3

  2
L2
 70
     8
280
     0
  0
ATTDEF
  5
9D
330
8F
100
AcDbEntity
  8
AM_6
100
AcDbText
 10
7.3125
 20
-6.616
 30
0.0
 40
0.5
  1
4.50
100
AcDbAttributeDefinition
  3

  2
A
 70
     8
280
     0
  0
ATTDEF
  5
9E
330
8F
100
AcDbEntity
  8
AM_6
100
AcDbText
 10
7.3125
 20
-7.116
 30
0.0
 40
0.5
  1
1.94
100
AcDbAttributeDefinition
  3

  2
B
 70
     8
280
     0
  0
ATTDEF
  5
9F
330
8F
100
AcDbEntity
  8
AM_6
100
AcDbText
 10
7.3125
 20
-7.616
 30
0.0
 40
0.5
  1
3.47
100
AcDbAttributeDefinition
  3

  2
C
 70
     8
280
     0
  0
ATTDEF
  5
A0
330
8F
100
AcDbEntity
  8
AM_6
100
AcDbText
 10
7.3125
 20
-8.116
 30
0.0
 40
0.5
  1
4.78
100
AcDbAttributeDefinition
  3

  2
D
 70
     8
280
     0
  0
ATTDEF
  5
A1
330
8F
100
AcDbEntity
  8
AM_6
100
AcDbText
 10
7.3125
 20
-8.616
 30
0.0
 40
0.5
  1
0.54
100
AcDbAttributeDefinition
  3

  2
E
 70
     8
280
     0
  0
ATTDEF
  5
A2
330
8F
100
AcDbEntity
  8
AM_6
100
AcDbText
 10
7.3125
 20
-9.116
 30
0.0
 40
0.5
  1
0.442
100
AcDbAttributeDefinition
  3

  2
F
 70
     8
280
     0
  0
ATTDEF
  5
A3
330
8F
100
AcDbEntity
  8
AM_6
100
AcDbText
 10
7.3125
 20
-9.616
 30
0.0
 40
0.5
  1
1/2-13
100
AcDbAttributeDefinition
  3

  2
CS
 70
     8
280
     0
  0
ATTDEF
  5
A4
330
8F
100
AcDbEntity
  8
AM_6
100
AcDbText
 10
7.3125
 20
-10.116
 30
0.0
 40
0.5
  1
0.5000
100
AcDbAttributeDefinition
  3

  2
NDM
 70
     8
280
     0
  0
ATTDEF
  5
A5
330
8F
100
AcDbEntity
  8
AM_6
100
AcDbText
 10
7.3125
 20
-10.616
 30
0.0
 40
0.5
  1
0.4170
100
AcDbAttributeDefinition
  3

  2
KDM
 70
     8
280
     0
  0
ATTDEF
  5
A6
330
8F
100
AcDbEntity
  8
AM_6
100
AcDbText
 10
7.3125
 20
-11.116
 30
0.0
 40
0.5
  1
2
100
AcDbAttributeDefinition
  3

  2
DD
 70
     8
280
     0
  0
ATTDEF
  5
A7
330
8F
100
AcDbEntity
  8
AM_6
100
AcDbText
 10
7.3125
 20
-11.616
 30
0.0
 40
0.5
  1
baldor
100
AcDbAttributeDefinition
  3

  2
COMPANY
 70
     8
280
     0
  0
LINE
  5
AA
330
8F
100
AcDbEntity
  8
AM_9
100
AcDbLine
 10
-1.621041032257525
 20
-2.242311121479211
 30
0.0
 11
-1.61304784934304
 21
-2.25228091130547
 31
0.0
  0
LINE
  5
AB
330
8F
100
AcDbEntity
  8
AM_9
100
AcDbLine
 10
-1.613053998828724
 20
-1.86372675886553
 30
0.0
 11
-1.621041032257525
 21
-1.873688878520789
 31
0.0
  0
LWPOLYLINE
  5
AC
330
8F
100
AcDbEntity
  8
AM_9
100
AcDbPolyline
 90
       25
 70
     0
 43
0.0
 10
-1.612995366615279
 20
-2.252346372306661
 10
-1.599798939359325
 20
-2.265229310285721
 10
-1.584485341085734
 20
-2.272960235219271
 10
-1.567406701905496
 20
-2.274363104263085
 10
-1.549616345784997
 20
-2.269067220647533
 10
-1.531471807722357
 20
-2.256940397374203
 10
-1.513825450581306
 20
-2.238340734915684
 10
-1.497676212354683
 20
-2.214033201754605
 10
-1.483490738501406
 20
-2.184410334238765
 10
-1.472589421435083
 20
-2.151981558696062
 10
-1.464802398822038
 20
-2.116346451783199
 10
-1.46088530608274
 20
-2.081455824186438
 10
-1.460320023142081
 20
-2.045831398016386
 10
-1.462973870963721
 20
-2.012430674503638
 10
-1.468521829407611
 20
-1.980295213212396
 10
-1.47678158374384
 20
-1.950063311232025
 10
-1.487276321835602
 20
-1.922654236130348
 10
-1.500335991889992
 20
-1.897378252981917
 10
-1.51483798983032
 20
-1.876388550425185
 10
-1.531361229512866
 20
-1.85914959460791
 10
-1.548322491076697
 20
-1.847573200158213
 10
-1.565982238698568
 20
-1.841816936389018
 10
-1.582983686310431
 20
-1.842633464860002
 10
-1.59913401636106
 20
-1.850293413337417
 10
-1.612995473351824
 20
-1.863653760823548
  0
LWPOLYLINE
  5
AD
330
8F
100
AcDbEntity
  8
AM_9
100
AcDbPolyline
 90
        3
 70
     0
 43
0.0
 10
-1.617938983605151
 20
-1.870405879671377
 10
-1.624505975682561
 20
-1.881450829338541
 10
-1.633858622098936
 20
-1.902460767138974
  0
LWPOLYLINE
  5
AE
330
8F
100
AcDbEntity
  8
AM_9
100
AcDbPolyline
 90
        3
 70
     0
 43
0.0
 10
-1.612995473351824
 20
-1.863653760823548
 10
-1.613745367501103
 20
-1.864602020644804
 10
-1.617938983605151
 20
-1.870405879671377
  0
ELLIPSE
  5
AF
330
8F
100
AcDbEntity
  8
AM_9
100
AcDbEllipse
 10
-2.093493951892572
 20
-2.058000000000153
 30
0.0
 11
1.275775803010662E-17
 21
0.2083499999998215
 31
0.0
210
0.0
220
0.0
230
1.0
 40
0.4226182617403298
 41
3.626704900062354
 42
3.693898799129336
  0
LINE
  5
B0
330
8F
100
AcDbEntity
  8
AM_9
100
AcDbLine
 10
-1.579981470270782
 20
-1.84965
 30
0.0
 11
-2.093493951892763
 21
-1.84965
 31
0.0
  0
LINE
  5
B1
330
8F
100
AcDbEntity
  8
AM_9
100
AcDbLine
 10
-2.093493951892763
 20
-2.26635
 30
0.0
 11
-1.579981470270782
 21
-2.26635
 31
0.0
  0
LWPOLYLINE
  5
B2
330
8F
100
AcDbEntity
  8
AM_9
100
AcDbPolyline
 90
        3
 70
     0
 43
0.0
 10
-1.619632831326963
 20
-2.24299162137448
 10
-1.613698358657967
 20
-2.251458188147679
 10
-1.612995366615279
 20
-2.252346372306661
  0
LWPOLYLINE
  5
B3
330
8F
100
AcDbEntity
  8
AM_9
100
AcDbPolyline
 90
       13
 70
     0
 43
0.0
 10
-1.633858622098936
 20
-1.902460767138974
 10
-1.641466124741107
 20
-1.926500600041266
 10
-1.647581990311325
 20
-1.95370439886035
 10
-1.652571437155016
 20
-1.987341380916969
 10
-1.655548882923959
 20
-2.023308884043454
 10
-1.656450482102013
 20
-2.057984006785265
 10
-1.655550545090074
 20
-2.092659609339306
 10
-1.652963100460516
 20
-2.125150857330246
 10
-1.648736541414842
 20
-2.155831273095761
 10
-1.642714033771705
 20
-2.184677728838089
 10
-1.635071968379723
 20
-2.210214827786419
 10
-1.625200066031372
 20
-2.233219243732121
 10
-1.619632831326963
 20
-2.24299162137448
  0
LWPOLYLINE
  5
B4
330
8F
100
AcDbEntity
  8
AM_9
100
AcDbPolyline
 90
       38
 70
     0
 43
0.0
 10
0.1558552102441073
 20
-1.89755566875648
 10
0.1293958147651115
 20
-1.878227006086454
 10
0.0998779979819063
 20
-1.862490675361797
 10
0.0630829471088222
 20
-1.8495211735553
 10
0.0236084634277779
 20
-1.84246179702824
 10
-0.0167291019991729
 20
-1.841899240723616
 10
-0.0577346991685372
 20
-1.848170428180735
 10
-0.0962881840603967
 20
-1.860924160792598
 10
-0.1331446413508827
 20
-1.880629757231113
 10
-0.1644211119986263
 20
-1.905177325787725
 10
-0.1916767647966401
 20
-1.935854894468448
 10
-0.2112066866635975
 20
-1.968032526719131
 10
-0.2250360104084846
 20
-2.004437628082111
 10
-0.2313629144297323
 20
-2.038753983566449
 10
-0.2315849188619679
 20
-2.074778266969308
 10
-0.2260940987321662
 20
-2.107556008412986
 10
-0.2149810566433588
 20
-2.139855005921873
 10
-0.1990312503979371
 20
-2.169469731420991
 10
-0.1780867287782308
 20
-2.196868925596461
 10
-0.1522341665990929
 20
-2.221443248221804
 10
-0.1220907162653654
 20
-2.242175428933718
 10
-0.0876138028628634
 20
-2.258580104557034
 10
-0.0499620330934108
 20
-2.269566887546216
 10
-0.0102613064757014
 20
-2.274453921719002
 10
0.0308299839604382
 20
-2.272738766420176
 10
0.0705982438879987
 20
-2.264361504589611
 10
0.1094705331399551
 20
-2.248972840272985
 10
0.143742517543129
 20
-2.228008268912055
 10
0.1747313002304186
 20
-2.200525984542453
 10
0.1985085733417882
 20
-2.170275503323749
 10
0.2170203034083165
 20
-2.135052376945248
 10
0.2276619167280847
 20
-2.100897116551629
 10
0.2321909757465763
 20
-2.064196659427123
 10
0.2304205197041101
 20
-2.030671394591278
 10
0.2228265944000734
 20
-1.996963263442652
 10
0.2102671821876774
 20
-1.966144946884767
 10
0.1925062661923142
 20
-1.936992724445744
 10
0.1558552102441073
 20
-1.89755566875648
  0
LINE
  5
B5
330
8F
100
AcDbEntity
  8
AM_9
100
AcDbLine
 10
1.735
 20
-2.5
 30
0.0
 11
1.735
 21
-1.616
 31
0.0
  0
LINE
  5
B6
330
8F
100
AcDbEntity
  8
AM_9
100
AcDbLine
 10
-1.735
 20
-1.616
 30
0.0
 11
-1.735
 21
-2.5
 31
0.0
  0
ARC
  5
B8
330
8F
100
AcDbEntity
  8
AM_5
100
AcDbCircle
 10
0.0000000000000003
 20
-2.057999999999999
 30
0.0
 40
0.2499999999999994
100
AcDbArc
 50
75.00000000000001
 51
14.99999999999997
  0
ELLIPSE
  5
B9
330
8F
100
AcDbEntity
  8
AM_9
100
AcDbEllipse
 10
-1.579981470270782
 20
-2.057999999999999
 30
0.0
 11
1.275775803011754E-17
 21
0.2083499999999998
 31
0.0
210
0.0
220
0.0
230
1.0
 40
0.4226182617407002
 41
0.0
 42
6.283185307179586
  0
LWPOLYLINE
  5
BB
330
8F
100
AcDbEntity
  8
AM_4
100
AcDbPolyline
 90
        8
 70
     0
 43
0.0
 10
-2.052804941910871
 20
-2.242773305124196
 10
-2.058310181451938
 20
-2.249132255216325
 10
-2.069848235007113
 20
-2.259463339693982
 10
-2.084203788798971
 20
-2.266992115195639
 10
-2.098487525065037
 20
-2.268832618742108
 10
-2.111880980874292
 20
-2.265011171060053
 10
-2.124440346965654
 20
-2.255876440139361
 10
-2.139690869595015
 20
-2.235371868471293
  0
ELLIPSE
  5
BC
330
8F
100
AcDbEntity
  8
AM_4
100
AcDbEllipse
 10
-2.093493951892755
 20
-2.057999999999997
 30
0.0
 11
1.275775803011773E-17
 21
0.2083500000000029
 31
0.0
210
0.0
220
0.0
230
1.0
 40
0.42261826174071
 41
2.589286508049121
 42
3.626704900063469
  0
ELLIPSE
  5
BD
330
8F
100
AcDbEntity
  8
AM_4
100
AcDbEllipse
 10
-2.093493951892762
 20
-2.057999999999996
 30
0.0
 11
1.275775803011734E-17
 21
0.2083499999999965
 31
0.0
210
0.0
220
0.0
230
1.0
 40
0.4226182617406974
 41
5.730879161638977
 42
6.835491452720222
  0
ARC
  5
BE
330
8F
100
AcDbEntity
  8
AM_4
100
AcDbCircle
 10
0.0000000000000002
 20
-2.058
 30
0.0
 40
0.2083499999999994
100
AcDbArc
 50
238.3551888613844
 51
301.6448111386154
  0
ARC
  5
BF
330
8F
100
AcDbEntity
  8
AM_4
100
AcDbCircle
 10
0.0000000000000194
 20
-2.058000000000068
 30
0.0
 40
0.2083500000000686
100
AcDbArc
 50
58.35518886139629
 51
121.6448111386101
  0
LINE
  5
C0
330
8F
100
AcDbEntity
  8
AM_4
100
AcDbLine
 10
2.202380952380952
 20
-1.670950058072009
 30
0.0
 11
2.202380952380952
 21
-1.616
 31
0.0
  0
LINE
  5
C1
330
8F
100
AcDbEntity
  8
AM_4
100
AcDbLine
 10
-2.202380952380952
 20
-1.616
 30
0.0
 11
-2.202380952380952
 21
-1.670950058072009
 31
0.0
  0
LINE
  5
C2
330
8F
100
AcDbEntity
  8
AM_4
100
AcDbLine
 10
-2.202380952380952
 20
-1.616
 30
0.0
 11
2.202380952380952
 21
-1.616
 31
0.0
  0
LINE
  5
C3
330
8F
100
AcDbEntity
  8
AM_4
100
AcDbLine
 10
-2.202380952380952
 20
-1.670950058072009
 30
0.0
 11
-2.25609756097561
 21
-1.724666666666667
 31
0.0
  0
LINE
  5
C4
330
8F
100
AcDbEntity
  8
AM_4
100
AcDbLine
 10
2.25609756097561
 20
-1.724666666666667
 30
0.0
 11
2.202380952380952
 21
-1.670950058072009
 31
0.0
  0
LINE
  5
C5
330
8F
100
AcDbEntity
  8
AM_4
100
AcDbLine
 10
-2.202380952380952
 20
-1.670950058072009
 30
0.0
 11
2.202380952380952
 21
-1.670950058072009
 31
0.0
  0
LINE
  5
C6
330
8F
100
AcDbEntity
  8
AM_4
100
AcDbLine
 10
2.25609756097561
 20
-1.808
 30
0.0
 11
2.25609756097561
 21
-1.724666666666667
 31
0.0
  0
LINE
  5
C7
330
8F
100
AcDbEntity
  8
AM_4
100
AcDbLine
 10
-2.25609756097561
 20
-1.724666666666667
 30
0.0
 11
-2.25609756097561
 21
-1.808
 31
0.0
  0
LINE
  5
C8
330
8F
100
AcDbEntity
  8
AM_4
100
AcDbLine
 10
-2.25609756097561
 20
-1.724666666666667
 30
0.0
 11
2.25609756097561
 21
-1.724666666666667
 31
0.0
  0
LINE
  5
C9
330
8F
100
AcDbEntity
  8
AM_4
100
AcDbLine
 10
-2.165166666666666
 20
-2.5
 30
0.0
 11
2.165166666666666
 21
-2.5
 31
0.0
  0
ARC
  5
CA
330
8F
100
AcDbEntity
  8
AM_4
100
AcDbCircle
 10
2.165166666666667
 20
-2.352666666666666
 30
0.0
 40
0.1473333333333335
100
AcDbArc
 50
270.0
 51
0.0
  0
ARC
  5
CB
330
8F
100
AcDbEntity
  8
AM_4
100
AcDbCircle
 10
-2.165166666666667
 20
-2.352666666666666
 30
0.0
 40
0.1473333333333331
100
AcDbArc
 50
180.0
 51
270.0
  0
LWPOLYLINE
  5
CC
330
8F
100
AcDbEntity
  8
AM_4
100
AcDbPolyline
 90
       13
 70
     0
 43
0.0
 10
-2.139690869595015
 20
-2.235371868471293
 10
-2.150253301765782
 20
-2.214470370977225
 10
-2.159112393942237
 20
-2.189153830449368
 10
-2.166114632456999
 20
-2.160078279645964
 10
-2.171197233036197
 20
-2.128111449603252
 10
-2.174280255679048
 20
-2.0941657383811
 10
-2.175364273788554
 20
-2.059193130248524
 10
-2.174424361268534
 20
-2.024311570671274
 10
-2.171498483601667
 20
-1.990379831874524
 10
-2.166593270470814
 20
-1.958385863942797
 10
-2.159782254313468
 20
-1.9291857962869
 10
-2.150665011257281
 20
-1.902524596145593
 10
-2.139690869595015
 20
-1.880628131528706
  0
LWPOLYLINE
  5
CD
330
8F
100
AcDbEntity
  8
AM_4
100
AcDbPolyline
 90
        8
 70
     0
 43
0.0
 10
-2.139690869595015
 20
-1.880628131528706
 10
-2.130501439096204
 20
-1.866867744783674
 10
-2.120421949824968
 20
-1.856536660306017
 10
-2.107173949372288
 20
-1.84900788480436
 10
-2.093170481159435
 20
-1.847167381257891
 10
-2.079201197539816
 20
-1.850988828939946
 10
-2.065315011403893
 20
-1.860123559860638
 10
-2.047297034190511
 20
-1.880628131528706
  0
LWPOLYLINE
  5
CE
330
8F
100
AcDbEntity
  8
AM_4
100
AcDbPolyline
 90
       13
 70
     0
 43
0.0
 10
-2.047297034190511
 20
-1.880628131528706
 10
-2.033996941184252
 20
-1.901529629022774
 10
-2.02227699270006
 20
-1.926846169550632
 10
-2.012613984293758
 20
-1.955921720354035
 10
-2.005362544128791
 20
-1.987888550396748
 10
-2.000866852303487
 20
-2.0218342616189
 10
-1.99926213170122
 20
-2.056806869751475
 10
-2.000654605716923
 20
-2.091688429328725
 10
-2.004926327002371
 20
-2.125620168125475
 10
-2.011939987791728
 20
-2.157614136057202
 10
-2.02136816433255
 20
-2.186814203713099
 10
-2.033463641565287
 20
-2.213475403854406
 10
-2.047297034190511
 20
-2.235371868471293
  0
LINE
  5
CF
330
8F
100
AcDbEntity
  8
AM_4
100
AcDbLine
 10
-2.047297034190511
 20
-2.235371868471293
 30
0.0
 11
-2.052804941910871
 21
-2.242773305124196
 31
0.0
  0
LWPOLYLINE
  5
D0
330
8F
100
AcDbEntity
  8
AM_4
100
AcDbPolyline
 90
       13
 70
     0
 43
0.0
 10
0.1093112198038346
 20
-1.880628131528706
 10
0.1375429922297818
 20
-1.901529629022774
 10
0.1618900715252742
 20
-1.926846169550632
 10
0.1816067383493972
 20
-1.955921720354035
 10
0.1961991517171534
 20
-1.987888550396747
 10
0.2051655348035573
 20
-2.0218342616189
 10
0.2083465837017972
 20
-2.056806869751475
 10
0.2055871353451222
 20
-2.091688429328725
 10
0.1970716503271904
 20
-2.125620168125475
 10
0.1829704211574924
 20
-2.157614136057202
 10
0.1637578194217304
 20
-2.186814203713099
 10
0.1386610332564184
 20
-2.213475403854406
 10
0.1093112198038346
 20
-2.235371868471293
  0
LWPOLYLINE
  5
D1
330
8F
100
AcDbEntity
  8
AM_4
100
AcDbPolyline
 90
        9
 70
     0
 43
0.0
 10
0.1093112198038346
 20
-2.235371868471293
 10
0.0888676509357432
 20
-2.247415941176019
 10
0.0576169409411744
 20
-2.260167066374428
 10
0.0235750945925724
 20
-2.267492496888424
 10
-0.0088618232193029
 20
-2.268731770925496
 10
-0.0419970861814776
 20
-2.264322732606286
 10
-0.0725976050318415
 20
-2.254833943480357
 10
-0.1020154452882455
 20
-2.240048728254032
 10
-0.109311219803835
 20
-2.235371868471292
  0
LWPOLYLINE
  5
D2
330
8F
100
AcDbEntity
  8
AM_4
100
AcDbPolyline
 90
       13
 70
     0
 43
0.0
 10
-0.109311219803835
 20
-2.235371868471292
 10
-0.1375429922297826
 20
-2.214470370977225
 10
-0.161890071525275
 20
-2.189153830449367
 10
-0.1816067383493976
 20
-2.160078279645964
 10
-0.1961991517171538
 20
-2.128111449603251
 10
-0.2051655348035574
 20
-2.094165738381099
 10
-0.2083465837017975
 20
-2.059193130248524
 10
-0.2055871353451225
 20
-2.024311570671273
 10
-0.1970716503271904
 20
-1.990379831874523
 10
-0.1829704211574922
 20
-1.958385863942796
 10
-0.1637578194217301
 20
-1.929185796286899
 10
-0.1386610332564185
 20
-1.902524596145593
 10
-0.109311219803835
 20
-1.880628131528707
  0
LWPOLYLINE
  5
D3
330
8F
100
AcDbEntity
  8
AM_4
100
AcDbPolyline
 90
        8
 70
     0
 43
0.0
 10
-0.109311219803835
 20
-1.880628131528707
 10
-0.1083734354373929
 20
-1.880001865382718
 10
-0.0783314231021419
 20
-1.863578592017258
 10
-0.044838983208252
 20
-1.852330798587904
 10
-0.0123962521239044
 20
-1.847462850310769
 10
0.0214014115951383
 20
-1.848253046922179
 10
0.064523390313313
 20
-1.858121818270481
 10
0.109311219803854
 20
-1.880628131528694
  0
LINE
  5
D4
330
8F
100
AcDbEntity
  8
AM_4
100
AcDbLine
 10
2.3125
 20
-2.352666666666666
 30
0.0
 11
2.3125
 21
-1.840563963353683
 31
0.0
  0
LINE
  5
D5
330
8F
100
AcDbEntity
  8
AM_4
100
AcDbLine
 10
-2.3125
 20
-1.840563963353683
 30
0.0
 11
-2.3125
 21
-2.352666666666666
 31
0.0
  0
LINE
  5
D6
330
8F
100
AcDbEntity
  8
AM_4
100
AcDbLine
 10
-2.3125
 20
-2.352666666666666
 30
0.0
 11
2.3125
 21
-2.352666666666666
 31
0.0
  0
LINE
  5
D7
330
8F
100
AcDbEntity
  8
AM_4
100
AcDbLine
 10
-2.25609756097561
 20
-1.808
 30
0.0
 11
-2.3125
 21
-1.840563963353683
 31
0.0
  0
LINE
  5
D8
330
8F
100
AcDbEntity
  8
AM_4
100
AcDbLine
 10
2.3125
 20
-1.840563963353683
 30
0.0
 11
2.25609756097561
 21
-1.808
 31
0.0
  0
LINE
  5
D9
330
8F
100
AcDbEntity
  8
AM_4
100
AcDbLine
 10
-2.3125
 20
-1.840563963353683
 30
0.0
 11
2.3125
 21
-1.840563963353683
 31
0.0
  0
LINE
  5
DA
330
8F
100
AcDbEntity
  8
AM_4
100
AcDbLine
 10
-2.25609756097561
 20
-1.808
 30
0.0
 11
2.25609756097561
 21
-1.808
 31
0.0
  0
CIRCLE
  5
DB
330
8F
100
AcDbEntity
  8
AM_5
100
AcDbCircle
 10
0.0000000000000003
 20
-2.057999999999999
 30
0.0
 40
0.2499999999999998
  0
ENDBLK
  5
92
330
8F
100
AcDbEntity
  8
0
100
AcDbBlockEnd
  0
BLOCK
  5
DE
330
DC
100
AcDbEntity
  8
0
100
AcDbBlockBegin
  2
3_070009i_0_in_070367_4
 70
     2
 10
0.0
 20
0.0
 30
0.0
  3
3_070009i_0_in_070367_4
  1

  0
ATTDEF
  5
E0
330
DC
100
AcDbEntity
  8
AM_6
100
AcDbText
 10
7.55905
 20
1.09375
 30
0.0
 40
0.5
  1
S-2000 Insert -Inch
100
AcDbAttributeDefinition
  3

  2
NN
 70
     8
280
     0
  0
ATTDEF
  5
E1
330
DC
100
AcDbEntity
  8
AM_6
100
AcDbText
 10
7.55905
 20
0.59375
 30
0.0
 40
0.5
  1
S-2000 Bearings
100
AcDbAttributeDefinition
  3

  2
NT
 70
     8
280
     0
  0
ATTDEF
  5
E2
330
DC
100
AcDbEntity
  8
AM_6
100
AcDbText
 10
7.55905
 20
0.09375
 30
0.0
 40
0.5
  1
070009i
100
AcDbAttributeDefinition
  3

  2
NB
 70
     8
280
     0
  0
ATTDEF
  5
E3
330
DC
100
AcDbEntity
  8
AM_6
100
AcDbText
 10
7.55905
 20
-0.40625
 30
0.0
 40
0.5
  1
$PN.i
100
AcDbAttributeDefinition
  3

  2
NBSYN
 70
     8
280
     0
  0
ATTDEF
  5
E4
330
DC
100
AcDbEntity
  8
AM_6
100
AcDbText
 10
7.55905
 20
-0.90625
 30
0.0
 40
0.5
  1
070009i
100
AcDbAttributeDefinition
  3

  2
LINA
 70
     8
280
     0
  0
ATTDEF
  5
E5
330
DC
100
AcDbEntity
  8
AM_6
100
AcDbText
 10
7.55905
 20
-1.40625
 30
0.0
 40
0.5
  1
2-11/16
100
AcDbAttributeDefinition
  3

  2
SS
 70
     8
280
     0
  0
ATTDEF
  5
E6
330
DC
100
AcDbEntity
  8
AM_6
100
AcDbText
 10
7.55905
 20
-1.90625
 30
0.0
 40
0.5
  1
3.47
100
AcDbAttributeDefinition
  3

  2
CC
 70
     8
280
     0
  0
ATTDEF
  5
E7
330
DC
100
AcDbEntity
  8
AM_6
100
AcDbText
 10
7.55905
 20
-2.40625
 30
0.0
 40
0.5
  1
2.687500
100
AcDbAttributeDefinition
  3

  2
SS1
 70
     8
280
     0
  0
ATTDEF
  5
E8
330
DC
100
AcDbEntity
  8
AM_6
100
AcDbText
 10
7.55905
 20
-2.90625
 30
0.0
 40
0.5
  1
070009
100
AcDbAttributeDefinition
  3

  2
PN
 70
     8
280
     0
  0
ATTDEF
  5
E9
330
DC
100
AcDbEntity
  8
AM_6
100
AcDbText
 10
7.55905
 20
-3.40625
 30
0.0
 40
0.5
  1
INS-S2-211R
100
AcDbAttributeDefinition
  3

  2
DESCRIPTION
 70
     8
280
     0
  0
ATTDEF
  5
EA
330
DC
100
AcDbEntity
  8
AM_6
100
AcDbText
 10
7.55905
 20
-3.90625
 30
0.0
 40
0.5
  1
Contact Seal
100
AcDbAttributeDefinition
  3

  2
ST
 70
     8
280
     0
  0
ATTDEF
  5
EB
330
DC
100
AcDbEntity
  8
AM_6
100
AcDbText
 10
7.55905
 20
-4.40625
 30
0.0
 40
0.5
  1
1
100
AcDbAttributeDefinition
  3

  2
ST1
 70
     8
280
     0
  0
ATTDEF
  5
EC
330
DC
100
AcDbEntity
  8
AM_6
100
AcDbText
 10
7.55905
 20
-4.90625
 30
0.0
 40
0.5
  1
5.1181
100
AcDbAttributeDefinition
  3

  2
A
 70
     8
280
     0
  0
ATTDEF
  5
ED
330
DC
100
AcDbEntity
  8
AM_6
100
AcDbText
 10
7.55905
 20
-5.40625
 30
0.0
 40
0.5
  1
1-9/32
100
AcDbAttributeDefinition
  3

  2
B
 70
     8
280
     0
  0
ATTDEF
  5
EE
330
DC
100
AcDbEntity
  8
AM_6
100
AcDbText
 10
7.55905
 20
-5.90625
 30
0.0
 40
0.5
  1
3-19/32
100
AcDbAttributeDefinition
  3

  2
C
 70
     8
280
     0
  0
ATTDEF
  5
EF
330
DC
100
AcDbEntity
  8
AM_6
100
AcDbText
 10
7.55905
 20
-6.40625
 30
0.0
 40
0.5
  1
1.219
100
AcDbAttributeDefinition
  3

  2
D
 70
     8
280
     0
  0
ATTDEF
  5
F0
330
DC
100
AcDbEntity
  8
AM_6
100
AcDbText
 10
7.55905
 20
-6.90625
 30
0.0
 40
0.5
  1
4-5/8
100
AcDbAttributeDefinition
  3

  2
E
 70
     8
280
     0
  0
ATTDEF
  5
F1
330
DC
100
AcDbEntity
  8
AM_6
100
AcDbText
 10
7.55905
 20
-7.40625
 30
0.0
 40
0.5
  1
0.53125
100
AcDbAttributeDefinition
  3

  2
F
 70
     8
280
     0
  0
ATTDEF
  5
F2
330
DC
100
AcDbEntity
  8
AM_6
100
AcDbText
 10
7.55905
 20
-7.90625
 30
0.0
 40
0.5
  1
2
100
AcDbAttributeDefinition
  3

  2
DD
 70
     8
280
     0
  0
ATTDEF
  5
F3
330
DC
100
AcDbEntity
  8
AM_6
100
AcDbText
 10
7.55905
 20
-8.40625
 30
0.0
 40
0.5
  1
baldor
100
AcDbAttributeDefinition
  3

  2
COMPANY
 70
     8
280
     0
  0
LINE
  5
F4
330
DC
100
AcDbEntity
  8
AM_9
100
AcDbLine
 10
-1.572317636831956
 20
-2.328
 30
0.0
 11
-1.217776104161781
 21
-2.328
 31
0.0
  0
LINE
  5
F5
330
DC
100
AcDbEntity
  8
AM_9
100
AcDbLine
 10
-1.217684176093993
 20
-1.788
 30
0.0
 11
-1.572418966001794
 21
-1.788
 31
0.0
  0
LWPOLYLINE
  5
F6
330
DC
100
AcDbEntity
  8
AM_9
100
AcDbPolyline
 90
       21
 70
     0
 43
0.0
 10
-1.217842769157224
 20
-1.788000000717643
 10
-1.229688705019065
 20
-1.789526049540329
 10
-1.246705009376854
 20
-1.797940157299679
 10
-1.261739907011655
 20
-1.813383362503912
 10
-1.274629452029986
 20
-1.835655901723712
 10
-1.285253776001335
 20
-1.863970993148778
 10
-1.293754577883206
 20
-1.898279855942295
 10
-1.300067286752836
 20
-1.937132433160832
 10
-1.304315958888057
 20
-1.979616923198581
 10
-1.306622211473391
 20
-2.024400284661996
 10
-1.307061866574844
 20
-2.069399794984959
 10
-1.305714698397291
 20
-2.11407264347124
 10
-1.302566572692677
 20
-2.156713730397676
 10
-1.297529380541889
 20
-2.196628434728902
 10
-1.29035544888774
 20
-2.233159034542084
 10
-1.280992614031595
 20
-2.264844975859193
 10
-1.269119379023189
 20
-2.291123584088376
 10
-1.25489731931037
 20
-2.31079285629484
 10
-1.238509206517197
 20
-2.323114178457005
 10
-1.2202157435529
 20
-2.327941494520596
 10
-1.217862036727399
 20
-2.327999998757235
  0
LWPOLYLINE
  5
F7
330
DC
100
AcDbEntity
  8
AM_9
100
AcDbPolyline
 90
       11
 70
     0
 43
0.0
 10
-1.217862036727399
 20
-2.327999998757235
 10
-1.200798452188382
 20
-2.325125158790635
 10
-1.180577443154387
 20
-2.315013023636771
 10
-1.160291681069247
 20
-2.297862508624092
 10
-1.140680333341975
 20
-2.274247575479547
 10
-1.122279650125041
 20
-2.244208846455435
 10
-1.106233482676655
 20
-2.208974221944327
 10
-1.093246168459915
 20
-2.168985833158972
 10
-1.084138307318665
 20
-2.125761219750137
 10
-1.080232954607359
 20
-2.092164195651457
 10
-1.078906760027882
 20
-2.058
  0
LWPOLYLINE
  5
F8
330
DC
100
AcDbEntity
  8
AM_9
100
AcDbPolyline
 90
       11
 70
     0
 43
0.0
 10
-1.667131067801025
 20
-2.035507061477497
 10
-1.665590890727805
 20
-1.999545868557394
 10
-1.661758951528097
 20
-1.956664073453575
 10
-1.655772904707592
 20
-1.916603240050793
 10
-1.647491730929404
 20
-1.880227649049555
 10
-1.636956317187928
 20
-1.848808406601096
 10
-1.624031692414257
 20
-1.823079103600344
 10
-1.608946189914343
 20
-1.803996897166227
 10
-1.591951818378701
 20
-1.792253418495136
 10
-1.573383499213372
 20
-1.788009176900261
 10
-1.572449719077756
 20
-1.788000000337887
  0
LWPOLYLINE
  5
F9
330
DC
100
AcDbEntity
  8
AM_9
100
AcDbPolyline
 90
       11
 70
     0
 43
0.0
 10
-1.572434491717634
 20
-2.327999999060577
 10
-1.584764777193062
 20
-2.326361689251915
 10
-1.602209601625164
 20
-2.317686191475499
 10
-1.617900947246759
 20
-2.301874925706517
 10
-1.631590454891455
 20
-2.279185563952598
 10
-1.643100712278386
 20
-2.250394707038779
 10
-1.65243110710138
 20
-2.215826430692859
 10
-1.659484695067208
 20
-2.176781192761772
 10
-1.664280121816141
 20
-2.134251049515454
 10
-1.666876395037564
 20
-2.089520148649331
 10
-1.667250193660279
 20
-2.074643249839778
  0
LWPOLYLINE
  5
FA
330
DC
100
AcDbEntity
  8
AM_9
100
AcDbPolyline
 90
       11
 70
     0
 43
0.0
 10
-1.572449719077756
 20
-1.788000000337887
 10
-1.553909747547351
 20
-1.79142719455302
 10
-1.533958352919281
 20
-1.802212070566499
 10
-1.514215215884449
 20
-1.820126624235076
 10
-1.495396339729562
 20
-1.844569579887676
 10
-1.478097893763946
 20
-1.875281807824553
 10
-1.463234805511676
 20
-1.911121540818258
 10
-1.451468811398891
 20
-1.951406783534719
 10
-1.443411203137538
 20
-1.994760450401828
 10
-1.440249533082578
 20
-2.026153786116404
 10
-1.439180086532968
 20
-2.058
  0
LWPOLYLINE
  5
FB
330
DC
100
AcDbEntity
  8
AM_9
100
AcDbPolyline
 90
       11
 70
     0
 43
0.0
 10
-1.078906760027882
 20
-2.058
 10
-1.081201611778832
 20
-2.013190305412586
 10
-1.087871442445087
 20
-1.969656338616259
 10
-1.098608540335538
 20
-1.928677812216786
 10
-1.112785447237578
 20
-1.89128896147909
 10
-1.129977121314222
 20
-1.858148412314983
 10
-1.149175679510793
 20
-1.830587879958263
 10
-1.169729755356834
 20
-1.80929651148959
 10
-1.190608434692053
 20
-1.795085094134945
 10
-1.210719303301724
 20
-1.788541530533204
 10
-1.217842769157224
 20
-1.788000000717643
  0
LINE
  5
FC
330
DC
100
AcDbEntity
  8
AM_9
100
AcDbLine
 10
-1.34375
 20
1.09375
 30
0.0
 11
-1.34375
 21
-2.5
 31
0.0
  0
LINE
  5
FD
330
DC
100
AcDbEntity
  8
AM_9
100
AcDbLine
 10
1.34375
 20
-2.5
 30
0.0
 11
1.34375
 21
1.09375
 31
0.0
  0
LINE
  5
FE
330
DC
100
AcDbEntity
  8
AM_9
100
AcDbLine
 10
1.735
 20
1.09375
 30
0.0
 11
-1.735
 21
1.09375
 31
0.0
  0
LINE
  5
FF
330
DC
100
AcDbEntity
  8
AM_9
100
AcDbLine
 10
-1.735
 20
1.09375
 30
0.0
 11
-1.735
 21
0.8342499999999997
 31
0.0
  0
LINE
  5
100
330
DC
100
AcDbEntity
  8
AM_9
100
AcDbLine
 10
1.735
 20
0.8342499999999997
 30
0.0
 11
1.735
 21
1.09375
 31
0.0
  0
LWPOLYLINE
  5
101
330
DC
100
AcDbEntity
  8
AM_9
100
AcDbPolyline
 90
       39
 70
     0
 43
0.0
 10
0.27
 20
-2.058
 10
0.266327945324375
 20
-2.102378210185819
 10
0.2549947015975295
 20
-2.146756420371638
 10
0.2369739392194663
 20
-2.187396105547303
 10
0.2117654761328368
 20
-2.225497412273244
 10
0.1812028386142653
 20
-2.258163761151045
 10
0.1445716436275958
 20
-2.286032979761296
 10
0.104696059677735
 20
-2.306874938649829
 10
0.0605724654261541
 20
-2.321117799535108
 10
0.016324236592193
 20
-2.327506065422807
 10
-0.0296985478072317
 20
-2.326361689251915
 10
-0.0732082632069512
 20
-2.317885648311371
 10
-0.1158663912083256
 20
-2.301874925706517
 10
-0.1542967907545654
 20
-2.279568274721003
 10
-0.1894314564782272
 20
-2.250394707038779
 10
-0.2186749246583898
 20
-2.216370695918303
 10
-0.2424686129091574
 20
-2.176781192761772
 10
-0.2588169924764044
 20
-2.134901003930175
 10
-0.2681538368719047
 20
-2.08952014864933
 10
-0.2696864661733382
 20
-2.044991927009088
 10
-0.2635964994405096
 20
-1.999545868557394
 10
-0.2504948152065081
 20
-1.957241141557393
 10
-0.230015121841731
 20
-1.916603240050793
 10
-0.2036203698298914
 20
-1.880690256922136
 10
-0.1707011342997687
 20
-1.848808406601096
 10
-0.1336196840221795
 20
-1.823381628933681
 10
-0.0915555773878123
 20
-1.803996897166227
 10
-0.0482381762769903
 20
-1.79234406020292
 10
-0.0022260821919896
 20
-1.788009176900261
 10
0.0420767147473347
 20
-1.791298762514923
 10
0.0864438265934715
 20
-1.802212070566499
 10
0.127136732865336
 20
-1.819806273893857
 10
0.1653706617592033
 20
-1.844569579887676
 10
0.1983293434060237
 20
-1.874791180495765
 10
0.2265540073103926
 20
-1.911121540818258
 10
0.2477997381730851
 20
-1.950783910902559
 10
0.2624895414423599
 20
-1.994760450401828
 10
0.2680881166594345
 20
-2.025925684637121
 10
0.27
 20
-2.058
  0
LWPOLYLINE
  5
102
330
DC
100
AcDbEntity
  8
AM_9
100
AcDbPolyline
 90
       11
 70
     0
 43
0.0
 10
-1.439180086532968
 20
-2.058
 10
-1.441332088384352
 20
-2.103016402455498
 10
-1.447603109064745
 20
-2.146756420371638
 10
-1.457738881594918
 20
-2.187941422842958
 10
-1.471191415405587
 20
-2.225497412273244
 10
-1.487519025519707
 20
-2.258576240282542
 10
-1.505876892657058
 20
-2.286032979761295
 10
-1.525624603087439
 20
-2.307107090367962
 10
-1.545886398760266
 20
-2.321117799535108
 10
-1.565753637948113
 20
-2.327517223934402
 10
-1.572434491717634
 20
-2.327999999060577
  0
LINE
  5
103
330
DC
100
AcDbEntity
  8
AM_9
100
AcDbLine
 10
-1.735
 20
-1.616
 30
0.0
 11
-1.735
 21
-2.5
 31
0.0
  0
LINE
  5
104
330
DC
100
AcDbEntity
  8
AM_9
100
AcDbLine
 10
-1.735
 20
-1.08475
 30
0.0
 11
-1.735
 21
-1.5
 31
0.0
  0
LINE
  5
105
330
DC
100
AcDbEntity
  8
AM_9
100
AcDbLine
 10
1.735
 20
-1.5
 30
0.0
 11
1.735
 21
-1.08475
 31
0.0
  0
LINE
  5
106
330
DC
100
AcDbEntity
  8
AM_9
100
AcDbLine
 10
1.735
 20
-2.5
 30
0.0
 11
1.735
 21
-1.616
 31
0.0
  0
LINE
  5
107
330
DC
100
AcDbEntity
  8
AM_9
100
AcDbLine
 10
-2.04724
 20
0.7061249999999996
 30
0.0
 11
-2.04724
 21
0.5153749999999999
 31
0.0
  0
LINE
  5
108
330
DC
100
AcDbEntity
  8
AM_9
100
AcDbLine
 10
2.04724
 20
0.5153749999999999
 30
0.0
 11
2.04724
 21
0.7061249999999996
 31
0.0
  0
LINE
  5
109
330
DC
100
AcDbEntity
  8
AM_9
100
AcDbLine
 10
1.919115
 20
0.8342499999999997
 30
0.0
 11
-1.919114999976102
 21
0.8342499999999997
 31
0.0
  0
LINE
  5
10A
330
DC
100
AcDbEntity
  8
AM_9
100
AcDbLine
 10
2.04724
 20
0.7061249999999996
 30
0.0
 11
-2.04724
 21
0.7061249999999996
 31
0.0
  0
ARC
  5
10B
330
DC
100
AcDbEntity
  8
AM_9
100
AcDbCircle
 10
-1.919115
 20
0.7061249999999994
 30
0.0
 40
0.1281250000000002
100
AcDbArc
 50
90.0
 51
180.0
  0
ARC
  5
10C
330
DC
100
AcDbEntity
  8
AM_9
100
AcDbCircle
 10
1.919115
 20
0.7061249999999993
 30
0.0
 40
0.128125
100
AcDbArc
 50
0.0
 51
90.0
  0
LINE
  5
10D
330
DC
100
AcDbEntity
  8
AM_9
100
AcDbLine
 10
-2.04724
 20
-0.7658750000000002
 30
0.0
 11
-2.04724
 21
-0.9566250000000004
 31
0.0
  0
LINE
  5
10E
330
DC
100
AcDbEntity
  8
AM_9
100
AcDbLine
 10
2.04724
 20
-0.9566250000000004
 30
0.0
 11
2.04724
 21
-0.7658750000000002
 31
0.0
  0
LINE
  5
10F
330
DC
100
AcDbEntity
  8
AM_9
100
AcDbLine
 10
2.04724
 20
-0.9566250000000004
 30
0.0
 11
-2.04724
 21
-0.9566250000000004
 31
0.0
  0
LINE
  5
110
330
DC
100
AcDbEntity
  8
AM_9
100
AcDbLine
 10
1.919115
 20
-1.08475
 30
0.0
 11
-1.919114999976102
 21
-1.08475
 31
0.0
  0
ARC
  5
111
330
DC
100
AcDbEntity
  8
AM_9
100
AcDbCircle
 10
-1.919115
 20
-0.9566249999999995
 30
0.0
 40
0.1281250000000007
100
AcDbArc
 50
180.0
 51
270.0
  0
ARC
  5
112
330
DC
100
AcDbEntity
  8
AM_9
100
AcDbCircle
 10
1.919115
 20
-0.9566249999999995
 30
0.0
 40
0.1281250000000008
100
AcDbArc
 50
270.0
 51
0.0
  0
LINE
  5
113
330
DC
100
AcDbEntity
  8
AM_9
100
AcDbLine
 10
-2.456688
 20
-0.0611875000000041
 30
0.0
 11
-2.456688
 21
-0.1893124999999966
 31
0.0
  0
LINE
  5
114
330
DC
100
AcDbEntity
  8
AM_9
100
AcDbLine
 10
2.456688
 20
-0.1893124999999966
 30
0.0
 11
2.456688
 21
-0.0611875000000041
 31
0.0
  0
LINE
  5
115
330
DC
100
AcDbEntity
  8
AM_9
100
AcDbLine
 10
2.430925
 20
-0.765875
 30
0.0
 11
-2.430924999995921
 21
-0.765875
 31
0.0
  0
ARC
  5
116
330
DC
100
AcDbEntity
  8
AM_9
100
AcDbCircle
 10
-2.430925000000001
 20
-0.6377500000000009
 30
0.0
 40
0.1281249999999989
100
AcDbArc
 50
180.0
 51
270.0
  0
ARC
  5
117
330
DC
100
AcDbEntity
  8
AM_9
100
AcDbCircle
 10
2.430925000000001
 20
-0.6377500000000009
 30
0.0
 40
0.128124999999999
100
AcDbArc
 50
270.0
 51
0.0
  0
LINE
  5
118
330
DC
100
AcDbEntity
  8
AM_9
100
AcDbLine
 10
2.55905
 20
-0.6377500000000008
 30
0.0
 11
-2.55905
 21
-0.6377500000000008
 31
0.0
  0
LINE
  5
119
330
DC
100
AcDbEntity
  8
AM_9
100
AcDbLine
 10
-2.55905
 20
-0.2484112282547846
 30
0.0
 11
-2.55905
 21
-0.6377500000000008
 31
0.0
  0
LINE
  5
11A
330
DC
100
AcDbEntity
  8
AM_9
100
AcDbLine
 10
2.55905
 20
-0.6377500000000008
 30
0.0
 11
2.55905
 21
-0.2484112282547846
 31
0.0
  0
LINE
  5
11B
330
DC
100
AcDbEntity
  8
AM_9
100
AcDbLine
 10
-2.55905
 20
0.3872499999999998
 30
0.0
 11
-2.55905
 21
-0.002088771745216
 31
0.0
  0
LINE
  5
11C
330
DC
100
AcDbEntity
  8
AM_9
100
AcDbLine
 10
2.55905
 20
-0.002088771745216
 30
0.0
 11
2.55905
 21
0.3872499999999998
 31
0.0
  0
LINE
  5
11D
330
DC
100
AcDbEntity
  8
AM_9
100
AcDbLine
 10
2.456688
 20
-0.1893124999999966
 30
0.0
 11
-2.456688
 21
-0.1893124999999966
 31
0.0
  0
LINE
  5
11E
330
DC
100
AcDbEntity
  8
AM_9
100
AcDbLine
 10
2.55905
 20
-0.2484112282547846
 30
0.0
 11
-2.55905
 21
-0.2484112282547846
 31
0.0
  0
LINE
  5
11F
330
DC
100
AcDbEntity
  8
AM_9
100
AcDbLine
 10
-2.456688
 20
-0.1893124999999966
 30
0.0
 11
-2.55905
 21
-0.2484112282547846
 31
0.0
  0
LINE
  5
120
330
DC
100
AcDbEntity
  8
AM_9
100
AcDbLine
 10
2.55905
 20
-0.2484112282547846
 30
0.0
 11
2.456688
 21
-0.1893124999999966
 31
0.0
  0
LINE
  5
121
330
DC
100
AcDbEntity
  8
AM_9
100
AcDbLine
 10
2.55905
 20
-0.002088771745216
 30
0.0
 11
-2.55905
 21
-0.002088771745216
 31
0.0
  0
LINE
  5
122
330
DC
100
AcDbEntity
  8
AM_9
100
AcDbLine
 10
2.456688
 20
-0.0611875000000041
 30
0.0
 11
-2.456688
 21
-0.0611875000000041
 31
0.0
  0
LINE
  5
123
330
DC
100
AcDbEntity
  8
AM_9
100
AcDbLine
 10
2.456688
 20
-0.0611875000000041
 30
0.0
 11
2.55905
 21
-0.002088771745216
 31
0.0
  0
LINE
  5
124
330
DC
100
AcDbEntity
  8
AM_9
100
AcDbLine
 10
-2.55905
 20
-0.002088771745216
 30
0.0
 11
-2.456688
 21
-0.0611875000000041
 31
0.0
  0
LINE
  5
125
330
DC
100
AcDbEntity
  8
AM_9
100
AcDbLine
 10
2.430925000000001
 20
0.5153749999999994
 30
0.0
 11
-2.430924999995922
 21
0.5153749999999994
 31
0.0
  0
LINE
  5
126
330
DC
100
AcDbEntity
  8
AM_9
100
AcDbLine
 10
2.55905
 20
0.3872499999999998
 30
0.0
 11
-2.55905
 21
0.3872499999999998
 31
0.0
  0
ARC
  5
127
330
DC
100
AcDbEntity
  8
AM_9
100
AcDbCircle
 10
-2.430925
 20
0.3872499999999997
 30
0.0
 40
0.1281249999999997
100
AcDbArc
 50
90.0
 51
180.0
  0
ARC
  5
128
330
DC
100
AcDbEntity
  8
AM_9
100
AcDbCircle
 10
2.430925
 20
0.3872499999999997
 30
0.0
 40
0.1281249999999998
100
AcDbArc
 50
0.0
 51
90.0
  0
LINE
  5
129
330
DC
100
AcDbEntity
  8
AM_4
100
AcDbLine
 10
-1.735
 20
-1.5
 30
0.0
 11
-1.735
 21
-1.616
 31
0.0
  0
LINE
  5
12A
330
DC
100
AcDbEntity
  8
AM_4
100
AcDbLine
 10
1.735
 20
-1.616
 30
0.0
 11
1.735
 21
-1.5
 31
0.0
  0
ENDBLK
  5
DF
330
DC
100
AcDbEntity
  8
0
100
AcDbBlockEnd
  0
BLOCK
  5
12D
330
12B
100
AcDbEntity
  8
0
100
AcDbBlockBegin
  2
4_405015E_Inch_0_in_070367_4
 70
     2
 10
0.0
 20
0.0
 30
0.0
  3
4_405015E_Inch_0_in_070367_4
  1

  0
ATTDEF
  5
12F
330
12B
100
AcDbEntity
  8
AM_6
100
AcDbText
 10
6.920171671481429
 20
0.2187500000000012
 30
0.0
 40
0.5
  1
405015E -Inch
100
AcDbAttributeDefinition
  3

  2
NN
 70
     8
280
     0
  0
ATTDEF
  5
130
330
12B
100
AcDbEntity
  8
AM_6
100
AcDbText
 10
6.920171671481429
 20
-0.2812499999999988
 30
0.0
 40
0.5
  1
Grease Fitting
100
AcDbAttributeDefinition
  3

  2
NT
 70
     8
280
     0
  0
ATTDEF
  5
131
330
12B
100
AcDbEntity
  8
AM_6
100
AcDbText
 10
6.920171671481429
 20
-0.7812499999999988
 30
0.0
 40
0.5
  1
405015E-Inch
100
AcDbAttributeDefinition
  3

  2
NB
 70
     8
280
     0
  0
ATTDEF
  5
132
330
12B
100
AcDbEntity
  8
AM_6
100
AcDbText
 10
6.920171671481429
 20
-1.281249999999999
 30
0.0
 40
0.5
  1
$MN.-Inch
100
AcDbAttributeDefinition
  3

  2
NBSYN
 70
     8
280
     0
  0
ATTDEF
  5
133
330
12B
100
AcDbEntity
  8
AM_6
100
AcDbText
 10
6.920171671481429
 20
-1.781249999999999
 30
0.0
 40
0.5
  1
405015E
100
AcDbAttributeDefinition
  3

  2
LINA
 70
     8
280
     0
  0
ATTDEF
  5
134
330
12B
100
AcDbEntity
  8
AM_6
100
AcDbText
 10
6.920171671481429
 20
-2.281249999999999
 30
0.0
 40
0.5
  1
405015E
100
AcDbAttributeDefinition
  3

  2
MN
 70
     8
280
     0
  0
ATTDEF
  5
135
330
12B
100
AcDbEntity
  8
AM_6
100
AcDbText
 10
6.920171671481429
 20
-2.781249999999999
 30
0.0
 40
0.5
  1
1/8 x 27PTF
100
AcDbAttributeDefinition
  3

  2
T
 70
     8
280
     0
  0
ATTDEF
  5
136
330
12B
100
AcDbEntity
  8
AM_6
100
AcDbText
 10
6.920171671481429
 20
-3.281249999999999
 30
0.0
 40
0.5
  1
baldor
100
AcDbAttributeDefinition
  3

  2
COMPANY
 70
     8
280
     0
  0
ELLIPSE
  5
137
330
12B
100
AcDbEntity
  8
AM_9
100
AcDbEllipse
 10
1.51125
 20
0.0000000000000002
 30
0.0
 11
9.913691727296317E-18
 21
0.161902872472269
 31
0.0
210
0.0
220
0.0
230
1.0
 40
0.8660254037844383
 41
0.0
 42
6.283185307179586
  0
LINE
  5
138
330
12B
100
AcDbEntity
  8
AM_9
100
AcDbLine
 10
1.846060304549577
 20
0.0370101400241135
 30
0.0
 11
1.867033799848308
 21
0.0000000000000002
 31
0.0
  0
LINE
  5
139
330
12B
100
AcDbEntity
  8
AM_9
100
AcDbLine
 10
1.8078125
 20
0.1093750000000002
 30
0.0
 11
1.827512793904144
 21
0.0711553661817779
 31
0.0
  0
LINE
  5
13A
330
12B
100
AcDbEntity
  8
AM_9
100
AcDbLine
 10
1.83090039214228
 20
-0.0647999073311179
 30
0.0
 11
1.8078125
 21
-0.1093749999999998
 31
0.0
  0
LINE
  5
13B
330
12B
100
AcDbEntity
  8
AM_9
100
AcDbLine
 10
1.867033799848308
 20
0.0000000000000002
 30
0.0
 11
1.844587889405422
 21
-0.0396664187894566
 31
0.0
  0
LWPOLYLINE
  5
13C
330
12B
100
AcDbEntity
  8
AM_9
100
AcDbPolyline
 90
        3
 70
     0
 43
0.0
 10
1.907966200151693
 20
0.0000000000000002
 10
1.884071932388116
 20
0.0544416102741497
 10
1.857812500000001
 20
0.1093750000000001
  0
LWPOLYLINE
  5
13D
330
12B
100
AcDbEntity
  8
AM_9
100
AcDbPolyline
 90
        3
 70
     0
 43
0.0
 10
1.857812500000001
 20
-0.1093749999999998
 10
1.883959559607483
 20
-0.0546874999999998
 10
1.907966200151693
 20
0.0000000000000002
  0
LWPOLYLINE
  5
13E
330
12B
100
AcDbEntity
  8
AM_9
100
AcDbPolyline
 90
        3
 70
     0
 43
0.0
 10
1.757658799848308
 20
0.2187500000000002
 10
1.781553067611885
 20
0.1643083897258506
 10
1.8078125
 20
0.1093750000000002
  0
LWPOLYLINE
  5
13F
330
12B
100
AcDbEntity
  8
AM_9
100
AcDbPolyline
 90
        3
 70
     0
 43
0.0
 10
1.8078125
 20
-0.1093749999999998
 10
1.781665440392518
 20
-0.1640624999999998
 10
1.757658799848308
 20
-0.2187499999999998
  0
LINE
  5
140
330
12B
100
AcDbEntity
  8
AM_9
100
AcDbLine
 10
1.907966200151693
 20
0.0000000000000002
 30
0.0
 11
1.867033799848308
 21
0.0000000000000002
 31
0.0
  0
LINE
  5
141
330
12B
100
AcDbEntity
  8
AM_9
100
AcDbLine
 10
1.520296710626155
 20
-0.1983264404626878
 30
0.0
 11
1.634104897832291
 21
-0.2054502516015133
 31
0.0
  0
LINE
  5
142
330
12B
100
AcDbEntity
  8
AM_9
100
AcDbLine
 10
1.634104897832291
 20
0.2054502516015136
 30
0.0
 11
1.520296710626155
 21
0.1983264404626881
 31
0.0
  0
ELLIPSE
  5
143
330
12B
100
AcDbEntity
  8
AM_9
100
AcDbEllipse
 10
1.693749999989848
 20
-0.0000000000038606
 30
0.0
 11
-4.018372309842908E-17
 21
-0.2187500000076569
 31
0.0
210
0.0
220
0.0
230
1.0
 40
0.8660254038019258
 41
1.032970329648689
 42
2.108622323971421
  0
ELLIPSE
  5
144
330
12B
100
AcDbEntity
  8
AM_9
100
AcDbEllipse
 10
1.693749999999997
 20
0.000000000000001
 30
0.0
 11
-3.926523799766262E-17
 21
-0.2137500000000034
 31
0.0
210
0.0
220
0.0
230
1.0
 40
0.866025403784444
 41
0.9862868522352723
 42
2.155305801354515
  0
ELLIPSE
  5
145
330
12B
100
AcDbEntity
  8
AM_9
100
AcDbEllipse
 10
1.70290909927044
 20
0.0000000000000002
 30
0.0
 11
-3.169399141454459E-17
 21
-0.1725340532830156
 31
0.0
210
0.0
220
0.0
230
1.0
 40
0.8660254037844457
 41
0.6732704101475324
 42
2.468322243442261
  0
LINE
  5
146
330
12B
100
AcDbEntity
  8
AM_9
100
AcDbLine
 10
1.81375
 20
0.0703562363973517
 30
0.0
 11
1.806510904853149
 21
0.0796165180238022
 31
0.0
  0
LINE
  5
147
330
12B
100
AcDbEntity
  8
AM_9
100
AcDbLine
 10
1.806510904853149
 20
-0.0796165180238018
 30
0.0
 11
1.81375
 21
-0.0703562363973513
 31
0.0
  0
ELLIPSE
  5
148
330
12B
100
AcDbEntity
  8
AM_9
100
AcDbEllipse
 10
1.730126560809288
 20
-0.0000000000000001
 30
0.0
 11
-2.182689656893350E-17
 21
-0.1188200907348972
 31
0.0
210
0.0
220
0.0
230
1.0
 40
0.8660254037844326
 41
0.0521714424105566
 42
3.089421211179239
  0
LINE
  5
149
330
12B
100
AcDbEntity
  8
AM_9
100
AcDbLine
 10
1.746250000000001
 20
-0.1049999999999998
 30
0.0
 11
1.76125
 21
-0.1049999999999998
 31
0.0
  0
LINE
  5
14A
330
12B
100
AcDbEntity
  8
AM_9
100
AcDbLine
 10
1.76125
 20
0.1050000000000002
 30
0.0
 11
1.746250000000001
 21
0.1050000000000002
 31
0.0
  0
ELLIPSE
  5
14B
330
12B
100
AcDbEntity
  8
AM_9
100
AcDbEllipse
 10
1.761250000000001
 20
0.0000000000000002
 30
0.0
 11
-1.928818708657079E-17
 21
-0.1049999999999999
 31
0.0
210
0.0
220
0.0
230
1.0
 40
0.8660254037844437
 41
5.235987755982988
 42
10.47197551196598
  0
ELLIPSE
  5
14C
330
12B
100
AcDbEntity
  8
AM_9
100
AcDbEllipse
 10
1.746249999999999
 20
-0.0000000000000026
 30
0.0
 11
-1.928818708657030E-17
 21
-0.1049999999999972
 31
0.0
210
0.0
220
0.0
230
1.0
 40
0.866025403784436
 41
5.858105981271003
 42
9.849857286677942
  0
ELLIPSE
  5
14D
330
12B
100
AcDbEntity
  8
AM_9
100
AcDbEllipse
 10
1.791249999999996
 20
-0.0000000000000019
 30
0.0
 11
-2.479909768273477E-17
 21
-0.1350000000000047
 31
0.0
210
0.0
220
0.0
230
1.0
 40
0.8660254037844454
 41
0.775109010715159
 42
2.366483642874657
  0
ELLIPSE
  5
14E
330
12B
100
AcDbEntity
  8
AM_9
100
AcDbEllipse
 10
1.64375
 20
-0.0000000000000002
 30
0.0
 11
-3.779601035290921E-17
 21
-0.2057518972230702
 31
0.0
210
0.0
220
0.0
230
1.0
 40
0.8660254037844395
 41
0.0
 42
6.283185307179586
  0
ELLIPSE
  5
14F
330
12B
100
AcDbEntity
  8
AM_9
100
AcDbEllipse
 10
1.529607377154473
 20
0.0000000000000002
 30
0.0
 11
-3.648546613377887E-17
 21
-0.1986176267812154
 31
0.0
210
0.0
220
0.0
230
1.0
 40
0.8660254037844406
 41
0.0
 42
6.283185307179586
  0
ELLIPSE
  5
150
330
12B
100
AcDbEntity
  8
AM_9
100
AcDbEllipse
 10
1.64375
 20
0.0000000000000002
 30
0.0
 11
-4.018372309702272E-17
 21
-0.2187500000000011
 31
0.0
210
0.0
220
0.0
230
1.0
 40
0.8660254037844308
 41
0.0
 42
6.283185307179586
  0
LWPOLYLINE
  5
151
330
12B
100
AcDbEntity
  8
AM_4
100
AcDbPolyline
 90
        3
 70
     0
 43
0.0
 10
1.798591200151693
 20
-0.2187499999999998
 10
1.829138542662265
 20
-0.1643083897258502
 10
1.857812500000001
 20
-0.1093749999999998
  0
LWPOLYLINE
  5
152
330
12B
100
AcDbEntity
  8
AM_4
100
AcDbPolyline
 90
        3
 70
     0
 43
0.0
 10
1.857812500000001
 20
0.1093750000000001
 10
1.829272059607483
 20
0.1640625000000001
 10
1.798591200151693
 20
0.2187500000000002
  0
ELLIPSE
  5
153
330
12B
100
AcDbEntity
  8
AM_4
100
AcDbEllipse
 10
1.693750000000001
 20
-0.0000000000000002
 30
0.0
 11
-4.018372309702262E-17
 21
-0.2187500000000005
 31
0.0
210
0.0
220
0.0
230
1.0
 40
0.866025403784437
 41
2.108622323974832
 42
7.316155636794551
  0
ELLIPSE
  5
154
330
12B
100
AcDbEntity
  8
AM_4
100
AcDbEllipse
 10
1.693750000000001
 20
0.0000000000000002
 30
0.0
 11
-3.926523799766199E-17
 21
-0.2137499999999999
 31
0.0
210
0.0
220
0.0
230
1.0
 40
0.8660254037844384
 41
2.155305801354526
 42
7.269472159414853
  0
LWPOLYLINE
  5
155
330
12B
100
AcDbEntity
  8
AM_4
100
AcDbPolyline
 90
        3
 70
     0
 43
0.0
 10
1.579841200151693
 20
0.2187500000000002
 10
1.555946932388116
 20
0.1643083897258505
 10
1.5296875
 20
0.1093750000000001
  0
LINE
  5
156
330
12B
100
AcDbEntity
  8
AM_4
100
AcDbLine
 10
1.798591200151693
 20
0.2187500000000002
 30
0.0
 11
1.538908799848308
 21
0.2187500000000002
 31
0.0
  0
LWPOLYLINE
  5
157
330
12B
100
AcDbEntity
  8
AM_4
100
AcDbPolyline
 90
        3
 70
     0
 43
0.0
 10
1.4796875
 20
0.1093750000000002
 10
1.508227940392518
 20
0.1640625000000001
 10
1.538908799848308
 20
0.2187500000000002
  0
LWPOLYLINE
  5
158
330
12B
100
AcDbEntity
  8
AM_4
100
AcDbPolyline
 90
        3
 70
     0
 43
0.0
 10
1.429533799848308
 20
0.0000000000000002
 10
1.453428067611885
 20
0.0544416102741498
 10
1.4796875
 20
0.1093750000000002
  0
LINE
  5
159
330
12B
100
AcDbEntity
  8
AM_4
100
AcDbLine
 10
1.798591200151693
 20
-0.2187499999999998
 30
0.0
 11
1.538908799848308
 21
-0.2187499999999998
 31
0.0
  0
LWPOLYLINE
  5
15A
330
12B
100
AcDbEntity
  8
AM_4
100
AcDbPolyline
 90
        3
 70
     0
 43
0.0
 10
1.5296875
 20
-0.1093749999999998
 10
1.555834559607483
 20
-0.1640624999999998
 10
1.579841200151693
 20
-0.2187499999999998
  0
LINE
  5
15B
330
12B
100
AcDbEntity
  8
AM_4
100
AcDbLine
 10
1.470466200151693
 20
0.0000000000000002
 30
0.0
 11
1.429533799848308
 21
0.0000000000000002
 31
0.0
  0
LWPOLYLINE
  5
15C
330
12B
100
AcDbEntity
  8
AM_4
100
AcDbPolyline
 90
        3
 70
     0
 43
0.0
 10
1.4796875
 20
-0.1093749999999998
 10
1.453540440392518
 20
-0.0546874999999998
 10
1.429533799848308
 20
0.0000000000000002
  0
LWPOLYLINE
  5
15D
330
12B
100
AcDbEntity
  8
AM_4
100
AcDbPolyline
 90
        3
 70
     0
 43
0.0
 10
1.538908799848308
 20
-0.2187499999999998
 10
1.508361457337736
 20
-0.1643083897258502
 10
1.4796875
 20
-0.1093749999999998
  0
LWPOLYLINE
  5
15E
330
12B
100
AcDbEntity
  8
AM_4
100
AcDbPolyline
 90
        3
 70
     0
 43
0.0
 10
1.5296875
 20
0.1093750000000001
 10
1.501147059607483
 20
0.0546875000000001
 10
1.470466200151693
 20
0.0000000000000002
  0
LWPOLYLINE
  5
15F
330
12B
100
AcDbEntity
  8
AM_4
100
AcDbPolyline
 90
        3
 70
     0
 43
0.0
 10
1.470466200151693
 20
0.0000000000000002
 10
1.501013542662265
 20
-0.0544416102741494
 10
1.5296875
 20
-0.1093749999999998
  0
ELLIPSE
  5
160
330
12B
100
AcDbEntity
  8
AM_4
100
AcDbEllipse
 10
1.702909099270441
 20
0.0000000000000002
 30
0.0
 11
-3.169399141454455E-17
 21
-0.1725340532830154
 31
0.0
210
0.0
220
0.0
230
1.0
 40
0.8660254037844392
 41
2.468322243442264
 42
6.956455717327117
  0
ELLIPSE
  5
161
330
12B
100
AcDbEntity
  8
AM_4
100
AcDbEllipse
 10
1.730126560809287
 20
0.0000000000000002
 30
0.0
 11
-2.182689656893358E-17
 21
-0.1188200907348977
 31
0.0
210
0.0
220
0.0
230
1.0
 40
0.8660254037844481
 41
3.089421211179226
 42
6.335356749590153
  0
ELLIPSE
  5
162
330
12B
100
AcDbEntity
  8
AM_4
100
AcDbEllipse
 10
1.74625
 20
0.0000000000000002
 30
0.0
 11
-1.928818708657073E-17
 21
-0.1049999999999996
 31
0.0
210
0.0
220
0.0
230
1.0
 40
0.8660254037844337
 41
3.566671979498373
 42
5.858105981271006
  0
LINE
  5
163
330
12B
100
AcDbEntity
  8
AM_4
100
AcDbLine
 10
1.6825
 20
-0.0524999999999999
 30
0.0
 11
1.690000000000001
 21
-0.0674999999999999
 31
0.0
  0
LINE
  5
164
330
12B
100
AcDbEntity
  8
AM_4
100
AcDbLine
 10
1.690000000000001
 20
0.0675000000000002
 30
0.0
 11
1.6825
 21
0.0525000000000002
 31
0.0
  0
ELLIPSE
  5
165
330
12B
100
AcDbEntity
  8
AM_4
100
AcDbEllipse
 10
1.79125
 20
0.0000000000000002
 30
0.0
 11
-2.479909768273371E-17
 21
-0.134999999999999
 31
0.0
210
0.0
220
0.0
230
1.0
 40
0.8660254037844445
 41
2.366483642874673
 42
7.058294317894704
  0
ELLIPSE
  5
166
330
12B
100
AcDbEntity
  8
AM_4
100
AcDbEllipse
 10
1.761250000000003
 20
0.0000000000000002
 30
0.0
 11
-1.928818708657118E-17
 21
-0.105000000000002
 31
0.0
210
0.0
220
0.0
230
1.0
 40
0.8660254037844475
 41
4.1887902047864
 42
5.235987755982978
  0
LINE
  5
167
330
12B
100
AcDbEntity
  8
AM_4
100
AcDbLine
 10
1.893476847792108
 20
0.0733474205218689
 30
0.0
 11
1.87306531073162
 21
0.0964365416902993
 31
0.0
  0
LINE
  5
168
330
12B
100
AcDbEntity
  8
AM_4
100
AcDbLine
 10
1.87306531073162
 20
-0.0964365416902989
 30
0.0
 11
1.893476847792108
 21
-0.0733474205218685
 31
0.0
  0
ELLIPSE
  5
169
330
12B
100
AcDbEntity
  8
AM_4
100
AcDbEllipse
 10
1.831250000000001
 20
0.0000000000000006
 30
0.0
 11
-1.886162459184639E-17
 21
-0.1026779019331864
 31
0.0
210
0.0
220
0.0
230
1.0
 40
0.8660254037844402
 41
0.0
 42
6.283185307179586
  0
ENDBLK
  5
12E
330
12B
100
AcDbEntity
  8
0
100
AcDbBlockEnd
  0
BLOCK
  5
16C
330
16A
100
AcDbEntity
  8
0
100
AcDbBlockBegin
  2
5_070367H_0_in_070367_4
 70
     2
 10
0.0
 20
0.0
 30
0.0
  3
5_070367H_0_in_070367_4
  1

  0
ATTDEF
  5
16E
330
16A
100
AcDbEntity
  8
AM_6
100
AcDbText
 10
10.21875
 20
2.115384615384615
 30
0.0
 40
0.5
  1
P4B-S2-(Contact Seal)-Housing
100
AcDbAttributeDefinition
  3

  2
NN
 70
     8
280
     0
  0
ATTDEF
  5
16F
330
16A
100
AcDbEntity
  8
AM_6
100
AcDbText
 10
10.21875
 20
1.615384615384615
 30
0.0
 40
0.5
  1
S-2000 Pillow Block Bearing -Inch (4-Bolt Base)
100
AcDbAttributeDefinition
  3

  2
NT
 70
     8
280
     0
  0
ATTDEF
  5
170
330
16A
100
AcDbEntity
  8
AM_6
100
AcDbText
 10
10.21875
 20
1.115384615384615
 30
0.0
 40
0.5
  1
070367H
100
AcDbAttributeDefinition
  3

  2
NB
 70
     8
280
     0
  0
ATTDEF
  5
171
330
16A
100
AcDbEntity
  8
AM_6
100
AcDbText
 10
10.21875
 20
0.6153846153846154
 30
0.0
 40
0.5
  1
$PN.H
100
AcDbAttributeDefinition
  3

  2
NBSYN
 70
     8
280
     0
  0
ATTDEF
  5
172
330
16A
100
AcDbEntity
  8
AM_6
100
AcDbText
 10
10.21875
 20
0.1153846153846154
 30
0.0
 40
0.5
  1
070367
100
AcDbAttributeDefinition
  3

  2
LINA
 70
     8
280
     0
  0
ATTDEF
  5
173
330
16A
100
AcDbEntity
  8
AM_6
100
AcDbText
 10
10.21875
 20
-0.3846153846153846
 30
0.0
 40
0.5
  1
2-11/16
100
AcDbAttributeDefinition
  3

  2
SS
 70
     8
280
     0
  0
ATTDEF
  5
174
330
16A
100
AcDbEntity
  8
AM_6
100
AcDbText
 10
10.21875
 20
-0.8846153846153846
 30
0.0
 40
0.5
  1
070367
100
AcDbAttributeDefinition
  3

  2
PN
 70
     8
280
     0
  0
ATTDEF
  5
175
330
16A
100
AcDbEntity
  8
AM_6
100
AcDbText
 10
10.21875
 20
-1.384615384615385
 30
0.0
 40
0.5
  1
P4B-S2-211R
100
AcDbAttributeDefinition
  3

  2
DESCRIPTION
 70
     8
280
     0
  0
ATTDEF
  5
176
330
16A
100
AcDbEntity
  8
AM_6
100
AcDbText
 10
10.21875
 20
-1.884615384615385
 30
0.0
 40
0.5
  1
Non-Expansion Type
100
AcDbAttributeDefinition
  3

  2
EF
 70
     8
280
     0
  0
ATTDEF
  5
177
330
16A
100
AcDbEntity
  8
AM_6
100
AcDbText
 10
10.21875
 20
-2.384615384615385
 30
0.0
 40
0.5
  1
1
100
AcDbAttributeDefinition
  3

  2
EF1
 70
     8
280
     0
  0
ATTDEF
  5
178
330
16A
100
AcDbEntity
  8
AM_6
100
AcDbText
 10
10.21875
 20
-2.884615384615385
 30
0.0
 40
0.5
  1
3-19/32
100
AcDbAttributeDefinition
  3

  2
A
 70
     8
280
     0
  0
ATTDEF
  5
179
330
16A
100
AcDbEntity
  8
AM_6
100
AcDbText
 10
10.21875
 20
-3.384615384615385
 30
0.0
 40
0.5
  1
10-7/16
100
AcDbAttributeDefinition
  3

  2
B
 70
     8
280
     0
  0
ATTDEF
  5
17A
330
16A
100
AcDbEntity
  8
AM_6
100
AcDbText
 10
10.21875
 20
-3.884615384615385
 30
0.0
 40
0.5
  1
3-3/4
100
AcDbAttributeDefinition
  3

  2
C
 70
     8
280
     0
  0
ATTDEF
  5
17B
330
16A
100
AcDbEntity
  8
AM_6
100
AcDbText
 10
10.21875
 20
-4.384615384615385
 30
0.0
 40
0.5
  1
7-15/16
100
AcDbAttributeDefinition
  3

  2
DMIN
 70
     8
280
     0
  0
ATTDEF
  5
17C
330
16A
100
AcDbEntity
  8
AM_6
100
AcDbText
 10
10.21875
 20
-4.884615384615385
 30
0.0
 40
0.5
  1
8-5/16
100
AcDbAttributeDefinition
  3

  2
DMAX
 70
     8
280
     0
  0
ATTDEF
  5
17D
330
16A
100
AcDbEntity
  8
AM_6
100
AcDbText
 10
10.21875
 20
-5.384615384615385
 30
0.0
 40
0.5
  1
1-7/8
100
AcDbAttributeDefinition
  3

  2
E
 70
     8
280
     0
  0
ATTDEF
  5
17E
330
16A
100
AcDbEntity
  8
AM_6
100
AcDbText
 10
10.21875
 20
-5.884615384615385
 30
0.0
 40
0.5
  1
1.875000
100
AcDbAttributeDefinition
  3

  2
E1
 70
     8
280
     0
  0
ATTDEF
  5
17F
330
16A
100
AcDbEntity
  8
AM_6
100
AcDbText
 10
10.21875
 20
-6.384615384615385
 30
0.0
 40
0.5
  1
5/8
100
AcDbAttributeDefinition
  3

  2
F
 70
     8
280
     0
  0
ATTDEF
  5
180
330
16A
100
AcDbEntity
  8
AM_6
100
AcDbText
 10
10.21875
 20
-6.884615384615385
 30
0.0
 40
0.5
  1
15/16
100
AcDbAttributeDefinition
  3

  2
G
 70
     8
280
     0
  0
ATTDEF
  5
181
330
16A
100
AcDbEntity
  8
AM_6
100
AcDbText
 10
10.21875
 20
-7.384615384615385
 30
0.0
 40
0.5
  1
1-7/8
100
AcDbAttributeDefinition
  3

  2
H
 70
     8
280
     0
  0
ATTDEF
  5
182
330
16A
100
AcDbEntity
  8
AM_6
100
AcDbText
 10
10.21875
 20
-7.884615384615385
 30
0.0
 40
0.5
  1
6-7/16
100
AcDbAttributeDefinition
  3

  2
J
 70
     8
280
     0
  0
ATTDEF
  5
183
330
16A
100
AcDbEntity
  8
AM_6
100
AcDbText
 10
10.21875
 20
-8.384615384615385
 30
0.0
 40
0.5
  1
4-45/64
100
AcDbAttributeDefinition
  3

  2
L
 70
     8
280
     0
  0
ATTDEF
  5
184
330
16A
100
AcDbEntity
  8
AM_6
100
AcDbText
 10
10.21875
 20
-8.884615384615385
 30
0.0
 40
0.5
  1
3-1/4
100
AcDbAttributeDefinition
  3

  2
M
 70
     8
280
     0
  0
ATTDEF
  5
185
330
16A
100
AcDbEntity
  8
AM_6
100
AcDbText
 10
10.21875
 20
-9.384615384615385
 30
0.0
 40
0.5
  1
1-3/32
100
AcDbAttributeDefinition
  3

  2
R
 70
     8
280
     0
  0
ATTDEF
  5
186
330
16A
100
AcDbEntity
  8
AM_6
100
AcDbText
 10
10.21875
 20
-9.884615384615385
 30
0.0
 40
0.5
  1
2-1/2
100
AcDbAttributeDefinition
  3

  2
S
 70
     8
280
     0
  0
ATTDEF
  5
187
330
16A
100
AcDbEntity
  8
AM_6
100
AcDbText
 10
10.21875
 20
-10.38461538461539
 30
0.0
 40
0.5
  1
1/4
100
AcDbAttributeDefinition
  3

  2
X
 70
     8
280
     0
  0
ATTDEF
  5
188
330
16A
100
AcDbEntity
  8
AM_6
100
AcDbText
 10
10.21875
 20
-10.88461538461539
 30
0.0
 40
0.5
  1
0.025
100
AcDbAttributeDefinition
  3

  2
Y
 70
     8
280
     0
  0
ATTDEF
  5
189
330
16A
100
AcDbEntity
  8
AM_6
100
AcDbText
 10
10.21875
 20
-11.38461538461539
 30
0.0
 40
0.5
  1
3-15/32
100
AcDbAttributeDefinition
  3

  2
Z
 70
     8
280
     0
  0
ATTDEF
  5
18A
330
16A
100
AcDbEntity
  8
AM_6
100
AcDbText
 10
10.21875
 20
-11.88461538461539
 30
0.0
 40
0.5
  1
1
100
AcDbAttributeDefinition
  3

  2
ST1
 70
     8
280
     0
  0
ATTDEF
  5
18B
330
16A
100
AcDbEntity
  8
AM_6
100
AcDbText
 10
10.21875
 20
-12.38461538461539
 30
0.0
 40
0.5
  1
baldor
100
AcDbAttributeDefinition
  3

  2
COMPANY
 70
     8
280
     0
  0
LINE
  5
18C
330
16A
100
AcDbEntity
  8
AM_9
100
AcDbLine
 10
-4.53125
 20
0.9375000000000004
 30
0.0
 11
-4.53125
 21
-0.9374999999999997
 31
0.0
  0
LINE
  5
18D
330
16A
100
AcDbEntity
  8
AM_9
100
AcDbLine
 10
2.45645673430248
 20
-1.3125
 30
0.0
 11
2.45645673430248
 21
1.3125
 31
0.0
  0
LINE
  5
18E
330
16A
100
AcDbEntity
  8
AM_9
100
AcDbLine
 10
4.53125
 20
-0.9375000000000002
 30
0.0
 11
4.53125
 21
0.9374999999999999
 31
0.0
  0
LINE
  5
18F
330
16A
100
AcDbEntity
  8
AM_9
100
AcDbLine
 10
3.96875
 20
1.3125
 30
0.0
 11
0.8249857062642834
 21
1.3125
 31
0.0
  0
LINE
  5
190
330
16A
100
AcDbEntity
  8
AM_9
100
AcDbLine
 10
3.96875
 20
-1.3125
 30
0.0
 11
0.8249857062642834
 21
-1.3125
 31
0.0
  0
LINE
  5
191
330
16A
100
AcDbEntity
  8
AM_9
100
AcDbLine
 10
-2.45645673430248
 20
-1.3125
 30
0.0
 11
-2.45645673430248
 21
1.3125
 31
0.0
  0
LINE
  5
192
330
16A
100
AcDbEntity
  8
AM_9
100
AcDbLine
 10
-0.8249857062642849
 20
1.3125
 30
0.0
 11
-3.96875
 21
1.3125
 31
0.0
  0
LINE
  5
193
330
16A
100
AcDbEntity
  8
AM_9
100
AcDbLine
 10
-0.8249857062642849
 20
-1.3125
 30
0.0
 11
-3.96875
 21
-1.3125
 31
0.0
  0
LINE
  5
194
330
16A
100
AcDbEntity
  8
AM_9
100
AcDbLine
 10
2.55905
 20
-1.5
 30
0.0
 11
2.55905
 21
1.5
 31
0.0
  0
LINE
  5
195
330
16A
100
AcDbEntity
  8
AM_9
100
AcDbLine
 10
-2.55905
 20
1.5
 30
0.0
 11
-2.55905
 21
-1.5
 31
0.0
  0
LWPOLYLINE
  5
196
330
16A
100
AcDbEntity
  8
AM_9
100
AcDbPolyline
 90
        8
 70
     0
 43
0.0
 10
1.909650634352321
 20
-0.3275873629749829
 10
1.916578724436419
 20
-0.3173388736428973
 10
1.943125358013607
 20
-0.2721806674266928
 10
1.965391200422367
 20
-0.223250202807067
 10
1.98312350169715
 20
-0.171299981475226
 10
1.996038242416387
 20
-0.117311963351798
 10
2.004267472568261
 20
-0.059077664539874
 10
2.007032734325098
 20
0.0000000000000002
  0
LWPOLYLINE
  5
197
330
16A
100
AcDbEntity
  8
AM_9
100
AcDbPolyline
 90
        9
 70
     0
 43
0.0
 10
1.593740787543819
 20
-0.499999999886841
 10
1.637941600216486
 20
-0.4973241938454964
 10
1.684956386731312
 20
-0.4885186852157091
 10
1.730233180381512
 20
-0.4737375920541553
 10
1.773318018001215
 20
-0.4530683632597725
 10
1.813949571717154
 20
-0.4267824087478044
 10
1.851455726163633
 20
-0.3953693008974276
 10
1.885860863949433
 20
-0.3586544134983647
 10
1.909650634352321
 20
-0.3275873629749829
  0
ELLIPSE
  5
198
330
16A
100
AcDbEntity
  8
AM_9
100
AcDbEllipse
 10
1.618749999999999
 20
-0.0000000000000005
 30
0.0
 11
3.061616997868388E-17
 21
0.5000000000000008
 31
0.0
210
0.0
220
0.0
230
1.0
 40
0.8660254037844388
 41
3.214584174525037
 42
6.137287118004129
  0
ELLIPSE
  5
199
330
16A
100
AcDbEntity
  8
AM_9
100
AcDbEllipse
 10
1.618749999999961
 20
-0.0000000000000461
 30
0.0
 11
3.061616997868667E-17
 21
0.5000000000000463
 31
0.0
210
0.0
220
0.0
230
1.0
 40
0.8660254037844448
 41
6.147589472269967
 42
6.283185307179586
  0
ELLIPSE
  5
19A
330
16A
100
AcDbEntity
  8
AM_9
100
AcDbEllipse
 10
1.618749999999488
 20
0.0000000000004544
 30
0.0
 11
3.061616997871166E-17
 21
0.5000000000004544
 31
0.0
210
0.0
220
0.0
230
1.0
 40
0.8660254037844871
 41
3.154059170061716
 42
3.199588282067022
  0
LWPOLYLINE
  5
19B
330
16A
100
AcDbEntity
  8
AM_9
100
AcDbPolyline
 90
        3
 70
     0
 43
0.0
 10
1.603771392357391
 20
0.4998657961839215
 10
1.594575403248194
 20
0.4999579256921544
 10
1.59375430816759
 20
0.499999999975253
  0
LWPOLYLINE
  5
19C
330
16A
100
AcDbEntity
  8
AM_9
100
AcDbPolyline
 90
        9
 70
     0
 43
0.0
 10
1.905432428905185
 20
0.3335208566276222
 10
1.891288294625276
 20
0.3520263880158711
 10
1.857350215623149
 20
0.389627756773353
 10
1.820010883700196
 20
0.4222558488856561
 10
1.779262802145662
 20
0.4496621512923773
 10
1.735649970972161
 20
0.4714675898706152
 10
1.689938936738661
 20
0.4872462394161542
 10
1.642885269397312
 20
0.4966945506763692
 10
1.603771392357391
 20
0.4998657961839215
  0
LWPOLYLINE
  5
19D
330
16A
100
AcDbEntity
  8
AM_9
100
AcDbPolyline
 90
        8
 70
     0
 43
0.0
 10
2.007032734325098
 20
0.0000000000000002
 10
2.004558563128309
 20
0.0556589306977893
 10
1.997214224769056
 20
0.1107874897400997
 10
1.985116982094006
 20
0.1643454046621506
 10
1.968293757335572
 20
0.2157828236371101
 10
1.946905485557114
 20
0.2646801835278251
 10
1.921283433753447
 20
0.3101454843329227
 10
1.905432428905185
 20
0.3335208566276222
  0
LINE
  5
1A0
330
16A
100
AcDbEntity
  8
AM_7
100
AcDbLine
 10
0.0
 20
2.115384615384615
 30
0.0
 11
0.0
 21
-2.6796875
 31
0.0
  0
LINE
  5
1A1
330
16A
100
AcDbEntity
  8
AM_7
100
AcDbLine
 10
3.575
 20
-0.9375
 30
0.0
 11
4.55
 21
-0.9375
 31
0.0
  0
LINE
  5
1A2
330
16A
100
AcDbEntity
  8
AM_7
100
AcDbLine
 10
3.96875
 20
-1.33125
 30
0.0
 11
3.96875
 21
-0.54375
 31
0.0
  0
LINE
  5
1A3
330
16A
100
AcDbEntity
  8
AM_7
100
AcDbLine
 10
3.574999999999999
 20
0.9375
 30
0.0
 11
4.55
 21
0.9375
 31
0.0
  0
LINE
  5
1A4
330
16A
100
AcDbEntity
  8
AM_7
100
AcDbLine
 10
4.15625
 20
0.54375
 30
0.0
 11
4.15625
 21
1.33125
 31
0.0
  0
LINE
  5
1A5
330
16A
100
AcDbEntity
  8
AM_7
100
AcDbLine
 10
-4.55
 20
0.9375000000000004
 30
0.0
 11
-3.575
 21
0.9375000000000004
 31
0.0
  0
LINE
  5
1A6
330
16A
100
AcDbEntity
  8
AM_7
100
AcDbLine
 10
-4.15625
 20
0.5437500000000004
 30
0.0
 11
-4.15625
 21
1.33125
 31
0.0
  0
LINE
  5
1A7
330
16A
100
AcDbEntity
  8
AM_7
100
AcDbLine
 10
-3.96875
 20
0.5437500000000004
 30
0.0
 11
-3.96875
 21
1.33125
 31
0.0
  0
LINE
  5
1A8
330
16A
100
AcDbEntity
  8
AM_7
100
AcDbLine
 10
3.968749999999999
 20
0.54375
 30
0.0
 11
3.968749999999999
 21
1.33125
 31
0.0
  0
LINE
  5
1A9
330
16A
100
AcDbEntity
  8
AM_7
100
AcDbLine
 10
-4.55
 20
-0.9374999999999994
 30
0.0
 11
-3.574999999999999
 21
-0.9374999999999997
 31
0.0
  0
LINE
  5
1AA
330
16A
100
AcDbEntity
  8
AM_7
100
AcDbLine
 10
-4.15625
 20
-1.331249999999999
 30
0.0
 11
-4.15625
 21
-0.5437499999999994
 31
0.0
  0
LINE
  5
1AB
330
16A
100
AcDbEntity
  8
AM_7
100
AcDbLine
 10
-3.968749999999999
 20
-1.33125
 30
0.0
 11
-3.968749999999999
 21
-0.5437499999999996
 31
0.0
  0
LINE
  5
1AC
330
16A
100
AcDbEntity
  8
AM_7
100
AcDbLine
 10
4.15625
 20
-1.33125
 30
0.0
 11
4.15625
 21
-0.54375
 31
0.0
  0
LINE
  5
1AD
330
16A
100
AcDbEntity
  8
AM_4
100
AcDbLine
 10
4.843749999999999
 20
-1.875
 30
0.0
 11
5.21875
 21
-1.5
 31
0.0
  0
LINE
  5
1AE
330
16A
100
AcDbEntity
  8
AM_4
100
AcDbLine
 10
5.21875
 20
-1.5
 30
0.0
 11
5.21875
 21
1.5
 31
0.0
  0
LINE
  5
1AF
330
16A
100
AcDbEntity
  8
AM_4
100
AcDbLine
 10
5.21875
 20
1.5
 30
0.0
 11
4.84375
 21
1.875
 31
0.0
  0
LINE
  5
1B0
330
16A
100
AcDbEntity
  8
AM_4
100
AcDbLine
 10
-5.21875
 20
-1.5
 30
0.0
 11
-4.84375
 21
-1.875
 31
0.0
  0
LINE
  5
1B1
330
16A
100
AcDbEntity
  8
AM_4
100
AcDbLine
 10
-4.84375
 20
1.875
 30
0.0
 11
-5.21875
 21
1.5
 31
0.0
  0
LINE
  5
1B2
330
16A
100
AcDbEntity
  8
AM_4
100
AcDbLine
 10
-5.21875
 20
-1.5
 30
0.0
 11
-5.21875
 21
1.5
 31
0.0
  0
ARC
  5
1B3
330
16A
100
AcDbEntity
  8
AM_4
100
AcDbCircle
 10
3.553571428571429
 20
1.69642857142855
 30
0.0
 40
0.1785714285714497
100
AcDbArc
 50
90.0
 51
104.7509754821498
  0
ARC
  5
1B4
330
16A
100
AcDbEntity
  8
AM_4
100
AcDbCircle
 10
3.553571428571427
 20
-1.696428571428577
 30
0.0
 40
0.1785714285714235
100
AcDbArc
 50
255.2490245178486
 51
270.0
  0
ARC
  5
1B5
330
16A
100
AcDbEntity
  8
AM_4
100
AcDbCircle
 10
3.96875
 20
-0.9375
 30
0.0
 40
0.3749999999999999
100
AcDbArc
 50
90.0
 51
270.0
  0
LINE
  5
1B6
330
16A
100
AcDbEntity
  8
AM_4
100
AcDbLine
 10
4.15625
 20
-0.5625000000000001
 30
0.0
 11
3.96875
 21
-0.5625000000000001
 31
0.0
  0
ARC
  5
1B7
330
16A
100
AcDbEntity
  8
AM_4
100
AcDbCircle
 10
4.15625
 20
-0.9375000000000001
 30
0.0
 40
0.3749999999999999
100
AcDbArc
 50
270.0
 51
90.0
  0
LINE
  5
1B8
330
16A
100
AcDbEntity
  8
AM_4
100
AcDbLine
 10
3.96875
 20
-1.3125
 30
0.0
 11
4.15625
 21
-1.3125
 31
0.0
  0
LINE
  5
1B9
330
16A
100
AcDbEntity
  8
AM_4
100
AcDbLine
 10
4.15625
 20
1.3125
 30
0.0
 11
3.96875
 21
1.3125
 31
0.0
  0
ARC
  5
1BA
330
16A
100
AcDbEntity
  8
AM_4
100
AcDbCircle
 10
4.15625
 20
0.9375
 30
0.0
 40
0.3750000000000001
100
AcDbArc
 50
270.0
 51
90.0
  0
LINE
  5
1BB
330
16A
100
AcDbEntity
  8
AM_4
100
AcDbLine
 10
3.96875
 20
0.5624999999999998
 30
0.0
 11
4.15625
 21
0.5624999999999999
 31
0.0
  0
ARC
  5
1BC
330
16A
100
AcDbEntity
  8
AM_4
100
AcDbCircle
 10
3.968749999999999
 20
0.9374999999999999
 30
0.0
 40
0.3750000000000001
100
AcDbArc
 50
90.0
 51
270.0
  0
LINE
  5
1BD
330
16A
100
AcDbEntity
  8
AM_4
100
AcDbLine
 10
5.125
 20
-1.59375
 30
0.0
 11
5.125
 21
1.59375
 31
0.0
  0
LINE
  5
1BE
330
16A
100
AcDbEntity
  8
AM_4
100
AcDbLine
 10
4.84375
 20
1.875
 30
0.0
 11
3.553571428571429
 21
1.875
 31
0.0
  0
LINE
  5
1BF
330
16A
100
AcDbEntity
  8
AM_4
100
AcDbLine
 10
4.843749999999999
 20
-1.875
 30
0.0
 11
3.553571428571429
 21
-1.875
 31
0.0
  0
ARC
  5
1C0
330
16A
100
AcDbEntity
  8
AM_4
100
AcDbCircle
 10
-3.553571428571427
 20
-1.696428571428572
 30
0.0
 40
0.1785714285714277
100
AcDbArc
 50
270.0
 51
284.7509754821513
  0
ARC
  5
1C1
330
16A
100
AcDbEntity
  8
AM_4
100
AcDbCircle
 10
-3.553571428571425
 20
1.696428571428607
 30
0.0
 40
0.1785714285713939
100
AcDbArc
 50
75.2490245178468
 51
90.0
  0
LINE
  5
1C2
330
16A
100
AcDbEntity
  8
AM_4
100
AcDbLine
 10
-3.96875
 20
1.3125
 30
0.0
 11
-4.15625
 21
1.3125
 31
0.0
  0
ARC
  5
1C3
330
16A
100
AcDbEntity
  8
AM_4
100
AcDbCircle
 10
-3.96875
 20
0.9375000000000004
 30
0.0
 40
0.3750000000000001
100
AcDbArc
 50
270.0
 51
90.0
  0
LINE
  5
1C4
330
16A
100
AcDbEntity
  8
AM_4
100
AcDbLine
 10
-4.15625
 20
0.5625000000000006
 30
0.0
 11
-3.96875
 21
0.5625000000000003
 31
0.0
  0
ARC
  5
1C5
330
16A
100
AcDbEntity
  8
AM_4
100
AcDbCircle
 10
-4.15625
 20
0.9375000000000004
 30
0.0
 40
0.375
100
AcDbArc
 50
90.0
 51
270.0
  0
LINE
  5
1C6
330
16A
100
AcDbEntity
  8
AM_4
100
AcDbLine
 10
-3.96875
 20
-0.5624999999999996
 30
0.0
 11
-4.15625
 21
-0.5624999999999996
 31
0.0
  0
ARC
  5
1C7
330
16A
100
AcDbEntity
  8
AM_4
100
AcDbCircle
 10
-3.968749999999999
 20
-0.9374999999999997
 30
0.0
 40
0.3749999999999999
100
AcDbArc
 50
270.0
 51
90.0
  0
LINE
  5
1C8
330
16A
100
AcDbEntity
  8
AM_4
100
AcDbLine
 10
-4.15625
 20
-1.3125
 30
0.0
 11
-3.96875
 21
-1.3125
 31
0.0
  0
ARC
  5
1C9
330
16A
100
AcDbEntity
  8
AM_4
100
AcDbCircle
 10
-4.15625
 20
-0.9374999999999996
 30
0.0
 40
0.375
100
AcDbArc
 50
90.0
 51
270.0
  0
LINE
  5
1CA
330
16A
100
AcDbEntity
  8
AM_4
100
AcDbLine
 10
-3.553571428571428
 20
1.875
 30
0.0
 11
-4.84375
 21
1.875
 31
0.0
  0
LINE
  5
1CB
330
16A
100
AcDbEntity
  8
AM_4
100
AcDbLine
 10
-5.125
 20
-1.59375
 30
0.0
 11
-5.125
 21
1.59375
 31
0.0
  0
LINE
  5
1CC
330
16A
100
AcDbEntity
  8
AM_4
100
AcDbLine
 10
-3.553571428571429
 20
-1.875
 30
0.0
 11
-4.84375
 21
-1.875
 31
0.0
  0
LINE
  5
1CD
330
16A
100
AcDbEntity
  8
AM_4
100
AcDbLine
 10
-3.508103854912731
 20
-1.125
 30
0.0
 11
-3.187500000000002
 21
-1.125
 31
0.0
  0
LWPOLYLINE
  5
1CE
330
16A
100
AcDbEntity
  8
AM_4
100
AcDbPolyline
 90
        5
 70
     0
 43
0.0
 10
-3.375
 20
-1.678571428571429
 10
-3.373231713668905
 20
-1.653503441097662
 10
-3.368529410242903
 20
-1.630936815300772
 10
-3.362746366109043
 20
-1.613562611671938
 10
-3.359168637099297
 20
-1.605063428139301
  0
LINE
  5
1CF
330
16A
100
AcDbEntity
  8
AM_4
100
AcDbLine
 10
-3.508103854912731
 20
-1.869114572157153
 30
0.0
 11
-3.508103854912731
 21
-1.125
 31
0.0
  0
LWPOLYLINE
  5
1D0
330
16A
100
AcDbEntity
  8
AM_4
100
AcDbPolyline
 90
       10
 70
     0
 43
0.0
 10
-3.375
 20
-1.696428571428571
 10
-3.375757591125451
 20
-1.712860075156966
 10
-3.378049983035746
 20
-1.729291578885362
 10
-3.38401039655085
 20
-1.75243581669342
 10
-3.392876399416267
 20
-1.774305799851685
 10
-3.409696408342278
 20
-1.802200654967198
 10
-3.432492694151703
 20
-1.827682886303772
 10
-3.450648594489764
 20
-1.842355420660092
 10
-3.471736318901126
 20
-1.855144575433493
 10
-3.508103854912731
 20
-1.869114572157153
  0
LINE
  5
1D1
330
16A
100
AcDbEntity
  8
AM_4
100
AcDbLine
 10
-3.375
 20
-1.678571428571429
 30
0.0
 11
-3.375
 21
-1.696428571428571
 31
0.0
  0
LINE
  5
1D2
330
16A
100
AcDbEntity
  8
AM_4
100
AcDbLine
 10
-3.508103854912731
 20
1.125
 30
0.0
 11
-3.187500000000002
 21
1.125
 31
0.0
  0
LWPOLYLINE
  5
1D3
330
16A
100
AcDbEntity
  8
AM_4
100
AcDbPolyline
 90
        6
 70
     0
 43
0.0
 10
-3.359168637099298
 20
1.605063428139309
 10
-3.362982957621759
 20
1.614171183681727
 10
-3.368044777334418
 20
1.629219296170448
 10
-3.372584122943779
 20
1.649297262957105
 10
-3.374939375982978
 20
1.673918713301818
 10
-3.375
 20
1.678571428571423
  0
LINE
  5
1D4
330
16A
100
AcDbEntity
  8
AM_4
100
AcDbLine
 10
-3.508103854912731
 20
1.125
 30
0.0
 11
-3.508103854912731
 21
1.869114572157154
 31
0.0
  0
LINE
  5
1D5
330
16A
100
AcDbEntity
  8
AM_4
100
AcDbLine
 10
-3.375
 20
1.696428571428571
 30
0.0
 11
-3.375
 21
1.678571428571428
 31
0.0
  0
LWPOLYLINE
  5
1D6
330
16A
100
AcDbEntity
  8
AM_4
100
AcDbPolyline
 90
       11
 70
     0
 43
0.0
 10
-3.508103854912731
 20
1.869114572157153
 10
-3.486099688205041
 20
1.861762534527422
 10
-3.464883086336103
 20
1.85141932293843
 10
-3.446369353139796
 20
1.839241281385324
 10
-3.429629922837239
 20
1.824983066715134
 10
-3.408765692114468
 20
1.800922847784735
 10
-3.392356327879203
 20
1.773223404658657
 10
-3.384426039595752
 20
1.753678833352061
 10
-3.378639375545261
 20
1.732296829346836
 10
-3.37597318386309
 20
1.715046266735936
 10
-3.375
 20
1.696428571428571
  0
LINE
  5
1D7
330
16A
100
AcDbEntity
  8
AM_4
100
AcDbLine
 10
3.187499999999986
 20
-1.125
 30
0.0
 11
3.508103854912731
 21
-1.125
 31
0.0
  0
LWPOLYLINE
  5
1D8
330
16A
100
AcDbEntity
  8
AM_4
100
AcDbPolyline
 90
        6
 70
     0
 43
0.0
 10
3.359168637099298
 20
-1.605063428139309
 10
3.362982957621759
 20
-1.614171183681728
 10
3.368044777334418
 20
-1.629219296170449
 10
3.372584122943778
 20
-1.649297262957106
 10
3.374939375982978
 20
-1.673918713301819
 10
3.375
 20
-1.678571428571424
  0
LINE
  5
1D9
330
16A
100
AcDbEntity
  8
AM_4
100
AcDbLine
 10
3.375
 20
-1.696428571428569
 30
0.0
 11
3.375
 21
-1.678571428571429
 31
0.0
  0
LWPOLYLINE
  5
1DA
330
16A
100
AcDbEntity
  8
AM_4
100
AcDbPolyline
 90
       11
 70
     0
 43
0.0
 10
3.508103854912731
 20
-1.869114572157153
 10
3.485743680172713
 20
-1.861598007019304
 10
3.464883086336103
 20
-1.851419322938429
 10
3.446195563861139
 20
-1.839104125529818
 10
3.429629922837238
 20
-1.824983066715133
 10
3.408513831776874
 20
-1.800584138685366
 10
3.392356327879203
 20
-1.773223404658655
 10
3.384363778169573
 20
-1.753507900552679
 10
3.378639375545261
 20
-1.732296829346835
 10
3.375949326450316
 20
-1.714699195935377
 10
3.375
 20
-1.69642857142857
  0
LINE
  5
1DB
330
16A
100
AcDbEntity
  8
AM_4
100
AcDbLine
 10
3.508103854912731
 20
-1.869114572157153
 30
0.0
 11
3.508103854912731
 21
-1.125
 31
0.0
  0
LINE
  5
1DC
330
16A
100
AcDbEntity
  8
AM_4
100
AcDbLine
 10
3.187499999999986
 20
1.125
 30
0.0
 11
3.508103854912731
 21
1.125
 31
0.0
  0
LWPOLYLINE
  5
1DD
330
16A
100
AcDbEntity
  8
AM_4
100
AcDbPolyline
 90
        5
 70
     0
 43
0.0
 10
3.375
 20
1.678571428571429
 10
3.373231713668905
 20
1.653503441097662
 10
3.368529410242903
 20
1.630936815300772
 10
3.362746366109043
 20
1.613562611671938
 10
3.359168637099297
 20
1.605063428139301
  0
LINE
  5
1DE
330
16A
100
AcDbEntity
  8
AM_4
100
AcDbLine
 10
3.508103854912731
 20
1.125
 30
0.0
 11
3.508103854912731
 21
1.869114572157154
 31
0.0
  0
LWPOLYLINE
  5
1DF
330
16A
100
AcDbEntity
  8
AM_4
100
AcDbPolyline
 90
       10
 70
     0
 43
0.0
 10
3.375
 20
1.696428571428571
 10
3.375791676393098
 20
1.713127463751667
 10
3.378049983035746
 20
1.729291578885362
 10
3.384091888204429
 20
1.75269991743163
 10
3.392876399416267
 20
1.774305799851686
 10
3.409994521663096
 20
1.80261540871195
 10
3.432492694151703
 20
1.827682886303772
 10
3.450901607937678
 20
1.84252296452909
 10
3.471736318901126
 20
1.855144575433493
 10
3.508103854912731
 20
1.869114572157153
  0
LINE
  5
1E0
330
16A
100
AcDbEntity
  8
AM_4
100
AcDbLine
 10
3.375
 20
1.678571428571429
 30
0.0
 11
3.375
 21
1.696428571428571
 31
0.0
  0
LINE
  5
1E1
330
16A
100
AcDbEntity
  8
AM_4
100
AcDbLine
 10
-3.375
 20
-1.125
 30
0.0
 11
-3.375
 21
1.125
 31
0.0
  0
LINE
  5
1E2
330
16A
100
AcDbEntity
  8
AM_4
100
AcDbLine
 10
3.375
 20
-1.125
 30
0.0
 11
3.375
 21
1.125
 31
0.0
  0
LINE
  5
1E3
330
16A
100
AcDbEntity
  8
AM_4
100
AcDbLine
 10
3.359168637099297
 20
-1.605063428139309
 30
0.0
 11
3.359168637099298
 21
-1.125
 31
0.0
  0
LINE
  5
1E4
330
16A
100
AcDbEntity
  8
AM_4
100
AcDbLine
 10
3.187499999999986
 20
1.125
 30
0.0
 11
3.187499999999986
 21
-1.125
 31
0.0
  0
LINE
  5
1E5
330
16A
100
AcDbEntity
  8
AM_4
100
AcDbLine
 10
3.359168637099297
 20
1.125
 30
0.0
 11
3.359168637099297
 21
1.605063428139309
 31
0.0
  0
LWPOLYLINE
  5
1E6
330
16A
100
AcDbEntity
  8
AM_4
100
AcDbPolyline
 90
       15
 70
     0
 43
0.0
 10
3.196428571428571
 20
1.5
 10
3.211992096919225
 20
1.500679518197903
 10
3.22743717458338
 20
1.50271290124782
 10
3.242646258054021
 20
1.506084673876952
 10
3.25750359702244
 20
1.510769174859659
 10
3.271896118167982
 20
1.516730752314884
 10
3.285714285714285
 20
1.523924035038493
 10
3.298852935062687
 20
1.532294277805537
 10
3.31121207315831
 20
1.541777778014468
 10
3.322697639497597
 20
1.552302360502402
 10
3.333222221985531
 20
1.56378792684169
 10
3.342705722194462
 20
1.576147064937313
 10
3.351075964961507
 20
1.589285714285714
 10
3.358269247685116
 20
1.603103881832018
 10
3.359168637099298
 20
1.605063428139309
  0
LWPOLYLINE
  5
1E7
330
16A
100
AcDbEntity
  8
AM_4
100
AcDbPolyline
 90
       15
 70
     0
 43
0.0
 10
3.359168637099298
 20
-1.605063428139309
 10
3.352142717641295
 20
-1.591159416975291
 10
3.343931719507841
 20
-1.577920664000335
 10
3.334598133352669
 20
-1.565447924118358
 10
3.32421299340219
 20
-1.553836122411108
 10
3.31285533684215
 20
-1.543173631700976
 10
3.300611602296908
 20
-1.533541599980453
 10
3.287574971979326
 20
-1.525013332826911
 10
3.273844662517849
 20
-1.517653735502899
 10
3.259525169858071
 20
-1.511518818987899
 10
3.244725473985476
 20
-1.506655273700952
 10
3.229558209521955
 20
-1.503100114158382
 10
3.214138808508322
 20
-1.500880397270972
 10
3.198584621896778
 20
-1.500013016424536
 10
3.19642857142856
 20
-1.5
  0
LINE
  5
1E8
330
16A
100
AcDbEntity
  8
AM_4
100
AcDbLine
 10
-3.196428571428571
 20
-1.5
 30
0.0
 11
3.196428571428567
 21
-1.5
 31
0.0
  0
LINE
  5
1E9
330
16A
100
AcDbEntity
  8
AM_4
100
AcDbLine
 10
3.196428571428571
 20
1.5
 30
0.0
 11
-3.196428571428564
 21
1.5
 31
0.0
  0
LINE
  5
1EA
330
16A
100
AcDbEntity
  8
AM_4
100
AcDbLine
 10
-3.187500000000002
 20
-1.125
 30
0.0
 11
-3.187500000000002
 21
1.125
 31
0.0
  0
LINE
  5
1EB
330
16A
100
AcDbEntity
  8
AM_4
100
AcDbLine
 10
-3.359168637099298
 20
-1.605063428139309
 30
0.0
 11
-3.359168637099298
 21
-1.125
 31
0.0
  0
LWPOLYLINE
  5
1EC
330
16A
100
AcDbEntity
  8
AM_4
100
AcDbPolyline
 90
       15
 70
     0
 43
0.0
 10
-3.196428571428571
 20
-1.5
 10
-3.211992096919225
 20
-1.500679518197903
 10
-3.22743717458338
 20
-1.50271290124782
 10
-3.242646258054021
 20
-1.506084673876952
 10
-3.25750359702244
 20
-1.510769174859659
 10
-3.271896118167982
 20
-1.516730752314884
 10
-3.285714285714285
 20
-1.523924035038493
 10
-3.298852935062687
 20
-1.532294277805537
 10
-3.31121207315831
 20
-1.541777778014468
 10
-3.322697639497597
 20
-1.552302360502402
 10
-3.333222221985531
 20
-1.56378792684169
 10
-3.342705722194462
 20
-1.576147064937313
 10
-3.351075964961507
 20
-1.589285714285714
 10
-3.358269247685116
 20
-1.603103881832018
 10
-3.359168637099298
 20
-1.605063428139309
  0
LWPOLYLINE
  5
1ED
330
16A
100
AcDbEntity
  8
AM_4
100
AcDbPolyline
 90
       15
 70
     0
 43
0.0
 10
-3.359168637099298
 20
1.605063428139308
 10
-3.352142717641295
 20
1.59115941697529
 10
-3.343931719507841
 20
1.577920664000334
 10
-3.334598133352668
 20
1.565447924118357
 10
-3.32421299340219
 20
1.553836122411107
 10
-3.31285533684215
 20
1.543173631700975
 10
-3.300611602296908
 20
1.533541599980452
 10
-3.287574971979326
 20
1.525013332826911
 10
-3.273844662517849
 20
1.517653735502899
 10
-3.259525169858071
 20
1.511518818987898
 10
-3.244725473985476
 20
1.506655273700952
 10
-3.229558209521955
 20
1.503100114158382
 10
-3.214138808508322
 20
1.500880397270972
 10
-3.198584621896778
 20
1.500013016424536
 10
-3.19642857142856
 20
1.5
  0
LINE
  5
1EE
330
16A
100
AcDbEntity
  8
AM_4
100
AcDbLine
 10
-3.359168637099298
 20
1.125
 30
0.0
 11
-3.359168637099298
 21
1.605063428139309
 31
0.0
  0
LINE
  5
1EF
330
16A
100
AcDbEntity
  8
AM_4
100
AcDbLine
 10
1.61875
 20
0.5000000000000002
 30
0.0
 11
1.593739810571881
 21
0.5000000000000001
 31
0.0
  0
LINE
  5
1F0
330
16A
100
AcDbEntity
  8
AM_4
100
AcDbLine
 10
1.593732404311014
 20
-0.4999999999999998
 30
0.0
 11
1.61875
 21
-0.4999999999999998
 31
0.0
  0
LWPOLYLINE
  5
1F1
330
16A
100
AcDbEntity
  8
AM_4
100
AcDbPolyline
 90
       30
 70
     0
 43
0.0
 10
1.59375430816759
 20
0.499999999975253
 10
1.545924061941803
 20
0.4969711981068983
 10
1.497826184477536
 20
0.4877850298248808
 10
1.450337015233379
 20
0.4725817582668011
 10
1.404377705081242
 20
0.451653773133774
 10
1.36026851162039
 20
0.4250078790549258
 10
1.318645219588968
 20
0.3930471638310528
 10
1.280336738159793
 20
0.3563599369611818
 10
1.245465074613331
 20
0.3147529892094466
 10
1.21481529471502
 20
0.2690373068723447
 10
1.189041270407304
 20
0.220058136444176
 10
1.16852527530019
 20
0.1681790186552749
 10
1.153479698717451
 20
0.1139691874483934
 10
1.144249000139083
 20
0.0584635932934779
 10
1.141056140391749
 20
0.0027869579496908
 10
1.143721862086742
 20
-0.0531019965660639
 10
1.152184858999508
 20
-0.1081414116848093
 10
1.166325954544845
 20
-0.1614978530794212
 10
1.185905612166115
 20
-0.2130054928841812
 10
1.210497699046113
 20
-0.261722183525968
 10
1.240131653987241
 20
-0.3075268365187728
 10
1.274205450783087
 20
-0.349637678626167
 10
1.312014742319611
 20
-0.3872881290651884
 10
1.353572926843005
 20
-0.4203477874116779
 10
1.39804576561302
 20
-0.4482039238344965
 10
1.444530649749002
 20
-0.470323268856004
 10
1.49235202961488
 20
-0.4863483742296603
 10
1.541178975550422
 20
-0.4963007617509959
 10
1.590047141511376
 20
-0.4999817322628414
 10
1.593740787543819
 20
-0.499999999886841
  0
ELLIPSE
  5
1F2
330
16A
100
AcDbEntity
  8
AM_4
100
AcDbEllipse
 10
1.61875
 20
0.0000000000000004
 30
0.0
 11
3.061616997868384E-17
 21
0.5000000000000001
 31
0.0
210
0.0
220
0.0
230
1.0
 40
0.866025403784444
 41
0.0117783666759372
 42
3.141592653589793
  0
ELLIPSE
  5
1F3
330
16A
100
AcDbEntity
  8
AM_4
100
AcDbEllipse
 10
1.64375
 20
0.0000000000000002
 30
0.0
 11
-8.266365894244640E-17
 21
-0.4500000000000004
 31
0.0
210
0.0
220
0.0
230
1.0
 40
0.8660254037844385
 41
0.0
 42
6.283185307179586
  0
LINE
  5
1F4
330
16A
100
AcDbEntity
  8
AM_4
100
AcDbLine
 10
1.616166352036876
 20
0.499991386716346
 30
0.0
 11
1.613467750072864
 21
0.4999639958989301
 31
0.0
  0
LWPOLYLINE
  5
1F5
330
16A
100
AcDbEntity
  8
AM_4
100
AcDbPolyline
 90
       22
 70
     0
 43
0.0
 10
2.058461431702997
 20
0.0000000000000002
 10
2.058046948593398
 20
0.0217248189844355
 10
2.055130470830939
 20
0.0614838487322604
 10
2.04943709281425
 20
0.100869278675064
 10
2.041000231452419
 20
0.1396238201778058
 10
2.029870023442444
 20
0.1775007878937007
 10
2.016113575496007
 20
0.2142580373075061
 10
1.999814919723693
 20
0.2496593608861475
 10
1.981074930320071
 20
0.2834759744905775
 10
1.960011161972426
 20
0.3154881145991666
 10
1.936757551841182
 20
0.3454867605640066
 10
1.911463910907
 20
0.3732754746551789
 10
1.884295122948991
 20
0.3986723195390372
 10
1.855429978267242
 20
0.4215117711363403
 10
1.825059600992032
 20
0.441646503102291
 10
1.793385484586287
 20
0.4589488911366477
 10
1.760617222164127
 20
0.47331208611664
 10
1.726970089190631
 20
0.4846505448222472
 10
1.692662683428769
 20
0.4928999843387571
 10
1.657914831324454
 20
0.4980168251887133
 10
1.622945924012446
 20
0.4999772823457616
 10
1.616166352036876
 20
0.499991386716346
  0
LWPOLYLINE
  5
1F6
330
16A
100
AcDbEntity
  8
AM_4
100
AcDbPolyline
 90
       22
 70
     0
 43
0.0
 10
1.624320860920764
 20
-0.49995995387626
 10
1.635693706217287
 20
-0.4996294237362232
 10
1.670563258175598
 20
-0.4965237860382121
 10
1.705086021779302
 20
-0.4902868456164495
 10
1.739051461440963
 20
-0.4809601281011401
 10
1.772252618430767
 20
-0.4686016713582811
 10
1.804486214236839
 20
-0.4532861760216594
 10
1.835553149111192
 20
-0.435105398600279
 10
1.865259397424092
 20
-0.4141685895230456
 10
1.89341729825226
 20
-0.3906027647451312
 10
1.919847149761725
 20
-0.3645526403334412
 10
1.944378957720821
 20
-0.3361801346481688
 10
1.966854172152144
 20
-0.3056634282875917
 10
1.987127268505522
 20
-0.2731956443269961
 10
2.005067077104899
 20
-0.2389832553122773
 10
2.020557819351884
 20
-0.2032443354261964
 10
2.033499856401654
 20
-0.1662067626261989
 10
2.043810187601137
 20
-0.1281064476786432
 10
2.051422750691239
 20
-0.0891856359435115
 10
2.056288577135289
 20
-0.0496913010746356
 10
2.058335928006464
 20
-0.0119564667166334
 10
2.058461431702997
 20
0.0000000000000002
  0
ELLIPSE
  5
1F7
330
16A
100
AcDbEntity
  8
AM_4
100
AcDbEllipse
 10
1.618749999995738
 20
0.0000000000042109
 30
0.0
 11
3.061616997894166E-17
 21
0.5000000000042106
 31
0.0
210
0.0
220
0.0
230
1.0
 40
0.8660254037844621
 41
3.141592653589793
 42
3.154059170070274
  0
ELLIPSE
  5
1F8
330
16A
100
AcDbEntity
  8
AM_4
100
AcDbEllipse
 10
1.618749999997289
 20
-0.0000000000042205
 30
0.0
 11
3.061616997894227E-17
 21
0.5000000000042207
 31
0.0
210
0.0
220
0.0
230
1.0
 40
0.8660254037844215
 41
0.0
 42
0.0117783666695841
  0
LINE
  5
1F9
330
16A
100
AcDbEntity
  8
AM_4
100
AcDbLine
 10
3.164873378535481
 20
-1.5
 30
0.0
 11
3.164873378535481
 21
1.5
 31
0.0
  0
LINE
  5
1FA
330
16A
100
AcDbEntity
  8
AM_4
100
AcDbLine
 10
-3.16487337853548
 20
-1.5
 30
0.0
 11
-3.16487337853548
 21
1.5
 31
0.0
  0
LINE
  5
1FB
330
16A
100
AcDbEntity
  8
AM_4
100
AcDbLine
 10
0.8249857062642849
 20
-1.5
 30
0.0
 11
0.8249857062642849
 21
1.5
 31
0.0
  0
LINE
  5
1FC
330
16A
100
AcDbEntity
  8
AM_4
100
AcDbLine
 10
-0.8249857062642849
 20
-1.5
 30
0.0
 11
-0.8249857062642849
 21
1.5
 31
0.0
  0
ENDBLK
  5
16D
330
16A
100
AcDbEntity
  8
0
100
AcDbBlockEnd
  0
ENDSEC
  0
SECTION
  2
ENTITIES
  0
INSERT
  5
6F
330
1F
100
AcDbEntity
  8
0
100
AcDbBlockReference
  2
1_070367_4
 10
0.0
 20
0.0
 30
0.0
  0
POINT
  5
1FE
330
1F
100
AcDbEntity
  8
ConnectionPoints
100
AcDbPoint
 10
0.0
 20
-2.5
 30
0.0000000000000002
  0
POINT
  5
1FF
330
1F
100
AcDbEntity
  8
ConnectionPoints
100
AcDbPoint
 10
0.0
 20
2.249499999999999
 30
-0.0000000000000001
  0
POINT
  5
200
330
1F
100
AcDbEntity
  8
ConnectionPoints
100
AcDbPoint
 10
0.0
 20
-2.5
 30
0.0000000000000002
  0
POINT
  5
201
330
1F
100
AcDbEntity
  8
ConnectionPoints
100
AcDbPoint
 10
1.64375
 20
0.0000000000000002
 30
2.847058514941342
  0
POINT
  5
202
330
1F
100
AcDbEntity
  8
ConnectionPoints
100
AcDbPoint
 10
0.0
 20
-2.25
 30
0.0000000000000001
  0
POINT
  5
203
330
1F
100
AcDbEntity
  8
ConnectionPoints
100
AcDbPoint
 10
0.0
 20
-2.5
 30
0.0000000000000002
  0
POINT
  5
204
330
1F
100
AcDbEntity
  8
ConnectionPoints
100
AcDbPoint
 10
1.64375
 20
0.0000000000000002
 30
2.847058514941342
  0
ENDSEC
  0
SECTION
  2
OBJECTS
  0
DICTIONARY
  5
C
330
0
100
AcDbDictionary
281
     1
  3
ACAD_DETAILVIEWSTYLE
350
20C
  3
ACAD_GROUP
350
D
  3
ACAD_LAYOUT
350
1A
  3
ACAD_MATERIAL
350
43
  3
ACAD_MLEADERSTYLE
350
6B
  3
ACAD_MLINESTYLE
350
17
  3
ACAD_PLOTSETTINGS
350
19
  3
ACAD_PLOTSTYLENAME
350
E
  3
ACAD_SCALELIST
350
47
  3
ACAD_SECTIONVIEWSTYLE
350
20D
  3
ACAD_TABLESTYLE
350
69
  3
ACAD_VISUALSTYLE
350
2A
  3
ACDB_RECOMPOSE_DATA
350
209
  3
AcDbVariableDictionary
350
205
  0
SUN
  5
6D
330
29
100
AcDbSun
 90
        1
290
     0
 63
     7
421
 16777215
 40
1.0
291
     1
 91
  2455826
 92
 54000000
292
     0
 70
     2
 71
   256
280
     1
  0
DICTIONARY
  5
20C
102
{ACAD_REACTORS
330
C
102
}
330
C
100
AcDbDictionary
281
     1
  0
DICTIONARY
  5
D
102
{ACAD_REACTORS
330
C
102
}
330
C
100
AcDbDictionary
281
     1
  0
DICTIONARY
  5
1A
102
{ACAD_REACTORS
330
C
102
}
330
C
100
AcDbDictionary
281
     1
  3
Layout1
350
1E
  3
Layout2
350
26
  3
Model
350
22
  0
DICTIONARY
  5
43
102
{ACAD_REACTORS
330
C
102
}
330
C
100
AcDbDictionary
281
     1
  3
ByBlock
350
45
  3
ByLayer
350
44
  3
Global
350
46
  0
DICTIONARY
  5
6B
102
{ACAD_REACTORS
330
C
102
}
330
C
100
AcDbDictionary
281
     1
  3
Standard
350
6C
  0
DICTIONARY
  5
17
102
{ACAD_REACTORS
330
C
102
}
330
C
100
AcDbDictionary
281
     1
  3
Standard
350
18
  0
DICTIONARY
  5
19
102
{ACAD_REACTORS
330
C
102
}
330
C
100
AcDbDictionary
281
     1
  0
ACDBDICTIONARYWDFLT
  5
E
102
{ACAD_REACTORS
330
C
102
}
330
C
100
AcDbDictionary
281
     1
  3
Normal
350
F
100
AcDbDictionaryWithDefault
340
F
  0
DICTIONARY
  5
47
102
{ACAD_REACTORS
330
C
102
}
330
C
100
AcDbDictionary
281
     1
  3
A0
350
48
  3
A1
350
49
  3
A2
350
4A
  3
A3
350
4B
  3
A4
350
4C
  3
A5
350
4D
  3
A6
350
4E
  3
A7
350
4F
  3
A8
350
50
  3
A9
350
51
  3
B0
350
52
  3
B1
350
53
  3
B2
350
54
  3
B3
350
55
  3
B4
350
56
  3
B5
350
57
  3
B6
350
58
  3
B7
350
59
  3
B8
350
5A
  3
B9
350
5B
  3
C0
350
5C
  3
C1
350
5D
  3
C2
350
5E
  3
C3
350
5F
  3
C4
350
60
  3
C5
350
61
  3
C6
350
62
  3
C7
350
63
  3
C8
350
64
  3
C9
350
65
  3
D0
350
66
  3
D1
350
67
  3
D2
350
68
  0
DICTIONARY
  5
20D
102
{ACAD_REACTORS
330
C
102
}
330
C
100
AcDbDictionary
281
     1
  0
DICTIONARY
  5
69
102
{ACAD_REACTORS
330
C
102
}
330
C
100
AcDbDictionary
281
     1
  3
Standard
350
6A
  0
DICTIONARY
  5
2A
102
{ACAD_REACTORS
330
C
102
}
330
C
100
AcDbDictionary
281
     1
  3
2dWireframe
350
2F
  3
Basic
350
32
  3
Brighten
350
36
  3
ColorChange
350
3A
  3
Conceptual
350
34
  3
Dim
350
35
  3
EdgeColorOff
350
3D
  3
Facepattern
350
39
  3
Flat
350
2B
  3
FlatWithEdges
350
2C
  3
Gouraud
350
2D
  3
GouraudWithEdges
350
2E
  3
Hidden
350
31
  3
JitterOff
350
3B
  3
Linepattern
350
38
  3
OverhangOff
350
3C
  3
Realistic
350
33
  3
Shaded
350
42
  3
Shaded with edges
350
41
  3
Shades of Gray
350
3E
  3
Sketchy
350
3F
  3
Thicken
350
37
  3
Wireframe
350
30
  3
X-Ray
350
40
  0
XRECORD
  5
209
102
{ACAD_REACTORS
330
C
102
}
330
C
100
AcDbXrecord
280
     1
 90
        1
330
6A
  0
DICTIONARY
  5
205
102
{ACAD_REACTORS
330
C
102
}
330
C
100
AcDbDictionary
281
     1
  3
CANNOSCALE
350
206
  3
CMLEADERSTYLE
350
20B
  3
CTABLESTYLE
350
20A
  0
LAYOUT
  5
1E
102
{ACAD_REACTORS
330
1A
102
}
330
1A
100
AcDbPlotSettings
  1

  2
none_device
  4

  6

 40
0.0
 41
0.0
 42
0.0
 43
0.0
 44
0.0
 45
0.0
 46
0.0
 47
0.0
 48
0.0
 49
0.0
140
0.0
141
0.0
142
1.0
143
1.0
 70
   688
 72
     0
 73
     0
 74
     5
  7

 75
    16
 76
     0
 77
     2
 78
   300
147
1.0
148
0.0
149
0.0
100
AcDbLayout
  1
Layout1
 70
     1
 71
     1
 10
0.0
 20
0.0
 11
12.0
 21
9.0
 12
0.0
 22
0.0
 32
0.0
 14
1.000000000000000E+20
 24
1.000000000000000E+20
 34
1.000000000000000E+20
 15
-1.000000000000000E+20
 25
-1.000000000000000E+20
 35
-1.000000000000000E+20
146
0.0
 13
0.0
 23
0.0
 33
0.0
 16
1.0
 26
0.0
 36
0.0
 17
0.0
 27
1.0
 37
0.0
 76
     0
330
1B
  0
LAYOUT
  5
26
102
{ACAD_REACTORS
330
1A
102
}
330
1A
100
AcDbPlotSettings
  1

  2
none_device
  4

  6

 40
0.0
 41
0.0
 42
0.0
 43
0.0
 44
0.0
 45
0.0
 46
0.0
 47
0.0
 48
0.0
 49
0.0
140
0.0
141
0.0
142
1.0
143
1.0
 70
   688
 72
     0
 73
     0
 74
     5
  7

 75
    16
 76
     0
 77
     2
 78
   300
147
1.0
148
0.0
149
0.0
100
AcDbLayout
  1
Layout2
 70
     1
 71
     2
 10
0.0
 20
0.0
 11
0.0
 21
0.0
 12
0.0
 22
0.0
 32
0.0
 14
0.0
 24
0.0
 34
0.0
 15
0.0
 25
0.0
 35
0.0
146
0.0
 13
0.0
 23
0.0
 33
0.0
 16
1.0
 26
0.0
 36
0.0
 17
0.0
 27
1.0
 37
0.0
 76
     0
330
23
  0
LAYOUT
  5
22
102
{ACAD_REACTORS
330
1A
102
}
330
1A
100
AcDbPlotSettings
  1

  2
none_device
  4
Letter_(8.50_x_11.00_Inches)
  6

 40
6.35
 41
6.35
 42
6.35000508
 43
6.35000508
 44
215.9
 45
279.4
 46
0.0
 47
0.0
 48
0.0
 49
0.0
140
0.0
141
0.0
142
1.0
143
1.0
 70
  1712
 72
     0
 73
     0
 74
     0
  7

 75
     0
 76
     0
 77
     2
 78
   300
147
1.0
148
0.0
149
0.0
100
AcDbLayout
  1
Model
 70
     1
 71
     0
 10
0.0
 20
0.0
 11
12.0
 21
9.0
 12
0.0
 22
0.0
 32
0.0
 14
1.000000000000000E+20
 24
1.000000000000000E+20
 34
1.000000000000000E+20
 15
-1.000000000000000E+20
 25
-1.000000000000000E+20
 35
-1.000000000000000E+20
146
0.0
 13
0.0
 23
0.0
 33
0.0
 16
1.0
 26
0.0
 36
0.0
 17
0.0
 27
1.0
 37
0.0
 76
     0
330
1F
331
29
  0
MATERIAL
  5
45
102
{ACAD_REACTORS
330
43
102
}
330
43
100
AcDbMaterial
  1
ByBlock
 72
     1
 94
      127
  0
MATERIAL
  5
44
102
{ACAD_REACTORS
330
43
102
}
330
43
100
AcDbMaterial
  1
ByLayer
 72
     1
 94
      127
  0
MATERIAL
  5
46
102
{ACAD_REACTORS
330
43
102
}
330
43
100
AcDbMaterial
  1
Global
 72
     1
 94
      127
  0
MLEADERSTYLE
  5
6C
102
{ACAD_REACTORS
330
6B
102
}
330
6B
100
AcDbMLeaderStyle
179
     2
170
     2
171
     1
172
     0
 90
        2
 40
0.0
 41
0.0
173
     1
 91
-1056964608
340
14
 92
       -2
290
     1
 42
0.09
291
     1
 43
0.36
  3
Standard
341
0
 44
0.18
300

342
11
174
     1
178
     6
175
     1
176
     0
 93
-1056964608
 45
0.18
292
     0
297
     0
 46
0.18
343
0
 94
-1056964608
 47
1.0
 49
1.0
140
1.0
293
     1
141
0.0
294
     1
177
     0
142
1.0
295
     0
296
     0
143
0.125
271
     0
272
     9
273
     9
298
     0
  0
MLINESTYLE
  5
18
102
{ACAD_REACTORS
330
17
102
}
330
17
100
AcDbMlineStyle
  2
Standard
 70
     0
  3

 62
   256
 51
90.0
 52
90.0
 71
     2
 49
0.5
 62
   256
  6
BYLAYER
 49
-0.5
 62
   256
  6
BYLAYER
  0
ACDBPLACEHOLDER
  5
F
102
{ACAD_REACTORS
330
E
102
}
330
E
  0
SCALE
  5
48
102
{ACAD_REACTORS
330
47
102
}
330
47
100
AcDbScale
 70
     0
300
1:1
140
1.0
141
1.0
290
     1
  0
SCALE
  5
49
102
{ACAD_REACTORS
330
47
102
}
330
47
100
AcDbScale
 70
     0
300
1:2
140
1.0
141
2.0
290
     0
  0
SCALE
  5
4A
102
{ACAD_REACTORS
330
47
102
}
330
47
100
AcDbScale
 70
     0
300
1:4
140
1.0
141
4.0
290
     0
  0
SCALE
  5
4B
102
{ACAD_REACTORS
330
47
102
}
330
47
100
AcDbScale
 70
     0
300
1:5
140
1.0
141
5.0
290
     0
  0
SCALE
  5
4C
102
{ACAD_REACTORS
330
47
102
}
330
47
100
AcDbScale
 70
     0
300
1:8
140
1.0
141
8.0
290
     0
  0
SCALE
  5
4D
102
{ACAD_REACTORS
330
47
102
}
330
47
100
AcDbScale
 70
     0
300
1:10
140
1.0
141
10.0
290
     0
  0
SCALE
  5
4E
102
{ACAD_REACTORS
330
47
102
}
330
47
100
AcDbScale
 70
     0
300
1:16
140
1.0
141
16.0
290
     0
  0
SCALE
  5
4F
102
{ACAD_REACTORS
330
47
102
}
330
47
100
AcDbScale
 70
     0
300
1:20
140
1.0
141
20.0
290
     0
  0
SCALE
  5
50
102
{ACAD_REACTORS
330
47
102
}
330
47
100
AcDbScale
 70
     0
300
1:30
140
1.0
141
30.0
290
     0
  0
SCALE
  5
51
102
{ACAD_REACTORS
330
47
102
}
330
47
100
AcDbScale
 70
     0
300
1:40
140
1.0
141
40.0
290
     0
  0
SCALE
  5
52
102
{ACAD_REACTORS
330
47
102
}
330
47
100
AcDbScale
 70
     0
300
1:50
140
1.0
141
50.0
290
     0
  0
SCALE
  5
53
102
{ACAD_REACTORS
330
47
102
}
330
47
100
AcDbScale
 70
     0
300
1:100
140
1.0
141
100.0
290
     0
  0
SCALE
  5
54
102
{ACAD_REACTORS
330
47
102
}
330
47
100
AcDbScale
 70
     0
300
2:1
140
2.0
141
1.0
290
     0
  0
SCALE
  5
55
102
{ACAD_REACTORS
330
47
102
}
330
47
100
AcDbScale
 70
     0
300
4:1
140
4.0
141
1.0
290
     0
  0
SCALE
  5
56
102
{ACAD_REACTORS
330
47
102
}
330
47
100
AcDbScale
 70
     0
300
8:1
140
8.0
141
1.0
290
     0
  0
SCALE
  5
57
102
{ACAD_REACTORS
330
47
102
}
330
47
100
AcDbScale
 70
     0
300
10:1
140
10.0
141
1.0
290
     0
  0
SCALE
  5
58
102
{ACAD_REACTORS
330
47
102
}
330
47
100
AcDbScale
 70
     0
300
100:1
140
100.0
141
1.0
290
     0
  0
SCALE
  5
59
102
{ACAD_REACTORS
330
47
102
}
330
47
100
AcDbScale
 70
     0
300
1/128" = 1'-0"
140
0.0078125
141
12.0
290
     0
  0
SCALE
  5
5A
102
{ACAD_REACTORS
330
47
102
}
330
47
100
AcDbScale
 70
     0
300
1/64" = 1'-0"
140
0.015625
141
12.0
290
     0
  0
SCALE
  5
5B
102
{ACAD_REACTORS
330
47
102
}
330
47
100
AcDbScale
 70
     0
300
1/32" = 1'-0"
140
0.03125
141
12.0
290
     0
  0
SCALE
  5
5C
102
{ACAD_REACTORS
330
47
102
}
330
47
100
AcDbScale
 70
     0
300
1/16" = 1'-0"
140
0.0625
141
12.0
290
     0
  0
SCALE
  5
5D
102
{ACAD_REACTORS
330
47
102
}
330
47
100
AcDbScale
 70
     0
300
3/32" = 1'-0"
140
0.09375
141
12.0
290
     0
  0
SCALE
  5
5E
102
{ACAD_REACTORS
330
47
102
}
330
47
100
AcDbScale
 70
     0
300
1/8" = 1'-0"
140
0.125
141
12.0
290
     0
  0
SCALE
  5
5F
102
{ACAD_REACTORS
330
47
102
}
330
47
100
AcDbScale
 70
     0
300
3/16" = 1'-0"
140
0.1875
141
12.0
290
     0
  0
SCALE
  5
60
102
{ACAD_REACTORS
330
47
102
}
330
47
100
AcDbScale
 70
     0
300
1/4" = 1'-0"
140
0.25
141
12.0
290
     0
  0
SCALE
  5
61
102
{ACAD_REACTORS
330
47
102
}
330
47
100
AcDbScale
 70
     0
300
3/8" = 1'-0"
140
0.375
141
12.0
290
     0
  0
SCALE
  5
62
102
{ACAD_REACTORS
330
47
102
}
330
47
100
AcDbScale
 70
     0
300
1/2" = 1'-0"
140
0.5
141
12.0
290
     0
  0
SCALE
  5
63
102
{ACAD_REACTORS
330
47
102
}
330
47
100
AcDbScale
 70
     0
300
3/4" = 1'-0"
140
0.75
141
12.0
290
     0
  0
SCALE
  5
64
102
{ACAD_REACTORS
330
47
102
}
330
47
100
AcDbScale
 70
     0
300
1" = 1'-0"
140
1.0
141
12.0
290
     0
  0
SCALE
  5
65
102
{ACAD_REACTORS
330
47
102
}
330
47
100
AcDbScale
 70
     0
300
1-1/2" = 1'-0"
140
1.5
141
12.0
290
     0
  0
SCALE
  5
66
102
{ACAD_REACTORS
330
47
102
}
330
47
100
AcDbScale
 70
     0
300
3" = 1'-0"
140
3.0
141
12.0
290
     0
  0
SCALE
  5
67
102
{ACAD_REACTORS
330
47
102
}
330
47
100
AcDbScale
 70
     0
300
6" = 1'-0"
140
6.0
141
12.0
290
     0
  0
SCALE
  5
68
102
{ACAD_REACTORS
330
47
102
}
330
47
100
AcDbScale
 70
     0
300
1'-0" = 1'-0"
140
12.0
141
12.0
290
     0
  0
TABLESTYLE
  5
6A
102
{ACAD_REACTORS
330
69
102
}
102
{ACAD_XDICTIONARY
360
207
102
}
330
69
100
AcDbTableStyle
  3
Standard
 70
     0
 71
     0
 40
0.06
 41
0.06
280
     0
281
     0
  7
Standard
140
0.18
170
     2
 62
     0
 63
   257
283
     0
 90
        4
 91
        0
  1

274
    -2
284
     1
 64
     0
275
    -2
285
     1
 65
     0
276
    -2
286
     1
 66
     0
277
    -2
287
     1
 67
     0
278
    -2
288
     1
 68
     0
279
    -2
289
     1
 69
     0
  7
Standard
140
0.25
170
     5
 62
     0
 63
   257
283
     0
 90
        4
 91
        0
  1

274
    -2
284
     1
 64
     0
275
    -2
285
     1
 65
     0
276
    -2
286
     1
 66
     0
277
    -2
287
     1
 67
     0
278
    -2
288
     1
 68
     0
279
    -2
289
     1
 69
     0
  7
Standard
140
0.18
170
     5
 62
     0
 63
   257
283
     0
 90
        4
 91
        0
  1

274
    -2
284
     1
 64
     0
275
    -2
285
     1
 65
     0
276
    -2
286
     1
 66
     0
277
    -2
287
     1
 67
     0
278
    -2
288
     1
 68
     0
279
    -2
289
     1
 69
     0
  0
VISUALSTYLE
  5
2F
102
{ACAD_REACTORS
330
2A
102
}
330
2A
100
AcDbVisualStyle
  2
2dWireframe
 70
     4
177
     3
291
     0
 70
    58
 90
        0
176
     1
 90
        2
176
     1
 90
        0
176
     1
 90
        0
176
     1
 40
0.6
176
     1
 40
30.0
176
     1
 62
     7
420
 16777215
176
     1
 90
        1
176
     1
 90
        4
176
     1
 62
     7
176
     1
 62
   257
176
     1
 90
        1
176
     1
 90
        1
176
     1
 40
1.0
176
     1
 90
        0
176
     1
 62
   257
176
     1
 40
1.0
176
     1
 90
        1
176
     1
 90
        6
176
     1
 90
        2
176
     1
 62
     7
176
     1
 90
        5
176
     1
 90
        0
176
     1
 90
        0
176
     1
290
     0
176
     1
 90
        1
176
     1
 40
0.0
176
     1
 90
        0
176
     1
290
     1
176
     1
290
     1
176
     1
290
     0
176
     1
290
     0
176
     1
290
     0
176
     1
290
     0
176
     1
290
     0
176
     1
290
     0
176
     1
290
     0
176
     1
 90
       50
176
     1
 40
0.0
176
     1
 40
1.0
176
     1
 90
        0
176
     1
 62
    18
420
        0
176
     1
 90
       50
176
     1
 90
        3
176
     1
 62
     5
420
      255
176
     1
290
     0
176
     1
 90
       50
176
     1
 90
       50
176
     1
 90
       50
176
     1
290
     0
176
     1
 90
       50
176
     1
 62
   256
176
     0
 40
1.0
176
     0
 90
        2
176
     1
  1
strokes_ogs.tif
176
     1
290
     0
176
     1
 40
1.0
176
     1
 40
1.0
176
     1
  0
VISUALSTYLE
  5
32
102
{ACAD_REACTORS
330
2A
102
}
330
2A
100
AcDbVisualStyle
  2
Basic
 70
     7
177
     3
291
     1
 70
    58
 90
        1
176
     1
 90
        0
176
     1
 90
        1
176
     1
 90
        0
176
     1
 40
0.6
176
     1
 40
30.0
176
     1
 62
     7
420
 16777215
176
     1
 90
        0
176
     1
 90
        4
176
     1
 62
     7
176
     1
 62
   257
176
     1
 90
        1
176
     1
 90
        1
176
     1
 40
1.0
176
     1
 90
        8
176
     1
 62
     7
176
     1
 40
1.0
176
     1
 90
        1
176
     1
 90
        6
176
     1
 90
        2
176
     1
 62
     7
176
     1
 90
        5
176
     1
 90
        0
176
     1
 90
        0
176
     1
290
     0
176
     1
 90
        1
176
     1
 40
0.0
176
     1
 90
        0
176
     1
290
     0
176
     1
290
     1
176
     1
290
     1
176
     1
290
     0
176
     1
290
     0
176
     1
290
     0
176
     1
290
     0
176
     1
290
     0
176
     1
290
     0
176
     1
 90
       50
176
     1
 40
0.0
176
     1
 40
1.0
176
     1
 90
        0
176
     1
 62
    18
420
        0
176
     1
 90
       50
176
     1
 90
        3
176
     1
 62
     5
420
      255
176
     1
290
     0
176
     1
 90
       50
176
     1
 90
       50
176
     1
 90
       50
176
     1
290
     0
176
     1
 90
       50
176
     1
 62
   256
176
     0
 40
1.0
176
     0
 90
        2
176
     1
  1
strokes_ogs.tif
176
     1
290
     0
176
     1
 40
1.0
176
     1
 40
1.0
176
     1
  0
VISUALSTYLE
  5
36
102
{ACAD_REACTORS
330
2A
102
}
330
2A
100
AcDbVisualStyle
  2
Brighten
 70
    12
177
     3
291
     1
 70
    58
 90
        2
176
     1
 90
        2
176
     1
 90
        0
176
     1
 90
        0
176
     1
 40
0.6
176
     1
 40
30.0
176
     1
 62
     7
420
 16777215
176
     1
 90
        1
176
     1
 90
        4
176
     1
 62
     7
176
     1
 62
   257
176
     1
 90
        1
176
     1
 90
        1
176
     1
 40
1.0
176
     1
 90
        8
176
     1
 62
     7
176
     1
 40
1.0
176
     1
 90
        1
176
     1
 90
        6
176
     1
 90
        2
176
     1
 62
     7
176
     1
 90
        5
176
     1
 90
        0
176
     1
 90
        0
176
     1
290
     0
176
     1
 90
        1
176
     1
 40
50.0
176
     1
 90
        0
176
     1
290
     0
176
     1
290
     1
176
     1
290
     1
176
     1
290
     0
176
     1
290
     0
176
     1
290
     0
176
     1
290
     0
176
     1
290
     0
176
     1
290
     0
176
     1
 90
       50
176
     1
 40
0.0
176
     1
 40
1.0
176
     1
 90
        0
176
     1
 62
    18
420
        0
176
     1
 90
       50
176
     1
 90
        3
176
     1
 62
     5
420
      255
176
     1
290
     0
176
     1
 90
       50
176
     1
 90
       50
176
     1
 90
       50
176
     1
290
     0
176
     1
 90
       50
176
     1
 62
   256
176
     0
 40
1.0
176
     0
 90
        2
176
     1
  1
strokes_ogs.tif
176
     1
290
     0
176
     1
 40
1.0
176
     1
 40
1.0
176
     1
  0
VISUALSTYLE
  5
3A
102
{ACAD_REACTORS
330
2A
102
}
330
2A
100
AcDbVisualStyle
  2
ColorChange
 70
    16
177
     3
291
     1
 70
    58
 90
        2
176
     1
 90
        2
176
     1
 90
        3
176
     1
 90
        0
176
     1
 40
0.6
176
     1
 40
30.0
176
     1
 62
     8
420
  8421504
176
     1
 90
        1
176
     1
 90
        4
176
     1
 62
     7
176
     1
 62
   257
176
     1
 90
        1
176
     1
 90
        1
176
     1
 40
1.0
176
     1
 90
        8
176
     1
 62
     8
420
  8421504
176
     1
 40
1.0
176
     1
 90
        1
176
     1
 90
        6
176
     1
 90
        2
176
     1
 62
     7
176
     1
 90
        5
176
     1
 90
        0
176
     1
 90
        0
176
     1
290
     0
176
     1
 90
        1
176
     1
 40
0.0
176
     1
 90
        0
176
     1
290
     0
176
     1
290
     1
176
     1
290
     1
176
     1
290
     0
176
     1
290
     0
176
     1
290
     0
176
     1
290
     0
176
     1
290
     0
176
     1
290
     0
176
     1
 90
       50
176
     1
 40
0.0
176
     1
 40
1.0
176
     1
 90
        0
176
     1
 62
    18
420
        0
176
     1
 90
       50
176
     1
 90
        3
176
     1
 62
     5
420
      255
176
     1
290
     0
176
     1
 90
       50
176
     1
 90
       50
176
     1
 90
       50
176
     1
290
     0
176
     1
 90
       50
176
     1
 62
   256
176
     0
 40
1.0
176
     0
 90
        2
176
     1
  1
strokes_ogs.tif
176
     1
290
     0
176
     1
 40
1.0
176
     1
 40
1.0
176
     1
  0
VISUALSTYLE
  5
34
102
{ACAD_REACTORS
330
2A
102
}
330
2A
100
AcDbVisualStyle
  2
Conceptual
 70
     9
177
     3
291
     0
 70
    58
 90
        3
176
     1
 90
        2
176
     1
 90
        0
176
     1
 90
        0
176
     1
 40
0.6
176
     1
 40
30.0
176
     1
 62
     7
420
 16777215
176
     1
 90
        2
176
     1
 90
        2
176
     1
 62
     7
176
     1
 62
   257
176
     1
 90
        1
176
     1
 90
        1
176
     1
 40
179.0
176
     1
 90
        8
176
     1
 62
     7
176
     1
 40
1.0
176
     1
 90
        1
176
     1
 90
        6
176
     1
 90
        2
176
     1
 62
     7
176
     1
 90
        3
176
     1
 90
        0
176
     1
 90
        0
176
     1
290
     0
176
     1
 90
        1
176
     1
 40
0.0
176
     1
 90
        0
176
     1
290
     0
176
     1
290
     1
176
     1
290
     1
176
     1
290
     0
176
     1
290
     0
176
     1
290
     0
176
     1
290
     0
176
     1
290
     0
176
     1
290
     0
176
     1
 90
       50
176
     1
 40
0.0
176
     1
 40
1.0
176
     1
 90
        0
176
     1
 62
    18
420
        0
176
     1
 90
       50
176
     1
 90
        3
176
     1
 62
     5
420
      255
176
     1
290
     0
176
     1
 90
       50
176
     1
 90
       50
176
     1
 90
       50
176
     1
290
     0
176
     1
 90
       50
176
     1
 62
   256
176
     0
 40
1.0
176
     0
 90
        2
176
     1
  1
strokes_ogs.tif
176
     1
290
     0
176
     1
 40
1.0
176
     1
 40
1.0
176
     1
  0
VISUALSTYLE
  5
35
102
{ACAD_REACTORS
330
2A
102
}
330
2A
100
AcDbVisualStyle
  2
Dim
 70
    11
177
     3
291
     1
 70
    58
 90
        2
176
     1
 90
        2
176
     1
 90
        0
176
     1
 90
        0
176
     1
 40
0.6
176
     1
 40
30.0
176
     1
 62
     7
420
 16777215
176
     1
 90
        1
176
     1
 90
        4
176
     1
 62
     7
176
     1
 62
   257
176
     1
 90
        1
176
     1
 90
        1
176
     1
 40
1.0
176
     1
 90
        8
176
     1
 62
     7
176
     1
 40
1.0
176
     1
 90
        1
176
     1
 90
        6
176
     1
 90
        2
176
     1
 62
     7
176
     1
 90
        5
176
     1
 90
        0
176
     1
 90
        0
176
     1
290
     0
176
     1
 90
        1
176
     1
 40
-50.0
176
     1
 90
        0
176
     1
290
     0
176
     1
290
     1
176
     1
290
     1
176
     1
290
     0
176
     1
290
     0
176
     1
290
     0
176
     1
290
     0
176
     1
290
     0
176
     1
290
     0
176
     1
 90
       50
176
     1
 40
0.0
176
     1
 40
1.0
176
     1
 90
        0
176
     1
 62
    18
420
        0
176
     1
 90
       50
176
     1
 90
        3
176
     1
 62
     5
420
      255
176
     1
290
     0
176
     1
 90
       50
176
     1
 90
       50
176
     1
 90
       50
176
     1
290
     0
176
     1
 90
       50
176
     1
 62
   256
176
     0
 40
1.0
176
     0
 90
        2
176
     1
  1
strokes_ogs.tif
176
     1
290
     0
176
     1
 40
1.0
176
     1
 40
1.0
176
     1
  0
VISUALSTYLE
  5
3D
102
{ACAD_REACTORS
330
2A
102
}
330
2A
100
AcDbVisualStyle
  2
EdgeColorOff
 70
    22
177
     3
291
     1
 70
    58
 90
        2
176
     0
 90
        2
176
     0
 90
        0
176
     0
 90
        0
176
     0
 40
0.6
176
     0
 40
30.0
176
     0
 62
     7
420
 16777215
176
     0
 90
        1
176
     0
 90
        4
176
     0
 62
     7
176
     0
 62
   257
176
     0
 90
        1
176
     0
 90
        1
176
     0
 40
1.0
176
     0
 90
        8
176
     2
 62
     7
176
     0
 40
1.0
176
     0
 90
        1
176
     0
 90
        6
176
     0
 90
        2
176
     0
 62
     7
176
     0
 90
        5
176
     0
 90
        0
176
     0
 90
        0
176
     0
290
     0
176
     0
 90
        1
176
     0
 40
0.0
176
     0
 90
        0
176
     0
290
     0
176
     0
290
     1
176
     0
290
     1
176
     0
290
     0
176
     0
290
     0
176
     0
290
     0
176
     0
290
     0
176
     0
290
     0
176
     0
290
     0
176
     0
 90
       50
176
     0
 40
0.0
176
     0
 40
1.0
176
     0
 90
        0
176
     0
 62
    18
420
        0
176
     0
 90
       50
176
     0
 90
        3
176
     0
 62
     5
420
      255
176
     0
290
     0
176
     0
 90
       50
176
     0
 90
       50
176
     0
 90
       50
176
     0
290
     0
176
     0
 90
       50
176
     0
 62
   256
176
     0
 40
1.0
176
     0
 90
        2
176
     0
  1
strokes_ogs.tif
176
     0
290
     0
176
     0
 40
1.0
176
     0
 40
1.0
176
     0
  0
VISUALSTYLE
  5
39
102
{ACAD_REACTORS
330
2A
102
}
330
2A
100
AcDbVisualStyle
  2
Facepattern
 70
    15
177
     3
291
     1
 70
    58
 90
        2
176
     1
 90
        2
176
     1
 90
        0
176
     1
 90
        0
176
     1
 40
0.6
176
     1
 40
30.0
176
     1
 62
     7
420
 16777215
176
     1
 90
        1
176
     1
 90
        4
176
     1
 62
     7
176
     1
 62
   257
176
     1
 90
        1
176
     1
 90
        1
176
     1
 40
1.0
176
     1
 90
        8
176
     1
 62
     7
176
     1
 40
1.0
176
     1
 90
        1
176
     1
 90
        6
176
     1
 90
        2
176
     1
 62
     7
176
     1
 90
        5
176
     1
 90
        0
176
     1
 90
        0
176
     1
290
     0
176
     1
 90
        1
176
     1
 40
0.0
176
     1
 90
        0
176
     1
290
     0
176
     1
290
     1
176
     1
290
     1
176
     1
290
     0
176
     1
290
     0
176
     1
290
     0
176
     1
290
     0
176
     1
290
     0
176
     1
290
     0
176
     1
 90
       50
176
     1
 40
0.0
176
     1
 40
1.0
176
     1
 90
        0
176
     1
 62
    18
420
        0
176
     1
 90
       50
176
     1
 90
        3
176
     1
 62
     5
420
      255
176
     1
290
     0
176
     1
 90
       50
176
     1
 90
       50
176
     1
 90
       50
176
     1
290
     0
176
     1
 90
       50
176
     1
 62
   256
176
     0
 40
1.0
176
     0
 90
        2
176
     1
  1
strokes_ogs.tif
176
     1
290
     0
176
     1
 40
1.0
176
     1
 40
1.0
176
     1
  0
VISUALSTYLE
  5
2B
102
{ACAD_REACTORS
330
2A
102
}
330
2A
100
AcDbVisualStyle
  2
Flat
 70
     0
177
     3
291
     1
 70
    58
 90
        2
176
     1
 90
        1
176
     1
 90
        1
176
     1
 90
        2
176
     1
 40
0.6
176
     1
 40
30.0
176
     1
 62
     7
420
 16777215
176
     1
 90
        0
176
     1
 90
        0
176
     1
 62
     7
176
     1
 62
   257
176
     1
 90
        1
176
     1
 90
        1
176
     1
 40
1.0
176
     1
 90
        8
176
     1
 62
     7
176
     1
 40
1.0
176
     1
 90
        1
176
     1
 90
        6
176
     1
 90
        2
176
     1
 62
     7
176
     1
 90
        5
176
     1
 90
        0
176
     1
 90
        0
176
     1
290
     0
176
     1
 90
       13
176
     1
 40
0.0
176
     1
 90
        0
176
     1
290
     0
176
     1
290
     1
176
     1
290
     1
176
     1
290
     0
176
     1
290
     0
176
     1
290
     0
176
     1
290
     0
176
     1
290
     0
176
     1
290
     0
176
     1
 90
       50
176
     1
 40
0.0
176
     1
 40
1.0
176
     1
 90
        0
176
     1
 62
    18
420
        0
176
     1
 90
       50
176
     1
 90
        3
176
     1
 62
     5
420
      255
176
     1
290
     0
176
     1
 90
       50
176
     1
 90
       50
176
     1
 90
       50
176
     1
290
     0
176
     1
 90
       50
176
     1
 62
   256
176
     0
 40
1.0
176
     0
 90
        2
176
     1
  1
strokes_ogs.tif
176
     1
290
     0
176
     1
 40
1.0
176
     1
 40
1.0
176
     1
  0
VISUALSTYLE
  5
2C
102
{ACAD_REACTORS
330
2A
102
}
330
2A
100
AcDbVisualStyle
  2
FlatWithEdges
 70
     1
177
     3
291
     1
 70
    58
 90
        2
176
     1
 90
        1
176
     1
 90
        1
176
     1
 90
        2
176
     1
 40
0.6
176
     1
 40
30.0
176
     1
 62
     7
420
 16777215
176
     1
 90
        1
176
     1
 90
        0
176
     1
 62
     7
176
     1
 62
   257
176
     1
 90
        1
176
     1
 90
        1
176
     1
 40
1.0
176
     1
 90
        0
176
     1
 62
   257
176
     1
 40
1.0
176
     1
 90
        1
176
     1
 90
        6
176
     1
 90
        2
176
     1
 62
     7
176
     1
 90
        5
176
     1
 90
        0
176
     1
 90
        0
176
     1
290
     0
176
     1
 90
       13
176
     1
 40
0.0
176
     1
 90
        0
176
     1
290
     0
176
     1
290
     1
176
     1
290
     1
176
     1
290
     0
176
     1
290
     0
176
     1
290
     0
176
     1
290
     0
176
     1
290
     0
176
     1
290
     0
176
     1
 90
       50
176
     1
 40
0.0
176
     1
 40
1.0
176
     1
 90
        0
176
     1
 62
    18
420
        0
176
     1
 90
       50
176
     1
 90
        3
176
     1
 62
     5
420
      255
176
     1
290
     0
176
     1
 90
       50
176
     1
 90
       50
176
     1
 90
       50
176
     1
290
     0
176
     1
 90
       50
176
     1
 62
   256
176
     0
 40
1.0
176
     0
 90
        2
176
     1
  1
strokes_ogs.tif
176
     1
290
     0
176
     1
 40
1.0
176
     1
 40
1.0
176
     1
  0
VISUALSTYLE
  5
2D
102
{ACAD_REACTORS
330
2A
102
}
330
2A
100
AcDbVisualStyle
  2
Gouraud
 70
     2
177
     3
291
     1
 70
    58
 90
        2
176
     1
 90
        2
176
     1
 90
        1
176
     1
 90
        2
176
     1
 40
0.6
176
     1
 40
30.0
176
     1
 62
     7
420
 16777215
176
     1
 90
        0
176
     1
 90
        0
176
     1
 62
     7
176
     1
 62
   257
176
     1
 90
        1
176
     1
 90
        1
176
     1
 40
1.0
176
     1
 90
        0
176
     1
 62
     7
176
     1
 40
1.0
176
     1
 90
        1
176
     1
 90
        6
176
     1
 90
        2
176
     1
 62
     7
176
     1
 90
        5
176
     1
 90
        0
176
     1
 90
        0
176
     1
290
     0
176
     1
 90
       13
176
     1
 40
0.0
176
     1
 90
        0
176
     1
290
     0
176
     1
290
     1
176
     1
290
     1
176
     1
290
     0
176
     1
290
     0
176
     1
290
     0
176
     1
290
     0
176
     1
290
     0
176
     1
290
     0
176
     1
 90
       50
176
     1
 40
0.0
176
     1
 40
1.0
176
     1
 90
        0
176
     1
 62
    18
420
        0
176
     1
 90
       50
176
     1
 90
        3
176
     1
 62
     5
420
      255
176
     1
290
     0
176
     1
 90
       50
176
     1
 90
       50
176
     1
 90
       50
176
     1
290
     0
176
     1
 90
       50
176
     1
 62
   256
176
     0
 40
1.0
176
     0
 90
        2
176
     1
  1
strokes_ogs.tif
176
     1
290
     0
176
     1
 40
1.0
176
     1
 40
1.0
176
     1
  0
VISUALSTYLE
  5
2E
102
{ACAD_REACTORS
330
2A
102
}
330
2A
100
AcDbVisualStyle
  2
GouraudWithEdges
 70
     3
177
     3
291
     1
 70
    58
 90
        2
176
     1
 90
        2
176
     1
 90
        1
176
     1
 90
        2
176
     1
 40
0.6
176
     1
 40
30.0
176
     1
 62
     7
420
 16777215
176
     1
 90
        1
176
     1
 90
        0
176
     1
 62
     7
176
     1
 62
   257
176
     1
 90
        1
176
     1
 90
        1
176
     1
 40
1.0
176
     1
 90
        0
176
     1
 62
   257
176
     1
 40
1.0
176
     1
 90
        1
176
     1
 90
        6
176
     1
 90
        2
176
     1
 62
     7
176
     1
 90
        5
176
     1
 90
        0
176
     1
 90
        0
176
     1
290
     0
176
     1
 90
       13
176
     1
 40
0.0
176
     1
 90
        0
176
     1
290
     0
176
     1
290
     1
176
     1
290
     1
176
     1
290
     0
176
     1
290
     0
176
     1
290
     0
176
     1
290
     0
176
     1
290
     0
176
     1
290
     0
176
     1
 90
       50
176
     1
 40
0.0
176
     1
 40
1.0
176
     1
 90
        0
176
     1
 62
    18
420
        0
176
     1
 90
       50
176
     1
 90
        3
176
     1
 62
     5
420
      255
176
     1
290
     0
176
     1
 90
       50
176
     1
 90
       50
176
     1
 90
       50
176
     1
290
     0
176
     1
 90
       50
176
     1
 62
   256
176
     0
 40
1.0
176
     0
 90
        2
176
     1
  1
strokes_ogs.tif
176
     1
290
     0
176
     1
 40
1.0
176
     1
 40
1.0
176
     1
  0
VISUALSTYLE
  5
31
102
{ACAD_REACTORS
330
2A
102
}
330
2A
100
AcDbVisualStyle
  2
Hidden
 70
     6
177
     3
291
     0
 70
    58
 90
        1
176
     1
 90
        2
176
     1
 90
        2
176
     1
 90
        0
176
     1
 40
0.6
176
     1
 40
30.0
176
     1
 62
     7
420
 16777215
176
     1
 90
        2
176
     1
 90
        2
176
     1
 62
     7
176
     1
 62
   257
176
     1
 90
        2
176
     1
 90
        1
176
     1
 40
40.0
176
     1
 90
        0
176
     1
 62
   257
176
     1
 40
1.0
176
     1
 90
        1
176
     1
 90
        6
176
     1
 90
        2
176
     1
 62
     7
176
     1
 90
        3
176
     1
 90
        0
176
     1
 90
        0
176
     1
290
     0
176
     1
 90
        1
176
     1
 40
0.0
176
     1
 90
        0
176
     1
290
     0
176
     1
290
     1
176
     1
290
     1
176
     1
290
     0
176
     1
290
     0
176
     1
290
     0
176
     1
290
     0
176
     1
290
     0
176
     1
290
     0
176
     1
 90
       50
176
     1
 40
0.0
176
     1
 40
1.0
176
     1
 90
        0
176
     1
 62
    18
420
        0
176
     1
 90
       50
176
     1
 90
        3
176
     1
 62
     5
420
      255
176
     1
290
     0
176
     1
 90
       50
176
     1
 90
       50
176
     1
 90
       50
176
     1
290
     0
176
     1
 90
       50
176
     1
 62
   256
176
     0
 40
1.0
176
     0
 90
        2
176
     1
  1
strokes_ogs.tif
176
     1
290
     0
176
     1
 40
1.0
176
     1
 40
1.0
176
     1
  0
VISUALSTYLE
  5
3B
102
{ACAD_REACTORS
330
2A
102
}
330
2A
100
AcDbVisualStyle
  2
JitterOff
 70
    20
177
     3
291
     1
 70
    58
 90
        2
176
     0
 90
        2
176
     0
 90
        0
176
     0
 90
        0
176
     0
 40
0.6
176
     0
 40
30.0
176
     0
 62
     7
420
 16777215
176
     0
 90
        1
176
     0
 90
        4
176
     0
 62
     7
176
     0
 62
   257
176
     0
 90
        1
176
     0
 90
        1
176
     0
 40
1.0
176
     0
 90
       10
176
     2
 62
     7
176
     0
 40
1.0
176
     0
 90
        1
176
     0
 90
        6
176
     0
 90
        2
176
     0
 62
     7
176
     0
 90
        5
176
     0
 90
        0
176
     0
 90
        0
176
     0
290
     0
176
     0
 90
        1
176
     0
 40
0.0
176
     0
 90
        0
176
     0
290
     0
176
     0
290
     1
176
     0
290
     1
176
     0
290
     0
176
     0
290
     0
176
     0
290
     0
176
     0
290
     0
176
     0
290
     0
176
     0
290
     0
176
     0
 90
       50
176
     0
 40
0.0
176
     0
 40
1.0
176
     0
 90
        0
176
     0
 62
    18
420
        0
176
     0
 90
       50
176
     0
 90
        3
176
     0
 62
     5
420
      255
176
     0
290
     0
176
     0
 90
       50
176
     0
 90
       50
176
     0
 90
       50
176
     0
290
     0
176
     0
 90
       50
176
     0
 62
   256
176
     0
 40
1.0
176
     0
 90
        2
176
     0
  1
strokes_ogs.tif
176
     0
290
     0
176
     0
 40
1.0
176
     0
 40
1.0
176
     0
  0
VISUALSTYLE
  5
38
102
{ACAD_REACTORS
330
2A
102
}
330
2A
100
AcDbVisualStyle
  2
Linepattern
 70
    14
177
     3
291
     1
 70
    58
 90
        2
176
     1
 90
        2
176
     1
 90
        0
176
     1
 90
        0
176
     1
 40
0.6
176
     1
 40
30.0
176
     1
 62
     7
420
 16777215
176
     1
 90
        1
176
     1
 90
        4
176
     1
 62
     7
176
     1
 62
   257
176
     1
 90
        7
176
     1
 90
        7
176
     1
 40
1.0
176
     1
 90
        8
176
     1
 62
     7
176
     1
 40
1.0
176
     1
 90
        1
176
     1
 90
        6
176
     1
 90
        2
176
     1
 62
     7
176
     1
 90
        5
176
     1
 90
        0
176
     1
 90
        0
176
     1
290
     0
176
     1
 90
        1
176
     1
 40
0.0
176
     1
 90
        0
176
     1
290
     0
176
     1
290
     1
176
     1
290
     1
176
     1
290
     0
176
     1
290
     0
176
     1
290
     0
176
     1
290
     0
176
     1
290
     0
176
     1
290
     0
176
     1
 90
       50
176
     1
 40
0.0
176
     1
 40
1.0
176
     1
 90
        0
176
     1
 62
    18
420
        0
176
     1
 90
       50
176
     1
 90
        3
176
     1
 62
     5
420
      255
176
     1
290
     0
176
     1
 90
       50
176
     1
 90
       50
176
     1
 90
       50
176
     1
290
     0
176
     1
 90
       50
176
     1
 62
   256
176
     0
 40
1.0
176
     0
 90
        2
176
     1
  1
strokes_ogs.tif
176
     1
290
     0
176
     1
 40
1.0
176
     1
 40
1.0
176
     1
  0
VISUALSTYLE
  5
3C
102
{ACAD_REACTORS
330
2A
102
}
330
2A
100
AcDbVisualStyle
  2
OverhangOff
 70
    21
177
     3
291
     1
 70
    58
 90
        2
176
     0
 90
        2
176
     0
 90
        0
176
     0
 90
        0
176
     0
 40
0.6
176
     0
 40
30.0
176
     0
 62
     7
420
 16777215
176
     0
 90
        1
176
     0
 90
        4
176
     0
 62
     7
176
     0
 62
   257
176
     0
 90
        1
176
     0
 90
        1
176
     0
 40
1.0
176
     0
 90
        9
176
     2
 62
     7
176
     0
 40
1.0
176
     0
 90
        1
176
     0
 90
        6
176
     0
 90
        2
176
     0
 62
     7
176
     0
 90
        5
176
     0
 90
        0
176
     0
 90
        0
176
     0
290
     0
176
     0
 90
        1
176
     0
 40
0.0
176
     0
 90
        0
176
     0
290
     0
176
     0
290
     1
176
     0
290
     1
176
     0
290
     0
176
     0
290
     0
176
     0
290
     0
176
     0
290
     0
176
     0
290
     0
176
     0
290
     0
176
     0
 90
       50
176
     0
 40
0.0
176
     0
 40
1.0
176
     0
 90
        0
176
     0
 62
    18
420
        0
176
     0
 90
       50
176
     0
 90
        3
176
     0
 62
     5
420
      255
176
     0
290
     0
176
     0
 90
       50
176
     0
 90
       50
176
     0
 90
       50
176
     0
290
     0
176
     0
 90
       50
176
     0
 62
   256
176
     0
 40
1.0
176
     0
 90
        2
176
     0
  1
strokes_ogs.tif
176
     0
290
     0
176
     0
 40
1.0
176
     0
 40
1.0
176
     0
  0
VISUALSTYLE
  5
33
102
{ACAD_REACTORS
330
2A
102
}
330
2A
100
AcDbVisualStyle
  2
Realistic
 70
     8
177
     3
291
     0
 70
    58
 90
        2
176
     1
 90
        3
176
     1
 90
        0
176
     1
 90
        2
176
     1
 40
0.6
176
     1
 40
30.0
176
     1
 62
     7
420
 16777215
176
     1
 90
        0
176
     1
 90
        0
176
     1
 62
     7
176
     1
 62
   257
176
     1
 90
        1
176
     1
 90
        1
176
     1
 40
1.0
176
     1
 90
        8
176
     1
 62
   257
176
     1
 40
1.0
176
     1
 90
        1
176
     1
 90
        6
176
     1
 90
        2
176
     1
 62
     7
176
     1
 90
        3
176
     1
 90
        0
176
     1
 90
        0
176
     1
290
     0
176
     1
 90
       13
176
     1
 40
0.0
176
     1
 90
        0
176
     1
290
     0
176
     1
290
     1
176
     1
290
     1
176
     1
290
     0
176
     1
290
     0
176
     1
290
     0
176
     1
290
     0
176
     1
290
     0
176
     1
290
     0
176
     1
 90
       50
176
     1
 40
0.0
176
     1
 40
1.0
176
     1
 90
        0
176
     1
 62
    18
420
        0
176
     1
 90
       50
176
     1
 90
        3
176
     1
 62
     5
420
      255
176
     1
290
     0
176
     1
 90
       50
176
     1
 90
       50
176
     1
 90
       50
176
     1
290
     0
176
     1
 90
       50
176
     1
 62
   256
176
     0
 40
1.0
176
     0
 90
        2
176
     1
  1
strokes_ogs.tif
176
     1
290
     0
176
     1
 40
1.0
176
     1
 40
1.0
176
     1
  0
VISUALSTYLE
  5
42
102
{ACAD_REACTORS
330
2A
102
}
330
2A
100
AcDbVisualStyle
  2
Shaded
 70
    27
177
     3
291
     0
 70
    58
 90
        2
176
     1
 90
        2
176
     1
 90
        1
176
     1
 90
        2
176
     1
 40
0.6
176
     1
 40
30.0
176
     1
 62
     7
420
 16777215
176
     1
 90
        0
176
     1
 90
        4
176
     1
 62
     7
176
     1
 62
   257
176
     1
 90
        1
176
     1
 90
        1
176
     1
 40
1.0
176
     1
 90
        8
176
     1
 62
   257
176
     1
 40
1.0
176
     1
 90
        1
176
     1
 90
        6
176
     1
 90
        2
176
     1
 62
     8
420
  7895160
176
     1
 90
        3
176
     1
 90
        0
176
     1
 90
        0
176
     1
290
     0
176
     1
 90
        5
176
     1
 40
0.0
176
     1
 90
        0
176
     1
290
     0
176
     1
290
     1
176
     1
290
     1
176
     1
290
     0
176
     1
290
     0
176
     1
290
     0
176
     1
290
     0
176
     1
290
     0
176
     1
290
     0
176
     1
 90
       50
176
     1
 40
0.0
176
     1
 40
1.0
176
     1
 90
        0
176
     1
 62
    18
420
        0
176
     1
 90
       50
176
     1
 90
        3
176
     1
 62
     5
420
      255
176
     1
290
     0
176
     1
 90
       50
176
     1
 90
       50
176
     1
 90
       50
176
     1
290
     0
176
     1
 90
       50
176
     1
 62
   256
176
     0
 40
1.0
176
     0
 90
        2
176
     1
  1
strokes_ogs.tif
176
     1
290
     0
176
     1
 40
1.0
176
     1
 40
1.0
176
     1
  0
VISUALSTYLE
  5
41
102
{ACAD_REACTORS
330
2A
102
}
330
2A
100
AcDbVisualStyle
  2
Shaded with edges
 70
    26
177
     3
291
     0
 70
    58
 90
        2
176
     1
 90
        2
176
     1
 90
        1
176
     1
 90
        2
176
     1
 40
0.6
176
     1
 40
30.0
176
     1
 62
     7
420
 16777215
176
     1
 90
        1
176
     1
 90
       10
176
     1
 62
     7
176
     1
 62
   257
176
     1
 90
        2
176
     1
 90
        1
176
     1
 40
1.0
176
     1
 90
        8
176
     1
 62
   257
176
     1
 40
1.0
176
     1
 90
        1
176
     1
 90
        6
176
     1
 90
        2
176
     1
 62
     7
176
     1
 90
        3
176
     1
 90
        0
176
     1
 90
        0
176
     1
290
     0
176
     1
 90
        5
176
     1
 40
0.0
176
     1
 90
        0
176
     1
290
     0
176
     1
290
     1
176
     1
290
     1
176
     1
290
     0
176
     1
290
     0
176
     1
290
     0
176
     1
290
     0
176
     1
290
     0
176
     1
290
     0
176
     1
 90
       50
176
     1
 40
0.0
176
     1
 40
1.0
176
     1
 90
        0
176
     1
 62
    18
420
        0
176
     1
 90
       50
176
     1
 90
        3
176
     1
 62
     5
420
      255
176
     1
290
     0
176
     1
 90
       50
176
     1
 90
       50
176
     1
 90
       50
176
     1
290
     0
176
     1
 90
       50
176
     1
 62
   256
176
     0
 40
1.0
176
     0
 90
        2
176
     1
  1
strokes_ogs.tif
176
     1
290
     0
176
     1
 40
1.0
176
     1
 40
1.0
176
     1
  0
VISUALSTYLE
  5
3E
102
{ACAD_REACTORS
330
2A
102
}
330
2A
100
AcDbVisualStyle
  2
Shades of Gray
 70
    23
177
     3
291
     0
 70
    58
 90
        2
176
     1
 90
        2
176
     1
 90
        3
176
     1
 90
        0
176
     1
 40
0.6
176
     1
 40
30.0
176
     1
 62
     7
420
 16777215
176
     1
 90
        2
176
     1
 90
        2
176
     1
 62
     7
176
     1
 62
     7
176
     1
 90
        1
176
     1
 90
        1
176
     1
 40
40.0
176
     1
 90
        8
176
     1
 62
     7
176
     1
 40
1.0
176
     1
 90
        1
176
     1
 90
        6
176
     1
 90
        2
176
     1
 62
     7
176
     1
 90
        3
176
     1
 90
        0
176
     1
 90
        0
176
     1
290
     0
176
     1
 90
        1
176
     1
 40
0.0
176
     1
 90
        0
176
     1
290
     0
176
     1
290
     1
176
     1
290
     1
176
     1
290
     0
176
     1
290
     0
176
     1
290
     0
176
     1
290
     0
176
     1
290
     0
176
     1
290
     0
176
     1
 90
       50
176
     1
 40
0.0
176
     1
 40
1.0
176
     1
 90
        0
176
     1
 62
    18
420
        0
176
     1
 90
       50
176
     1
 90
        3
176
     1
 62
     5
420
      255
176
     1
290
     0
176
     1
 90
       50
176
     1
 90
       50
176
     1
 90
       50
176
     1
290
     0
176
     1
 90
       50
176
     1
 62
   256
176
     0
 40
1.0
176
     0
 90
        2
176
     1
  1
strokes_ogs.tif
176
     1
290
     0
176
     1
 40
1.0
176
     1
 40
1.0
176
     1
  0
VISUALSTYLE
  5
3F
102
{ACAD_REACTORS
330
2A
102
}
330
2A
100
AcDbVisualStyle
  2
Sketchy
 70
    24
177
     3
291
     0
 70
    58
 90
        1
176
     1
 90
        2
176
     1
 90
        2
176
     1
 90
        0
176
     1
 40
0.6
176
     1
 40
30.0
176
     1
 62
     7
420
 16777215
176
     1
 90
        2
176
     1
 90
        2
176
     1
 62
     7
176
     1
 62
     7
176
     1
 90
        1
176
     1
 90
        1
176
     1
 40
40.0
176
     1
 90
       11
176
     1
 62
     7
176
     1
 40
1.0
176
     1
 90
        1
176
     1
 90
        6
176
     1
 90
        2
176
     1
 62
     7
176
     1
 90
        6
176
     1
 90
        0
176
     1
 90
        0
176
     1
290
     0
176
     1
 90
        1
176
     1
 40
0.0
176
     1
 90
        0
176
     1
290
     0
176
     1
290
     1
176
     1
290
     1
176
     1
290
     0
176
     1
290
     0
176
     1
290
     0
176
     1
290
     0
176
     1
290
     0
176
     1
290
     0
176
     1
 90
       50
176
     1
 40
0.0
176
     1
 40
1.0
176
     1
 90
        0
176
     1
 62
    18
420
        0
176
     1
 90
       50
176
     1
 90
        3
176
     1
 62
     5
420
      255
176
     1
290
     0
176
     1
 90
       50
176
     1
 90
       50
176
     1
 90
       50
176
     1
290
     0
176
     1
 90
       50
176
     1
 62
   256
176
     0
 40
1.0
176
     0
 90
        2
176
     1
  1
strokes_ogs.tif
176
     1
290
     0
176
     1
 40
1.0
176
     1
 40
1.0
176
     1
  0
VISUALSTYLE
  5
37
102
{ACAD_REACTORS
330
2A
102
}
330
2A
100
AcDbVisualStyle
  2
Thicken
 70
    13
177
     3
291
     1
 70
    58
 90
        2
176
     1
 90
        2
176
     1
 90
        0
176
     1
 90
        0
176
     1
 40
0.6
176
     1
 40
30.0
176
     1
 62
     7
420
 16777215
176
     1
 90
        1
176
     1
 90
        4
176
     1
 62
     7
176
     1
 62
   257
176
     1
 90
        1
176
     1
 90
        1
176
     1
 40
1.0
176
     1
 90
       12
176
     1
 62
     7
176
     1
 40
1.0
176
     1
 90
        1
176
     1
 90
        6
176
     1
 90
        2
176
     1
 62
     7
176
     1
 90
        5
176
     1
 90
        0
176
     1
 90
        0
176
     1
290
     0
176
     1
 90
        1
176
     1
 40
0.0
176
     1
 90
        0
176
     1
290
     0
176
     1
290
     1
176
     1
290
     1
176
     1
290
     0
176
     1
290
     0
176
     1
290
     0
176
     1
290
     0
176
     1
290
     0
176
     1
290
     0
176
     1
 90
       50
176
     1
 40
0.0
176
     1
 40
1.0
176
     1
 90
        0
176
     1
 62
    18
420
        0
176
     1
 90
       50
176
     1
 90
        3
176
     1
 62
     5
420
      255
176
     1
290
     0
176
     1
 90
       50
176
     1
 90
       50
176
     1
 90
       50
176
     1
290
     0
176
     1
 90
       50
176
     1
 62
   256
176
     0
 40
1.0
176
     0
 90
        2
176
     1
  1
strokes_ogs.tif
176
     1
290
     0
176
     1
 40
1.0
176
     1
 40
1.0
176
     1
  0
VISUALSTYLE
  5
30
102
{ACAD_REACTORS
330
2A
102
}
330
2A
100
AcDbVisualStyle
  2
Wireframe
 70
     5
177
     3
291
     0
 70
    58
 90
        0
176
     1
 90
        2
176
     1
 90
        0
176
     1
 90
        0
176
     1
 40
0.6
176
     1
 40
30.0
176
     1
 62
     7
420
 16777215
176
     1
 90
        1
176
     1
 90
        4
176
     1
 62
     7
176
     1
 62
   257
176
     1
 90
        1
176
     1
 90
        1
176
     1
 40
1.0
176
     1
 90
        0
176
     1
 62
   257
176
     1
 40
1.0
176
     1
 90
        1
176
     1
 90
        6
176
     1
 90
        2
176
     1
 62
     7
176
     1
 90
        3
176
     1
 90
        0
176
     1
 90
        0
176
     1
290
     0
176
     1
 90
        1
176
     1
 40
0.0
176
     1
 90
        0
176
     1
290
     0
176
     1
290
     1
176
     1
290
     1
176
     1
290
     0
176
     1
290
     0
176
     1
290
     0
176
     1
290
     0
176
     1
290
     0
176
     1
290
     0
176
     1
 90
       50
176
     1
 40
0.0
176
     1
 40
1.0
176
     1
 90
        0
176
     1
 62
    18
420
        0
176
     1
 90
       50
176
     1
 90
        3
176
     1
 62
     5
420
      255
176
     1
290
     0
176
     1
 90
       50
176
     1
 90
       50
176
     1
 90
       50
176
     1
290
     0
176
     1
 90
       50
176
     1
 62
   256
176
     0
 40
1.0
176
     0
 90
        2
176
     1
  1
strokes_ogs.tif
176
     1
290
     0
176
     1
 40
1.0
176
     1
 40
1.0
176
     1
  0
VISUALSTYLE
  5
40
102
{ACAD_REACTORS
330
2A
102
}
330
2A
100
AcDbVisualStyle
  2
X-Ray
 70
    25
177
     3
291
     0
 70
    58
 90
        2
176
     1
 90
        2
176
     1
 90
        1
176
     1
 90
        1
176
     1
 40
0.5
176
     1
 40
30.0
176
     1
 62
     7
420
 16777215
176
     1
 90
        1
176
     1
 90
        0
176
     1
 62
     7
176
     1
 62
   257
176
     1
 90
        1
176
     1
 90
        1
176
     1
 40
1.0
176
     1
 90
        8
176
     1
 62
     7
176
     1
 40
1.0
176
     1
 90
        1
176
     1
 90
        6
176
     1
 90
        2
176
     1
 62
     7
176
     1
 90
        3
176
     1
 90
        0
176
     1
 90
        0
176
     1
290
     0
176
     1
 90
       13
176
     1
 40
0.0
176
     1
 90
        0
176
     1
290
     0
176
     1
290
     1
176
     1
290
     1
176
     1
290
     0
176
     1
290
     0
176
     1
290
     0
176
     1
290
     0
176
     1
290
     0
176
     1
290
     0
176
     1
 90
       50
176
     1
 40
0.0
176
     1
 40
1.0
176
     1
 90
        0
176
     1
 62
    18
420
        0
176
     1
 90
       50
176
     1
 90
        3
176
     1
 62
     5
420
      255
176
     1
290
     0
176
     1
 90
       50
176
     1
 90
       50
176
     1
 90
       50
176
     1
290
     0
176
     1
 90
       50
176
     1
 62
   256
176
     0
 40
1.0
176
     0
 90
        2
176
     1
  1
strokes_ogs.tif
176
     1
290
     0
176
     1
 40
1.0
176
     1
 40
1.0
176
     1
  0
DICTIONARYVAR
  5
206
102
{ACAD_REACTORS
330
205
102
}
330
205
100
DictionaryVariables
280
     0
  1
1:1
  0
DICTIONARYVAR
  5
20B
102
{ACAD_REACTORS
330
205
102
}
330
205
100
DictionaryVariables
280
     0
  1
Standard
  0
DICTIONARYVAR
  5
20A
102
{ACAD_REACTORS
330
205
102
}
330
205
100
DictionaryVariables
280
     0
  1
Standard
  0
DICTIONARY
  5
207
330
6A
100
AcDbDictionary
280
     1
281
     1
  3
ACAD_ROUNDTRIP_2008_TABLESTYLE_CELLSTYLEMAP
360
208
  0
CELLSTYLEMAP
  5
208
102
{ACAD_REACTORS
330
207
102
}
330
207
100
AcDbCellStyleMap
 90
        3
300
CELLSTYLE
  1
TABLEFORMAT_BEGIN
 90
        5
170
     1
 91
        0
 92
    32768
 62
   257
 93
        1
300
CONTENTFORMAT
  1
CONTENTFORMAT_BEGIN
 90
        0
 91
        0
 92
        4
 93
        0
300

 40
0.0
140
1.0
 94
        5
 62
     0
340
11
144
0.25
309
CONTENTFORMAT_END
171
     1
301
MARGIN
  1
CELLMARGIN_BEGIN
 40
0.06
 40
0.06
 40
0.06
 40
0.06
 40
0.06
 40
0.06
309
CELLMARGIN_END
 94
        6
 95
        1
302
GRIDFORMAT
  1
GRIDFORMAT_BEGIN
 90
        0
 91
        1
 62
     0
 92
       -2
340
14
 93
        0
 40
0.045
309
GRIDFORMAT_END
 95
        2
302
GRIDFORMAT
  1
GRIDFORMAT_BEGIN
 90
        0
 91
        1
 62
     0
 92
       -2
340
14
 93
        0
 40
0.045
309
GRIDFORMAT_END
 95
        4
302
GRIDFORMAT
  1
GRIDFORMAT_BEGIN
 90
        0
 91
        1
 62
     0
 92
       -2
340
14
 93
        0
 40
0.045
309
GRIDFORMAT_END
 95
        8
302
GRIDFORMAT
  1
GRIDFORMAT_BEGIN
 90
        0
 91
        1
 62
     0
 92
       -2
340
14
 93
        0
 40
0.045
309
GRIDFORMAT_END
 95
       16
302
GRIDFORMAT
  1
GRIDFORMAT_BEGIN
 90
        0
 91
        1
 62
     0
 92
       -2
340
14
 93
        0
 40
0.045
309
GRIDFORMAT_END
 95
       32
302
GRIDFORMAT
  1
GRIDFORMAT_BEGIN
 90
        0
 91
        1
 62
     0
 92
       -2
340
14
 93
        0
 40
0.045
309
GRIDFORMAT_END
309
TABLEFORMAT_END
  1
CELLSTYLE_BEGIN
 90
        1
 91
        1
300
_TITLE
309
CELLSTYLE_END
300
CELLSTYLE
  1
TABLEFORMAT_BEGIN
 90
        5
170
     1
 91
        0
 92
        0
 62
   257
 93
        1
300
CONTENTFORMAT
  1
CONTENTFORMAT_BEGIN
 90
        0
 91
        0
 92
        4
 93
        0
300

 40
0.0
140
1.0
 94
        5
 62
     0
340
11
144
0.18
309
CONTENTFORMAT_END
171
     1
301
MARGIN
  1
CELLMARGIN_BEGIN
 40
0.06
 40
0.06
 40
0.06
 40
0.06
 40
0.06
 40
0.06
309
CELLMARGIN_END
 94
        6
 95
        1
302
GRIDFORMAT
  1
GRIDFORMAT_BEGIN
 90
        0
 91
        1
 62
     0
 92
       -2
340
14
 93
        0
 40
0.045
309
GRIDFORMAT_END
 95
        2
302
GRIDFORMAT
  1
GRIDFORMAT_BEGIN
 90
        0
 91
        1
 62
     0
 92
       -2
340
14
 93
        0
 40
0.045
309
GRIDFORMAT_END
 95
        4
302
GRIDFORMAT
  1
GRIDFORMAT_BEGIN
 90
        0
 91
        1
 62
     0
 92
       -2
340
14
 93
        0
 40
0.045
309
GRIDFORMAT_END
 95
        8
302
GRIDFORMAT
  1
GRIDFORMAT_BEGIN
 90
        0
 91
        1
 62
     0
 92
       -2
340
14
 93
        0
 40
0.045
309
GRIDFORMAT_END
 95
       16
302
GRIDFORMAT
  1
GRIDFORMAT_BEGIN
 90
        0
 91
        1
 62
     0
 92
       -2
340
14
 93
        0
 40
0.045
309
GRIDFORMAT_END
 95
       32
302
GRIDFORMAT
  1
GRIDFORMAT_BEGIN
 90
        0
 91
        1
 62
     0
 92
       -2
340
14
 93
        0
 40
0.045
309
GRIDFORMAT_END
309
TABLEFORMAT_END
  1
CELLSTYLE_BEGIN
 90
        2
 91
        1
300
_HEADER
309
CELLSTYLE_END
300
CELLSTYLE
  1
TABLEFORMAT_BEGIN
 90
        5
170
     1
 91
        0
 92
        0
 62
   257
 93
        1
300
CONTENTFORMAT
  1
CONTENTFORMAT_BEGIN
 90
        0
 91
        0
 92
        4
 93
        0
300

 40
0.0
140
1.0
 94
        2
 62
     0
340
11
144
0.18
309
CONTENTFORMAT_END
171
     1
301
MARGIN
  1
CELLMARGIN_BEGIN
 40
0.06
 40
0.06
 40
0.06
 40
0.06
 40
0.06
 40
0.06
309
CELLMARGIN_END
 94
        6
 95
        1
302
GRIDFORMAT
  1
GRIDFORMAT_BEGIN
 90
        0
 91
        1
 62
     0
 92
       -2
340
14
 93
        0
 40
0.045
309
GRIDFORMAT_END
 95
        2
302
GRIDFORMAT
  1
GRIDFORMAT_BEGIN
 90
        0
 91
        1
 62
     0
 92
       -2
340
14
 93
        0
 40
0.045
309
GRIDFORMAT_END
 95
        4
302
GRIDFORMAT
  1
GRIDFORMAT_BEGIN
 90
        0
 91
        1
 62
     0
 92
       -2
340
14
 93
        0
 40
0.045
309
GRIDFORMAT_END
 95
        8
302
GRIDFORMAT
  1
GRIDFORMAT_BEGIN
 90
        0
 91
        1
 62
     0
 92
       -2
340
14
 93
        0
 40
0.045
309
GRIDFORMAT_END
 95
       16
302
GRIDFORMAT
  1
GRIDFORMAT_BEGIN
 90
        0
 91
        1
 62
     0
 92
       -2
340
14
 93
        0
 40
0.045
309
GRIDFORMAT_END
 95
       32
302
GRIDFORMAT
  1
GRIDFORMAT_BEGIN
 90
        0
 91
        1
 62
     0
 92
       -2
340
14
 93
        0
 40
0.045
309
GRIDFORMAT_END
309
TABLEFORMAT_END
  1
CELLSTYLE_BEGIN
 90
        3
 91
        2
300
_DATA
309
CELLSTYLE_END
  0
ENDSEC
  0
EOF