0
SECTION
  2
HEADER
  9
$ACADVER
  1
AC1027
  9
$ACADMAINTVER
 70
   105
  9
$DWGCODEPAGE
  3
ANSI_1252
  9
$REQUIREDVERSIONS
160
                 0
  9
$COMMENTS
  1
File was created by Cadenas
  9
$CUSTOMPROPERTYTAG
  1
NN
  9
$CUSTOMPROPERTY
  1
S-2000 Pillow Block 4-Bolt Inch Bore (Contact Seal)
  9
$CUSTOMPROPERTYTAG
  1
NT
  9
$CUSTOMPROPERTY
  1
S-2000 Pillow Block Bearing -Inch (4-Bolt Base)
  9
$CUSTOMPROPERTYTAG
  1
NB
  9
$CUSTOMPROPERTY
  1
070361
  9
$CUSTOMPROPERTYTAG
  1
NBSYN
  9
$CUSTOMPROPERTY
  1
$PN.
  9
$CUSTOMPROPERTYTAG
  1
LINA
  9
$CUSTOMPROPERTY
  1
070361
  9
$CUSTOMPROPERTYTAG
  1
SS
  9
$CUSTOMPROPERTY
  1
1-15/16
  9
$CUSTOMPROPERTYTAG
  1
PN
  9
$CUSTOMPROPERTY
  1
070361
  9
$CUSTOMPROPERTYTAG
  1
DESCRIPTION
  9
$CUSTOMPROPERTY
  1
P4B-S2-115R
  9
$CUSTOMPROPERTYTAG
  1
EF
  9
$CUSTOMPROPERTY
  1
Non-Expansion Type
  9
$CUSTOMPROPERTYTAG
  1
ST
  9
$CUSTOMPROPERTY
  1
Contact Seal
  9
$CUSTOMPROPERTYTAG
  1
A
  9
$CUSTOMPROPERTY
  1
2-27/32
  9
$CUSTOMPROPERTYTAG
  1
B
  9
$CUSTOMPROPERTY
  1
8
  9
$CUSTOMPROPERTYTAG
  1
C
  9
$CUSTOMPROPERTY
  1
3-3/16
  9
$CUSTOMPROPERTYTAG
  1
DMIN
  9
$CUSTOMPROPERTY
  1
6-1/16
  9
$CUSTOMPROPERTYTAG
  1
DMAX
  9
$CUSTOMPROPERTY
  1
6-7/16
  9
$CUSTOMPROPERTYTAG
  1
E
  9
$CUSTOMPROPERTY
  1
1-19/32
  9
$CUSTOMPROPERTYTAG
  1
F
  9
$CUSTOMPROPERTY
  1
1/2
  9
$CUSTOMPROPERTYTAG
  1
G
  9
$CUSTOMPROPERTY
  1
13/16
  9
$CUSTOMPROPERTYTAG
  1
H
  9
$CUSTOMPROPERTY
  1
1-5/16
  9
$CUSTOMPROPERTYTAG
  1
J
  9
$CUSTOMPROPERTY
  1
4-9/16
  9
$CUSTOMPROPERTYTAG
  1
L
  9
$CUSTOMPROPERTY
  1
3-7/16
  9
$CUSTOMPROPERTYTAG
  1
M
  9
$CUSTOMPROPERTY
  1
2-1/4
  9
$CUSTOMPROPERTYTAG
  1
R
  9
$CUSTOMPROPERTY
  1
27/32
  9
$CUSTOMPROPERTYTAG
  1
S
  9
$CUSTOMPROPERTY
  1
2
  9
$CUSTOMPROPERTYTAG
  1
X
  9
$CUSTOMPROPERTY
  1
1/4
  9
$CUSTOMPROPERTYTAG
  1
Y
  9
$CUSTOMPROPERTY
  1
0.020
  9
$CUSTOMPROPERTYTAG
  1
Z
  9
$CUSTOMPROPERTY
  1
2-19/64
  9
$CUSTOMPROPERTYTAG
  1
COMPANY
  9
$CUSTOMPROPERTY
  1
baldor
  9
$INSBASE
 10
0.0
 20
0.0
 30
0.0
  9
$EXTMIN
 10
1.000000000000000E+20
 20
1.000000000000000E+20
 30
1.000000000000000E+20
  9
$EXTMAX
 10
-1.000000000000000E+20
 20
-1.000000000000000E+20
 30
-1.000000000000000E+20
  9
$LIMMIN
 10
0.0
 20
0.0
  9
$LIMMAX
 10
12.0
 20
9.0
  9
$ORTHOMODE
 70
     0
  9
$REGENMODE
 70
     1
  9
$FILLMODE
 70
     1
  9
$QTEXTMODE
 70
     0
  9
$MIRRTEXT
 70
     1
  9
$LTSCALE
 40
1.0
  9
$ATTMODE
 70
     1
  9
$TEXTSIZE
 40
0.2
  9
$TRACEWID
 40
0.05
  9
$TEXTSTYLE
  7
Standard
  9
$CLAYER
  8
0
  9
$CELTYPE
  6
ByLayer
  9
$CECOLOR
 62
   256
  9
$CELTSCALE
 40
1.0
  9
$DISPSILH
 70
     0
  9
$DIMSCALE
 40
1.0
  9
$DIMASZ
 40
0.18
  9
$DIMEXO
 40
0.0625
  9
$DIMDLI
 40
0.38
  9
$DIMRND
 40
0.0
  9
$DIMDLE
 40
0.0
  9
$DIMEXE
 40
0.18
  9
$DIMTP
 40
0.0
  9
$DIMTM
 40
0.0
  9
$DIMTXT
 40
0.18
  9
$DIMCEN
 40
0.09
  9
$DIMTSZ
 40
0.0
  9
$DIMTOL
 70
     0
  9
$DIMLIM
 70
     0
  9
$DIMTIH
 70
     1
  9
$DIMTOH
 70
     1
  9
$DIMSE1
 70
     0
  9
$DIMSE2
 70
     0
  9
$DIMTAD
 70
     0
  9
$DIMZIN
 70
     0
  9
$DIMBLK
  1

  9
$DIMASO
 70
     1
  9
$DIMSHO
 70
     1
  9
$DIMPOST
  1

  9
$DIMAPOST
  1

  9
$DIMALT
 70
     0
  9
$DIMALTD
 70
     2
  9
$DIMALTF
 40
25.4
  9
$DIMLFAC
 40
1.0
  9
$DIMTOFL
 70
     0
  9
$DIMTVP
 40
0.0
  9
$DIMTIX
 70
     0
  9
$DIMSOXD
 70
     0
  9
$DIMSAH
 70
     0
  9
$DIMBLK1
  1

  9
$DIMBLK2
  1

  9
$DIMSTYLE
  2
Standard
  9
$DIMCLRD
 70
     0
  9
$DIMCLRE
 70
     0
  9
$DIMCLRT
 70
     0
  9
$DIMTFAC
 40
1.0
  9
$DIMGAP
 40
0.09
  9
$DIMJUST
 70
     0
  9
$DIMSD1
 70
     0
  9
$DIMSD2
 70
     0
  9
$DIMTOLJ
 70
     1
  9
$DIMTZIN
 70
     0
  9
$DIMALTZ
 70
     0
  9
$DIMALTTZ
 70
     0
  9
$DIMUPT
 70
     0
  9
$DIMDEC
 70
     4
  9
$DIMTDEC
 70
     4
  9
$DIMALTU
 70
     2
  9
$DIMALTTD
 70
     2
  9
$DIMTXSTY
  7
Standard
  9
$DIMAUNIT
 70
     0
  9
$DIMADEC
 70
     0
  9
$DIMALTRND
 40
0.0
  9
$DIMAZIN
 70
     0
  9
$DIMDSEP
 70
    46
  9
$DIMATFIT
 70
     3
  9
$DIMFRAC
 70
     0
  9
$DIMLDRBLK
  1

  9
$DIMLUNIT
 70
     2
  9
$DIMLWD
 70
    -2
  9
$DIMLWE
 70
    -2
  9
$DIMTMOVE
 70
     0
  9
$DIMFXL
 40
1.0
  9
$DIMFXLON
 70
     0
  9
$DIMJOGANG
 40
0.7853981633974483
  9
$DIMTFILL
 70
     0
  9
$DIMTFILLCLR
 70
     0
  9
$DIMARCSYM
 70
     0
  9
$DIMLTYPE
  6

  9
$DIMLTEX1
  6

  9
$DIMLTEX2
  6

  9
$DIMTXTDIRECTION
 70
     0
  9
$LUNITS
 70
     2
  9
$LUPREC
 70
     4
  9
$SKETCHINC
 40
0.1
  9
$FILLETRAD
 40
0.5
  9
$AUNITS
 70
     0
  9
$AUPREC
 70
     0
  9
$MENU
  1
.
  9
$ELEVATION
 40
0.0
  9
$PELEVATION
 40
0.0
  9
$THICKNESS
 40
0.0
  9
$LIMCHECK
 70
     0
  9
$CHAMFERA
 40
0.0
  9
$CHAMFERB
 40
0.0
  9
$CHAMFERC
 40
0.0
  9
$CHAMFERD
 40
0.0
  9
$SKPOLY
 70
     0
  9
$TDCREATE
 40
2458168.984901157
  9
$TDUCREATE
 40
2458168.943234491
  9
$TDUPDATE
 40
2458168.984901343
  9
$TDUUPDATE
 40
2458168.943234676
  9
$TDINDWG
 40
0.0000000116
  9
$TDUSRTIMER
 40
0.0000000116
  9
$USRTIMER
 70
     1
  9
$ANGBASE
 50
0.0
  9
$ANGDIR
 70
     0
  9
$PDMODE
 70
     0
  9
$PDSIZE
 40
0.0
  9
$PLINEWID
 40
0.0
  9
$SPLFRAME
 70
     0
  9
$SPLINETYPE
 70
     6
  9
$SPLINESEGS
 70
     8
  9
$HANDSEED
  5
205
  9
$SURFTAB1
 70
     6
  9
$SURFTAB2
 70
     6
  9
$SURFTYPE
 70
     6
  9
$SURFU
 70
     6
  9
$SURFV
 70
     6
  9
$UCSBASE
  2

  9
$UCSNAME
  2

  9
$UCSORG
 10
0.0
 20
0.0
 30
0.0
  9
$UCSXDIR
 10
1.0
 20
0.0
 30
0.0
  9
$UCSYDIR
 10
0.0
 20
1.0
 30
0.0
  9
$UCSORTHOREF
  2

  9
$UCSORTHOVIEW
 70
     0
  9
$UCSORGTOP
 10
0.0
 20
0.0
 30
0.0
  9
$UCSORGBOTTOM
 10
0.0
 20
0.0
 30
0.0
  9
$UCSORGLEFT
 10
0.0
 20
0.0
 30
0.0
  9
$UCSORGRIGHT
 10
0.0
 20
0.0
 30
0.0
  9
$UCSORGFRONT
 10
0.0
 20
0.0
 30
0.0
  9
$UCSORGBACK
 10
0.0
 20
0.0
 30
0.0
  9
$PUCSBASE
  2

  9
$PUCSNAME
  2

  9
$PUCSORG
 10
0.0
 20
0.0
 30
0.0
  9
$PUCSXDIR
 10
1.0
 20
0.0
 30
0.0
  9
$PUCSYDIR
 10
0.0
 20
1.0
 30
0.0
  9
$PUCSORTHOREF
  2

  9
$PUCSORTHOVIEW
 70
     0
  9
$PUCSORGTOP
 10
0.0
 20
0.0
 30
0.0
  9
$PUCSORGBOTTOM
 10
0.0
 20
0.0
 30
0.0
  9
$PUCSORGLEFT
 10
0.0
 20
0.0
 30
0.0
  9
$PUCSORGRIGHT
 10
0.0
 20
0.0
 30
0.0
  9
$PUCSORGFRONT
 10
0.0
 20
0.0
 30
0.0
  9
$PUCSORGBACK
 10
0.0
 20
0.0
 30
0.0
  9
$USERI1
 70
     0
  9
$USERI2
 70
     0
  9
$USERI3
 70
     0
  9
$USERI4
 70
     0
  9
$USERI5
 70
     0
  9
$USERR1
 40
0.0
  9
$USERR2
 40
0.0
  9
$USERR3
 40
0.0
  9
$USERR4
 40
0.0
  9
$USERR5
 40
0.0
  9
$WORLDVIEW
 70
     1
  9
$SHADEDGE
 70
     3
  9
$SHADEDIF
 70
    70
  9
$TILEMODE
 70
     1
  9
$MAXACTVP
 70
    64
  9
$PINSBASE
 10
0.0
 20
0.0
 30
0.0
  9
$PLIMCHECK
 70
     0
  9
$PEXTMIN
 10
1.000000000000000E+20
 20
1.000000000000000E+20
 30
1.000000000000000E+20
  9
$PEXTMAX
 10
-1.000000000000000E+20
 20
-1.000000000000000E+20
 30
-1.000000000000000E+20
  9
$PLIMMIN
 10
0.0
 20
0.0
  9
$PLIMMAX
 10
12.0
 20
9.0
  9
$UNITMODE
 70
     0
  9
$VISRETAIN
 70
     1
  9
$PLINEGEN
 70
     0
  9
$PSLTSCALE
 70
     1
  9
$TREEDEPTH
 70
  3020
  9
$CMLSTYLE
  2
Standard
  9
$CMLJUST
 70
     0
  9
$CMLSCALE
 40
1.0
  9
$PROXYGRAPHICS
 70
     1
  9
$MEASUREMENT
 70
     0
  9
$CELWEIGHT
370
    -1
  9
$ENDCAPS
280
     0
  9
$JOINSTYLE
280
     0
  9
$LWDISPLAY
290
     0
  9
$INSUNITS
 70
     1
  9
$HYPERLINKBASE
  1

  9
$STYLESHEET
  1

  9
$XEDIT
290
     1
  9
$CEPSNTYPE
380
     0
  9
$PSTYLEMODE
290
     1
  9
$FINGERPRINTGUID
  2
{78AD4251-1697-491D-A8B3-9AB3363BDA1E}
  9
$VERSIONGUID
  2
{FAEB1C32-E019-11D5-929B-00C0DF256EC4}
  9
$EXTNAMES
290
     1
  9
$PSVPSCALE
 40
0.0
  9
$OLESTARTUP
290
     0
  9
$SORTENTS
280
   127
  9
$INDEXCTL
280
     0
  9
$HIDETEXT
280
     1
  9
$XCLIPFRAME
280
     2
  9
$HALOGAP
280
     0
  9
$OBSCOLOR
 70
   257
  9
$OBSLTYPE
280
     0
  9
$INTERSECTIONDISPLAY
280
     0
  9
$INTERSECTIONCOLOR
 70
   257
  9
$DIMASSOC
280
     2
  9
$PROJECTNAME
  1

  9
$CAMERADISPLAY
290
     0
  9
$LENSLENGTH
 40
50.0
  9
$CAMERAHEIGHT
 40
0.0
  9
$STEPSPERSEC
 40
2.0
  9
$STEPSIZE
 40
6.0
  9
$3DDWFPREC
 40
2.0
  9
$PSOLWIDTH
 40
0.25
  9
$PSOLHEIGHT
 40
4.0
  9
$LOFTANG1
 40
1.570796326794897
  9
$LOFTANG2
 40
1.570796326794897
  9
$LOFTMAG1
 40
0.0
  9
$LOFTMAG2
 40
0.0
  9
$LOFTPARAM
 70
     7
  9
$LOFTNORMALS
280
     1
  9
$LATITUDE
 40
37.795
  9
$LONGITUDE
 40
-122.394
  9
$NORTHDIRECTION
 40
0.0
  9
$TIMEZONE
 70
 -8000
  9
$LIGHTGLYPHDISPLAY
280
     1
  9
$TILEMODELIGHTSYNCH
280
     1
  9
$CMATERIAL
347
44
  9
$SOLIDHIST
280
     0
  9
$SHOWHIST
280
     1
  9
$DWFFRAME
280
     2
  9
$DGNFRAME
280
     2
  9
$REALWORLDSCALE
290
     1
  9
$INTERFERECOLOR
 62
   256
  9
$CSHADOW
280
     0
  9
$SHADOWPLANELOCATION
 40
0.0
  0
ENDSEC
  0
SECTION
  2
CLASSES
  0
CLASS
  1
ACDBDICTIONARYWDFLT
  2
AcDbDictionaryWithDefault
  3
ObjectDBX Classes
 90
        0
 91
        4
280
     0
281
     0
  0
CLASS
  1
VISUALSTYLE
  2
AcDbVisualStyle
  3
ObjectDBX Classes
 90
     4095
 91
        4
280
     0
281
     0
  0
CLASS
  1
MATERIAL
  2
AcDbMaterial
  3
ObjectDBX Classes
 90
     1153
 91
        4
280
     0
281
     0
  0
CLASS
  1
SCALE
  2
AcDbScale
  3
ObjectDBX Classes
 90
     1153
 91
        4
280
     0
281
     0
  0
CLASS
  1
TABLESTYLE
  2
AcDbTableStyle
  3
ObjectDBX Classes
 90
     4095
 91
        4
280
     0
281
     0
  0
CLASS
  1
MLEADERSTYLE
  2
AcDbMLeaderStyle
  3
ACDB_MLEADERSTYLE_CLASS
 90
     4095
 91
        4
280
     0
281
     0
  0
CLASS
  1
SUN
  2
AcDbSun
  3
SCENEOE
 90
     1153
 91
        4
280
     0
281
     0
  0
CLASS
  1
DICTIONARYVAR
  2
AcDbDictionaryVar
  3
ObjectDBX Classes
 90
        0
 91
        4
280
     0
281
     0
  0
CLASS
  1
CELLSTYLEMAP
  2
AcDbCellStyleMap
  3
ObjectDBX Classes
 90
     1152
 91
        4
280
     0
281
     0
  0
ENDSEC
  0
SECTION
  2
TABLES
  0
TABLE
  2
VPORT
  5
8
330
0
100
AcDbSymbolTable
 70
     1
  0
VPORT
  5
29
330
8
100
AcDbSymbolTableRecord
100
AcDbViewportTableRecord
  2
*Active
 70
     0
 10
0.0
 20
0.0
 11
1.0
 21
1.0
 12
4.821428571428571
 22
-4.701923076923077
 13
0.0
 23
0.0
 14
0.5
 24
0.5
 15
0.5
 25
0.5
 16
0.0
 26
0.0
 36
1.0
 17
0.0
 27
0.0
 37
0.0
 40
14.28
 41
1.260204081632653
 42
50.0
 43
0.0
 44
0.0
 50
0.0
 51
0.0
 71
     0
 72
   100
 73
     1
 74
     3
 75
     0
 76
     0
 77
     0
 78
     0
281
     0
 65
     1
110
0.0
120
0.0
130
0.0
111
1.0
121
0.0
131
0.0
112
0.0
122
1.0
132
0.0
 79
     0
146
0.0
348
2F
 60
     3
 61
     5
292
     1
282
     1
141
0.0
142
0.0
 63
   250
361
6D
  0
ENDTAB
  0
TABLE
  2
LTYPE
  5
5
330
0
100
AcDbSymbolTable
 70
     3
  0
LTYPE
  5
14
330
5
100
AcDbSymbolTableRecord
100
AcDbLinetypeTableRecord
  2
ByBlock
 70
     0
  3

 72
    65
 73
     0
 40
0.0
  0
LTYPE
  5
15
330
5
100
AcDbSymbolTableRecord
100
AcDbLinetypeTableRecord
  2
ByLayer
 70
     0
  3

 72
    65
 73
     0
 40
0.0
  0
LTYPE
  5
16
330
5
100
AcDbSymbolTableRecord
100
AcDbLinetypeTableRecord
  2
Continuous
 70
     0
  3
Solid line
 72
    65
 73
     0
 40
0.0
  0
LTYPE
  5
A4
330
5
100
AcDbSymbolTableRecord
100
AcDbLinetypeTableRecord
  2
Dashed
 70
     0
  3

 72
    65
 73
     2
 40
2.0
 49
1.0
 74
     0
 49
-1.0
 74
     0
  0
LTYPE
  5
B8
330
5
100
AcDbSymbolTableRecord
100
AcDbLinetypeTableRecord
  2
Center
 70
     0
  3

 72
    65
 73
     4
 40
1.5
 49
0.45
 74
     0
 49
-0.5
 74
     0
 49
0.05
 74
     0
 49
-0.5
 74
     0
  0
ENDTAB
  0
TABLE
  2
LAYER
  5
2
330
0
100
AcDbSymbolTable
 70
     8
  0
LAYER
  5
10
330
2
100
AcDbSymbolTableRecord
100
AcDbLayerTableRecord
  2
0
 70
     0
 62
     7
  6
Continuous
370
    -3
390
F
347
46
348
0
  0
LAYER
  5
6E
330
2
100
AcDbSymbolTableRecord
100
AcDbLayerTableRecord
  2
AM_6
 70
     0
 62
    -2
  6
Continuous
370
    35
390
F
347
46
348
0
  0
LAYER
  5
A5
330
2
100
AcDbSymbolTableRecord
100
AcDbLayerTableRecord
  2
AM_9
 70
     0
 62
     6
  6
Dashed
370
    25
390
F
347
46
348
0
  0
LAYER
  5
B9
330
2
100
AcDbSymbolTableRecord
100
AcDbLayerTableRecord
  2
AM_7
 70
     0
 62
     7
  6
Center
370
    25
390
F
347
46
348
0
  0
LAYER
  5
BB
330
2
100
AcDbSymbolTableRecord
100
AcDbLayerTableRecord
  2
AM_0
 70
     0
 62
     7
  6
Continuous
370
    50
390
F
347
46
348
0
  0
LAYER
  5
C9
330
2
100
AcDbSymbolTableRecord
100
AcDbLayerTableRecord
  2
AM_4
 70
     0
 62
     3
  6
Continuous
370
    25
390
F
347
46
348
0
  0
LAYER
  5
D1
330
2
100
AcDbSymbolTableRecord
100
AcDbLayerTableRecord
  2
AM_5
 70
     0
 62
     3
  6
Continuous
370
    25
390
F
347
46
348
0
  0
LAYER
  5
1F4
330
2
100
AcDbSymbolTableRecord
100
AcDbLayerTableRecord
  2
ConnectionPoints
 70
     0
 62
     7
  6
Continuous
370
    50
390
F
347
46
348
0
  0
ENDTAB
  0
TABLE
  2
STYLE
  5
3
330
0
100
AcDbSymbolTable
 70
     1
  0
STYLE
  5
11
330
3
100
AcDbSymbolTableRecord
100
AcDbTextStyleTableRecord
  2
Standard
 70
     0
 40
0.0
 41
1.0
 50
0.0
 71
     0
 42
0.2
  3
txt
  4

  0
ENDTAB
  0
TABLE
  2
VIEW
  5
6
330
0
100
AcDbSymbolTable
 70
     0
  0
ENDTAB
  0
TABLE
  2
UCS
  5
7
330
0
100
AcDbSymbolTable
 70
     0
  0
ENDTAB
  0
TABLE
  2
APPID
  5
9
330
0
100
AcDbSymbolTable
 70
     1
  0
APPID
  5
12
330
9
100
AcDbSymbolTableRecord
100
AcDbRegAppTableRecord
  2
ACAD
 70
     0
  0
ENDTAB
  0
TABLE
  2
DIMSTYLE
  5
A
330
0
100
AcDbSymbolTable
 70
     1
100
AcDbDimStyleTable
  0
DIMSTYLE
105
27
330
A
100
AcDbSymbolTableRecord
100
AcDbDimStyleTableRecord
  2
Standard
 70
     0
178
     0
340
11
  0
ENDTAB
  0
TABLE
  2
BLOCK_RECORD
  5
1
330
0
100
AcDbSymbolTable
 70
     5
  0
BLOCK_RECORD
  5
1F
330
1
100
AcDbSymbolTableRecord
100
AcDbBlockTableRecord
  2
*Model_Space
340
22
 70
     0
280
     1
281
     0
  0
BLOCK_RECORD
  5
1B
330
1
100
AcDbSymbolTableRecord
100
AcDbBlockTableRecord
  2
*Paper_Space
340
1E
 70
     0
280
     1
281
     0
  0
BLOCK_RECORD
  5
23
330
1
100
AcDbSymbolTableRecord
100
AcDbBlockTableRecord
  2
*Paper_Space0
340
26
 70
     0
280
     1
281
     0
  0
BLOCK_RECORD
  5
8B
330
1
100
AcDbSymbolTableRecord
100
AcDbBlockTableRecord
  2
1_1_15_16CS2i_0_in_070361_4
340
0
102
{BLKREFS
331
8C
102
}
 70
     0
280
     1
281
     0
  0
BLOCK_RECORD
  5
D3
330
1
100
AcDbSymbolTableRecord
100
AcDbBlockTableRecord
  2
2_070005i_0_in_070361_4
340
0
102
{BLKREFS
331
D4
102
}
 70
     0
280
     1
281
     0
  0
BLOCK_RECORD
  5
126
330
1
100
AcDbSymbolTableRecord
100
AcDbBlockTableRecord
  2
3_405015E_Inch_0_in_070361_4
340
0
102
{BLKREFS
331
127
102
}
 70
     0
280
     1
281
     0
  0
BLOCK_RECORD
  5
165
330
1
100
AcDbSymbolTableRecord
100
AcDbBlockTableRecord
  2
4_070361H_0_in_070361_4
340
0
102
{BLKREFS
331
166
102
}
 70
     0
280
     1
281
     0
  0
ENDTAB
  0
ENDSEC
  0
SECTION
  2
BLOCKS
  0
BLOCK
  5
20
330
1F
100
AcDbEntity
  8
0
100
AcDbBlockBegin
  2
*Model_Space
 70
     0
 10
0.0
 20
0.0
 30
0.0
  3
*Model_Space
  1

  0
ENDBLK
  5
21
330
1F
100
AcDbEntity
  8
0
100
AcDbBlockEnd
  0
BLOCK
  5
1C
330
1B
100
AcDbEntity
 67
     1
  8
0
100
AcDbBlockBegin
  2
*Paper_Space
 70
     0
 10
0.0
 20
0.0
 30
0.0
  3
*Paper_Space
  1

  0
ENDBLK
  5
1D
330
1B
100
AcDbEntity
 67
     1
  8
0
100
AcDbBlockEnd
  0
BLOCK
  5
24
330
23
100
AcDbEntity
  8
0
100
AcDbBlockBegin
  2
*Paper_Space0
 70
     0
 10
0.0
 20
0.0
 30
0.0
  3
*Paper_Space0
  1

  0
ENDBLK
  5
25
330
23
100
AcDbEntity
  8
0
100
AcDbBlockEnd
  0
BLOCK
  5
8D
330
8B
100
AcDbEntity
  8
0
100
AcDbBlockBegin
  2
1_1_15_16CS2i_0_in_070361_4
 70
     2
 10
0.0
 20
0.0
 30
0.0
  3
1_1_15_16CS2i_0_in_070361_4
  1

  0
ATTDEF
  5
8F
330
8B
100
AcDbEntity
  8
AM_6
100
AcDbText
 10
6.71875
 20
-1.366
 30
0.0
 40
0.5
  1
S-2000 Collar -Inch
100
AcDbAttributeDefinition
  3

  2
NN
 70
     8
280
     0
  0
ATTDEF
  5
90
330
8B
100
AcDbEntity
  8
AM_6
100
AcDbText
 10
6.71875
 20
-1.866
 30
0.0
 40
0.5
  1
S-2000 Bearings
100
AcDbAttributeDefinition
  3

  2
NT
 70
     8
280
     0
  0
ATTDEF
  5
91
330
8B
100
AcDbEntity
  8
AM_6
100
AcDbText
 10
6.71875
 20
-2.366
 30
0.0
 40
0.5
  1
1-15/16CS2i
100
AcDbAttributeDefinition
  3

  2
NB
 70
     8
280
     0
  0
ATTDEF
  5
92
330
8B
100
AcDbEntity
  8
AM_6
100
AcDbText
 10
6.71875
 20
-2.866
 30
0.0
 40
0.5
  1
$BORE.CS2i
100
AcDbAttributeDefinition
  3

  2
NBSYN
 70
     8
280
     0
  0
ATTDEF
  5
93
330
8B
100
AcDbEntity
  8
AM_6
100
AcDbText
 10
6.71875
 20
-3.366
 30
0.0
 40
0.5
  1
1-15/16CS2i
100
AcDbAttributeDefinition
  3

  2
LINA
 70
     8
280
     0
  0
ATTDEF
  5
94
330
8B
100
AcDbEntity
  8
AM_6
100
AcDbText
 10
6.71875
 20
-3.866
 30
0.0
 40
0.5
  1
1-15/16
100
AcDbAttributeDefinition
  3

  2
BORE
 70
     8
280
     0
  0
ATTDEF
  5
95
330
8B
100
AcDbEntity
  8
AM_6
100
AcDbText
 10
6.71875
 20
-4.366
 30
0.0
 40
0.5
  1
1.937500
100
AcDbAttributeDefinition
  3

  2
BORE1
 70
     8
280
     0
  0
ATTDEF
  5
96
330
8B
100
AcDbEntity
  8
AM_6
100
AcDbText
 10
6.71875
 20
-4.866
 30
0.0
 40
0.5
  1
3-7/16
100
AcDbAttributeDefinition
  3

  2
L1
 70
     8
280
     0
  0
ATTDEF
  5
97
330
8B
100
AcDbEntity
  8
AM_6
100
AcDbText
 10
6.71875
 20
-5.366
 30
0.0
 40
0.5
  1
3.43750
100
AcDbAttributeDefinition
  3

  2
L
 70
     8
280
     0
  0
ATTDEF
  5
98
330
8B
100
AcDbEntity
  8
AM_6
100
AcDbText
 10
6.71875
 20
-5.866
 30
0.0
 40
0.5
  1
3.34375
100
AcDbAttributeDefinition
  3

  2
L2
 70
     8
280
     0
  0
ATTDEF
  5
99
330
8B
100
AcDbEntity
  8
AM_6
100
AcDbText
 10
6.71875
 20
-6.366
 30
0.0
 40
0.5
  1
3.50
100
AcDbAttributeDefinition
  3

  2
A
 70
     8
280
     0
  0
ATTDEF
  5
9A
330
8B
100
AcDbEntity
  8
AM_6
100
AcDbText
 10
6.71875
 20
-6.866
 30
0.0
 40
0.5
  1
1.62
100
AcDbAttributeDefinition
  3

  2
B
 70
     8
280
     0
  0
ATTDEF
  5
9B
330
8B
100
AcDbEntity
  8
AM_6
100
AcDbText
 10
6.71875
 20
-7.366
 30
0.0
 40
0.5
  1
2.31
100
AcDbAttributeDefinition
  3

  2
C
 70
     8
280
     0
  0
ATTDEF
  5
9C
330
8B
100
AcDbEntity
  8
AM_6
100
AcDbText
 10
6.71875
 20
-7.866
 30
0.0
 40
0.5
  1
3.50
100
AcDbAttributeDefinition
  3

  2
D
 70
     8
280
     0
  0
ATTDEF
  5
9D
330
8B
100
AcDbEntity
  8
AM_6
100
AcDbText
 10
6.71875
 20
-8.366
 30
0.0
 40
0.5
  1
0.41
100
AcDbAttributeDefinition
  3

  2
E
 70
     8
280
     0
  0
ATTDEF
  5
9E
330
8B
100
AcDbEntity
  8
AM_6
100
AcDbText
 10
6.71875
 20
-8.866
 30
0.0
 40
0.5
  1
0.317
100
AcDbAttributeDefinition
  3

  2
F
 70
     8
280
     0
  0
ATTDEF
  5
9F
330
8B
100
AcDbEntity
  8
AM_6
100
AcDbText
 10
6.71875
 20
-9.366
 30
0.0
 40
0.5
  1
3/8-16
100
AcDbAttributeDefinition
  3

  2
CS
 70
     8
280
     0
  0
ATTDEF
  5
A0
330
8B
100
AcDbEntity
  8
AM_6
100
AcDbText
 10
6.71875
 20
-9.866
 30
0.0
 40
0.5
  1
0.3750
100
AcDbAttributeDefinition
  3

  2
NDM
 70
     8
280
     0
  0
ATTDEF
  5
A1
330
8B
100
AcDbEntity
  8
AM_6
100
AcDbText
 10
6.71875
 20
-10.366
 30
0.0
 40
0.5
  1
0.3070
100
AcDbAttributeDefinition
  3

  2
KDM
 70
     8
280
     0
  0
ATTDEF
  5
A2
330
8B
100
AcDbEntity
  8
AM_6
100
AcDbText
 10
6.71875
 20
-10.866
 30
0.0
 40
0.5
  1
1
100
AcDbAttributeDefinition
  3

  2
DD
 70
     8
280
     0
  0
ATTDEF
  5
A3
330
8B
100
AcDbEntity
  8
AM_6
100
AcDbText
 10
6.71875
 20
-11.366
 30
0.0
 40
0.5
  1
baldor
100
AcDbAttributeDefinition
  3

  2
COMPANY
 70
     8
280
     0
  0
LINE
  5
A6
330
8B
100
AcDbEntity
  8
AM_9
 48
0.0079684237788812
100
AcDbLine
 10
-1.08508614371301
 20
-1.818922264532177
 30
0.0
 11
-1.077092739097836
 21
-1.828892330882735
 31
0.0
  0
LINE
  5
A7
330
8B
100
AcDbEntity
  8
AM_9
 48
0.0079684237788812
100
AcDbLine
 10
-1.076988382957427
 20
-1.536977507103196
 30
0.0
 11
-1.08508614371301
 21
-1.547077735467823
 31
0.0
  0
LWPOLYLINE
  5
A8
330
8B
100
AcDbEntity
  8
AM_9
 48
0.0079684237788812
100
AcDbPolyline
 90
       26
 70
     0
 43
0.0
 10
-1.076986127648579
 20
-1.829025305765704
 10
-1.068310697911633
 20
-1.837705300166075
 10
-1.056898951620869
 20
-1.84390701089962
 10
-1.043993695837162
 20
-1.845370400849552
 10
-1.030424441279982
 20
-1.84175712012805
 10
-1.016443080223679
 20
-1.832948809723748
 10
-1.0027288709559
 20
-1.819198885410673
 10
-0.9900599421768708
 20
-1.801043662879093
 10
-0.9788443545821656
 20
-1.778771329989636
 10
-0.9701925226609638
 20
-1.754357422602607
 10
-0.9639676996277848
 20
-1.727423654001466
 10
-0.9608388169573298
 20
-1.70132581949939
 10
-0.9603199787352963
 20
-1.674641036554752
 10
-0.9622840402198003
 20
-1.649900731524421
 10
-0.9664522292030701
 20
-1.626078803751199
 10
-0.9726773543646955
 20
-1.603635942857075
 10
-0.9805855825620217
 20
-1.583242928870743
 10
-0.9905099586016545
 20
-1.564193821315147
 10
-1.001517582085058
 20
-1.548287017588642
 10
-1.014169927029047
 20
-1.53496240582493
 10
-1.027129409055896
 20
-1.525858838042087
 10
-1.040662359945055
 20
-1.521055980551541
 10
-1.053639867319774
 20
-1.521218821511385
 10
-1.065929021952275
 20
-1.526565971943095
 10
-1.076987132281369
 20
-1.536975947194301
 10
-1.076988289465086
 20
-1.536977390491457
  0
LWPOLYLINE
  5
A9
330
8B
100
AcDbEntity
  8
AM_9
 48
0.0079684237788812
100
AcDbPolyline
 90
        3
 70
     0
 43
0.0
 10
-1.080305102984943
 20
-1.541475429424932
 10
-1.085292902453229
 20
-1.549799013814314
 10
-1.09244524671989
 20
-1.565988104473679
  0
LINE
  5
AA
330
8B
100
AcDbEntity
  8
AM_9
 48
0.0079684237788812
100
AcDbLine
 10
-1.076988289465086
 20
-1.536977390491457
 30
0.0
 11
-1.080305102984943
 21
-1.541475429424932
 31
0.0
  0
LINE
  5
AB
330
8B
100
AcDbEntity
  8
AM_9
 48
0.0079684237788812
100
AcDbLine
 10
-1.054806317942603
 20
-1.52935
 30
0.0
 11
-1.527037990378052
 21
-1.52935
 31
0.0
  0
LINE
  5
AC
330
8B
100
AcDbEntity
  8
AM_9
 48
0.0079684237788812
100
AcDbLine
 10
-1.515191975249614
 20
-1.83665
 30
0.0
 11
-1.054806317942603
 21
-1.83665
 31
0.0
  0
ELLIPSE
  5
AD
330
8B
100
AcDbEntity
  8
AM_9
 48
0.0079684237788812
100
AcDbEllipse
 10
-1.527037990378051
 20
-1.683
 30
0.0
 11
-2.294117257926673E-16
 21
0.1536499999999996
 31
0.0
210
0.0
220
0.0
230
1.0
 40
0.4226182617406972
 41
4.712388980384688
 42
5.951401395698847
  0
LINE
  5
AE
330
8B
100
AcDbEntity
  8
AM_9
 48
0.0079684237788812
100
AcDbLine
 10
-1.496758164607646
 20
-1.54707773546782
 30
0.0
 11
-1.51906210074234
 21
-1.519258335118767
 31
0.0
  0
LWPOLYLINE
  5
AF
330
8B
100
AcDbEntity
  8
AM_9
 48
0.0079684237788812
100
AcDbPolyline
 90
        3
 70
     0
 43
0.0
 10
-1.082394631227617
 20
-1.821289519841665
 10
-1.078567914501438
 20
-1.826972487909666
 10
-1.076986127648579
 20
-1.829025305765704
  0
LWPOLYLINE
  5
B0
330
8B
100
AcDbEntity
  8
AM_9
 48
0.0079684237788812
100
AcDbPolyline
 90
        8
 70
     0
 43
0.0
 10
-1.108937853387737
 20
-1.683
 10
-1.108321883288283
 20
-1.708344761521261
 10
-1.106534267177704
 20
-1.732376574143368
 10
-1.103599092198015
 20
-1.755086348440226
 10
-1.099376630988477
 20
-1.776564603107277
 10
-1.093987065729107
 20
-1.795629049811224
 10
-1.086898007715919
 20
-1.813060003272029
 10
-1.082394631227617
 20
-1.821289519841665
  0
LWPOLYLINE
  5
B1
330
8B
100
AcDbEntity
  8
AM_9
 48
0.0079684237788812
100
AcDbPolyline
 90
        7
 70
     0
 43
0.0
 10
-1.09244524671989
 20
-1.565988104473679
 10
-1.098010238052178
 20
-1.583938956474839
 10
-1.102469333734644
 20
-1.604296829177464
 10
-1.106104977632782
 20
-1.62957888862037
 10
-1.108272920976422
 20
-1.656676700585799
 10
-1.108933746851196
 20
-1.682503171450743
 10
-1.108937853387737
 20
-1.683
  0
LWPOLYLINE
  5
B2
330
8B
100
AcDbEntity
  8
AM_9
 48
0.0079684237788812
100
AcDbPolyline
 90
       38
 70
     0
 43
0.0
 10
0.1187317569481084
 20
-1.563270700757612
 10
0.0988093129354459
 20
-1.548697940871768
 10
0.0765967006573569
 20
-1.536808271443683
 10
0.0486929159834085
 20
-1.526890951590958
 10
0.0187452594991336
 20
-1.521431658753938
 10
-0.011957116338211
 20
-1.520878450119003
 10
-0.043189565494469
 20
-1.525506840884039
 10
-0.0725887540041667
 20
-1.535066241238509
 10
-0.100718437160832
 20
-1.549916029846859
 10
-0.1246034943862083
 20
-1.568472928206744
 10
-0.1454306783523134
 20
-1.591740925088392
 10
-0.1602456493408156
 20
-1.616046936794463
 10
-0.1706990524282839
 20
-1.643615795223777
 10
-0.1753491861785986
 20
-1.669241475393426
 10
-0.1754045820948186
 20
-1.696147638067584
 10
-0.171233854099251
 20
-1.720367107552379
 10
-0.16293040499878
 20
-1.744212472618771
 10
-0.1510478852404979
 20
-1.766144407544131
 10
-0.1355107603855406
 20
-1.786437085965839
 10
-0.1161573804342053
 20
-1.804865204321787
 10
-0.0936196247523193
 20
-1.820445301954541
 10
-0.0675725437073435
 20
-1.832956911315492
 10
-0.0391159540775235
 20
-1.841404421512373
 10
-0.0089374802884982
 20
-1.845288666070024
 10
0.0223277887966553
 20
-1.844176650013289
 10
0.0526458641008201
 20
-1.838004028025169
 10
0.0823154541810541
 20
-1.826504583658788
 10
0.108519560835487
 20
-1.810735662291486
 10
0.1322479975842952
 20
-1.789972829888135
 10
0.1504122376658807
 20
-1.767117593857733
 10
0.1645548205395242
 20
-1.740411069580451
 10
0.172558822546735
 20
-1.714791914499065
 10
0.1759261883248075
 20
-1.687224615848441
 10
0.1745529404657272
 20
-1.66238454202744
 10
0.1688680273061905
 20
-1.637419242035971
 10
0.1595401269512452
 20
-1.614632726441654
 10
0.1464074290736311
 20
-1.593078384257335
 10
0.1187317569481084
 20
-1.563270700757612
  0
LINE
  5
B3
330
8B
100
AcDbEntity
  8
AM_9
 48
0.0079684237788812
100
AcDbLine
 10
1.155
 20
-2.0
 30
0.0
 11
1.155
 21
-1.366
 31
0.0
  0
LINE
  5
B4
330
8B
100
AcDbEntity
  8
AM_9
 48
0.0079684237788812
100
AcDbLine
 10
-1.155
 20
-1.366
 30
0.0
 11
-1.155
 21
-2.0
 31
0.0
  0
LINE
  5
B5
330
8B
100
AcDbEntity
  8
AM_9
 48
0.0079684237788812
100
AcDbLine
 10
-1.473993545755675
 20
-1.683
 30
0.0
 11
-1.573756133159429
 21
-1.683
 31
0.0
  0
LINE
  5
B6
330
8B
100
AcDbEntity
  8
AM_9
 48
0.0079684237788812
100
AcDbLine
 10
0.1536499999999999
 20
-1.683
 30
0.0
 11
-0.15365
 21
-1.683
 31
0.0
  0
ELLIPSE
  5
B7
330
8B
100
AcDbEntity
  8
AM_9
 48
0.0079684237788812
100
AcDbEllipse
 10
-1.054806317942603
 20
-1.683
 30
0.0
 11
9.408349034449545E-18
 21
0.1536500000000001
 31
0.0
210
0.0
220
0.0
230
1.0
 40
0.4226182617406989
 41
0.0
 42
6.283185307179586
  0
LINE
  5
BA
330
8B
100
AcDbEntity
  8
AM_7
 48
0.0079684237788812
100
AcDbLine
 10
-0.1613324999999999
 20
-1.683
 30
0.0
 11
0.1613324999999998
 21
-1.683
 31
0.0
  0
LWPOLYLINE
  5
BC
330
8B
100
AcDbEntity
  8
AM_0
 48
0.0079684237788812
100
AcDbPolyline
 90
       11
 70
     0
 43
0.0
 10
-1.515227306243344
 20
-1.83664999933858
 10
-1.522537514569803
 20
-1.8356525561079
 10
-1.53280366743305
 20
-1.830566316752001
 10
-1.542263617953129
 20
-1.82135769827306
 10
-1.550706588657042
 20
-1.808211551078412
 10
-1.557977529965025
 20
-1.791562016143881
 10
-1.563963475678393
 20
-1.771752309063228
 10
-1.568573431783983
 20
-1.749434647229059
 10
-1.571738731034474
 20
-1.725203436775501
 10
-1.573444648929196
 20
-1.69977282237596
 10
-1.573756133159429
 20
-1.683
  0
ELLIPSE
  5
BD
330
8B
100
AcDbEntity
  8
AM_0
 48
0.0079684237788812
100
AcDbEllipse
 10
-1.527037990378052
 20
-1.683
 30
0.0
 11
4.529313451419529E-16
 21
0.1536499999999998
 31
0.0
210
0.0
220
0.0
230
1.0
 40
0.4226182617406966
 41
5.951401395698841
 42
7.853981633974485
  0
LWPOLYLINE
  5
BE
330
8B
100
AcDbEntity
  8
AM_0
 48
0.0079684237788812
100
AcDbPolyline
 90
        8
 70
     0
 43
0.0
 10
-1.51921265628612
 20
-1.519070551609039
 10
-1.516532067890284
 20
-1.522567395536487
 10
-1.505633376601287
 20
-1.539799729506366
 10
-1.495590981762349
 20
-1.56132216553087
 10
-1.487176846610487
 20
-1.585842373331685
 10
-1.480418322732581
 20
-1.614119991438691
 10
-1.47599019914103
 20
-1.64418570963239
 10
-1.473993545755675
 20
-1.683
  0
LINE
  5
BF
330
8B
100
AcDbEntity
  8
AM_0
 48
0.0079684237788812
100
AcDbLine
 10
1.71875
 20
-1.683
 30
0.0
 11
0.1536499999999999
 21
-1.683
 31
0.0
  0
LINE
  5
C0
330
8B
100
AcDbEntity
  8
AM_0
 48
0.0079684237788812
100
AcDbLine
 10
-0.15365
 20
-1.683
 30
0.0
 11
-1.473993545755675
 21
-1.683
 31
0.0
  0
ARC
  5
C1
330
8B
100
AcDbEntity
  8
AM_0
 48
0.0079684237788812
100
AcDbCircle
 10
-0.0000000000000001
 20
-1.683
 30
0.0
 40
0.15365
100
AcDbArc
 50
359.9999999999999
 51
180.0
  0
LWPOLYLINE
  5
C2
330
8B
100
AcDbEntity
  8
AM_0
 48
0.0079684237788812
100
AcDbPolyline
 90
       20
 70
     0
 43
0.0
 10
0.1536499999999999
 20
-1.683
 10
0.1515412694445523
 20
-1.708368605699438
 10
0.1450312307038234
 20
-1.733737211398877
 10
0.1346708348373996
 20
-1.756973567875274
 10
0.1201655527325503
 20
-1.778752610598775
 10
0.1026765235323729
 20
-1.797305966665376
 10
0.0817333511065433
 20
-1.813107577861147
 10
0.0590450685483377
 20
-1.824852043975835
 10
0.0339867986220785
 20
-1.832843985596427
 10
0.008746058121733
 20
-1.836400876683711
 10
-0.0174791193635278
 20
-1.8356525561079
 10
-0.0424028756734225
 20
-1.830683169774434
 10
-0.0668241709906001
 20
-1.82135769827306
 10
-0.0887358475497579
 20
-1.80843632591728
 10
-0.1087318313594315
 20
-1.791562016143881
 10
-0.1252034677818456
 20
-1.772064101384342
 10
-0.1385451556264256
 20
-1.749434647229059
 10
-0.1476357031138613
 20
-1.725567847797085
 10
-0.1527317744594899
 20
-1.69977282237596
 10
-0.1536499999999999
 20
-1.683
  0
LWPOLYLINE
  5
C3
330
8B
100
AcDbEntity
  8
AM_0
 48
0.0079684237788812
100
AcDbPolyline
 90
       11
 70
     0
 43
0.0
 10
-1.443885541326512
 20
-1.683
 10
-1.444991965399667
 20
-1.708732005179207
 10
-1.448228535777565
 20
-1.733737211398877
 10
-1.453490235681054
 20
-1.757288552679179
 10
-1.460530277269725
 20
-1.778752610598775
 10
-1.469115864942823
 20
-1.797541329003416
 10
-1.478879566450358
 20
-1.813107577861147
 10
-1.489492353377536
 20
-1.824980991528923
 10
-1.500556772222921
 20
-1.832843985596427
 10
-1.511673411797654
 20
-1.836406032941591
 10
-1.515227306243344
 20
-1.83664999933858
  0
LINE
  5
C4
330
8B
100
AcDbEntity
  8
AM_0
 48
0.0079684237788812
100
AcDbLine
 10
1.671875
 20
-1.894333333333333
 30
0.0
 11
1.671875
 21
-1.683
 31
0.0
  0
LINE
  5
C5
330
8B
100
AcDbEntity
  8
AM_0
 48
0.0079684237788812
100
AcDbLine
 10
-1.671875
 20
-1.683
 30
0.0
 11
-1.671875
 21
-1.894333333333333
 31
0.0
  0
LINE
  5
C6
330
8B
100
AcDbEntity
  8
AM_0
 48
0.0079684237788812
100
AcDbLine
 10
-1.566208333333334
 20
-2.0
 30
0.0
 11
1.566208333333334
 21
-2.0
 31
0.0
  0
ARC
  5
C7
330
8B
100
AcDbEntity
  8
AM_0
 48
0.0079684237788812
100
AcDbCircle
 10
1.566208333333333
 20
-1.894333333333333
 30
0.0
 40
0.105666666666667
100
AcDbArc
 50
270.0000000000003
 51
359.9999999999998
  0
ARC
  5
C8
330
8B
100
AcDbEntity
  8
AM_0
 48
0.0079684237788812
100
AcDbCircle
 10
-1.566208333333333
 20
-1.894333333333333
 30
0.0
 40
0.105666666666667
100
AcDbArc
 50
180.0000000000004
 51
269.9999999999997
  0
LINE
  5
CA
330
8B
100
AcDbEntity
  8
AM_4
 48
0.0079684237788812
100
AcDbLine
 10
-1.671875
 20
-1.894333333333333
 30
0.0
 11
1.671875
 21
-1.894333333333333
 31
0.0
  0
LWPOLYLINE
  5
CB
330
8B
100
AcDbEntity
  8
AM_0
 48
0.0079684237788812
100
AcDbPolyline
 90
       14
 70
     0
 43
0.0
 10
-1.624643131723091
 20
-1.683
 10
-1.624177667589295
 20
-1.659456540255968
 10
-1.622784137666241
 20
-1.636255059594891
 10
-1.619264581141088
 20
-1.605055468457822
 10
-1.613920918056211
 20
-1.576110789565219
 10
-1.606868818490317
 20
-1.550768936387202
 10
-1.598094932898584
 20
-1.529327849004654
 10
-1.588127672546422
 20
-1.513224687719382
 10
-1.576831333879137
 20
-1.502030813820807
 10
-1.565107099766367
 20
-1.496449539195479
 10
-1.552721230477548
 20
-1.495907654116658
 10
-1.540456652136266
 20
-1.500273576111536
 10
-1.528288776018025
 20
-1.509211959468603
 10
-1.51921265628612
 20
-1.519070551609039
  0
LWPOLYLINE
  5
CC
330
8B
100
AcDbEntity
  8
AM_0
 48
0.0079684237788812
100
AcDbPolyline
 90
       20
 70
     0
 43
0.0
 10
-0.1782336444086846
 20
-1.683
 10
-0.1768404770250377
 20
-1.659627529797446
 10
-0.172594104448499
 20
-1.636255059594891
 10
-0.1622643682690862
 20
-1.605497135914977
 10
-0.1463833419380953
 20
-1.576110789565219
 10
-0.1266290430121705
 20
-1.551123123540388
 10
-0.102045639027391
 20
-1.529327849004654
 10
-0.0759816788828215
 20
-1.513424811512153
 10
-0.0465835641519921
 20
-1.502030813820807
 10
-0.0181428954258229
 20
-1.496476048069603
 10
0.011733938982014
 20
-1.495907654116658
 10
0.0394569760159936
 20
-1.500161980617995
 10
0.0668434714206103
 20
-1.509211959468603
 10
0.0918356627371702
 20
-1.522351993982014
 10
0.1149820182676183
 20
-1.539799729506366
 10
0.1352928976098357
 20
-1.561013923217217
 10
0.1523940596023231
 20
-1.585842373331685
 10
0.1655979895872318
 20
-1.613725531611538
 10
0.1743647230742377
 20
-1.64418570963239
 10
0.1782336444086849
 20
-1.683
  0
LINE
  5
CD
330
8B
100
AcDbEntity
  8
AM_0
 48
0.0079684237788812
100
AcDbLine
 10
1.71875
 20
-1.683
 30
0.0
 11
1.71875
 21
-1.366
 31
0.0
  0
LINE
  5
CE
330
8B
100
AcDbEntity
  8
AM_0
 48
0.0079684237788812
100
AcDbLine
 10
-1.71875
 20
-1.366
 30
0.0
 11
-1.71875
 21
-1.683
 31
0.0
  0
LINE
  5
CF
330
8B
100
AcDbEntity
  8
AM_0
 48
0.0079684237788812
100
AcDbLine
 10
-1.71875
 20
-1.683
 30
0.0
 11
-1.573756133159429
 21
-1.683
 31
0.0
  0
LINE
  5
D0
330
8B
100
AcDbEntity
  8
AM_0
 48
0.0079684237788812
100
AcDbLine
 10
-1.71875
 20
-1.366
 30
0.0
 11
1.71875
 21
-1.366
 31
0.0
  0
ARC
  5
D2
330
8B
100
AcDbEntity
  8
AM_5
 48
0.0079684237788812
100
AcDbCircle
 10
-0.0000000000000001
 20
-1.683
 30
0.0
 40
0.1874999999999998
100
AcDbArc
 50
75.0
 51
14.99999999999988
  0
ENDBLK
  5
8E
330
8B
100
AcDbEntity
  8
0
100
AcDbBlockEnd
  0
BLOCK
  5
D5
330
D3
100
AcDbEntity
  8
0
100
AcDbBlockBegin
  2
2_070005i_0_in_070361_4
 70
     2
 10
0.0
 20
0.0
 30
0.0
  3
2_070005i_0_in_070361_4
  1

  0
ATTDEF
  5
D7
330
D3
100
AcDbEntity
  8
AM_6
100
AcDbText
 10
6.77165
 20
0.8437499999999999
 30
0.0
 40
0.5
  1
S-2000 Insert -Inch
100
AcDbAttributeDefinition
  3

  2
NN
 70
     8
280
     0
  0
ATTDEF
  5
D8
330
D3
100
AcDbEntity
  8
AM_6
100
AcDbText
 10
6.77165
 20
0.3437499999999999
 30
0.0
 40
0.5
  1
S-2000 Bearings
100
AcDbAttributeDefinition
  3

  2
NT
 70
     8
280
     0
  0
ATTDEF
  5
D9
330
D3
100
AcDbEntity
  8
AM_6
100
AcDbText
 10
6.77165
 20
-0.1562500000000001
 30
0.0
 40
0.5
  1
070005i
100
AcDbAttributeDefinition
  3

  2
NB
 70
     8
280
     0
  0
ATTDEF
  5
DA
330
D3
100
AcDbEntity
  8
AM_6
100
AcDbText
 10
6.77165
 20
-0.6562500000000001
 30
0.0
 40
0.5
  1
$PN.i
100
AcDbAttributeDefinition
  3

  2
NBSYN
 70
     8
280
     0
  0
ATTDEF
  5
DB
330
D3
100
AcDbEntity
  8
AM_6
100
AcDbText
 10
6.77165
 20
-1.15625
 30
0.0
 40
0.5
  1
070005i
100
AcDbAttributeDefinition
  3

  2
LINA
 70
     8
280
     0
  0
ATTDEF
  5
DC
330
D3
100
AcDbEntity
  8
AM_6
100
AcDbText
 10
6.77165
 20
-1.65625
 30
0.0
 40
0.5
  1
1-15/16
100
AcDbAttributeDefinition
  3

  2
SS
 70
     8
280
     0
  0
ATTDEF
  5
DD
330
D3
100
AcDbEntity
  8
AM_6
100
AcDbText
 10
6.77165
 20
-2.15625
 30
0.0
 40
0.5
  1
2.31
100
AcDbAttributeDefinition
  3

  2
CC
 70
     8
280
     0
  0
ATTDEF
  5
DE
330
D3
100
AcDbEntity
  8
AM_6
100
AcDbText
 10
6.77165
 20
-2.65625
 30
0.0
 40
0.5
  1
1.937500
100
AcDbAttributeDefinition
  3

  2
SS1
 70
     8
280
     0
  0
ATTDEF
  5
DF
330
D3
100
AcDbEntity
  8
AM_6
100
AcDbText
 10
6.77165
 20
-3.15625
 30
0.0
 40
0.5
  1
070005
100
AcDbAttributeDefinition
  3

  2
PN
 70
     8
280
     0
  0
ATTDEF
  5
E0
330
D3
100
AcDbEntity
  8
AM_6
100
AcDbText
 10
6.77165
 20
-3.65625
 30
0.0
 40
0.5
  1
INS-S2-115R
100
AcDbAttributeDefinition
  3

  2
DESCRIPTION
 70
     8
280
     0
  0
ATTDEF
  5
E1
330
D3
100
AcDbEntity
  8
AM_6
100
AcDbText
 10
6.77165
 20
-4.15625
 30
0.0
 40
0.5
  1
Contact Seal
100
AcDbAttributeDefinition
  3

  2
ST
 70
     8
280
     0
  0
ATTDEF
  5
E2
330
D3
100
AcDbEntity
  8
AM_6
100
AcDbText
 10
6.77165
 20
-4.65625
 30
0.0
 40
0.5
  1
1
100
AcDbAttributeDefinition
  3

  2
ST1
 70
     8
280
     0
  0
ATTDEF
  5
E3
330
D3
100
AcDbEntity
  8
AM_6
100
AcDbText
 10
6.77165
 20
-5.15625
 30
0.0
 40
0.5
  1
3.5433
100
AcDbAttributeDefinition
  3

  2
A
 70
     8
280
     0
  0
ATTDEF
  5
E4
330
D3
100
AcDbEntity
  8
AM_6
100
AcDbText
 10
6.77165
 20
-5.65625
 30
0.0
 40
0.5
  1
61/64
100
AcDbAttributeDefinition
  3

  2
B
 70
     8
280
     0
  0
ATTDEF
  5
E5
330
D3
100
AcDbEntity
  8
AM_6
100
AcDbText
 10
6.77165
 20
-6.15625
 30
0.0
 40
0.5
  1
2-27/32
100
AcDbAttributeDefinition
  3

  2
C
 70
     8
280
     0
  0
ATTDEF
  5
E6
330
D3
100
AcDbEntity
  8
AM_6
100
AcDbText
 10
6.77165
 20
-6.65625
 30
0.0
 40
0.5
  1
0.977
100
AcDbAttributeDefinition
  3

  2
D
 70
     8
280
     0
  0
ATTDEF
  5
E7
330
D3
100
AcDbEntity
  8
AM_6
100
AcDbText
 10
6.77165
 20
-7.15625
 30
0.0
 40
0.5
  1
3-11/32
100
AcDbAttributeDefinition
  3

  2
E
 70
     8
280
     0
  0
ATTDEF
  5
E8
330
D3
100
AcDbEntity
  8
AM_6
100
AcDbText
 10
6.77165
 20
-7.65625
 30
0.0
 40
0.5
  1
0.53125
100
AcDbAttributeDefinition
  3

  2
F
 70
     8
280
     0
  0
ATTDEF
  5
E9
330
D3
100
AcDbEntity
  8
AM_6
100
AcDbText
 10
6.77165
 20
-8.15625
 30
0.0
 40
0.5
  1
1
100
AcDbAttributeDefinition
  3

  2
DD
 70
     8
280
     0
  0
ATTDEF
  5
EA
330
D3
100
AcDbEntity
  8
AM_6
100
AcDbText
 10
6.77165
 20
-8.65625
 30
0.0
 40
0.5
  1
baldor
100
AcDbAttributeDefinition
  3

  2
COMPANY
 70
     8
280
     0
  0
LINE
  5
EB
330
D3
100
AcDbEntity
  8
AM_9
 48
0.010738020242453
100
AcDbLine
 10
-1.046674873701558
 20
-1.888
 30
0.0
 11
-0.8779175601227214
 21
-1.888
 31
0.0
  0
LINE
  5
EC
330
D3
100
AcDbEntity
  8
AM_9
 48
0.010738020242453
100
AcDbLine
 10
-0.8778514735323311
 20
-1.478
 30
0.0
 11
-1.046750214531095
 21
-1.478
 31
0.0
  0
LWPOLYLINE
  5
ED
330
D3
100
AcDbEntity
  8
AM_9
 48
0.010738020242453
100
AcDbPolyline
 90
       11
 70
     0
 43
0.0
 10
-0.9445573041682472
 20
-1.701114269298485
 10
-0.9437410726132899
 20
-1.725086076776439
 10
-0.9414734411566628
 20
-1.757410510139437
 10
-0.9378205480530653
 20
-1.787684066716186
 10
-0.9325764461113791
 20
-1.815448712124414
 10
-0.9256845947187934
 20
-1.839558288531906
 10
-0.9168664770957727
 20
-1.859623180344152
 10
-0.9062321312985988
 20
-1.874678285948385
 10
-0.8939062566183434
 20
-1.884153715279822
 10
-0.8800734581626657
 20
-1.887939807045839
 10
-0.8779945766925271
 20
-1.887999998916321
  0
LINE
  5
EE
330
D3
100
AcDbEntity
  8
AM_9
 48
0.010738020242453
100
AcDbLine
 10
-0.94473916165808
 20
-1.683
 30
0.0
 11
-0.9445573041682472
 21
-1.701114269298485
 31
0.0
  0
LINE
  5
EF
330
D3
100
AcDbEntity
  8
AM_9
 48
0.010738020242453
100
AcDbLine
 10
-0.9444231961692026
 20
-1.659155979268751
 30
0.0
 11
-0.94473916165808
 21
-1.683
 31
0.0
  0
LWPOLYLINE
  5
F0
330
D3
100
AcDbEntity
  8
AM_9
 48
0.010738020242453
100
AcDbPolyline
 90
       11
 70
     0
 43
0.0
 10
-0.8779796123913732
 20
-1.478000000500865
 10
-0.8868767004777873
 20
-1.479136064059495
 10
-0.8997201724024141
 20
-1.48547134857059
 10
-0.9110195975109275
 20
-1.497121992397568
 10
-0.9206648949120948
 20
-1.51394696560148
 10
-0.928574605333809
 20
-1.535347258118033
 10
-0.9348812485041269
 20
-1.561341342376678
 10
-0.9395409448354249
 20
-1.590798434943482
 10
-0.9426674753584771
 20
-1.623046348718526
 10
-0.9443647704355639
 20
-1.657060385800203
 10
-0.9444231961692026
 20
-1.659155979268751
  0
LWPOLYLINE
  5
F1
330
D3
100
AcDbEntity
  8
AM_9
 48
0.010738020242453
100
AcDbPolyline
 90
       11
 70
     0
 43
0.0
 10
-0.8779945766925271
 20
-1.887999998916321
 10
-0.8653507395256148
 20
-1.885924362693867
 10
-0.8499585933886452
 20
-1.878383226411992
 10
-0.8344695289798706
 20
-1.865517528997691
 10
-0.8194448646026806
 20
-1.847757328877598
 10
-0.8052760171373481
 20
-1.825092169532938
 10
-0.792874511733626
 20
-1.798469681517259
 10
-0.7827780059644687
 20
-1.768172214352253
 10
-0.7756541356474436
 20
-1.73538298668423
 10
-0.7725283344930765
 20
-1.709419867213707
 10
-0.7714656743443933
 20
-1.683
  0
LWPOLYLINE
  5
F2
330
D3
100
AcDbEntity
  8
AM_9
 48
0.010738020242453
100
AcDbPolyline
 90
       10
 70
     0
 43
0.0
 10
-1.114525475821086
 20
-1.624026901336158
 10
-1.112920375537656
 20
-1.606960575943977
 10
-1.108721238931604
 20
-1.576592745364521
 10
-1.102835348992787
 20
-1.548918559939226
 10
-1.095259849504384
 20
-1.524969404785717
 10
-1.085824965560984
 20
-1.505245335435469
 10
-1.074680025544875
 20
-1.490555624917102
 10
-1.061992181102972
 20
-1.481441907098632
 10
-1.047988665063692
 20
-1.478019874684364
 10
-1.046791992629226
 20
-1.478000000576729
  0
LWPOLYLINE
  5
F3
330
D3
100
AcDbEntity
  8
AM_9
 48
0.010738020242453
100
AcDbPolyline
 90
       10
 70
     0
 43
0.0
 10
-1.04677866823709
 20
-1.887999999363772
 10
-1.055972038225604
 20
-1.886794998115517
 10
-1.069060019171033
 20
-1.880298212665202
 10
-1.080732157964696
 20
-1.868420443226721
 10
-1.090831317735965
 20
-1.85133651427101
 10
-1.099244570893189
 20
-1.829639899355452
 10
-1.106023897095501
 20
-1.803481352391879
 10
-1.111108223622637
 20
-1.773900303144283
 10
-1.114549740888796
 20
-1.74162500327932
 10
-1.11478957295809
 20
-1.738558957254277
  0
LWPOLYLINE
  5
F4
330
D3
100
AcDbEntity
  8
AM_9
 48
0.010738020242453
100
AcDbPolyline
 90
       11
 70
     0
 43
0.0
 10
-1.046791992629226
 20
-1.478000000576729
 10
-1.033215459292243
 20
-1.480407761293978
 10
-1.017960831214176
 20
-1.488363953789169
 10
-1.002763610741049
 20
-1.501702571434621
 10
-0.9881791309465713
 20
-1.519976360126783
 10
-0.9746424501945968
 20
-1.543066196985514
 10
-0.9629300341404768
 20
-1.570073889191244
 10
-0.9535635119841859
 20
-1.600560959345696
 10
-0.94707801273384
 20
-1.633435264890733
 10
-0.9444269665313502
 20
-1.658026989680055
 10
-0.943528677941797
 20
-1.683
  0
LWPOLYLINE
  5
F5
330
D3
100
AcDbEntity
  8
AM_9
 48
0.010738020242453
100
AcDbPolyline
 90
       11
 70
     0
 43
0.0
 10
-0.7714656743443933
 20
-1.683
 10
-0.7732331783909899
 20
-1.649020758055889
 10
-0.7783671673080483
 20
-1.616010007254815
 10
-0.7866240359627031
 20
-1.584939613290677
 10
-0.7975133466652294
 20
-1.556586626444858
 10
-0.8107193544594907
 20
-1.531411888553895
 10
-0.8254454507407001
 20
-1.510465047962213
 10
-0.841198597102462
 20
-1.494254046756649
 10
-0.8571651673460324
 20
-1.48342199397038
 10
-0.8724794163853448
 20
-1.478423780560767
 10
-0.8779796123913732
 20
-1.478000000500865
  0
LINE
  5
F6
330
D3
100
AcDbEntity
  8
AM_9
 48
0.010738020242453
100
AcDbLine
 10
-0.96875
 20
0.8437499999999999
 30
0.0
 11
-0.96875
 21
-2.0
 31
0.0
  0
LINE
  5
F7
330
D3
100
AcDbEntity
  8
AM_9
 48
0.010738020242453
100
AcDbLine
 10
0.96875
 20
-2.0
 30
0.0
 11
0.96875
 21
0.8437499999999999
 31
0.0
  0
LWPOLYLINE
  5
F8
330
D3
100
AcDbEntity
  8
AM_9
 48
0.010738020242453
100
AcDbPolyline
 90
       21
 70
     0
 43
0.0
 10
-0.205
 20
-1.683
 10
-0.2047980003563593
 20
-1.673901700706359
 10
-0.2003180306965243
 20
-1.639437555419073
 10
-0.1905491950960181
 20
-1.60739573921888
 10
-0.1752212777060493
 20
-1.576592745364521
 10
-0.1553738176201076
 20
-1.549269013320945
 10
-0.1305807450438981
 20
-1.524969404785717
 10
-0.1025237405266753
 20
-1.505478500940255
 10
-0.070641082232317
 20
-1.490555624917102
 10
-0.0377943961290884
 20
-1.481514060983806
 10
-0.0028545096927902
 20
-1.478019874684364
 10
0.0307098913801233
 20
-1.480313289603336
 10
0.0643568917476233
 20
-1.488363953789169
 10
0.0952363020739342
 20
-1.501464750620486
 10
0.1242911615622268
 20
-1.519976360126783
 10
0.1494672277504473
 20
-1.542698368403657
 10
0.1710926459483536
 20
-1.570073889191244
 10
0.1874844207229778
 20
-1.600086840693594
 10
0.1989179153157107
 20
-1.633435264890733
 10
0.2034495371294953
 20
-1.657834828794659
 10
0.205
 20
-1.683
  0
LWPOLYLINE
  5
F9
330
D3
100
AcDbEntity
  8
AM_9
 48
0.010738020242453
100
AcDbPolyline
 90
       20
 70
     0
 43
0.0
 10
0.205
 20
-1.683
 10
0.2022237042195513
 20
-1.716624001126033
 10
0.1936561545448693
 20
-1.750248002252064
 10
0.1800385435420809
 20
-1.78103633428095
 10
0.1609971172265528
 20
-1.809905193923415
 10
0.1378522813137548
 20
-1.834729194740476
 10
0.1101005671944506
 20
-1.855924449120014
 10
0.0798223260686158
 20
-1.871821069430812
 10
0.0462892384124773
 20
-1.882705549264893
 10
0.0127289676164412
 20
-1.887604431485292
 10
-0.0221945656208092
 20
-1.886794998115517
 10
-0.0551308921996137
 20
-1.880447675917633
 10
-0.0874314544863927
 20
-1.868420443226721
 10
-0.11658182869536
 20
-1.851622884621411
 10
-0.1432541095990721
 20
-1.829639899355452
 10
-0.1655592266691508
 20
-1.803893103462161
 10
-0.1837447547231687
 20
-1.773900303144283
 10
-0.1962895823481186
 20
-1.742121906782522
 10
-0.2035131518736895
 20
-1.707645425831918
 10
-0.205
 20
-1.683
  0
LWPOLYLINE
  5
FA
330
D3
100
AcDbEntity
  8
AM_9
 48
0.010738020242453
100
AcDbPolyline
 90
       11
 70
     0
 43
0.0
 10
-0.943528677941797
 20
-1.683
 10
-0.9452153431479755
 20
-1.71710843538501
 10
-0.9501241259187788
 20
-1.750248002252064
 10
-0.9580427208321585
 20
-1.781447523479572
 10
-0.9685257803314875
 20
-1.809905193923415
 10
-0.9812407056063133
 20
-1.835041955311809
 10
-0.9954881190678889
 20
-1.855924449120014
 10
-1.010774897566598
 20
-1.871999307750009
 10
-1.02638181209548
 20
-1.882705549264893
 10
-1.041554544877543
 20
-1.887613652474625
 10
-1.04677866823709
 20
-1.887999999363772
  0
LINE
  5
FB
330
D3
100
AcDbEntity
  8
AM_9
 48
0.010738020242453
100
AcDbLine
 10
-1.155
 20
-1.366
 30
0.0
 11
-1.155
 21
-2.0
 31
0.0
  0
LINE
  5
FC
330
D3
100
AcDbEntity
  8
AM_9
 48
0.010738020242453
100
AcDbLine
 10
-1.155
 20
-0.8347500000000002
 30
0.0
 11
-1.155
 21
-1.275
 31
0.0
  0
LINE
  5
FD
330
D3
100
AcDbEntity
  8
AM_9
 48
0.010738020242453
100
AcDbLine
 10
1.155
 20
-1.275
 30
0.0
 11
1.155
 21
-0.8347500000000002
 31
0.0
  0
LINE
  5
FE
330
D3
100
AcDbEntity
  8
AM_9
 48
0.010738020242453
100
AcDbLine
 10
1.155
 20
-2.0
 30
0.0
 11
1.155
 21
-1.366
 31
0.0
  0
LINE
  5
FF
330
D3
100
AcDbEntity
  8
AM_9
 48
0.010738020242453
100
AcDbLine
 10
1.155
 20
0.8437499999999999
 30
0.0
 11
-1.155
 21
0.8437499999999999
 31
0.0
  0
LINE
  5
100
330
D3
100
AcDbEntity
  8
AM_9
 48
0.010738020242453
100
AcDbLine
 10
-1.155
 20
0.8437499999999999
 30
0.0
 11
-1.155
 21
0.5682500000000006
 31
0.0
  0
LINE
  5
101
330
D3
100
AcDbEntity
  8
AM_9
 48
0.010738020242453
100
AcDbLine
 10
1.155
 20
0.5682500000000006
 30
0.0
 11
1.155
 21
0.8437499999999999
 31
0.0
  0
LINE
  5
102
330
D3
100
AcDbEntity
  8
AM_9
 48
0.010738020242453
100
AcDbLine
 10
-1.41732
 20
-0.6098124999999998
 30
0.0
 11
-1.41732
 21
-0.7394375000000001
 31
0.0
  0
LINE
  5
103
330
D3
100
AcDbEntity
  8
AM_9
 48
0.010738020242453
100
AcDbLine
 10
1.41732
 20
-0.7394375000000001
 30
0.0
 11
1.41732
 21
-0.6098124999999998
 31
0.0
  0
LINE
  5
104
330
D3
100
AcDbEntity
  8
AM_9
 48
0.010738020242453
100
AcDbLine
 10
-1.41732
 20
0.4729375000000001
 30
0.0
 11
-1.41732
 21
0.3433125
 31
0.0
  0
LINE
  5
105
330
D3
100
AcDbEntity
  8
AM_9
 48
0.010738020242453
100
AcDbLine
 10
1.41732
 20
0.3433125
 30
0.0
 11
1.41732
 21
0.4729375000000001
 31
0.0
  0
LINE
  5
106
330
D3
100
AcDbEntity
  8
AM_9
 48
0.010738020242453
100
AcDbLine
 10
1.41732
 20
-0.7394375000000001
 30
0.0
 11
-1.41732
 21
-0.7394375000000001
 31
0.0
  0
LINE
  5
107
330
D3
100
AcDbEntity
  8
AM_9
 48
0.010738020242453
100
AcDbLine
 10
1.3220075
 20
-0.8347500000000002
 30
0.0
 11
-1.322007499981367
 21
-0.8347500000000002
 31
0.0
  0
ARC
  5
108
330
D3
100
AcDbEntity
  8
AM_9
 48
0.010738020242453
100
AcDbCircle
 10
-1.3220075
 20
-0.7394375000000006
 30
0.0
 40
0.0953124999999995
100
AcDbArc
 50
179.9999999999997
 51
270.0000000000002
  0
ARC
  5
109
330
D3
100
AcDbEntity
  8
AM_9
 48
0.010738020242453
100
AcDbCircle
 10
1.3220075
 20
-0.7394375000000003
 30
0.0
 40
0.0953124999999999
100
AcDbArc
 50
270.0
 51
0.0000000000001335
  0
LINE
  5
10A
330
D3
100
AcDbEntity
  8
AM_9
 48
0.010738020242453
100
AcDbLine
 10
1.3220075
 20
0.5682500000000006
 30
0.0
 11
-1.322007499981367
 21
0.5682500000000006
 31
0.0
  0
LINE
  5
10B
330
D3
100
AcDbEntity
  8
AM_9
 48
0.010738020242453
100
AcDbLine
 10
1.41732
 20
0.4729375000000001
 30
0.0
 11
-1.41732
 21
0.4729375000000001
 31
0.0
  0
ARC
  5
10C
330
D3
100
AcDbEntity
  8
AM_9
 48
0.010738020242453
100
AcDbCircle
 10
-1.3220075
 20
0.4729375000000009
 30
0.0
 40
0.0953124999999995
100
AcDbArc
 50
89.99999999999973
 51
180.0000000000004
  0
ARC
  5
10D
330
D3
100
AcDbEntity
  8
AM_9
 48
0.010738020242453
100
AcDbCircle
 10
1.3220075
 20
0.4729375000000009
 30
0.0
 40
0.0953124999999995
100
AcDbArc
 50
359.9999999999996
 51
90.00000000000028
  0
LINE
  5
10E
330
D3
100
AcDbEntity
  8
AM_9
 48
0.010738020242453
100
AcDbLine
 10
-1.700784
 20
-0.0855937499999991
 30
0.0
 11
-1.700784
 21
-0.1809062500000004
 31
0.0
  0
LINE
  5
10F
330
D3
100
AcDbEntity
  8
AM_9
 48
0.010738020242453
100
AcDbLine
 10
1.700784
 20
-0.1809062500000004
 30
0.0
 11
1.700784
 21
-0.0855937499999991
 31
0.0
  0
LINE
  5
110
330
D3
100
AcDbEntity
  8
AM_9
 48
0.010738020242453
100
AcDbLine
 10
1.6763375
 20
-0.6098124999999998
 30
0.0
 11
-1.676337499993743
 21
-0.6098124999999998
 31
0.0
  0
ARC
  5
111
330
D3
100
AcDbEntity
  8
AM_9
 48
0.010738020242453
100
AcDbCircle
 10
-1.6763375
 20
-0.5145000000000005
 30
0.0
 40
0.0953124999999995
100
AcDbArc
 50
179.9999999999996
 51
270.0000000000001
  0
ARC
  5
112
330
D3
100
AcDbEntity
  8
AM_9
 48
0.010738020242453
100
AcDbCircle
 10
1.6763375
 20
-0.5145000000000005
 30
0.0
 40
0.0953124999999994
100
AcDbArc
 50
269.9999999999999
 51
0.0000000000004004
  0
LINE
  5
113
330
D3
100
AcDbEntity
  8
AM_9
 48
0.010738020242453
100
AcDbLine
 10
1.700784
 20
-0.1809062500000004
 30
0.0
 11
-1.700784
 21
-0.1809062500000004
 31
0.0
  0
LINE
  5
114
330
D3
100
AcDbEntity
  8
AM_9
 48
0.010738020242453
100
AcDbLine
 10
-1.700784
 20
-0.1809062500000004
 30
0.0
 11
-1.77165
 21
-0.2218207541763925
 31
0.0
  0
LINE
  5
115
330
D3
100
AcDbEntity
  8
AM_9
 48
0.010738020242453
100
AcDbLine
 10
1.77165
 20
-0.2218207541763925
 30
0.0
 11
1.700784
 21
-0.1809062500000004
 31
0.0
  0
LINE
  5
116
330
D3
100
AcDbEntity
  8
AM_9
 48
0.010738020242453
100
AcDbLine
 10
1.700784
 20
-0.0855937499999991
 30
0.0
 11
-1.700784
 21
-0.0855937499999991
 31
0.0
  0
LINE
  5
117
330
D3
100
AcDbEntity
  8
AM_9
 48
0.010738020242453
100
AcDbLine
 10
1.700784
 20
-0.0855937499999991
 30
0.0
 11
1.77165
 21
-0.0446792458236072
 31
0.0
  0
LINE
  5
118
330
D3
100
AcDbEntity
  8
AM_9
 48
0.010738020242453
100
AcDbLine
 10
-1.77165
 20
-0.0446792458236072
 30
0.0
 11
-1.700784
 21
-0.0855937499999991
 31
0.0
  0
LINE
  5
119
330
D3
100
AcDbEntity
  8
AM_9
 48
0.010738020242453
100
AcDbLine
 10
1.77165
 20
-0.0446792458236072
 30
0.0
 11
-1.77165
 21
-0.0446792458236072
 31
0.0
  0
LINE
  5
11A
330
D3
100
AcDbEntity
  8
AM_9
 48
0.010738020242453
100
AcDbLine
 10
-1.77165
 20
0.2480000000000001
 30
0.0
 11
-1.77165
 21
-0.0446792458236072
 31
0.0
  0
LINE
  5
11B
330
D3
100
AcDbEntity
  8
AM_9
 48
0.010738020242453
100
AcDbLine
 10
1.77165
 20
-0.0446792458236072
 30
0.0
 11
1.77165
 21
0.2480000000000001
 31
0.0
  0
LINE
  5
11C
330
D3
100
AcDbEntity
  8
AM_9
 48
0.010738020242453
100
AcDbLine
 10
1.6763375
 20
0.3433125
 30
0.0
 11
-1.676337499993743
 21
0.3433125
 31
0.0
  0
LINE
  5
11D
330
D3
100
AcDbEntity
  8
AM_9
 48
0.010738020242453
100
AcDbLine
 10
1.77165
 20
0.2480000000000001
 30
0.0
 11
-1.77165
 21
0.2480000000000001
 31
0.0
  0
ARC
  5
11E
330
D3
100
AcDbEntity
  8
AM_9
 48
0.010738020242453
100
AcDbCircle
 10
-1.676337499999999
 20
0.2479999999999996
 30
0.0
 40
0.0953125000000005
100
AcDbArc
 50
90.0000000000004
 51
179.9999999999997
  0
ARC
  5
11F
330
D3
100
AcDbEntity
  8
AM_9
 48
0.010738020242453
100
AcDbCircle
 10
1.676337499999999
 20
0.2479999999999996
 30
0.0
 40
0.0953125000000006
100
AcDbArc
 50
0.0000000000003003
 51
89.99999999999962
  0
LINE
  5
120
330
D3
100
AcDbEntity
  8
AM_9
 48
0.010738020242453
100
AcDbLine
 10
1.77165
 20
-0.2218207541763925
 30
0.0
 11
-1.77165
 21
-0.2218207541763925
 31
0.0
  0
LINE
  5
121
330
D3
100
AcDbEntity
  8
AM_9
 48
0.010738020242453
100
AcDbLine
 10
1.77165
 20
-0.5144999999999998
 30
0.0
 11
-1.77165
 21
-0.5144999999999998
 31
0.0
  0
LINE
  5
122
330
D3
100
AcDbEntity
  8
AM_9
 48
0.010738020242453
100
AcDbLine
 10
-1.77165
 20
-0.2218207541763925
 30
0.0
 11
-1.77165
 21
-0.5144999999999998
 31
0.0
  0
LINE
  5
123
330
D3
100
AcDbEntity
  8
AM_9
 48
0.010738020242453
100
AcDbLine
 10
1.77165
 20
-0.5144999999999998
 30
0.0
 11
1.77165
 21
-0.2218207541763925
 31
0.0
  0
LINE
  5
124
330
D3
100
AcDbEntity
  8
AM_0
 48
0.010738020242453
100
AcDbLine
 10
-1.155
 20
-1.275
 30
0.0
 11
-1.155
 21
-1.366
 31
0.0
  0
LINE
  5
125
330
D3
100
AcDbEntity
  8
AM_0
 48
0.010738020242453
100
AcDbLine
 10
1.155
 20
-1.366
 30
0.0
 11
1.155
 21
-1.275
 31
0.0
  0
ENDBLK
  5
D6
330
D3
100
AcDbEntity
  8
0
100
AcDbBlockEnd
  0
BLOCK
  5
128
330
126
100
AcDbEntity
  8
0
100
AcDbBlockBegin
  2
3_405015E_Inch_0_in_070361_4
 70
     2
 10
0.0
 20
0.0
 30
0.0
  3
3_405015E_Inch_0_in_070361_4
  1

  0
ATTDEF
  5
12A
330
126
100
AcDbEntity
  8
AM_6
100
AcDbText
 10
6.482671671481428
 20
0.2187500000000014
 30
0.0
 40
0.5
  1
405015E -Inch
100
AcDbAttributeDefinition
  3

  2
NN
 70
     8
280
     0
  0
ATTDEF
  5
12B
330
126
100
AcDbEntity
  8
AM_6
100
AcDbText
 10
6.482671671481428
 20
-0.2812499999999987
 30
0.0
 40
0.5
  1
Grease Fitting
100
AcDbAttributeDefinition
  3

  2
NT
 70
     8
280
     0
  0
ATTDEF
  5
12C
330
126
100
AcDbEntity
  8
AM_6
100
AcDbText
 10
6.482671671481428
 20
-0.7812499999999987
 30
0.0
 40
0.5
  1
405015E-Inch
100
AcDbAttributeDefinition
  3

  2
NB
 70
     8
280
     0
  0
ATTDEF
  5
12D
330
126
100
AcDbEntity
  8
AM_6
100
AcDbText
 10
6.482671671481428
 20
-1.281249999999999
 30
0.0
 40
0.5
  1
$MN.-Inch
100
AcDbAttributeDefinition
  3

  2
NBSYN
 70
     8
280
     0
  0
ATTDEF
  5
12E
330
126
100
AcDbEntity
  8
AM_6
100
AcDbText
 10
6.482671671481428
 20
-1.781249999999999
 30
0.0
 40
0.5
  1
405015E
100
AcDbAttributeDefinition
  3

  2
LINA
 70
     8
280
     0
  0
ATTDEF
  5
12F
330
126
100
AcDbEntity
  8
AM_6
100
AcDbText
 10
6.482671671481428
 20
-2.281249999999999
 30
0.0
 40
0.5
  1
405015E
100
AcDbAttributeDefinition
  3

  2
MN
 70
     8
280
     0
  0
ATTDEF
  5
130
330
126
100
AcDbEntity
  8
AM_6
100
AcDbText
 10
6.482671671481428
 20
-2.781249999999999
 30
0.0
 40
0.5
  1
1/8 x 27PTF
100
AcDbAttributeDefinition
  3

  2
T
 70
     8
280
     0
  0
ATTDEF
  5
131
330
126
100
AcDbEntity
  8
AM_6
100
AcDbText
 10
6.482671671481428
 20
-3.281249999999999
 30
0.0
 40
0.5
  1
baldor
100
AcDbAttributeDefinition
  3

  2
COMPANY
 70
     8
280
     0
  0
ELLIPSE
  5
132
330
126
100
AcDbEntity
  8
AM_9
 48
0.0014659647729497
100
AcDbEllipse
 10
1.07375
 20
0.0000000000000001
 30
0.0
 11
9.913691727296317E-18
 21
0.161902872472269
 31
0.0
210
0.0
220
0.0
230
1.0
 40
0.8660254037844383
 41
0.0
 42
6.283185307179586
  0
LINE
  5
133
330
126
100
AcDbEntity
  8
AM_9
 48
0.0014659647729497
100
AcDbLine
 10
1.406307448084998
 20
0.0410778451398363
 30
0.0
 11
1.429533799848308
 21
0.0000000000000001
 31
0.0
  0
LINE
  5
134
330
126
100
AcDbEntity
  8
AM_9
 48
0.0014659647729497
100
AcDbLine
 10
1.3703125
 20
0.1093750000000001
 30
0.0
 11
1.391092752380282
 21
0.0691229775493682
 31
0.0
  0
LINE
  5
135
330
126
100
AcDbEntity
  8
AM_9
 48
0.0014659647729497
100
AcDbLine
 10
1.391299898779295
 20
-0.0687338247769811
 30
0.0
 11
1.3703125
 21
-0.1093749999999999
 31
0.0
  0
LINE
  5
136
330
126
100
AcDbEntity
  8
AM_9
 48
0.0014659647729497
100
AcDbLine
 10
1.429533799848308
 20
0.0000000000000001
 30
0.0
 11
1.405781819238847
 21
-0.0420298257763341
 31
0.0
  0
LWPOLYLINE
  5
137
330
126
100
AcDbEntity
  8
AM_9
 48
0.0014659647729497
100
AcDbPolyline
 90
        4
 70
     0
 43
0.0
 10
1.470466200151693
 20
0.0000000000000001
 10
1.446571932388115
 20
0.0544416102741497
 10
1.433757718547504
 20
0.0818700010907652
 10
1.4203125
 20
0.109375
  0
LWPOLYLINE
  5
138
330
126
100
AcDbEntity
  8
AM_9
 48
0.0014659647729497
100
AcDbPolyline
 90
        4
 70
     0
 43
0.0
 10
1.4203125
 20
-0.1093749999999999
 10
1.433680667998001
 20
-0.0820312499999999
 10
1.446459559607483
 20
-0.0546874999999999
 10
1.470466200151693
 20
0.0000000000000001
  0
LWPOLYLINE
  5
139
330
126
100
AcDbEntity
  8
AM_9
 48
0.0014659647729497
100
AcDbPolyline
 90
        4
 70
     0
 43
0.0
 10
1.3703125
 20
-0.1093749999999999
 10
1.356944332002
 20
-0.1367187499999998
 10
1.344165440392518
 20
-0.1640624999999998
 10
1.320158799848308
 20
-0.2187499999999999
  0
LWPOLYLINE
  5
13A
330
126
100
AcDbEntity
  8
AM_9
 48
0.0014659647729497
100
AcDbPolyline
 90
        4
 70
     0
 43
0.0
 10
1.320158799848308
 20
0.2187500000000001
 10
1.344053067611885
 20
0.1643083897258505
 10
1.356867281452497
 20
0.136879998909235
 10
1.3703125
 20
0.1093750000000001
  0
LINE
  5
13B
330
126
100
AcDbEntity
  8
AM_9
 48
0.0014659647729497
100
AcDbLine
 10
1.470466200151693
 20
0.0000000000000001
 30
0.0
 11
1.429533799848308
 21
0.0000000000000001
 31
0.0
  0
LINE
  5
13C
330
126
100
AcDbEntity
  8
AM_9
 48
0.0014659647729497
100
AcDbLine
 10
1.082796710626155
 20
-0.1983264404626878
 30
0.0
 11
1.196604897832291
 21
-0.2054502516015133
 31
0.0
  0
LINE
  5
13D
330
126
100
AcDbEntity
  8
AM_9
 48
0.0014659647729497
100
AcDbLine
 10
1.19660489783229
 20
0.2054502516015136
 30
0.0
 11
1.082796710626155
 21
0.1983264404626881
 31
0.0
  0
ELLIPSE
  5
13E
330
126
100
AcDbEntity
  8
AM_9
 48
0.0014659647729497
100
AcDbEllipse
 10
1.256250000004989
 20
0.0000000000019779
 30
0.0
 11
4.196602849285178E-12
 21
-0.2187499999961001
 31
0.0
210
0.0
220
0.0
230
1.0
 40
0.8660254037762397
 41
1.032970329579848
 42
2.10862232395828
  0
ELLIPSE
  5
13F
330
126
100
AcDbEntity
  8
AM_9
 48
0.0014659647729497
100
AcDbEllipse
 10
1.256250000000005
 20
-0.0000000000000009
 30
0.0
 11
-3.646379845004755E-15
 21
-0.2137499999999976
 31
0.0
210
0.0
220
0.0
230
1.0
 40
0.8660254037844257
 41
0.9862868522353736
 42
2.15530580135446
  0
ELLIPSE
  5
140
330
126
100
AcDbEntity
  8
AM_9
 48
0.0014659647729497
100
AcDbEllipse
 10
1.265409099270441
 20
0.0
 30
0.0
 11
1.194234190900382E-15
 21
-0.1725340532830154
 31
0.0
210
0.0
220
0.0
230
1.0
 40
0.8660254037844405
 41
0.6732704101474907
 42
2.468322243442289
  0
LINE
  5
141
330
126
100
AcDbEntity
  8
AM_9
 48
0.0014659647729497
100
AcDbLine
 10
1.37625
 20
0.0703562363973517
 30
0.0
 11
1.369010904853149
 21
0.0796165180238022
 31
0.0
  0
LINE
  5
142
330
126
100
AcDbEntity
  8
AM_9
 48
0.0014659647729497
100
AcDbLine
 10
1.369010904853149
 20
-0.0796165180238018
 30
0.0
 11
1.37625
 21
-0.0703562363973514
 31
0.0
  0
ELLIPSE
  5
143
330
126
100
AcDbEntity
  8
AM_9
 48
0.0014659647729497
100
AcDbEllipse
 10
1.292626560809286
 20
-0.000000000000001
 30
0.0
 11
1.350107828859161E-15
 21
-0.1188200907348963
 31
0.0
210
0.0
220
0.0
230
1.0
 40
0.8660254037844414
 41
0.0521714424106055
 42
3.089421211179164
  0
LINE
  5
144
330
126
100
AcDbEntity
  8
AM_9
 48
0.0014659647729497
100
AcDbLine
 10
1.30875
 20
-0.1049999999999999
 30
0.0
 11
1.32375
 21
-0.1049999999999999
 31
0.0
  0
LINE
  5
145
330
126
100
AcDbEntity
  8
AM_9
 48
0.0014659647729497
100
AcDbLine
 10
1.32375
 20
0.1050000000000001
 30
0.0
 11
1.30875
 21
0.1050000000000001
 31
0.0
  0
ELLIPSE
  5
146
330
126
100
AcDbEntity
  8
AM_9
 48
0.0014659647729497
100
AcDbEllipse
 10
1.32375
 20
-0.0000000000000001
 30
0.0
 11
-2.058056552235974E-16
 21
-0.1050000000000001
 31
0.0
210
0.0
220
0.0
230
1.0
 40
0.8660254037844374
 41
5.23598775598299
 42
10.47197551196598
  0
ELLIPSE
  5
147
330
126
100
AcDbEntity
  8
AM_9
 48
0.0014659647729497
100
AcDbEllipse
 10
1.308749999999998
 20
-0.0000000000000019
 30
0.0
 11
6.415564463640717E-15
 21
-0.1049999999999981
 31
0.0
210
0.0
220
0.0
230
1.0
 40
0.8660254037844377
 41
5.858105981271081
 42
9.849857286677736
  0
ELLIPSE
  5
148
330
126
100
AcDbEntity
  8
AM_9
 48
0.0014659647729497
100
AcDbEllipse
 10
1.353750000000002
 20
0.0000000000000003
 30
0.0
 11
9.344335955933968E-16
 21
-0.1349999999999993
 31
0.0
210
0.0
220
0.0
230
1.0
 40
0.8660254037844338
 41
0.7751090107151084
 42
2.366483642874669
  0
ELLIPSE
  5
149
330
126
100
AcDbEntity
  8
AM_9
 48
0.0014659647729497
100
AcDbEllipse
 10
1.206250000000001
 20
0.0000000000000004
 30
0.0
 11
1.424159149054196E-15
 21
-0.2057518972230692
 31
0.0
210
0.0
220
0.0
230
1.0
 40
0.8660254037844374
 41
0.0
 42
6.283185307179586
  0
ELLIPSE
  5
14A
330
126
100
AcDbEntity
  8
AM_9
 48
0.0014659647729497
100
AcDbEllipse
 10
1.092107377154473
 20
-0.0000000000000002
 30
0.0
 11
-3.893012458920379E-16
 21
-0.1986176267812158
 31
0.0
210
0.0
220
0.0
230
1.0
 40
0.8660254037844393
 41
0.0
 42
6.283185307179586
  0
ELLIPSE
  5
14B
330
126
100
AcDbEntity
  8
AM_9
 48
0.0014659647729497
100
AcDbEllipse
 10
1.206250000000002
 20
0.0000000000000001
 30
0.0
 11
-4.018372309702275E-17
 21
-0.2187500000000012
 31
0.0
210
0.0
220
0.0
230
1.0
 40
0.8660254037844392
 41
0.0
 42
6.283185307179586
  0
LWPOLYLINE
  5
14C
330
126
100
AcDbEntity
  8
AM_0
 48
0.0014659647729497
100
AcDbPolyline
 90
        4
 70
     0
 43
0.0
 10
1.361091200151693
 20
-0.2187499999999999
 10
1.391638542662265
 20
-0.1643083897258503
 10
1.406252719638269
 20
-0.1368799989092347
 10
1.4203125
 20
-0.1093749999999999
  0
LWPOLYLINE
  5
14D
330
126
100
AcDbEntity
  8
AM_0
 48
0.0014659647729497
100
AcDbPolyline
 90
        4
 70
     0
 43
0.0
 10
1.4203125
 20
0.109375
 10
1.406336917998001
 20
0.1367187500000001
 10
1.391772059607483
 20
0.1640625000000001
 10
1.361091200151693
 20
0.2187500000000001
  0
ELLIPSE
  5
14E
330
126
100
AcDbEntity
  8
AM_0
 48
0.0014659647729497
100
AcDbEllipse
 10
1.25625
 20
-0.0000000000000002
 30
0.0
 11
3.483943355217830E-16
 21
-0.2187500000000004
 31
0.0
210
0.0
220
0.0
230
1.0
 40
0.8660254037844384
 41
2.108622323974788
 42
7.316155636794591
  0
ELLIPSE
  5
14F
330
126
100
AcDbEntity
  8
AM_0
 48
0.0014659647729497
100
AcDbEllipse
 10
1.25625
 20
0.0000000000000001
 30
0.0
 11
-3.926523799766206E-17
 21
-0.2137500000000003
 31
0.0
210
0.0
220
0.0
230
1.0
 40
0.8660254037844387
 41
2.155305801354433
 42
7.269472159414947
  0
LINE
  5
150
330
126
100
AcDbEntity
  8
AM_0
 48
0.0014659647729497
100
AcDbLine
 10
1.361091200151693
 20
-0.2187499999999999
 30
0.0
 11
1.101408799848308
 21
-0.2187499999999999
 31
0.0
  0
LWPOLYLINE
  5
151
330
126
100
AcDbEntity
  8
AM_0
 48
0.0014659647729497
100
AcDbPolyline
 90
        4
 70
     0
 43
0.0
 10
1.0921875
 20
-0.1093749999999999
 10
1.105555667998001
 20
-0.1367187499999999
 10
1.118334559607483
 20
-0.1640624999999998
 10
1.142341200151693
 20
-0.2187499999999999
  0
LWPOLYLINE
  5
152
330
126
100
AcDbEntity
  8
AM_0
 48
0.0014659647729497
100
AcDbPolyline
 90
        4
 70
     0
 43
0.0
 10
1.0421875
 20
-0.1093749999999999
 10
1.028819332002
 20
-0.0820312499999999
 10
1.016040440392518
 20
-0.0546874999999999
 10
0.9920337998483075
 20
0.0000000000000001
  0
LWPOLYLINE
  5
153
330
126
100
AcDbEntity
  8
AM_0
 48
0.0014659647729497
100
AcDbPolyline
 90
        4
 70
     0
 43
0.0
 10
1.101408799848308
 20
-0.2187499999999999
 10
1.070861457337736
 20
-0.1643083897258503
 10
1.056247280361731
 20
-0.1368799989092347
 10
1.0421875
 20
-0.1093749999999999
  0
LINE
  5
154
330
126
100
AcDbEntity
  8
AM_0
 48
0.0014659647729497
100
AcDbLine
 10
1.032966200151693
 20
0.0000000000000001
 30
0.0
 11
0.9920337998483075
 21
0.0000000000000001
 31
0.0
  0
LWPOLYLINE
  5
155
330
126
100
AcDbEntity
  8
AM_0
 48
0.0014659647729497
100
AcDbPolyline
 90
        4
 70
     0
 43
0.0
 10
1.142341200151693
 20
0.2187500000000001
 10
1.118446932388115
 20
0.1643083897258505
 10
1.105632718547504
 20
0.1368799989092349
 10
1.0921875
 20
0.109375
  0
LINE
  5
156
330
126
100
AcDbEntity
  8
AM_0
 48
0.0014659647729497
100
AcDbLine
 10
1.361091200151693
 20
0.2187500000000001
 30
0.0
 11
1.101408799848308
 21
0.2187500000000001
 31
0.0
  0
LWPOLYLINE
  5
157
330
126
100
AcDbEntity
  8
AM_0
 48
0.0014659647729497
100
AcDbPolyline
 90
        4
 70
     0
 43
0.0
 10
1.0421875
 20
0.1093750000000001
 10
1.056163082002
 20
0.1367187500000001
 10
1.070727940392518
 20
0.1640625000000001
 10
1.101408799848308
 20
0.2187500000000001
  0
LWPOLYLINE
  5
158
330
126
100
AcDbEntity
  8
AM_0
 48
0.0014659647729497
100
AcDbPolyline
 90
        4
 70
     0
 43
0.0
 10
0.9920337998483075
 20
0.0000000000000001
 10
1.015928067611885
 20
0.0544416102741497
 10
1.028742281452496
 20
0.0818700010907652
 10
1.0421875
 20
0.1093750000000001
  0
LWPOLYLINE
  5
159
330
126
100
AcDbEntity
  8
AM_0
 48
0.0014659647729497
100
AcDbPolyline
 90
        4
 70
     0
 43
0.0
 10
1.0921875
 20
0.109375
 10
1.078211917998001
 20
0.0820312500000001
 10
1.063647059607483
 20
0.0546875000000001
 10
1.032966200151693
 20
0.0000000000000001
  0
LWPOLYLINE
  5
15A
330
126
100
AcDbEntity
  8
AM_0
 48
0.0014659647729497
100
AcDbPolyline
 90
        4
 70
     0
 43
0.0
 10
1.032966200151693
 20
0.0000000000000001
 10
1.063513542662265
 20
-0.0544416102741494
 10
1.078127719638269
 20
-0.081870001090765
 10
1.0921875
 20
-0.1093749999999999
  0
ELLIPSE
  5
15B
330
126
100
AcDbEntity
  8
AM_0
 48
0.0014659647729497
100
AcDbEllipse
 10
1.265409099270441
 20
0.0000000000000001
 30
0.0
 11
-3.169399141454455E-17
 21
-0.1725340532830154
 31
0.0
210
0.0
220
0.0
230
1.0
 40
0.8660254037844377
 41
2.468322243442295
 42
6.956455717327085
  0
ELLIPSE
  5
15C
330
126
100
AcDbEntity
  8
AM_0
 48
0.0014659647729497
100
AcDbEllipse
 10
1.292626560809287
 20
0.0000000000000001
 30
0.0
 11
-2.182689656893355E-17
 21
-0.1188200907348975
 31
0.0
210
0.0
220
0.0
230
1.0
 40
0.8660254037844457
 41
3.089421211179178
 42
6.335356749590202
  0
ELLIPSE
  5
15D
330
126
100
AcDbEntity
  8
AM_0
 48
0.0014659647729497
100
AcDbEllipse
 10
1.30875
 20
0.0000000000000001
 30
0.0
 11
-1.928818708657080E-17
 21
-0.1049999999999999
 31
0.0
210
0.0
220
0.0
230
1.0
 40
0.8660254037844348
 41
3.56667197949824
 42
5.858105981271137
  0
LINE
  5
15E
330
126
100
AcDbEntity
  8
AM_0
 48
0.0014659647729497
100
AcDbLine
 10
1.245
 20
-0.0524999999999999
 30
0.0
 11
1.2525
 21
-0.0674999999999999
 31
0.0
  0
LINE
  5
15F
330
126
100
AcDbEntity
  8
AM_0
 48
0.0014659647729497
100
AcDbLine
 10
1.2525
 20
0.0675000000000002
 30
0.0
 11
1.245
 21
0.0525000000000002
 31
0.0
  0
ELLIPSE
  5
160
330
126
100
AcDbEntity
  8
AM_0
 48
0.0014659647729497
100
AcDbEllipse
 10
1.353750000000001
 20
0.0000000000000001
 30
0.0
 11
-2.479909768273395E-17
 21
-0.1350000000000003
 31
0.0
210
0.0
220
0.0
230
1.0
 40
0.8660254037844412
 41
2.366483642874676
 42
7.058294317894704
  0
ELLIPSE
  5
161
330
126
100
AcDbEntity
  8
AM_0
 48
0.0014659647729497
100
AcDbEllipse
 10
1.323750000000003
 20
0.0000000000000001
 30
0.0
 11
-1.928818708657113E-17
 21
-0.1050000000000018
 31
0.0
210
0.0
220
0.0
230
1.0
 40
0.8660254037844474
 41
4.1887902047864
 42
5.23598775598298
  0
LINE
  5
162
330
126
100
AcDbEntity
  8
AM_0
 48
0.0014659647729497
100
AcDbLine
 10
1.455976847792108
 20
0.0733474205218688
 30
0.0
 11
1.43556531073162
 21
0.0964365416902992
 31
0.0
  0
LINE
  5
163
330
126
100
AcDbEntity
  8
AM_0
 48
0.0014659647729497
100
AcDbLine
 10
1.43556531073162
 20
-0.0964365416902989
 30
0.0
 11
1.455976847792108
 21
-0.0733474205218685
 31
0.0
  0
ELLIPSE
  5
164
330
126
100
AcDbEntity
  8
AM_0
 48
0.0014659647729497
100
AcDbEllipse
 10
1.393749999999998
 20
0.0000000000000002
 30
0.0
 11
-1.569198668103288E-15
 21
-0.1026779019331883
 31
0.0
210
0.0
220
0.0
230
1.0
 40
0.8660254037844485
 41
0.0
 42
6.283185307179586
  0
ENDBLK
  5
129
330
126
100
AcDbEntity
  8
0
100
AcDbBlockEnd
  0
BLOCK
  5
167
330
165
100
AcDbEntity
  8
0
100
AcDbBlockBegin
  2
4_070361H_0_in_070361_4
 70
     2
 10
0.0
 20
0.0
 30
0.0
  3
4_070361H_0_in_070361_4
  1

  0
ATTDEF
  5
169
330
165
100
AcDbEntity
  8
AM_6
100
AcDbText
 10
9.0
 20
1.798076923076923
 30
0.0
 40
0.5
  1
P4B-S2-(Contact Seal)-Housing
100
AcDbAttributeDefinition
  3

  2
NN
 70
     8
280
     0
  0
ATTDEF
  5
16A
330
165
100
AcDbEntity
  8
AM_6
100
AcDbText
 10
9.0
 20
1.298076923076923
 30
0.0
 40
0.5
  1
S-2000 Pillow Block Bearing -Inch (4-Bolt Base)
100
AcDbAttributeDefinition
  3

  2
NT
 70
     8
280
     0
  0
ATTDEF
  5
16B
330
165
100
AcDbEntity
  8
AM_6
100
AcDbText
 10
9.0
 20
0.7980769230769231
 30
0.0
 40
0.5
  1
070361H
100
AcDbAttributeDefinition
  3

  2
NB
 70
     8
280
     0
  0
ATTDEF
  5
16C
330
165
100
AcDbEntity
  8
AM_6
100
AcDbText
 10
9.0
 20
0.2980769230769231
 30
0.0
 40
0.5
  1
$PN.H
100
AcDbAttributeDefinition
  3

  2
NBSYN
 70
     8
280
     0
  0
ATTDEF
  5
16D
330
165
100
AcDbEntity
  8
AM_6
100
AcDbText
 10
9.0
 20
-0.2019230769230769
 30
0.0
 40
0.5
  1
070361
100
AcDbAttributeDefinition
  3

  2
LINA
 70
     8
280
     0
  0
ATTDEF
  5
16E
330
165
100
AcDbEntity
  8
AM_6
100
AcDbText
 10
9.0
 20
-0.7019230769230769
 30
0.0
 40
0.5
  1
1-15/16
100
AcDbAttributeDefinition
  3

  2
SS
 70
     8
280
     0
  0
ATTDEF
  5
16F
330
165
100
AcDbEntity
  8
AM_6
100
AcDbText
 10
9.0
 20
-1.201923076923077
 30
0.0
 40
0.5
  1
070361
100
AcDbAttributeDefinition
  3

  2
PN
 70
     8
280
     0
  0
ATTDEF
  5
170
330
165
100
AcDbEntity
  8
AM_6
100
AcDbText
 10
9.0
 20
-1.701923076923077
 30
0.0
 40
0.5
  1
P4B-S2-115R
100
AcDbAttributeDefinition
  3

  2
DESCRIPTION
 70
     8
280
     0
  0
ATTDEF
  5
171
330
165
100
AcDbEntity
  8
AM_6
100
AcDbText
 10
9.0
 20
-2.201923076923077
 30
0.0
 40
0.5
  1
Non-Expansion Type
100
AcDbAttributeDefinition
  3

  2
EF
 70
     8
280
     0
  0
ATTDEF
  5
172
330
165
100
AcDbEntity
  8
AM_6
100
AcDbText
 10
9.0
 20
-2.701923076923077
 30
0.0
 40
0.5
  1
1
100
AcDbAttributeDefinition
  3

  2
EF1
 70
     8
280
     0
  0
ATTDEF
  5
173
330
165
100
AcDbEntity
  8
AM_6
100
AcDbText
 10
9.0
 20
-3.201923076923077
 30
0.0
 40
0.5
  1
2-27/32
100
AcDbAttributeDefinition
  3

  2
A
 70
     8
280
     0
  0
ATTDEF
  5
174
330
165
100
AcDbEntity
  8
AM_6
100
AcDbText
 10
9.0
 20
-3.701923076923077
 30
0.0
 40
0.5
  1
8
100
AcDbAttributeDefinition
  3

  2
B
 70
     8
280
     0
  0
ATTDEF
  5
175
330
165
100
AcDbEntity
  8
AM_6
100
AcDbText
 10
9.0
 20
-4.201923076923077
 30
0.0
 40
0.5
  1
3-3/16
100
AcDbAttributeDefinition
  3

  2
C
 70
     8
280
     0
  0
ATTDEF
  5
176
330
165
100
AcDbEntity
  8
AM_6
100
AcDbText
 10
9.0
 20
-4.701923076923077
 30
0.0
 40
0.5
  1
6-1/16
100
AcDbAttributeDefinition
  3

  2
DMIN
 70
     8
280
     0
  0
ATTDEF
  5
177
330
165
100
AcDbEntity
  8
AM_6
100
AcDbText
 10
9.0
 20
-5.201923076923077
 30
0.0
 40
0.5
  1
6-7/16
100
AcDbAttributeDefinition
  3

  2
DMAX
 70
     8
280
     0
  0
ATTDEF
  5
178
330
165
100
AcDbEntity
  8
AM_6
100
AcDbText
 10
9.0
 20
-5.701923076923077
 30
0.0
 40
0.5
  1
1-19/32
100
AcDbAttributeDefinition
  3

  2
E
 70
     8
280
     0
  0
ATTDEF
  5
179
330
165
100
AcDbEntity
  8
AM_6
100
AcDbText
 10
9.0
 20
-6.201923076923077
 30
0.0
 40
0.5
  1
1.593750
100
AcDbAttributeDefinition
  3

  2
E1
 70
     8
280
     0
  0
ATTDEF
  5
17A
330
165
100
AcDbEntity
  8
AM_6
100
AcDbText
 10
9.0
 20
-6.701923076923077
 30
0.0
 40
0.5
  1
1/2
100
AcDbAttributeDefinition
  3

  2
F
 70
     8
280
     0
  0
ATTDEF
  5
17B
330
165
100
AcDbEntity
  8
AM_6
100
AcDbText
 10
9.0
 20
-7.201923076923077
 30
0.0
 40
0.5
  1
13/16
100
AcDbAttributeDefinition
  3

  2
G
 70
     8
280
     0
  0
ATTDEF
  5
17C
330
165
100
AcDbEntity
  8
AM_6
100
AcDbText
 10
9.0
 20
-7.701923076923077
 30
0.0
 40
0.5
  1
1-5/16
100
AcDbAttributeDefinition
  3

  2
H
 70
     8
280
     0
  0
ATTDEF
  5
17D
330
165
100
AcDbEntity
  8
AM_6
100
AcDbText
 10
9.0
 20
-8.201923076923077
 30
0.0
 40
0.5
  1
4-9/16
100
AcDbAttributeDefinition
  3

  2
J
 70
     8
280
     0
  0
ATTDEF
  5
17E
330
165
100
AcDbEntity
  8
AM_6
100
AcDbText
 10
9.0
 20
-8.701923076923077
 30
0.0
 40
0.5
  1
3-7/16
100
AcDbAttributeDefinition
  3

  2
L
 70
     8
280
     0
  0
ATTDEF
  5
17F
330
165
100
AcDbEntity
  8
AM_6
100
AcDbText
 10
9.0
 20
-9.201923076923077
 30
0.0
 40
0.5
  1
2-1/4
100
AcDbAttributeDefinition
  3

  2
M
 70
     8
280
     0
  0
ATTDEF
  5
180
330
165
100
AcDbEntity
  8
AM_6
100
AcDbText
 10
9.0
 20
-9.701923076923077
 30
0.0
 40
0.5
  1
27/32
100
AcDbAttributeDefinition
  3

  2
R
 70
     8
280
     0
  0
ATTDEF
  5
181
330
165
100
AcDbEntity
  8
AM_6
100
AcDbText
 10
9.0
 20
-10.20192307692308
 30
0.0
 40
0.5
  1
2
100
AcDbAttributeDefinition
  3

  2
S
 70
     8
280
     0
  0
ATTDEF
  5
182
330
165
100
AcDbEntity
  8
AM_6
100
AcDbText
 10
9.0
 20
-10.70192307692308
 30
0.0
 40
0.5
  1
1/4
100
AcDbAttributeDefinition
  3

  2
X
 70
     8
280
     0
  0
ATTDEF
  5
183
330
165
100
AcDbEntity
  8
AM_6
100
AcDbText
 10
9.0
 20
-11.20192307692308
 30
0.0
 40
0.5
  1
0.020
100
AcDbAttributeDefinition
  3

  2
Y
 70
     8
280
     0
  0
ATTDEF
  5
184
330
165
100
AcDbEntity
  8
AM_6
100
AcDbText
 10
9.0
 20
-11.70192307692308
 30
0.0
 40
0.5
  1
2-19/64
100
AcDbAttributeDefinition
  3

  2
Z
 70
     8
280
     0
  0
ATTDEF
  5
185
330
165
100
AcDbEntity
  8
AM_6
100
AcDbText
 10
9.0
 20
-12.20192307692308
 30
0.0
 40
0.5
  1
1
100
AcDbAttributeDefinition
  3

  2
ST1
 70
     8
280
     0
  0
ATTDEF
  5
186
330
165
100
AcDbEntity
  8
AM_6
100
AcDbText
 10
9.0
 20
-12.70192307692308
 30
0.0
 40
0.5
  1
baldor
100
AcDbAttributeDefinition
  3

  2
COMPANY
 70
     8
280
     0
  0
LINE
  5
187
330
165
100
AcDbEntity
  8
AM_9
 48
0.0241974895088349
100
AcDbLine
 10
3.53125
 20
-0.7968750000000001
 30
0.0
 11
3.53125
 21
0.7968749999999998
 31
0.0
  0
LINE
  5
188
330
165
100
AcDbEntity
  8
AM_9
 48
0.0241974895088349
100
AcDbLine
 10
0.5985190417995774
 20
1.109375
 30
0.0
 11
3.03125
 21
1.109375
 31
0.0
  0
LINE
  5
189
330
165
100
AcDbEntity
  8
AM_9
 48
0.0241974895088349
100
AcDbLine
 10
0.5985190417995774
 20
-1.109375
 30
0.0
 11
3.03125
 21
-1.109375
 31
0.0
  0
LINE
  5
18A
330
165
100
AcDbEntity
  8
AM_9
 48
0.0241974895088349
100
AcDbLine
 10
1.842931492046028
 20
-1.109375
 30
0.0
 11
1.842931492046028
 21
1.109375
 31
0.0
  0
LINE
  5
18B
330
165
100
AcDbEntity
  8
AM_9
 48
0.0241974895088349
100
AcDbLine
 10
-3.53125
 20
0.7968750000000003
 30
0.0
 11
-3.53125
 21
-0.7968749999999997
 31
0.0
  0
LINE
  5
18C
330
165
100
AcDbEntity
  8
AM_9
 48
0.0241974895088349
100
AcDbLine
 10
-0.5985190417995793
 20
1.109375
 30
0.0
 11
-3.03125
 21
1.109375
 31
0.0
  0
LINE
  5
18D
330
165
100
AcDbEntity
  8
AM_9
 48
0.0241974895088349
100
AcDbLine
 10
-0.5985190417995793
 20
-1.109375
 30
0.0
 11
-3.03125
 21
-1.109375
 31
0.0
  0
LINE
  5
18E
330
165
100
AcDbEntity
  8
AM_9
 48
0.0241974895088349
100
AcDbLine
 10
-1.842931492046029
 20
-1.109375
 30
0.0
 11
-1.842931492046029
 21
1.109375
 31
0.0
  0
LINE
  5
18F
330
165
100
AcDbEntity
  8
AM_9
 48
0.0241974895088349
100
AcDbLine
 10
1.77165
 20
-1.275
 30
0.0
 11
1.77165
 21
1.275
 31
0.0
  0
LINE
  5
190
330
165
100
AcDbEntity
  8
AM_9
 48
0.0241974895088349
100
AcDbLine
 10
-1.77165
 20
1.275
 30
0.0
 11
-1.77165
 21
-1.275
 31
0.0
  0
LINE
  5
191
330
165
100
AcDbEntity
  8
AM_9
 48
0.0241974895088349
100
AcDbLine
 10
1.170268818846288
 20
0.4997368299623211
 30
0.0
 11
1.15624356408247
 21
0.4999999999447721
 31
0.0
  0
LWPOLYLINE
  5
192
330
165
100
AcDbEntity
  8
AM_9
 48
0.0241974895088349
100
AcDbPolyline
 90
       11
 70
     0
 43
0.0
 10
1.454926403147718
 20
0.3456587101150587
 10
1.436245984332176
 20
0.3688015740270623
 10
1.41032056402358
 20
0.3961640572756072
 10
1.382366702212001
 20
0.4206750603235499
 10
1.353086573034032
 20
0.4417816198307903
 10
1.322146847923999
 20
0.4598186761264276
 10
1.288722181916462
 20
0.4750345875319481
 10
1.253935102488171
 20
0.4867290377398287
 10
1.219620130633817
 20
0.4945121267875364
 10
1.18449874404868
 20
0.4989261034655905
 10
1.170268818846288
 20
0.4997368299623211
  0
LWPOLYLINE
  5
193
330
165
100
AcDbEntity
  8
AM_9
 48
0.0241974895088349
100
AcDbPolyline
 90
       11
 70
     0
 43
0.0
 10
1.561912193653997
 20
0.0000000000000001
 10
1.560640030802605
 20
0.0409680649265616
 10
1.556837785379634
 20
0.0816483370109191
 10
1.550291586404179
 20
0.1229256159020929
 10
1.541116702413124
 20
0.1632966740218381
 10
1.529724906226708
 20
0.2013588577522416
 10
1.515947359726532
 20
0.2380427962226974
 10
1.499349674233068
 20
0.2740698306710745
 10
1.48036964198006
 20
0.3081468430018504
 10
1.45937972146185
 20
0.3396362393245097
 10
1.454926403147718
 20
0.3456587101150587
  0
LWPOLYLINE
  5
194
330
165
100
AcDbEntity
  8
AM_9
 48
0.0241974895088349
100
AcDbPolyline
 90
        9
 70
     0
 43
0.0
 10
1.45682638652724
 20
-0.3431165803295718
 10
1.475136816586697
 20
-0.3165233611983977
 10
1.494951470006326
 20
-0.2825476003365341
 10
1.512079186985944
 20
-0.2470937913548764
 10
1.526783005841395
 20
-0.2098829152036508
 10
1.539312787309281
 20
-0.1699844524571313
 10
1.54913787129544
 20
-0.12878155817317
 10
1.558651650688042
 20
-0.065539481596098
 10
1.561912193653997
 20
0.0000000000000001
  0
LWPOLYLINE
  5
195
330
165
100
AcDbEntity
  8
AM_9
 48
0.0241974895088349
100
AcDbPolyline
 90
       12
 70
     0
 43
0.0
 10
1.156245244311746
 20
-0.4999999999698445
 10
1.180391616710617
 20
-0.4992137580030162
 10
1.215178079384956
 20
-0.495267190513247
 10
1.250184132644825
 20
-0.4877516788938002
 10
1.284149524915394
 20
-0.4768067765718993
 10
1.31586158288802
 20
-0.4629979959892818
 10
1.346209454939958
 20
-0.4461498474435783
 10
1.375807584250732
 20
-0.4257763953539748
 10
1.403633497267847
 20
-0.4024629644080909
 10
1.429311900098689
 20
-0.3766139049275349
 10
1.452991351547746
 20
-0.3482097070420832
 10
1.45682638652724
 20
-0.3431165803295718
  0
ELLIPSE
  5
196
330
165
100
AcDbEntity
  8
AM_9
 48
0.0241974895088349
100
AcDbEllipse
 10
1.181250000000437
 20
0.0000000000010237
 30
0.0
 11
1.847219684545097E-12
 21
0.5000000000010241
 31
0.0
210
0.0
220
0.0
230
1.0
 40
0.8660254037844091
 41
3.149016721325275
 42
3.188864276539243
  0
ELLIPSE
  5
197
330
165
100
AcDbEntity
  8
AM_9
 48
0.0241974895088349
100
AcDbEllipse
 10
1.18125
 20
0.0000000000000004
 30
0.0
 11
4.747053798287468E-16
 21
0.5000000000000004
 31
0.0
210
0.0
220
0.0
230
1.0
 40
0.8660254037844388
 41
3.203611787750354
 42
6.140100559829471
  0
ELLIPSE
  5
198
330
165
100
AcDbEntity
  8
AM_9
 48
0.0241974895088349
100
AcDbEllipse
 10
1.181249999999983
 20
-0.0000000000000391
 30
0.0
 11
5.642994582094110E-14
 21
0.5000000000000395
 31
0.0
210
0.0
220
0.0
230
1.0
 40
0.8660254037844424
 41
6.143832905904049
 42
6.285978012951941
  0
LINE
  5
199
330
165
100
AcDbEntity
  8
AM_7
 48
0.0241974895088349
100
AcDbLine
 10
0.0
 20
1.798076923076923
 30
0.0
 11
0.0
 21
-2.1421875
 31
0.0
  0
LINE
  5
19A
330
165
100
AcDbEntity
  8
AM_7
 48
0.0241974895088349
100
AcDbLine
 10
2.703125
 20
0.7968749999999999
 30
0.0
 11
3.546875
 21
0.7968749999999999
 31
0.0
  0
LINE
  5
19B
330
165
100
AcDbEntity
  8
AM_7
 48
0.0241974895088349
100
AcDbLine
 10
3.03125
 20
0.4687499999999999
 30
0.0
 11
3.03125
 21
1.125
 31
0.0
  0
LINE
  5
19C
330
165
100
AcDbEntity
  8
AM_7
 48
0.0241974895088349
100
AcDbLine
 10
-3.546875
 20
-0.7968749999999993
 30
0.0
 11
-2.703125
 21
-0.7968749999999996
 31
0.0
  0
LINE
  5
19D
330
165
100
AcDbEntity
  8
AM_7
 48
0.0241974895088349
100
AcDbLine
 10
-3.21875
 20
-1.124999999999999
 30
0.0
 11
-3.21875
 21
-0.4687499999999993
 31
0.0
  0
LINE
  5
19E
330
165
100
AcDbEntity
  8
AM_7
 48
0.0241974895088349
100
AcDbLine
 10
-3.546875
 20
0.7968750000000006
 30
0.0
 11
-2.703125
 21
0.7968750000000001
 31
0.0
  0
LINE
  5
19F
330
165
100
AcDbEntity
  8
AM_7
 48
0.0241974895088349
100
AcDbLine
 10
-3.21875
 20
0.4687500000000006
 30
0.0
 11
-3.21875
 21
1.125
 31
0.0
  0
LINE
  5
1A0
330
165
100
AcDbEntity
  8
AM_7
 48
0.0241974895088349
100
AcDbLine
 10
2.703125
 20
-0.796875
 30
0.0
 11
3.546875
 21
-0.796875
 31
0.0
  0
LINE
  5
1A1
330
165
100
AcDbEntity
  8
AM_7
 48
0.0241974895088349
100
AcDbLine
 10
3.03125
 20
-1.125
 30
0.0
 11
3.03125
 21
-0.46875
 31
0.0
  0
LINE
  5
1A2
330
165
100
AcDbEntity
  8
AM_7
 48
0.0241974895088349
100
AcDbLine
 10
-3.03125
 20
0.4687500000000001
 30
0.0
 11
-3.03125
 21
1.125
 31
0.0
  0
LINE
  5
1A3
330
165
100
AcDbEntity
  8
AM_7
 48
0.0241974895088349
100
AcDbLine
 10
-3.03125
 20
-1.125
 30
0.0
 11
-3.03125
 21
-0.4687499999999996
 31
0.0
  0
LINE
  5
1A4
330
165
100
AcDbEntity
  8
AM_7
 48
0.0241974895088349
100
AcDbLine
 10
3.21875
 20
-1.125
 30
0.0
 11
3.21875
 21
-0.46875
 31
0.0
  0
LINE
  5
1A5
330
165
100
AcDbEntity
  8
AM_7
 48
0.0241974895088349
100
AcDbLine
 10
3.21875
 20
0.4687499999999999
 30
0.0
 11
3.21875
 21
1.125
 31
0.0
  0
LINE
  5
1A6
330
165
100
AcDbEntity
  8
AM_0
 48
0.0241974895088349
100
AcDbLine
 10
3.681249999999999
 20
-1.59375
 30
0.0
 11
4.0
 21
-1.275
 31
0.0
  0
LINE
  5
1A7
330
165
100
AcDbEntity
  8
AM_0
 48
0.0241974895088349
100
AcDbLine
 10
4.0
 20
1.275
 30
0.0
 11
3.68125
 21
1.59375
 31
0.0
  0
LINE
  5
1A8
330
165
100
AcDbEntity
  8
AM_0
 48
0.0241974895088349
100
AcDbLine
 10
4.0
 20
-1.275
 30
0.0
 11
4.0
 21
1.275
 31
0.0
  0
LINE
  5
1A9
330
165
100
AcDbEntity
  8
AM_0
 48
0.0241974895088349
100
AcDbLine
 10
-4.0
 20
-1.275
 30
0.0
 11
-3.68125
 21
-1.59375
 31
0.0
  0
LINE
  5
1AA
330
165
100
AcDbEntity
  8
AM_0
 48
0.0241974895088349
100
AcDbLine
 10
-3.68125
 20
1.59375
 30
0.0
 11
-4.000000000000001
 21
1.274999999999999
 31
0.0
  0
LINE
  5
1AB
330
165
100
AcDbEntity
  8
AM_0
 48
0.0241974895088349
100
AcDbLine
 10
-4.0
 20
-1.275
 30
0.0
 11
-4.0
 21
1.275
 31
0.0
  0
ARC
  5
1AC
330
165
100
AcDbEntity
  8
AM_0
 48
0.0241974895088349
100
AcDbCircle
 10
2.595535714285716
 20
1.441964285714269
 30
0.0
 40
0.1517857142857313
100
AcDbArc
 50
90.00000000000084
 51
104.8380279465029
  0
ARC
  5
1AD
330
165
100
AcDbEntity
  8
AM_0
 48
0.0241974895088349
100
AcDbCircle
 10
2.595535714285715
 20
-1.441964285714288
 30
0.0
 40
0.1517857142857124
100
AcDbArc
 50
255.1619720534956
 51
269.9999999999998
  0
LINE
  5
1AE
330
165
100
AcDbEntity
  8
AM_0
 48
0.0241974895088349
100
AcDbLine
 10
3.21875
 20
-0.484375
 30
0.0
 11
3.03125
 21
-0.4843750000000001
 31
0.0
  0
ARC
  5
1AF
330
165
100
AcDbEntity
  8
AM_0
 48
0.0241974895088349
100
AcDbCircle
 10
3.21875
 20
-0.796875
 30
0.0
 40
0.3125
100
AcDbArc
 50
270.0
 51
90.0
  0
LINE
  5
1B0
330
165
100
AcDbEntity
  8
AM_0
 48
0.0241974895088349
100
AcDbLine
 10
3.03125
 20
-1.109375
 30
0.0
 11
3.21875
 21
-1.109375
 31
0.0
  0
ARC
  5
1B1
330
165
100
AcDbEntity
  8
AM_0
 48
0.0241974895088349
100
AcDbCircle
 10
3.03125
 20
-0.796875
 30
0.0
 40
0.3124999999999999
100
AcDbArc
 50
90.0
 51
270.0
  0
LINE
  5
1B2
330
165
100
AcDbEntity
  8
AM_0
 48
0.0241974895088349
100
AcDbLine
 10
3.21875
 20
1.109375
 30
0.0
 11
3.03125
 21
1.109375
 31
0.0
  0
ARC
  5
1B3
330
165
100
AcDbEntity
  8
AM_0
 48
0.0241974895088349
100
AcDbCircle
 10
3.21875
 20
0.7968749999999999
 30
0.0
 40
0.3124999999999999
100
AcDbArc
 50
270.0
 51
90.0
  0
LINE
  5
1B4
330
165
100
AcDbEntity
  8
AM_0
 48
0.0241974895088349
100
AcDbLine
 10
3.03125
 20
0.4843749999999999
 30
0.0
 11
3.21875
 21
0.4843749999999999
 31
0.0
  0
ARC
  5
1B5
330
165
100
AcDbEntity
  8
AM_0
 48
0.0241974895088349
100
AcDbCircle
 10
3.03125
 20
0.796875
 30
0.0
 40
0.3125
100
AcDbArc
 50
90.0
 51
270.0
  0
LINE
  5
1B6
330
165
100
AcDbEntity
  8
AM_4
 48
0.0241974895088349
100
AcDbLine
 10
3.91875
 20
-1.35625
 30
0.0
 11
3.91875
 21
1.356249999999999
 31
0.0
  0
LINE
  5
1B7
330
165
100
AcDbEntity
  8
AM_0
 48
0.0241974895088349
100
AcDbLine
 10
3.68125
 20
1.59375
 30
0.0
 11
2.595535714285714
 21
1.59375
 31
0.0
  0
LINE
  5
1B8
330
165
100
AcDbEntity
  8
AM_0
 48
0.0241974895088349
100
AcDbLine
 10
3.681249999999999
 20
-1.59375
 30
0.0
 11
2.595535714285715
 21
-1.59375
 31
0.0
  0
ARC
  5
1B9
330
165
100
AcDbEntity
  8
AM_0
 48
0.0241974895088349
100
AcDbCircle
 10
-2.595535714285715
 20
-1.441964285714286
 30
0.0
 40
0.1517857142857142
100
AcDbArc
 50
270.0000000000002
 51
284.8380279465044
  0
ARC
  5
1BA
330
165
100
AcDbEntity
  8
AM_0
 48
0.0241974895088349
100
AcDbCircle
 10
-2.595535714285715
 20
1.441964285714288
 30
0.0
 40
0.1517857142857124
100
AcDbArc
 50
75.16197205349556
 51
89.99999999999983
  0
LINE
  5
1BB
330
165
100
AcDbEntity
  8
AM_0
 48
0.0241974895088349
100
AcDbLine
 10
-3.03125
 20
1.109375
 30
0.0
 11
-3.21875
 21
1.109375
 31
0.0
  0
ARC
  5
1BC
330
165
100
AcDbEntity
  8
AM_0
 48
0.0241974895088349
100
AcDbCircle
 10
-3.03125
 20
0.7968750000000002
 30
0.0
 40
0.3124999999999999
100
AcDbArc
 50
270.0
 51
90.0
  0
LINE
  5
1BD
330
165
100
AcDbEntity
  8
AM_0
 48
0.0241974895088349
100
AcDbLine
 10
-3.21875
 20
0.4843750000000006
 30
0.0
 11
-3.03125
 21
0.4843750000000003
 31
0.0
  0
ARC
  5
1BE
330
165
100
AcDbEntity
  8
AM_0
 48
0.0241974895088349
100
AcDbCircle
 10
-3.21875
 20
0.7968750000000004
 30
0.0
 40
0.3125
100
AcDbArc
 50
90.0
 51
270.0
  0
LINE
  5
1BF
330
165
100
AcDbEntity
  8
AM_0
 48
0.0241974895088349
100
AcDbLine
 10
-3.03125
 20
-0.4843749999999996
 30
0.0
 11
-3.21875
 21
-0.4843749999999997
 31
0.0
  0
ARC
  5
1C0
330
165
100
AcDbEntity
  8
AM_0
 48
0.0241974895088349
100
AcDbCircle
 10
-3.03125
 20
-0.7968749999999996
 30
0.0
 40
0.3125
100
AcDbArc
 50
270.0
 51
90.0
  0
LINE
  5
1C1
330
165
100
AcDbEntity
  8
AM_0
 48
0.0241974895088349
100
AcDbLine
 10
-3.21875
 20
-1.109374999999999
 30
0.0
 11
-3.03125
 21
-1.109375
 31
0.0
  0
ARC
  5
1C2
330
165
100
AcDbEntity
  8
AM_0
 48
0.0241974895088349
100
AcDbCircle
 10
-3.21875
 20
-0.7968749999999996
 30
0.0
 40
0.3124999999999999
100
AcDbArc
 50
90.0
 51
270.0
  0
LINE
  5
1C3
330
165
100
AcDbEntity
  8
AM_0
 48
0.0241974895088349
100
AcDbLine
 10
-2.595535714285715
 20
1.59375
 30
0.0
 11
-3.68125
 21
1.59375
 31
0.0
  0
LINE
  5
1C4
330
165
100
AcDbEntity
  8
AM_4
 48
0.0241974895088349
100
AcDbLine
 10
-3.91875
 20
-1.356249999999999
 30
0.0
 11
-3.91875
 21
1.356249999999999
 31
0.0
  0
LINE
  5
1C5
330
165
100
AcDbEntity
  8
AM_0
 48
0.0241974895088349
100
AcDbLine
 10
-2.595535714285715
 20
-1.59375
 30
0.0
 11
-3.68125
 21
-1.59375
 31
0.0
  0
LWPOLYLINE
  5
1C6
330
165
100
AcDbEntity
  8
AM_0
 48
0.0241974895088349
100
AcDbPolyline
 90
        6
 70
     0
 43
0.0
 10
-2.430100313953744
 20
1.363878315965231
 10
-2.43340277527999
 20
1.371703441905227
 10
-2.437770475627536
 20
1.384602091347346
 10
-2.441680125866653
 20
1.40180431583215
 10
-2.443700047241682
 20
1.422891907032385
 10
-2.44375
 20
1.426785714285711
  0
LINE
  5
1C7
330
165
100
AcDbEntity
  8
AM_0
 48
0.0241974895088349
100
AcDbLine
 10
-2.556665306153255
 20
0.95625
 30
0.0
 11
-2.3125
 21
0.9562499999999999
 31
0.0
  0
LINE
  5
1C8
330
165
100
AcDbEntity
  8
AM_4
 48
0.0241974895088349
100
AcDbLine
 10
-2.556665306153255
 20
0.95625
 30
0.0
 11
-2.556665306153255
 21
1.588688497870427
 31
0.0
  0
LINE
  5
1C9
330
165
100
AcDbEntity
  8
AM_0
 48
0.0241974895088349
100
AcDbLine
 10
-2.44375
 20
1.441964285714286
 30
0.0
 11
-2.44375
 21
1.426785714285714
 31
0.0
  0
LWPOLYLINE
  5
1CA
330
165
100
AcDbEntity
  8
AM_0
 48
0.0241974895088349
100
AcDbPolyline
 90
       11
 70
     0
 43
0.0
 10
-2.556665306153255
 20
1.588688497870427
 10
-2.537957687193973
 20
1.582405283494305
 10
-2.51992438850892
 20
1.57357671094648
 10
-2.504192849891748
 20
1.563188805451548
 10
-2.489973439530736
 20
1.551030821415108
 10
-2.47226777166759
 20
1.530530178607201
 10
-2.458353906016992
 20
1.506926232585882
 10
-2.452031758935189
 20
1.491416463219214
 10
-2.447295500581807
 20
1.474579345153822
 10
-2.443853054403045
 20
1.447556579710811
 10
-2.44375
 20
1.441964285714286
  0
LWPOLYLINE
  5
1CB
330
165
100
AcDbEntity
  8
AM_0
 48
0.0241974895088349
100
AcDbPolyline
 90
        5
 70
     0
 43
0.0
 10
-2.44375
 20
-1.426785714285714
 10
-2.442224900431408
 20
-1.405322938927967
 10
-2.438168260257082
 20
-1.386002128260029
 10
-2.433178675387402
 20
-1.371131431337516
 10
-2.430100313953744
 20
-1.363878315965224
  0
LINE
  5
1CC
330
165
100
AcDbEntity
  8
AM_0
 48
0.0241974895088349
100
AcDbLine
 10
-2.556665306153255
 20
-0.95625
 30
0.0
 11
-2.312500000000001
 21
-0.95625
 31
0.0
  0
LINE
  5
1CD
330
165
100
AcDbEntity
  8
AM_4
 48
0.0241974895088349
100
AcDbLine
 10
-2.556665306153255
 20
-1.588688497870427
 30
0.0
 11
-2.556665306153255
 21
-0.95625
 31
0.0
  0
LWPOLYLINE
  5
1CE
330
165
100
AcDbEntity
  8
AM_0
 48
0.0241974895088349
100
AcDbPolyline
 90
       10
 70
     0
 43
0.0
 10
-2.44375
 20
-1.441964285714285
 10
-2.44440073989756
 20
-1.456004320540329
 10
-2.446369991850704
 20
-1.470044355366374
 10
-2.451479233666696
 20
-1.489783042001823
 10
-2.459078458532285
 20
-1.508434733384435
 10
-2.473395232580295
 20
-1.532078689612845
 10
-2.492771933656
 20
-1.553671530116394
 10
-2.508209095957239
 20
-1.566113247822462
 10
-2.526129497330472
 20
-1.576951989262373
 10
-2.556665306153255
 20
-1.588688497870427
  0
LINE
  5
1CF
330
165
100
AcDbEntity
  8
AM_0
 48
0.0241974895088349
100
AcDbLine
 10
-2.44375
 20
-1.426785714285714
 30
0.0
 11
-2.44375
 21
-1.441964285714285
 31
0.0
  0
LWPOLYLINE
  5
1D0
330
165
100
AcDbEntity
  8
AM_0
 48
0.0241974895088349
100
AcDbPolyline
 90
        5
 70
     0
 43
0.0
 10
2.44375
 20
1.426785714285714
 10
2.442224900431408
 20
1.405322938927967
 10
2.438168260257082
 20
1.386002128260029
 10
2.433178675387402
 20
1.371131431337516
 10
2.430100313953743
 20
1.363878315965223
  0
LINE
  5
1D1
330
165
100
AcDbEntity
  8
AM_0
 48
0.0241974895088349
100
AcDbLine
 10
2.312499999999996
 20
0.9562499999999999
 30
0.0
 11
2.556665306153255
 21
0.9562499999999999
 31
0.0
  0
LINE
  5
1D2
330
165
100
AcDbEntity
  8
AM_4
 48
0.0241974895088349
100
AcDbLine
 10
2.556665306153255
 20
0.9562499999999999
 30
0.0
 11
2.556665306153255
 21
1.588688497870428
 31
0.0
  0
LWPOLYLINE
  5
1D3
330
165
100
AcDbEntity
  8
AM_0
 48
0.0241974895088349
100
AcDbPolyline
 90
       10
 70
     0
 43
0.0
 10
2.44375
 20
1.441964285714286
 10
2.44442993623085
 20
1.456232203846597
 10
2.446369991850704
 20
1.470044355366375
 10
2.451549358081261
 20
1.490008743757147
 10
2.459078458532285
 20
1.508434733384435
 10
2.473648689953544
 20
1.532429652268213
 10
2.492771933655999
 20
1.553671530116395
 10
2.508424355341525
 20
1.566255350341742
 10
2.526129497330471
 20
1.576951989262373
 10
2.556665306153255
 20
1.588688497870428
  0
LINE
  5
1D4
330
165
100
AcDbEntity
  8
AM_0
 48
0.0241974895088349
100
AcDbLine
 10
2.44375
 20
1.426785714285714
 30
0.0
 11
2.44375
 21
1.441964285714286
 31
0.0
  0
LWPOLYLINE
  5
1D5
330
165
100
AcDbEntity
  8
AM_0
 48
0.0241974895088349
100
AcDbPolyline
 90
        6
 70
     0
 43
0.0
 10
2.430100313953744
 20
-1.363878315965231
 10
2.43340277527999
 20
-1.371703441905227
 10
2.437770475627535
 20
-1.384602091347345
 10
2.441680125866653
 20
-1.401804315832149
 10
2.443700047241682
 20
-1.422891907032384
 10
2.44375
 20
-1.426785714285711
  0
LINE
  5
1D6
330
165
100
AcDbEntity
  8
AM_0
 48
0.0241974895088349
100
AcDbLine
 10
2.312499999999996
 20
-0.95625
 30
0.0
 11
2.556665306153255
 21
-0.95625
 31
0.0
  0
LINE
  5
1D7
330
165
100
AcDbEntity
  8
AM_0
 48
0.0241974895088349
100
AcDbLine
 10
2.44375
 20
-1.441964285714285
 30
0.0
 11
2.44375
 21
-1.426785714285714
 31
0.0
  0
LWPOLYLINE
  5
1D8
330
165
100
AcDbEntity
  8
AM_0
 48
0.0241974895088349
100
AcDbPolyline
 90
       11
 70
     0
 43
0.0
 10
2.556665306153255
 20
-1.588688497870428
 10
2.537957687193973
 20
-1.582405283494305
 10
2.519924388508921
 20
-1.573576710946481
 10
2.504045312796247
 20
-1.563071949654192
 10
2.489973439530736
 20
-1.551030821415109
 10
2.47226777166759
 20
-1.530530178607201
 10
2.458353906016992
 20
-1.506926232585883
 10
2.451989448746578
 20
-1.491302155246871
 10
2.447295500581807
 20
-1.474579345153824
 10
2.443853054403045
 20
-1.447556579710812
 10
2.44375
 20
-1.441964285714285
  0
LINE
  5
1D9
330
165
100
AcDbEntity
  8
AM_4
 48
0.0241974895088349
100
AcDbLine
 10
2.556665306153255
 20
-1.588688497870428
 30
0.0
 11
2.556665306153255
 21
-0.95625
 31
0.0
  0
LINE
  5
1DA
330
165
100
AcDbEntity
  8
AM_4
 48
0.0241974895088349
100
AcDbLine
 10
-2.471875000000001
 20
-0.95625
 30
0.0
 11
-2.471875000000001
 21
0.95625
 31
0.0
  0
LINE
  5
1DB
330
165
100
AcDbEntity
  8
AM_4
 48
0.0241974895088349
100
AcDbLine
 10
2.471875
 20
-0.95625
 30
0.0
 11
2.471875
 21
0.95625
 31
0.0
  0
LWPOLYLINE
  5
1DC
330
165
100
AcDbEntity
  8
AM_0
 48
0.0241974895088349
100
AcDbPolyline
 90
       14
 70
     0
 43
0.0
 10
-2.430100313953744
 20
1.363878315965231
 10
-2.424091923636941
 20
1.352078349466681
 10
-2.417077962214698
 20
1.340846951123945
 10
-2.409111810168583
 20
1.330269598660114
 10
-2.400254094725762
 20
1.320426792114218
 10
-2.390572228449189
 20
1.311393441187319
 10
-2.3801398961873
 20
1.303238295134459
 10
-2.369036494287821
 20
1.296023419541312
 10
-2.357346526343627
 20
1.289803723967602
 10
-2.345158960069366
 20
1.284626544052199
 10
-2.332566550203441
 20
1.280531281260328
 10
-2.319665132588436
 20
1.277549103014621
 10
-2.30655289480249
 20
1.275702705492217
 10
-2.295541525187222
 20
1.27504215950009
  0
LWPOLYLINE
  5
1DD
330
165
100
AcDbEntity
  8
AM_0
 48
0.0241974895088349
100
AcDbPolyline
 90
       14
 70
     0
 43
0.0
 10
-2.295541525187222
 20
-1.27504215950009
 10
-2.308753234935541
 20
-1.275931366501931
 10
-2.321837170642841
 20
-1.277968666178752
 10
-2.334693755658093
 20
-1.281138553449858
 10
-2.347225143606314
 20
-1.285416903559085
 10
-2.359335963058558
 20
-1.290771155678763
 10
-2.370934043366081
 20
-1.297160560717276
 10
-2.381931116134631
 20
-1.304536491444253
 10
-2.392243487000225
 20
-1.312842812573152
 10
-2.401792672593795
 20
-1.322016307984689
 10
-2.410505997847019
 20
-1.331987161839674
 10
-2.41831714909347
 20
-1.342679489919704
 10
-2.42516667875566
 20
-1.354011917151886
 10
-2.430100313953744
 20
-1.363878315965231
  0
LINE
  5
1DE
330
165
100
AcDbEntity
  8
AM_0
 48
0.0241974895088349
100
AcDbLine
 10
-2.312500000000001
 20
-0.95625
 30
0.0
 11
-2.3125
 21
0.9562499999999999
 31
0.0
  0
LINE
  5
1DF
330
165
100
AcDbEntity
  8
AM_4
 48
0.0241974895088349
100
AcDbLine
 10
-2.430100313953744
 20
-1.363878315965231
 30
0.0
 11
-2.430100313953744
 21
-0.95625
 31
0.0
  0
LINE
  5
1E0
330
165
100
AcDbEntity
  8
AM_4
 48
0.0241974895088349
100
AcDbLine
 10
-2.430100313953744
 20
0.9562499999999999
 30
0.0
 11
-2.430100313953744
 21
1.363878315965231
 31
0.0
  0
LWPOLYLINE
  5
1E1
330
165
100
AcDbEntity
  8
AM_0
 48
0.0241974895088349
100
AcDbPolyline
 90
       14
 70
     0
 43
0.0
 10
2.430100313953744
 20
-1.36387831596523
 10
2.424091923636941
 20
-1.352078349466681
 10
2.417077962214698
 20
-1.340846951123945
 10
2.409111810168583
 20
-1.330269598660113
 10
2.400254094725762
 20
-1.320426792114217
 10
2.390572228449189
 20
-1.311393441187319
 10
2.380139896187299
 20
-1.303238295134459
 10
2.369036494287821
 20
-1.296023419541312
 10
2.357346526343626
 20
-1.289803723967601
 10
2.345158960069365
 20
-1.284626544052199
 10
2.332566550203441
 20
-1.280531281260328
 10
2.319665132588435
 20
-1.277549103014621
 10
2.306552894802489
 20
-1.275702705492217
 10
2.295541525187222
 20
-1.27504215950009
  0
LWPOLYLINE
  5
1E2
330
165
100
AcDbEntity
  8
AM_0
 48
0.0241974895088349
100
AcDbPolyline
 90
       14
 70
     0
 43
0.0
 10
2.295541525187222
 20
1.27504215950009
 10
2.30875323493554
 20
1.275931366501931
 10
2.32183717064284
 20
1.277968666178752
 10
2.334693755658093
 20
1.281138553449858
 10
2.347225143606314
 20
1.285416903559085
 10
2.359335963058558
 20
1.290771155678763
 10
2.370934043366081
 20
1.297160560717276
 10
2.381931116134631
 20
1.304536491444253
 10
2.392243487000224
 20
1.312842812573152
 10
2.401792672593794
 20
1.322016307984688
 10
2.410505997847018
 20
1.331987161839673
 10
2.41831714909347
 20
1.342679489919703
 10
2.42516667875566
 20
1.354011917151886
 10
2.430100313953744
 20
1.36387831596523
  0
LINE
  5
1E3
330
165
100
AcDbEntity
  8
AM_4
 48
0.0241974895088349
100
AcDbLine
 10
2.430100313953744
 20
-1.36387831596523
 30
0.0
 11
2.430100313953744
 21
-0.95625
 31
0.0
  0
LINE
  5
1E4
330
165
100
AcDbEntity
  8
AM_0
 48
0.0241974895088349
100
AcDbLine
 10
2.312499999999996
 20
0.9562499999999999
 30
0.0
 11
2.312499999999996
 21
-0.95625
 31
0.0
  0
LINE
  5
1E5
330
165
100
AcDbEntity
  8
AM_4
 48
0.0241974895088349
100
AcDbLine
 10
2.430100313953744
 20
0.9562499999999999
 30
0.0
 11
2.430100313953744
 21
1.363878315965229
 31
0.0
  0
LINE
  5
1E6
330
165
100
AcDbEntity
  8
AM_0
 48
0.0241974895088349
100
AcDbLine
 10
-2.295541525187222
 20
1.27504215950009
 30
0.0
 11
2.295541525187222
 21
1.27504215950009
 31
0.0
  0
LINE
  5
1E7
330
165
100
AcDbEntity
  8
AM_4
 48
0.0241974895088349
100
AcDbLine
 10
-2.295541525187222
 20
-1.27504215950009
 30
0.0
 11
-2.295541525187222
 21
1.27504215950009
 31
0.0
  0
LINE
  5
1E8
330
165
100
AcDbEntity
  8
AM_0
 48
0.0241974895088349
100
AcDbLine
 10
2.295541525187222
 20
-1.27504215950009
 30
0.0
 11
-2.295541525187222
 21
-1.27504215950009
 31
0.0
  0
LINE
  5
1E9
330
165
100
AcDbEntity
  8
AM_4
 48
0.0241974895088349
100
AcDbLine
 10
2.295541525187222
 20
-1.27504215950009
 30
0.0
 11
2.295541525187222
 21
1.27504215950009
 31
0.0
  0
LINE
  5
1EA
330
165
100
AcDbEntity
  8
AM_0
 48
0.0241974895088349
100
AcDbLine
 10
1.18125
 20
0.5000000000000001
 30
0.0
 11
1.156214658407863
 21
0.5000000000000001
 31
0.0
  0
LINE
  5
1EB
330
165
100
AcDbEntity
  8
AM_0
 48
0.0241974895088349
100
AcDbLine
 10
1.156210868819278
 20
-0.4999999999999998
 30
0.0
 11
1.18125
 21
-0.4999999999999998
 31
0.0
  0
LWPOLYLINE
  5
1EC
330
165
100
AcDbEntity
  8
AM_0
 48
0.0241974895088349
100
AcDbPolyline
 90
       40
 70
     0
 43
0.0
 10
1.15624356408247
 20
0.4999999999447721
 10
1.147727365488281
 20
0.4998998025921668
 10
1.110630650313314
 20
0.4972535322114121
 10
1.075153334565705
 20
0.4913528120836437
 10
1.039895338201155
 20
0.4822141615476054
 10
1.004126705103519
 20
0.4694962347452643
 10
0.9691391415364544
 20
0.453524082680198
 10
0.9358915212304557
 20
0.4348295153272451
 10
0.9039056360996237
 20
0.4132581881618146
 10
0.8726018975846396
 20
0.3882308499828846
 10
0.8431413214784726
 20
0.3604917644831743
 10
0.8159766364225371
 20
0.3304637277040552
 10
0.7910923899888741
 20
0.298147900642934
 10
0.7681031604209902
 20
0.2627260226140433
 10
0.7479698876794506
 20
0.2253523177876258
 10
0.731303778953473
 20
0.1873169361854268
 10
0.7176950667767865
 20
0.1479379230338274
 10
0.7070289504494771
 20
0.1062466288038381
 10
0.6998686992985066
 20
0.0637340042477072
 10
0.696399088037444
 20
0.0228209878970227
 10
0.696212313163623
 20
-0.01825302909383
 10
0.6994668219638902
 20
-0.0604116189721012
 10
0.7061683405229479
 20
-0.1021194097627881
 10
0.7157976188310026
 20
-0.1414696800384839
 10
0.7284476348635865
 20
-0.1798567417881773
 10
0.7444892736516622
 20
-0.2180530502755283
 10
0.7634427594992119
 20
-0.2547056694245476
 10
0.7848514120868075
 20
-0.2891367581392514
 10
0.8087404623123495
 20
-0.321604243653052
 10
0.8356804250659058
 20
-0.3527101663378697
 10
0.8647963507439965
 20
-0.3813131339045667
 10
0.895525302668768
 20
-0.4069601871817898
 10
0.9278982575118068
 20
-0.4297882547124888
 10
0.9626734884181278
 20
-0.4501638610118415
 10
0.9986260592572443
 20
-0.4672256951895812
 10
1.034150687120344
 20
-0.4804063945297672
 10
1.07021897730427
 20
-0.490274489878867
 10
1.107657248132143
 20
-0.4968816955427355
 10
1.145079568805341
 20
-0.4998341347349073
 10
1.156245244311746
 20
-0.4999999999698445
  0
ELLIPSE
  5
1ED
330
165
100
AcDbEntity
  8
AM_4
 48
0.0241974895088349
100
AcDbEllipse
 10
1.18125
 20
0.0000000000000002
 30
0.0
 11
-1.914284349463475E-16
 21
0.5000000000000001
 31
0.0
210
0.0
220
0.0
230
1.0
 40
0.8660254037844387
 41
0.0027927057722632
 42
3.141592653589793
  0
LINE
  5
1EE
330
165
100
AcDbEntity
  8
AM_0
 48
0.0241974895088349
100
AcDbLine
 10
0.5985190417995793
 20
-1.275
 30
0.0
 11
0.5985190417995793
 21
1.275
 31
0.0
  0
LINE
  5
1EF
330
165
100
AcDbEntity
  8
AM_0
 48
0.0241974895088349
100
AcDbLine
 10
-0.5985190417995793
 20
-1.275
 30
0.0
 11
-0.5985190417995793
 21
1.275
 31
0.0
  0
ELLIPSE
  5
1F0
330
165
100
AcDbEntity
  8
AM_4
 48
0.0241974895088349
100
AcDbEllipse
 10
1.20625
 20
0.0000000000000001
 30
0.0
 11
-8.266365894244633E-17
 21
-0.45
 31
0.0
210
0.0
220
0.0
230
1.0
 40
0.8660254037844385
 41
0.0
 42
6.283185307179586
  0
LWPOLYLINE
  5
1F1
330
165
100
AcDbEntity
  8
AM_0
 48
0.0241974895088349
100
AcDbPolyline
 90
       24
 70
     0
 43
0.0
 10
1.620961431702997
 20
0.0000000000000001
 10
1.620620837091321
 20
0.019694275473637
 10
1.618224480729268
 20
0.0557516781527497
 10
1.613544471121703
 20
0.0915308427231479
 10
1.606603359191269
 20
0.1268398982930516
 10
1.597434981819099
 20
0.1614944443559131
 10
1.586084634131397
 20
0.195312852369545
 10
1.572609045866284
 20
0.2281171075575746
 10
1.557076341306174
 20
0.2597336951933126
 10
1.539565966481502
 20
0.2899945419018779
 10
1.520168559227904
 20
0.3187380221258534
 10
1.498985729705568
 20
0.3458100329543725
 10
1.476129712826501
 20
0.3710651288863784
 10
1.451722852364663
 20
0.3943676918662785
 10
1.425896882272132
 20
0.41559309274765
 10
1.398791986087055
 20
0.4346287818000326
 10
1.370555640486171
 20
0.4513752332241546
 10
1.341341281106318
 20
0.4657466675801256
 10
1.311306861538059
 20
0.4776714906902261
 10
1.280613401571734
 20
0.4870924183692746
 10
1.249423630416403
 20
0.4939662987554719
 10
1.217900820032383
 20
0.4982636892303617
 10
1.186207873454359
 20
0.4999682821985097
 10
1.179990233913266
 20
0.4999979522401635
  0
LWPOLYLINE
  5
1F2
330
165
100
AcDbEntity
  8
AM_0
 48
0.0241974895088349
100
AcDbPolyline
 90
       24
 70
     0
 43
0.0
 10
1.184565324034056
 20
-0.4999858173796138
 10
1.193131822960922
 20
-0.4998178016970619
 10
1.224772055242473
 20
-0.4975498514839315
 10
1.256171709745365
 20
-0.4927033498212213
 10
1.287172678205775
 20
-0.4853051923742274
 10
1.317619563065366
 20
-0.4753935016007727
 10
1.347359241877585
 20
-0.4630176944956125
 10
1.376241123628849
 20
-0.4482386932224423
 10
1.404117609572171
 20
-0.4311292025235145
 10
1.430844778882725
 20
-0.4117739470126953
 10
1.456283275047528
 20
-0.390269769445355
 10
1.480299333151126
 20
-0.366725517512981
 10
1.502765867848138
 20
-0.3412616839997726
 10
1.52356353910386
 20
-0.3140098038008561
 10
1.542581725423181
 20
-0.2851116428633639
 10
1.559719356637864
 20
-0.2547182333534214
 10
1.574885583611631
 20
-0.2229888151765592
 10
1.588000284687471
 20
-0.1900897387581802
 10
1.598994424879568
 20
-0.1561933719699698
 10
1.607810292752433
 20
-0.1214770396747125
 10
1.614401642580358
 20
-0.0861220109342273
 10
1.618733767653843
 20
-0.0503125383704705
 10
1.620783526535073
 20
-0.0142349470137654
 10
1.620961431702997
 20
0.0000000000000001
  0
ELLIPSE
  5
1F3
330
165
100
AcDbEntity
  8
AM_0
 48
0.0241974895088349
100
AcDbEllipse
 10
1.181250000003833
 20
0.0000000000077751
 30
0.0
 11
1.534331281672824E-11
 21
0.5000000000077751
 31
0.0
210
0.0
220
0.0
230
1.0
 40
0.8660254037844292
 41
3.141592653616376
 42
3.149016721348499
  0
ENDBLK
  5
168
330
165
100
AcDbEntity
  8
0
100
AcDbBlockEnd
  0
ENDSEC
  0
SECTION
  2
ENTITIES
  0
ATTDEF
  5
6F
330
1F
100
AcDbEntity
  8
AM_6
100
AcDbText
 10
9.0
 20
1.798076923076923
 30
0.0
 40
0.5
  1
S-2000 Pillow Block 4-Bolt Inch Bore (Contact Seal)
100
AcDbAttributeDefinition
  3

  2
NN
 70
     8
280
     0
  0
ATTDEF
  5
70
330
1F
100
AcDbEntity
  8
AM_6
100
AcDbText
 10
9.0
 20
1.298076923076923
 30
0.0
 40
0.5
  1
S-2000 Pillow Block Bearing -Inch (4-Bolt Base)
100
AcDbAttributeDefinition
  3

  2
NT
 70
     8
280
     0
  0
ATTDEF
  5
71
330
1F
100
AcDbEntity
  8
AM_6
100
AcDbText
 10
9.0
 20
0.7980769230769231
 30
0.0
 40
0.5
  1
070361
100
AcDbAttributeDefinition
  3

  2
NB
 70
     8
280
     0
  0
ATTDEF
  5
72
330
1F
100
AcDbEntity
  8
AM_6
100
AcDbText
 10
9.0
 20
0.2980769230769231
 30
0.0
 40
0.5
  1
$PN.
100
AcDbAttributeDefinition
  3

  2
NBSYN
 70
     8
280
     0
  0
ATTDEF
  5
73
330
1F
100
AcDbEntity
  8
AM_6
100
AcDbText
 10
9.0
 20
-0.2019230769230769
 30
0.0
 40
0.5
  1
070361
100
AcDbAttributeDefinition
  3

  2
LINA
 70
     8
280
     0
  0
ATTDEF
  5
74
330
1F
100
AcDbEntity
  8
AM_6
100
AcDbText
 10
9.0
 20
-0.7019230769230769
 30
0.0
 40
0.5
  1
1-15/16
100
AcDbAttributeDefinition
  3

  2
SS
 70
     8
280
     0
  0
ATTDEF
  5
75
330
1F
100
AcDbEntity
  8
AM_6
100
AcDbText
 10
9.0
 20
-1.201923076923077
 30
0.0
 40
0.5
  1
070361
100
AcDbAttributeDefinition
  3

  2
PN
 70
     8
280
     0
  0
ATTDEF
  5
76
330
1F
100
AcDbEntity
  8
AM_6
100
AcDbText
 10
9.0
 20
-1.701923076923077
 30
0.0
 40
0.5
  1
P4B-S2-115R
100
AcDbAttributeDefinition
  3

  2
DESCRIPTION
 70
     8
280
     0
  0
ATTDEF
  5
77
330
1F
100
AcDbEntity
  8
AM_6
100
AcDbText
 10
9.0
 20
-2.201923076923077
 30
0.0
 40
0.5
  1
Non-Expansion Type
100
AcDbAttributeDefinition
  3

  2
EF
 70
     8
280
     0
  0
ATTDEF
  5
78
330
1F
100
AcDbEntity
  8
AM_6
100
AcDbText
 10
9.0
 20
-2.701923076923077
 30
0.0
 40
0.5
  1
Contact Seal
100
AcDbAttributeDefinition
  3

  2
ST
 70
     8
280
     0
  0
ATTDEF
  5
79
330
1F
100
AcDbEntity
  8
AM_6
100
AcDbText
 10
9.0
 20
-3.201923076923077
 30
0.0
 40
0.5
  1
2-27/32
100
AcDbAttributeDefinition
  3

  2
A
 70
     8
280
     0
  0
ATTDEF
  5
7A
330
1F
100
AcDbEntity
  8
AM_6
100
AcDbText
 10
9.0
 20
-3.701923076923077
 30
0.0
 40
0.5
  1
8
100
AcDbAttributeDefinition
  3

  2
B
 70
     8
280
     0
  0
ATTDEF
  5
7B
330
1F
100
AcDbEntity
  8
AM_6
100
AcDbText
 10
9.0
 20
-4.201923076923077
 30
0.0
 40
0.5
  1
3-3/16
100
AcDbAttributeDefinition
  3

  2
C
 70
     8
280
     0
  0
ATTDEF
  5
7C
330
1F
100
AcDbEntity
  8
AM_6
100
AcDbText
 10
9.0
 20
-4.701923076923077
 30
0.0
 40
0.5
  1
6-1/16
100
AcDbAttributeDefinition
  3

  2
DMIN
 70
     8
280
     0
  0
ATTDEF
  5
7D
330
1F
100
AcDbEntity
  8
AM_6
100
AcDbText
 10
9.0
 20
-5.201923076923077
 30
0.0
 40
0.5
  1
6-7/16
100
AcDbAttributeDefinition
  3

  2
DMAX
 70
     8
280
     0
  0
ATTDEF
  5
7E
330
1F
100
AcDbEntity
  8
AM_6
100
AcDbText
 10
9.0
 20
-5.701923076923077
 30
0.0
 40
0.5
  1
1-19/32
100
AcDbAttributeDefinition
  3

  2
E
 70
     8
280
     0
  0
ATTDEF
  5
7F
330
1F
100
AcDbEntity
  8
AM_6
100
AcDbText
 10
9.0
 20
-6.201923076923077
 30
0.0
 40
0.5
  1
1/2
100
AcDbAttributeDefinition
  3

  2
F
 70
     8
280
     0
  0
ATTDEF
  5
80
330
1F
100
AcDbEntity
  8
AM_6
100
AcDbText
 10
9.0
 20
-6.701923076923077
 30
0.0
 40
0.5
  1
13/16
100
AcDbAttributeDefinition
  3

  2
G
 70
     8
280
     0
  0
ATTDEF
  5
81
330
1F
100
AcDbEntity
  8
AM_6
100
AcDbText
 10
9.0
 20
-7.201923076923077
 30
0.0
 40
0.5
  1
1-5/16
100
AcDbAttributeDefinition
  3

  2
H
 70
     8
280
     0
  0
ATTDEF
  5
82
330
1F
100
AcDbEntity
  8
AM_6
100
AcDbText
 10
9.0
 20
-7.701923076923077
 30
0.0
 40
0.5
  1
4-9/16
100
AcDbAttributeDefinition
  3

  2
J
 70
     8
280
     0
  0
ATTDEF
  5
83
330
1F
100
AcDbEntity
  8
AM_6
100
AcDbText
 10
9.0
 20
-8.201923076923077
 30
0.0
 40
0.5
  1
3-7/16
100
AcDbAttributeDefinition
  3

  2
L
 70
     8
280
     0
  0
ATTDEF
  5
84
330
1F
100
AcDbEntity
  8
AM_6
100
AcDbText
 10
9.0
 20
-8.701923076923077
 30
0.0
 40
0.5
  1
2-1/4
100
AcDbAttributeDefinition
  3

  2
M
 70
     8
280
     0
  0
ATTDEF
  5
85
330
1F
100
AcDbEntity
  8
AM_6
100
AcDbText
 10
9.0
 20
-9.201923076923077
 30
0.0
 40
0.5
  1
27/32
100
AcDbAttributeDefinition
  3

  2
R
 70
     8
280
     0
  0
ATTDEF
  5
86
330
1F
100
AcDbEntity
  8
AM_6
100
AcDbText
 10
9.0
 20
-9.701923076923077
 30
0.0
 40
0.5
  1
2
100
AcDbAttributeDefinition
  3

  2
S
 70
     8
280
     0
  0
ATTDEF
  5
87
330
1F
100
AcDbEntity
  8
AM_6
100
AcDbText
 10
9.0
 20
-10.20192307692308
 30
0.0
 40
0.5
  1
1/4
100
AcDbAttributeDefinition
  3

  2
X
 70
     8
280
     0
  0
ATTDEF
  5
88
330
1F
100
AcDbEntity
  8
AM_6
100
AcDbText
 10
9.0
 20
-10.70192307692308
 30
0.0
 40
0.5
  1
0.020
100
AcDbAttributeDefinition
  3

  2
Y
 70
     8
280
     0
  0
ATTDEF
  5
89
330
1F
100
AcDbEntity
  8
AM_6
100
AcDbText
 10
9.0
 20
-11.20192307692308
 30
0.0
 40
0.5
  1
2-19/64
100
AcDbAttributeDefinition
  3

  2
Z
 70
     8
280
     0
  0
ATTDEF
  5
8A
330
1F
100
AcDbEntity
  8
AM_6
100
AcDbText
 10
9.0
 20
-11.70192307692308
 30
0.0
 40
0.5
  1
baldor
100
AcDbAttributeDefinition
  3

  2
COMPANY
 70
     8
280
     0
  0
INSERT
  5
8C
330
1F
100
AcDbEntity
  8
0
100
AcDbBlockReference
  2
1_1_15_16CS2i_0_in_070361_4
 10
0.0
 20
0.0
 30
0.0
  0
INSERT
  5
D4
330
1F
100
AcDbEntity
  8
0
100
AcDbBlockReference
  2
2_070005i_0_in_070361_4
 10
0.0
 20
0.0
 30
0.0
  0
INSERT
  5
127
330
1F
100
AcDbEntity
  8
0
100
AcDbBlockReference
  2
3_405015E_Inch_0_in_070361_4
 10
0.0
 20
0.0
 30
0.0
  0
INSERT
  5
166
330
1F
100
AcDbEntity
  8
0
100
AcDbBlockReference
  2
4_070361H_0_in_070361_4
 10
0.0
 20
0.0
 30
0.0
  0
POINT
  5
1F5
330
1F
100
AcDbEntity
  8
ConnectionPoints
100
AcDbPoint
 10
0.0
 20
-2.0
 30
0.0000000000000001
  0
POINT
  5
1F6
330
1F
100
AcDbEntity
  8
ConnectionPoints
100
AcDbPoint
 10
0.0
 20
1.7335
 30
-0.0000000000000001
  0
POINT
  5
1F7
330
1F
100
AcDbEntity
  8
ConnectionPoints
100
AcDbPoint
 10
0.0
 20
-2.0
 30
0.0000000000000001
  0
POINT
  5
1F8
330
1F
100
AcDbEntity
  8
ConnectionPoints
100
AcDbPoint
 10
1.20625
 20
0.0000000000000001
 30
2.089286286629958
  0
POINT
  5
1F9
330
1F
100
AcDbEntity
  8
ConnectionPoints
100
AcDbPoint
 10
0.0
 20
-1.75
 30
0.0000000000000001
  0
POINT
  5
1FA
330
1F
100
AcDbEntity
  8
ConnectionPoints
100
AcDbPoint
 10
0.0
 20
-2.0
 30
0.0000000000000001
  0
POINT
  5
1FB
330
1F
100
AcDbEntity
  8
ConnectionPoints
100
AcDbPoint
 10
1.20625
 20
0.0000000000000001
 30
2.089286286629958
  0
ENDSEC
  0
SECTION
  2
OBJECTS
  0
DICTIONARY
  5
C
330
0
100
AcDbDictionary
281
     1
  3
ACAD_DETAILVIEWSTYLE
350
203
  3
ACAD_GROUP
350
D
  3
ACAD_LAYOUT
350
1A
  3
ACAD_MATERIAL
350
43
  3
ACAD_MLEADERSTYLE
350
6B
  3
ACAD_MLINESTYLE
350
17
  3
ACAD_PLOTSETTINGS
350
19
  3
ACAD_PLOTSTYLENAME
350
E
  3
ACAD_SCALELIST
350
47
  3
ACAD_SECTIONVIEWSTYLE
350
204
  3
ACAD_TABLESTYLE
350
69
  3
ACAD_VISUALSTYLE
350
2A
  3
ACDB_RECOMPOSE_DATA
350
200
  3
AcDbVariableDictionary
350
1FC
  0
SUN
  5
6D
330
29
100
AcDbSun
 90
        1
290
     0
 63
     7
421
 16777215
 40
1.0
291
     1
 91
  2455826
 92
 54000000
292
     0
 70
     2
 71
   256
280
     1
  0
DICTIONARY
  5
203
102
{ACAD_REACTORS
330
C
102
}
330
C
100
AcDbDictionary
281
     1
  0
DICTIONARY
  5
D
102
{ACAD_REACTORS
330
C
102
}
330
C
100
AcDbDictionary
281
     1
  0
DICTIONARY
  5
1A
102
{ACAD_REACTORS
330
C
102
}
330
C
100
AcDbDictionary
281
     1
  3
Layout1
350
1E
  3
Layout2
350
26
  3
Model
350
22
  0
DICTIONARY
  5
43
102
{ACAD_REACTORS
330
C
102
}
330
C
100
AcDbDictionary
281
     1
  3
ByBlock
350
45
  3
ByLayer
350
44
  3
Global
350
46
  0
DICTIONARY
  5
6B
102
{ACAD_REACTORS
330
C
102
}
330
C
100
AcDbDictionary
281
     1
  3
Standard
350
6C
  0
DICTIONARY
  5
17
102
{ACAD_REACTORS
330
C
102
}
330
C
100
AcDbDictionary
281
     1
  3
Standard
350
18
  0
DICTIONARY
  5
19
102
{ACAD_REACTORS
330
C
102
}
330
C
100
AcDbDictionary
281
     1
  0
ACDBDICTIONARYWDFLT
  5
E
102
{ACAD_REACTORS
330
C
102
}
330
C
100
AcDbDictionary
281
     1
  3
Normal
350
F
100
AcDbDictionaryWithDefault
340
F
  0
DICTIONARY
  5
47
102
{ACAD_REACTORS
330
C
102
}
330
C
100
AcDbDictionary
281
     1
  3
A0
350
48
  3
A1
350
49
  3
A2
350
4A
  3
A3
350
4B
  3
A4
350
4C
  3
A5
350
4D
  3
A6
350
4E
  3
A7
350
4F
  3
A8
350
50
  3
A9
350
51
  3
B0
350
52
  3
B1
350
53
  3
B2
350
54
  3
B3
350
55
  3
B4
350
56
  3
B5
350
57
  3
B6
350
58
  3
B7
350
59
  3
B8
350
5A
  3
B9
350
5B
  3
C0
350
5C
  3
C1
350
5D
  3
C2
350
5E
  3
C3
350
5F
  3
C4
350
60
  3
C5
350
61
  3
C6
350
62
  3
C7
350
63
  3
C8
350
64
  3
C9
350
65
  3
D0
350
66
  3
D1
350
67
  3
D2
350
68
  0
DICTIONARY
  5
204
102
{ACAD_REACTORS
330
C
102
}
330
C
100
AcDbDictionary
281
     1
  0
DICTIONARY
  5
69
102
{ACAD_REACTORS
330
C
102
}
330
C
100
AcDbDictionary
281
     1
  3
Standard
350
6A
  0
DICTIONARY
  5
2A
102
{ACAD_REACTORS
330
C
102
}
330
C
100
AcDbDictionary
281
     1
  3
2dWireframe
350
2F
  3
Basic
350
32
  3
Brighten
350
36
  3
ColorChange
350
3A
  3
Conceptual
350
34
  3
Dim
350
35
  3
EdgeColorOff
350
3D
  3
Facepattern
350
39
  3
Flat
350
2B
  3
FlatWithEdges
350
2C
  3
Gouraud
350
2D
  3
GouraudWithEdges
350
2E
  3
Hidden
350
31
  3
JitterOff
350
3B
  3
Linepattern
350
38
  3
OverhangOff
350
3C
  3
Realistic
350
33
  3
Shaded
350
42
  3
Shaded with edges
350
41
  3
Shades of Gray
350
3E
  3
Sketchy
350
3F
  3
Thicken
350
37
  3
Wireframe
350
30
  3
X-Ray
350
40
  0
XRECORD
  5
200
102
{ACAD_REACTORS
330
C
102
}
330
C
100
AcDbXrecord
280
     1
 90
        1
330
6A
  0
DICTIONARY
  5
1FC
102
{ACAD_REACTORS
330
C
102
}
330
C
100
AcDbDictionary
281
     1
  3
CANNOSCALE
350
1FD
  3
CMLEADERSTYLE
350
202
  3
CTABLESTYLE
350
201
  0
LAYOUT
  5
1E
102
{ACAD_REACTORS
330
1A
102
}
330
1A
100
AcDbPlotSettings
  1

  2
none_device
  4

  6

 40
0.0
 41
0.0
 42
0.0
 43
0.0
 44
0.0
 45
0.0
 46
0.0
 47
0.0
 48
0.0
 49
0.0
140
0.0
141
0.0
142
1.0
143
1.0
 70
   688
 72
     0
 73
     0
 74
     5
  7

 75
    16
 76
     0
 77
     2
 78
   300
147
1.0
148
0.0
149
0.0
100
AcDbLayout
  1
Layout1
 70
     1
 71
     1
 10
0.0
 20
0.0
 11
12.0
 21
9.0
 12
0.0
 22
0.0
 32
0.0
 14
1.000000000000000E+20
 24
1.000000000000000E+20
 34
1.000000000000000E+20
 15
-1.000000000000000E+20
 25
-1.000000000000000E+20
 35
-1.000000000000000E+20
146
0.0
 13
0.0
 23
0.0
 33
0.0
 16
1.0
 26
0.0
 36
0.0
 17
0.0
 27
1.0
 37
0.0
 76
     0
330
1B
  0
LAYOUT
  5
26
102
{ACAD_REACTORS
330
1A
102
}
330
1A
100
AcDbPlotSettings
  1

  2
none_device
  4

  6

 40
0.0
 41
0.0
 42
0.0
 43
0.0
 44
0.0
 45
0.0
 46
0.0
 47
0.0
 48
0.0
 49
0.0
140
0.0
141
0.0
142
1.0
143
1.0
 70
   688
 72
     0
 73
     0
 74
     5
  7

 75
    16
 76
     0
 77
     2
 78
   300
147
1.0
148
0.0
149
0.0
100
AcDbLayout
  1
Layout2
 70
     1
 71
     2
 10
0.0
 20
0.0
 11
0.0
 21
0.0
 12
0.0
 22
0.0
 32
0.0
 14
0.0
 24
0.0
 34
0.0
 15
0.0
 25
0.0
 35
0.0
146
0.0
 13
0.0
 23
0.0
 33
0.0
 16
1.0
 26
0.0
 36
0.0
 17
0.0
 27
1.0
 37
0.0
 76
     0
330
23
  0
LAYOUT
  5
22
102
{ACAD_REACTORS
330
1A
102
}
330
1A
100
AcDbPlotSettings
  1

  2
none_device
  4
Letter_(8.50_x_11.00_Inches)
  6

 40
6.35
 41
6.35
 42
6.35000508
 43
6.35000508
 44
215.9
 45
279.4
 46
0.0
 47
0.0
 48
0.0
 49
0.0
140
0.0
141
0.0
142
1.0
143
1.0
 70
  1712
 72
     0
 73
     0
 74
     0
  7

 75
     0
 76
     0
 77
     2
 78
   300
147
1.0
148
0.0
149
0.0
100
AcDbLayout
  1
Model
 70
     1
 71
     0
 10
0.0
 20
0.0
 11
12.0
 21
9.0
 12
0.0
 22
0.0
 32
0.0
 14
1.000000000000000E+20
 24
1.000000000000000E+20
 34
1.000000000000000E+20
 15
-1.000000000000000E+20
 25
-1.000000000000000E+20
 35
-1.000000000000000E+20
146
0.0
 13
0.0
 23
0.0
 33
0.0
 16
1.0
 26
0.0
 36
0.0
 17
0.0
 27
1.0
 37
0.0
 76
     0
330
1F
331
29
  0
MATERIAL
  5
45
102
{ACAD_REACTORS
330
43
102
}
330
43
100
AcDbMaterial
  1
ByBlock
 72
     1
 94
      127
  0
MATERIAL
  5
44
102
{ACAD_REACTORS
330
43
102
}
330
43
100
AcDbMaterial
  1
ByLayer
 72
     1
 94
      127
  0
MATERIAL
  5
46
102
{ACAD_REACTORS
330
43
102
}
330
43
100
AcDbMaterial
  1
Global
 72
     1
 94
      127
  0
MLEADERSTYLE
  5
6C
102
{ACAD_REACTORS
330
6B
102
}
330
6B
100
AcDbMLeaderStyle
179
     2
170
     2
171
     1
172
     0
 90
        2
 40
0.0
 41
0.0
173
     1
 91
-1056964608
340
14
 92
       -2
290
     1
 42
0.09
291
     1
 43
0.36
  3
Standard
341
0
 44
0.18
300

342
11
174
     1
178
     6
175
     1
176
     0
 93
-1056964608
 45
0.18
292
     0
297
     0
 46
0.18
343
0
 94
-1056964608
 47
1.0
 49
1.0
140
1.0
293
     1
141
0.0
294
     1
177
     0
142
1.0
295
     0
296
     0
143
0.125
271
     0
272
     9
273
     9
298
     0
  0
MLINESTYLE
  5
18
102
{ACAD_REACTORS
330
17
102
}
330
17
100
AcDbMlineStyle
  2
Standard
 70
     0
  3

 62
   256
 51
90.0
 52
90.0
 71
     2
 49
0.5
 62
   256
  6
BYLAYER
 49
-0.5
 62
   256
  6
BYLAYER
  0
ACDBPLACEHOLDER
  5
F
102
{ACAD_REACTORS
330
E
102
}
330
E
  0
SCALE
  5
48
102
{ACAD_REACTORS
330
47
102
}
330
47
100
AcDbScale
 70
     0
300
1:1
140
1.0
141
1.0
290
     1
  0
SCALE
  5
49
102
{ACAD_REACTORS
330
47
102
}
330
47
100
AcDbScale
 70
     0
300
1:2
140
1.0
141
2.0
290
     0
  0
SCALE
  5
4A
102
{ACAD_REACTORS
330
47
102
}
330
47
100
AcDbScale
 70
     0
300
1:4
140
1.0
141
4.0
290
     0
  0
SCALE
  5
4B
102
{ACAD_REACTORS
330
47
102
}
330
47
100
AcDbScale
 70
     0
300
1:5
140
1.0
141
5.0
290
     0
  0
SCALE
  5
4C
102
{ACAD_REACTORS
330
47
102
}
330
47
100
AcDbScale
 70
     0
300
1:8
140
1.0
141
8.0
290
     0
  0
SCALE
  5
4D
102
{ACAD_REACTORS
330
47
102
}
330
47
100
AcDbScale
 70
     0
300
1:10
140
1.0
141
10.0
290
     0
  0
SCALE
  5
4E
102
{ACAD_REACTORS
330
47
102
}
330
47
100
AcDbScale
 70
     0
300
1:16
140
1.0
141
16.0
290
     0
  0
SCALE
  5
4F
102
{ACAD_REACTORS
330
47
102
}
330
47
100
AcDbScale
 70
     0
300
1:20
140
1.0
141
20.0
290
     0
  0
SCALE
  5
50
102
{ACAD_REACTORS
330
47
102
}
330
47
100
AcDbScale
 70
     0
300
1:30
140
1.0
141
30.0
290
     0
  0
SCALE
  5
51
102
{ACAD_REACTORS
330
47
102
}
330
47
100
AcDbScale
 70
     0
300
1:40
140
1.0
141
40.0
290
     0
  0
SCALE
  5
52
102
{ACAD_REACTORS
330
47
102
}
330
47
100
AcDbScale
 70
     0
300
1:50
140
1.0
141
50.0
290
     0
  0
SCALE
  5
53
102
{ACAD_REACTORS
330
47
102
}
330
47
100
AcDbScale
 70
     0
300
1:100
140
1.0
141
100.0
290
     0
  0
SCALE
  5
54
102
{ACAD_REACTORS
330
47
102
}
330
47
100
AcDbScale
 70
     0
300
2:1
140
2.0
141
1.0
290
     0
  0
SCALE
  5
55
102
{ACAD_REACTORS
330
47
102
}
330
47
100
AcDbScale
 70
     0
300
4:1
140
4.0
141
1.0
290
     0
  0
SCALE
  5
56
102
{ACAD_REACTORS
330
47
102
}
330
47
100
AcDbScale
 70
     0
300
8:1
140
8.0
141
1.0
290
     0
  0
SCALE
  5
57
102
{ACAD_REACTORS
330
47
102
}
330
47
100
AcDbScale
 70
     0
300
10:1
140
10.0
141
1.0
290
     0
  0
SCALE
  5
58
102
{ACAD_REACTORS
330
47
102
}
330
47
100
AcDbScale
 70
     0
300
100:1
140
100.0
141
1.0
290
     0
  0
SCALE
  5
59
102
{ACAD_REACTORS
330
47
102
}
330
47
100
AcDbScale
 70
     0
300
1/128" = 1'-0"
140
0.0078125
141
12.0
290
     0
  0
SCALE
  5
5A
102
{ACAD_REACTORS
330
47
102
}
330
47
100
AcDbScale
 70
     0
300
1/64" = 1'-0"
140
0.015625
141
12.0
290
     0
  0
SCALE
  5
5B
102
{ACAD_REACTORS
330
47
102
}
330
47
100
AcDbScale
 70
     0
300
1/32" = 1'-0"
140
0.03125
141
12.0
290
     0
  0
SCALE
  5
5C
102
{ACAD_REACTORS
330
47
102
}
330
47
100
AcDbScale
 70
     0
300
1/16" = 1'-0"
140
0.0625
141
12.0
290
     0
  0
SCALE
  5
5D
102
{ACAD_REACTORS
330
47
102
}
330
47
100
AcDbScale
 70
     0
300
3/32" = 1'-0"
140
0.09375
141
12.0
290
     0
  0
SCALE
  5
5E
102
{ACAD_REACTORS
330
47
102
}
330
47
100
AcDbScale
 70
     0
300
1/8" = 1'-0"
140
0.125
141
12.0
290
     0
  0
SCALE
  5
5F
102
{ACAD_REACTORS
330
47
102
}
330
47
100
AcDbScale
 70
     0
300
3/16" = 1'-0"
140
0.1875
141
12.0
290
     0
  0
SCALE
  5
60
102
{ACAD_REACTORS
330
47
102
}
330
47
100
AcDbScale
 70
     0
300
1/4" = 1'-0"
140
0.25
141
12.0
290
     0
  0
SCALE
  5
61
102
{ACAD_REACTORS
330
47
102
}
330
47
100
AcDbScale
 70
     0
300
3/8" = 1'-0"
140
0.375
141
12.0
290
     0
  0
SCALE
  5
62
102
{ACAD_REACTORS
330
47
102
}
330
47
100
AcDbScale
 70
     0
300
1/2" = 1'-0"
140
0.5
141
12.0
290
     0
  0
SCALE
  5
63
102
{ACAD_REACTORS
330
47
102
}
330
47
100
AcDbScale
 70
     0
300
3/4" = 1'-0"
140
0.75
141
12.0
290
     0
  0
SCALE
  5
64
102
{ACAD_REACTORS
330
47
102
}
330
47
100
AcDbScale
 70
     0
300
1" = 1'-0"
140
1.0
141
12.0
290
     0
  0
SCALE
  5
65
102
{ACAD_REACTORS
330
47
102
}
330
47
100
AcDbScale
 70
     0
300
1-1/2" = 1'-0"
140
1.5
141
12.0
290
     0
  0
SCALE
  5
66
102
{ACAD_REACTORS
330
47
102
}
330
47
100
AcDbScale
 70
     0
300
3" = 1'-0"
140
3.0
141
12.0
290
     0
  0
SCALE
  5
67
102
{ACAD_REACTORS
330
47
102
}
330
47
100
AcDbScale
 70
     0
300
6" = 1'-0"
140
6.0
141
12.0
290
     0
  0
SCALE
  5
68
102
{ACAD_REACTORS
330
47
102
}
330
47
100
AcDbScale
 70
     0
300
1'-0" = 1'-0"
140
12.0
141
12.0
290
     0
  0
TABLESTYLE
  5
6A
102
{ACAD_REACTORS
330
69
102
}
102
{ACAD_XDICTIONARY
360
1FE
102
}
330
69
100
AcDbTableStyle
  3
Standard
 70
     0
 71
     0
 40
0.06
 41
0.06
280
     0
281
     0
  7
Standard
140
0.18
170
     2
 62
     0
 63
   257
283
     0
 90
        4
 91
        0
  1

274
    -2
284
     1
 64
     0
275
    -2
285
     1
 65
     0
276
    -2
286
     1
 66
     0
277
    -2
287
     1
 67
     0
278
    -2
288
     1
 68
     0
279
    -2
289
     1
 69
     0
  7
Standard
140
0.25
170
     5
 62
     0
 63
   257
283
     0
 90
        4
 91
        0
  1

274
    -2
284
     1
 64
     0
275
    -2
285
     1
 65
     0
276
    -2
286
     1
 66
     0
277
    -2
287
     1
 67
     0
278
    -2
288
     1
 68
     0
279
    -2
289
     1
 69
     0
  7
Standard
140
0.18
170
     5
 62
     0
 63
   257
283
     0
 90
        4
 91
        0
  1

274
    -2
284
     1
 64
     0
275
    -2
285
     1
 65
     0
276
    -2
286
     1
 66
     0
277
    -2
287
     1
 67
     0
278
    -2
288
     1
 68
     0
279
    -2
289
     1
 69
     0
  0
VISUALSTYLE
  5
2F
102
{ACAD_REACTORS
330
2A
102
}
330
2A
100
AcDbVisualStyle
  2
2dWireframe
 70
     4
177
     3
291
     0
 70
    58
 90
        0
176
     1
 90
        2
176
     1
 90
        0
176
     1
 90
        0
176
     1
 40
0.6
176
     1
 40
30.0
176
     1
 62
     7
420
 16777215
176
     1
 90
        1
176
     1
 90
        4
176
     1
 62
     7
176
     1
 62
   257
176
     1
 90
        1
176
     1
 90
        1
176
     1
 40
1.0
176
     1
 90
        0
176
     1
 62
   257
176
     1
 40
1.0
176
     1
 90
        1
176
     1
 90
        6
176
     1
 90
        2
176
     1
 62
     7
176
     1
 90
        5
176
     1
 90
        0
176
     1
 90
        0
176
     1
290
     0
176
     1
 90
        1
176
     1
 40
0.0
176
     1
 90
        0
176
     1
290
     1
176
     1
290
     1
176
     1
290
     0
176
     1
290
     0
176
     1
290
     0
176
     1
290
     0
176
     1
290
     0
176
     1
290
     0
176
     1
290
     0
176
     1
 90
       50
176
     1
 40
0.0
176
     1
 40
1.0
176
     1
 90
        0
176
     1
 62
    18
420
        0
176
     1
 90
       50
176
     1
 90
        3
176
     1
 62
     5
420
      255
176
     1
290
     0
176
     1
 90
       50
176
     1
 90
       50
176
     1
 90
       50
176
     1
290
     0
176
     1
 90
       50
176
     1
 62
   256
176
     0
 40
1.0
176
     0
 90
        2
176
     1
  1
strokes_ogs.tif
176
     1
290
     0
176
     1
 40
1.0
176
     1
 40
1.0
176
     1
  0
VISUALSTYLE
  5
32
102
{ACAD_REACTORS
330
2A
102
}
330
2A
100
AcDbVisualStyle
  2
Basic
 70
     7
177
     3
291
     1
 70
    58
 90
        1
176
     1
 90
        0
176
     1
 90
        1
176
     1
 90
        0
176
     1
 40
0.6
176
     1
 40
30.0
176
     1
 62
     7
420
 16777215
176
     1
 90
        0
176
     1
 90
        4
176
     1
 62
     7
176
     1
 62
   257
176
     1
 90
        1
176
     1
 90
        1
176
     1
 40
1.0
176
     1
 90
        8
176
     1
 62
     7
176
     1
 40
1.0
176
     1
 90
        1
176
     1
 90
        6
176
     1
 90
        2
176
     1
 62
     7
176
     1
 90
        5
176
     1
 90
        0
176
     1
 90
        0
176
     1
290
     0
176
     1
 90
        1
176
     1
 40
0.0
176
     1
 90
        0
176
     1
290
     0
176
     1
290
     1
176
     1
290
     1
176
     1
290
     0
176
     1
290
     0
176
     1
290
     0
176
     1
290
     0
176
     1
290
     0
176
     1
290
     0
176
     1
 90
       50
176
     1
 40
0.0
176
     1
 40
1.0
176
     1
 90
        0
176
     1
 62
    18
420
        0
176
     1
 90
       50
176
     1
 90
        3
176
     1
 62
     5
420
      255
176
     1
290
     0
176
     1
 90
       50
176
     1
 90
       50
176
     1
 90
       50
176
     1
290
     0
176
     1
 90
       50
176
     1
 62
   256
176
     0
 40
1.0
176
     0
 90
        2
176
     1
  1
strokes_ogs.tif
176
     1
290
     0
176
     1
 40
1.0
176
     1
 40
1.0
176
     1
  0
VISUALSTYLE
  5
36
102
{ACAD_REACTORS
330
2A
102
}
330
2A
100
AcDbVisualStyle
  2
Brighten
 70
    12
177
     3
291
     1
 70
    58
 90
        2
176
     1
 90
        2
176
     1
 90
        0
176
     1
 90
        0
176
     1
 40
0.6
176
     1
 40
30.0
176
     1
 62
     7
420
 16777215
176
     1
 90
        1
176
     1
 90
        4
176
     1
 62
     7
176
     1
 62
   257
176
     1
 90
        1
176
     1
 90
        1
176
     1
 40
1.0
176
     1
 90
        8
176
     1
 62
     7
176
     1
 40
1.0
176
     1
 90
        1
176
     1
 90
        6
176
     1
 90
        2
176
     1
 62
     7
176
     1
 90
        5
176
     1
 90
        0
176
     1
 90
        0
176
     1
290
     0
176
     1
 90
        1
176
     1
 40
50.0
176
     1
 90
        0
176
     1
290
     0
176
     1
290
     1
176
     1
290
     1
176
     1
290
     0
176
     1
290
     0
176
     1
290
     0
176
     1
290
     0
176
     1
290
     0
176
     1
290
     0
176
     1
 90
       50
176
     1
 40
0.0
176
     1
 40
1.0
176
     1
 90
        0
176
     1
 62
    18
420
        0
176
     1
 90
       50
176
     1
 90
        3
176
     1
 62
     5
420
      255
176
     1
290
     0
176
     1
 90
       50
176
     1
 90
       50
176
     1
 90
       50
176
     1
290
     0
176
     1
 90
       50
176
     1
 62
   256
176
     0
 40
1.0
176
     0
 90
        2
176
     1
  1
strokes_ogs.tif
176
     1
290
     0
176
     1
 40
1.0
176
     1
 40
1.0
176
     1
  0
VISUALSTYLE
  5
3A
102
{ACAD_REACTORS
330
2A
102
}
330
2A
100
AcDbVisualStyle
  2
ColorChange
 70
    16
177
     3
291
     1
 70
    58
 90
        2
176
     1
 90
        2
176
     1
 90
        3
176
     1
 90
        0
176
     1
 40
0.6
176
     1
 40
30.0
176
     1
 62
     8
420
  8421504
176
     1
 90
        1
176
     1
 90
        4
176
     1
 62
     7
176
     1
 62
   257
176
     1
 90
        1
176
     1
 90
        1
176
     1
 40
1.0
176
     1
 90
        8
176
     1
 62
     8
420
  8421504
176
     1
 40
1.0
176
     1
 90
        1
176
     1
 90
        6
176
     1
 90
        2
176
     1
 62
     7
176
     1
 90
        5
176
     1
 90
        0
176
     1
 90
        0
176
     1
290
     0
176
     1
 90
        1
176
     1
 40
0.0
176
     1
 90
        0
176
     1
290
     0
176
     1
290
     1
176
     1
290
     1
176
     1
290
     0
176
     1
290
     0
176
     1
290
     0
176
     1
290
     0
176
     1
290
     0
176
     1
290
     0
176
     1
 90
       50
176
     1
 40
0.0
176
     1
 40
1.0
176
     1
 90
        0
176
     1
 62
    18
420
        0
176
     1
 90
       50
176
     1
 90
        3
176
     1
 62
     5
420
      255
176
     1
290
     0
176
     1
 90
       50
176
     1
 90
       50
176
     1
 90
       50
176
     1
290
     0
176
     1
 90
       50
176
     1
 62
   256
176
     0
 40
1.0
176
     0
 90
        2
176
     1
  1
strokes_ogs.tif
176
     1
290
     0
176
     1
 40
1.0
176
     1
 40
1.0
176
     1
  0
VISUALSTYLE
  5
34
102
{ACAD_REACTORS
330
2A
102
}
330
2A
100
AcDbVisualStyle
  2
Conceptual
 70
     9
177
     3
291
     0
 70
    58
 90
        3
176
     1
 90
        2
176
     1
 90
        0
176
     1
 90
        0
176
     1
 40
0.6
176
     1
 40
30.0
176
     1
 62
     7
420
 16777215
176
     1
 90
        2
176
     1
 90
        2
176
     1
 62
     7
176
     1
 62
   257
176
     1
 90
        1
176
     1
 90
        1
176
     1
 40
179.0
176
     1
 90
        8
176
     1
 62
     7
176
     1
 40
1.0
176
     1
 90
        1
176
     1
 90
        6
176
     1
 90
        2
176
     1
 62
     7
176
     1
 90
        3
176
     1
 90
        0
176
     1
 90
        0
176
     1
290
     0
176
     1
 90
        1
176
     1
 40
0.0
176
     1
 90
        0
176
     1
290
     0
176
     1
290
     1
176
     1
290
     1
176
     1
290
     0
176
     1
290
     0
176
     1
290
     0
176
     1
290
     0
176
     1
290
     0
176
     1
290
     0
176
     1
 90
       50
176
     1
 40
0.0
176
     1
 40
1.0
176
     1
 90
        0
176
     1
 62
    18
420
        0
176
     1
 90
       50
176
     1
 90
        3
176
     1
 62
     5
420
      255
176
     1
290
     0
176
     1
 90
       50
176
     1
 90
       50
176
     1
 90
       50
176
     1
290
     0
176
     1
 90
       50
176
     1
 62
   256
176
     0
 40
1.0
176
     0
 90
        2
176
     1
  1
strokes_ogs.tif
176
     1
290
     0
176
     1
 40
1.0
176
     1
 40
1.0
176
     1
  0
VISUALSTYLE
  5
35
102
{ACAD_REACTORS
330
2A
102
}
330
2A
100
AcDbVisualStyle
  2
Dim
 70
    11
177
     3
291
     1
 70
    58
 90
        2
176
     1
 90
        2
176
     1
 90
        0
176
     1
 90
        0
176
     1
 40
0.6
176
     1
 40
30.0
176
     1
 62
     7
420
 16777215
176
     1
 90
        1
176
     1
 90
        4
176
     1
 62
     7
176
     1
 62
   257
176
     1
 90
        1
176
     1
 90
        1
176
     1
 40
1.0
176
     1
 90
        8
176
     1
 62
     7
176
     1
 40
1.0
176
     1
 90
        1
176
     1
 90
        6
176
     1
 90
        2
176
     1
 62
     7
176
     1
 90
        5
176
     1
 90
        0
176
     1
 90
        0
176
     1
290
     0
176
     1
 90
        1
176
     1
 40
-50.0
176
     1
 90
        0
176
     1
290
     0
176
     1
290
     1
176
     1
290
     1
176
     1
290
     0
176
     1
290
     0
176
     1
290
     0
176
     1
290
     0
176
     1
290
     0
176
     1
290
     0
176
     1
 90
       50
176
     1
 40
0.0
176
     1
 40
1.0
176
     1
 90
        0
176
     1
 62
    18
420
        0
176
     1
 90
       50
176
     1
 90
        3
176
     1
 62
     5
420
      255
176
     1
290
     0
176
     1
 90
       50
176
     1
 90
       50
176
     1
 90
       50
176
     1
290
     0
176
     1
 90
       50
176
     1
 62
   256
176
     0
 40
1.0
176
     0
 90
        2
176
     1
  1
strokes_ogs.tif
176
     1
290
     0
176
     1
 40
1.0
176
     1
 40
1.0
176
     1
  0
VISUALSTYLE
  5
3D
102
{ACAD_REACTORS
330
2A
102
}
330
2A
100
AcDbVisualStyle
  2
EdgeColorOff
 70
    22
177
     3
291
     1
 70
    58
 90
        2
176
     0
 90
        2
176
     0
 90
        0
176
     0
 90
        0
176
     0
 40
0.6
176
     0
 40
30.0
176
     0
 62
     7
420
 16777215
176
     0
 90
        1
176
     0
 90
        4
176
     0
 62
     7
176
     0
 62
   257
176
     0
 90
        1
176
     0
 90
        1
176
     0
 40
1.0
176
     0
 90
        8
176
     2
 62
     7
176
     0
 40
1.0
176
     0
 90
        1
176
     0
 90
        6
176
     0
 90
        2
176
     0
 62
     7
176
     0
 90
        5
176
     0
 90
        0
176
     0
 90
        0
176
     0
290
     0
176
     0
 90
        1
176
     0
 40
0.0
176
     0
 90
        0
176
     0
290
     0
176
     0
290
     1
176
     0
290
     1
176
     0
290
     0
176
     0
290
     0
176
     0
290
     0
176
     0
290
     0
176
     0
290
     0
176
     0
290
     0
176
     0
 90
       50
176
     0
 40
0.0
176
     0
 40
1.0
176
     0
 90
        0
176
     0
 62
    18
420
        0
176
     0
 90
       50
176
     0
 90
        3
176
     0
 62
     5
420
      255
176
     0
290
     0
176
     0
 90
       50
176
     0
 90
       50
176
     0
 90
       50
176
     0
290
     0
176
     0
 90
       50
176
     0
 62
   256
176
     0
 40
1.0
176
     0
 90
        2
176
     0
  1
strokes_ogs.tif
176
     0
290
     0
176
     0
 40
1.0
176
     0
 40
1.0
176
     0
  0
VISUALSTYLE
  5
39
102
{ACAD_REACTORS
330
2A
102
}
330
2A
100
AcDbVisualStyle
  2
Facepattern
 70
    15
177
     3
291
     1
 70
    58
 90
        2
176
     1
 90
        2
176
     1
 90
        0
176
     1
 90
        0
176
     1
 40
0.6
176
     1
 40
30.0
176
     1
 62
     7
420
 16777215
176
     1
 90
        1
176
     1
 90
        4
176
     1
 62
     7
176
     1
 62
   257
176
     1
 90
        1
176
     1
 90
        1
176
     1
 40
1.0
176
     1
 90
        8
176
     1
 62
     7
176
     1
 40
1.0
176
     1
 90
        1
176
     1
 90
        6
176
     1
 90
        2
176
     1
 62
     7
176
     1
 90
        5
176
     1
 90
        0
176
     1
 90
        0
176
     1
290
     0
176
     1
 90
        1
176
     1
 40
0.0
176
     1
 90
        0
176
     1
290
     0
176
     1
290
     1
176
     1
290
     1
176
     1
290
     0
176
     1
290
     0
176
     1
290
     0
176
     1
290
     0
176
     1
290
     0
176
     1
290
     0
176
     1
 90
       50
176
     1
 40
0.0
176
     1
 40
1.0
176
     1
 90
        0
176
     1
 62
    18
420
        0
176
     1
 90
       50
176
     1
 90
        3
176
     1
 62
     5
420
      255
176
     1
290
     0
176
     1
 90
       50
176
     1
 90
       50
176
     1
 90
       50
176
     1
290
     0
176
     1
 90
       50
176
     1
 62
   256
176
     0
 40
1.0
176
     0
 90
        2
176
     1
  1
strokes_ogs.tif
176
     1
290
     0
176
     1
 40
1.0
176
     1
 40
1.0
176
     1
  0
VISUALSTYLE
  5
2B
102
{ACAD_REACTORS
330
2A
102
}
330
2A
100
AcDbVisualStyle
  2
Flat
 70
     0
177
     3
291
     1
 70
    58
 90
        2
176
     1
 90
        1
176
     1
 90
        1
176
     1
 90
        2
176
     1
 40
0.6
176
     1
 40
30.0
176
     1
 62
     7
420
 16777215
176
     1
 90
        0
176
     1
 90
        0
176
     1
 62
     7
176
     1
 62
   257
176
     1
 90
        1
176
     1
 90
        1
176
     1
 40
1.0
176
     1
 90
        8
176
     1
 62
     7
176
     1
 40
1.0
176
     1
 90
        1
176
     1
 90
        6
176
     1
 90
        2
176
     1
 62
     7
176
     1
 90
        5
176
     1
 90
        0
176
     1
 90
        0
176
     1
290
     0
176
     1
 90
       13
176
     1
 40
0.0
176
     1
 90
        0
176
     1
290
     0
176
     1
290
     1
176
     1
290
     1
176
     1
290
     0
176
     1
290
     0
176
     1
290
     0
176
     1
290
     0
176
     1
290
     0
176
     1
290
     0
176
     1
 90
       50
176
     1
 40
0.0
176
     1
 40
1.0
176
     1
 90
        0
176
     1
 62
    18
420
        0
176
     1
 90
       50
176
     1
 90
        3
176
     1
 62
     5
420
      255
176
     1
290
     0
176
     1
 90
       50
176
     1
 90
       50
176
     1
 90
       50
176
     1
290
     0
176
     1
 90
       50
176
     1
 62
   256
176
     0
 40
1.0
176
     0
 90
        2
176
     1
  1
strokes_ogs.tif
176
     1
290
     0
176
     1
 40
1.0
176
     1
 40
1.0
176
     1
  0
VISUALSTYLE
  5
2C
102
{ACAD_REACTORS
330
2A
102
}
330
2A
100
AcDbVisualStyle
  2
FlatWithEdges
 70
     1
177
     3
291
     1
 70
    58
 90
        2
176
     1
 90
        1
176
     1
 90
        1
176
     1
 90
        2
176
     1
 40
0.6
176
     1
 40
30.0
176
     1
 62
     7
420
 16777215
176
     1
 90
        1
176
     1
 90
        0
176
     1
 62
     7
176
     1
 62
   257
176
     1
 90
        1
176
     1
 90
        1
176
     1
 40
1.0
176
     1
 90
        0
176
     1
 62
   257
176
     1
 40
1.0
176
     1
 90
        1
176
     1
 90
        6
176
     1
 90
        2
176
     1
 62
     7
176
     1
 90
        5
176
     1
 90
        0
176
     1
 90
        0
176
     1
290
     0
176
     1
 90
       13
176
     1
 40
0.0
176
     1
 90
        0
176
     1
290
     0
176
     1
290
     1
176
     1
290
     1
176
     1
290
     0
176
     1
290
     0
176
     1
290
     0
176
     1
290
     0
176
     1
290
     0
176
     1
290
     0
176
     1
 90
       50
176
     1
 40
0.0
176
     1
 40
1.0
176
     1
 90
        0
176
     1
 62
    18
420
        0
176
     1
 90
       50
176
     1
 90
        3
176
     1
 62
     5
420
      255
176
     1
290
     0
176
     1
 90
       50
176
     1
 90
       50
176
     1
 90
       50
176
     1
290
     0
176
     1
 90
       50
176
     1
 62
   256
176
     0
 40
1.0
176
     0
 90
        2
176
     1
  1
strokes_ogs.tif
176
     1
290
     0
176
     1
 40
1.0
176
     1
 40
1.0
176
     1
  0
VISUALSTYLE
  5
2D
102
{ACAD_REACTORS
330
2A
102
}
330
2A
100
AcDbVisualStyle
  2
Gouraud
 70
     2
177
     3
291
     1
 70
    58
 90
        2
176
     1
 90
        2
176
     1
 90
        1
176
     1
 90
        2
176
     1
 40
0.6
176
     1
 40
30.0
176
     1
 62
     7
420
 16777215
176
     1
 90
        0
176
     1
 90
        0
176
     1
 62
     7
176
     1
 62
   257
176
     1
 90
        1
176
     1
 90
        1
176
     1
 40
1.0
176
     1
 90
        0
176
     1
 62
     7
176
     1
 40
1.0
176
     1
 90
        1
176
     1
 90
        6
176
     1
 90
        2
176
     1
 62
     7
176
     1
 90
        5
176
     1
 90
        0
176
     1
 90
        0
176
     1
290
     0
176
     1
 90
       13
176
     1
 40
0.0
176
     1
 90
        0
176
     1
290
     0
176
     1
290
     1
176
     1
290
     1
176
     1
290
     0
176
     1
290
     0
176
     1
290
     0
176
     1
290
     0
176
     1
290
     0
176
     1
290
     0
176
     1
 90
       50
176
     1
 40
0.0
176
     1
 40
1.0
176
     1
 90
        0
176
     1
 62
    18
420
        0
176
     1
 90
       50
176
     1
 90
        3
176
     1
 62
     5
420
      255
176
     1
290
     0
176
     1
 90
       50
176
     1
 90
       50
176
     1
 90
       50
176
     1
290
     0
176
     1
 90
       50
176
     1
 62
   256
176
     0
 40
1.0
176
     0
 90
        2
176
     1
  1
strokes_ogs.tif
176
     1
290
     0
176
     1
 40
1.0
176
     1
 40
1.0
176
     1
  0
VISUALSTYLE
  5
2E
102
{ACAD_REACTORS
330
2A
102
}
330
2A
100
AcDbVisualStyle
  2
GouraudWithEdges
 70
     3
177
     3
291
     1
 70
    58
 90
        2
176
     1
 90
        2
176
     1
 90
        1
176
     1
 90
        2
176
     1
 40
0.6
176
     1
 40
30.0
176
     1
 62
     7
420
 16777215
176
     1
 90
        1
176
     1
 90
        0
176
     1
 62
     7
176
     1
 62
   257
176
     1
 90
        1
176
     1
 90
        1
176
     1
 40
1.0
176
     1
 90
        0
176
     1
 62
   257
176
     1
 40
1.0
176
     1
 90
        1
176
     1
 90
        6
176
     1
 90
        2
176
     1
 62
     7
176
     1
 90
        5
176
     1
 90
        0
176
     1
 90
        0
176
     1
290
     0
176
     1
 90
       13
176
     1
 40
0.0
176
     1
 90
        0
176
     1
290
     0
176
     1
290
     1
176
     1
290
     1
176
     1
290
     0
176
     1
290
     0
176
     1
290
     0
176
     1
290
     0
176
     1
290
     0
176
     1
290
     0
176
     1
 90
       50
176
     1
 40
0.0
176
     1
 40
1.0
176
     1
 90
        0
176
     1
 62
    18
420
        0
176
     1
 90
       50
176
     1
 90
        3
176
     1
 62
     5
420
      255
176
     1
290
     0
176
     1
 90
       50
176
     1
 90
       50
176
     1
 90
       50
176
     1
290
     0
176
     1
 90
       50
176
     1
 62
   256
176
     0
 40
1.0
176
     0
 90
        2
176
     1
  1
strokes_ogs.tif
176
     1
290
     0
176
     1
 40
1.0
176
     1
 40
1.0
176
     1
  0
VISUALSTYLE
  5
31
102
{ACAD_REACTORS
330
2A
102
}
330
2A
100
AcDbVisualStyle
  2
Hidden
 70
     6
177
     3
291
     0
 70
    58
 90
        1
176
     1
 90
        2
176
     1
 90
        2
176
     1
 90
        0
176
     1
 40
0.6
176
     1
 40
30.0
176
     1
 62
     7
420
 16777215
176
     1
 90
        2
176
     1
 90
        2
176
     1
 62
     7
176
     1
 62
   257
176
     1
 90
        2
176
     1
 90
        1
176
     1
 40
40.0
176
     1
 90
        0
176
     1
 62
   257
176
     1
 40
1.0
176
     1
 90
        1
176
     1
 90
        6
176
     1
 90
        2
176
     1
 62
     7
176
     1
 90
        3
176
     1
 90
        0
176
     1
 90
        0
176
     1
290
     0
176
     1
 90
        1
176
     1
 40
0.0
176
     1
 90
        0
176
     1
290
     0
176
     1
290
     1
176
     1
290
     1
176
     1
290
     0
176
     1
290
     0
176
     1
290
     0
176
     1
290
     0
176
     1
290
     0
176
     1
290
     0
176
     1
 90
       50
176
     1
 40
0.0
176
     1
 40
1.0
176
     1
 90
        0
176
     1
 62
    18
420
        0
176
     1
 90
       50
176
     1
 90
        3
176
     1
 62
     5
420
      255
176
     1
290
     0
176
     1
 90
       50
176
     1
 90
       50
176
     1
 90
       50
176
     1
290
     0
176
     1
 90
       50
176
     1
 62
   256
176
     0
 40
1.0
176
     0
 90
        2
176
     1
  1
strokes_ogs.tif
176
     1
290
     0
176
     1
 40
1.0
176
     1
 40
1.0
176
     1
  0
VISUALSTYLE
  5
3B
102
{ACAD_REACTORS
330
2A
102
}
330
2A
100
AcDbVisualStyle
  2
JitterOff
 70
    20
177
     3
291
     1
 70
    58
 90
        2
176
     0
 90
        2
176
     0
 90
        0
176
     0
 90
        0
176
     0
 40
0.6
176
     0
 40
30.0
176
     0
 62
     7
420
 16777215
176
     0
 90
        1
176
     0
 90
        4
176
     0
 62
     7
176
     0
 62
   257
176
     0
 90
        1
176
     0
 90
        1
176
     0
 40
1.0
176
     0
 90
       10
176
     2
 62
     7
176
     0
 40
1.0
176
     0
 90
        1
176
     0
 90
        6
176
     0
 90
        2
176
     0
 62
     7
176
     0
 90
        5
176
     0
 90
        0
176
     0
 90
        0
176
     0
290
     0
176
     0
 90
        1
176
     0
 40
0.0
176
     0
 90
        0
176
     0
290
     0
176
     0
290
     1
176
     0
290
     1
176
     0
290
     0
176
     0
290
     0
176
     0
290
     0
176
     0
290
     0
176
     0
290
     0
176
     0
290
     0
176
     0
 90
       50
176
     0
 40
0.0
176
     0
 40
1.0
176
     0
 90
        0
176
     0
 62
    18
420
        0
176
     0
 90
       50
176
     0
 90
        3
176
     0
 62
     5
420
      255
176
     0
290
     0
176
     0
 90
       50
176
     0
 90
       50
176
     0
 90
       50
176
     0
290
     0
176
     0
 90
       50
176
     0
 62
   256
176
     0
 40
1.0
176
     0
 90
        2
176
     0
  1
strokes_ogs.tif
176
     0
290
     0
176
     0
 40
1.0
176
     0
 40
1.0
176
     0
  0
VISUALSTYLE
  5
38
102
{ACAD_REACTORS
330
2A
102
}
330
2A
100
AcDbVisualStyle
  2
Linepattern
 70
    14
177
     3
291
     1
 70
    58
 90
        2
176
     1
 90
        2
176
     1
 90
        0
176
     1
 90
        0
176
     1
 40
0.6
176
     1
 40
30.0
176
     1
 62
     7
420
 16777215
176
     1
 90
        1
176
     1
 90
        4
176
     1
 62
     7
176
     1
 62
   257
176
     1
 90
        7
176
     1
 90
        7
176
     1
 40
1.0
176
     1
 90
        8
176
     1
 62
     7
176
     1
 40
1.0
176
     1
 90
        1
176
     1
 90
        6
176
     1
 90
        2
176
     1
 62
     7
176
     1
 90
        5
176
     1
 90
        0
176
     1
 90
        0
176
     1
290
     0
176
     1
 90
        1
176
     1
 40
0.0
176
     1
 90
        0
176
     1
290
     0
176
     1
290
     1
176
     1
290
     1
176
     1
290
     0
176
     1
290
     0
176
     1
290
     0
176
     1
290
     0
176
     1
290
     0
176
     1
290
     0
176
     1
 90
       50
176
     1
 40
0.0
176
     1
 40
1.0
176
     1
 90
        0
176
     1
 62
    18
420
        0
176
     1
 90
       50
176
     1
 90
        3
176
     1
 62
     5
420
      255
176
     1
290
     0
176
     1
 90
       50
176
     1
 90
       50
176
     1
 90
       50
176
     1
290
     0
176
     1
 90
       50
176
     1
 62
   256
176
     0
 40
1.0
176
     0
 90
        2
176
     1
  1
strokes_ogs.tif
176
     1
290
     0
176
     1
 40
1.0
176
     1
 40
1.0
176
     1
  0
VISUALSTYLE
  5
3C
102
{ACAD_REACTORS
330
2A
102
}
330
2A
100
AcDbVisualStyle
  2
OverhangOff
 70
    21
177
     3
291
     1
 70
    58
 90
        2
176
     0
 90
        2
176
     0
 90
        0
176
     0
 90
        0
176
     0
 40
0.6
176
     0
 40
30.0
176
     0
 62
     7
420
 16777215
176
     0
 90
        1
176
     0
 90
        4
176
     0
 62
     7
176
     0
 62
   257
176
     0
 90
        1
176
     0
 90
        1
176
     0
 40
1.0
176
     0
 90
        9
176
     2
 62
     7
176
     0
 40
1.0
176
     0
 90
        1
176
     0
 90
        6
176
     0
 90
        2
176
     0
 62
     7
176
     0
 90
        5
176
     0
 90
        0
176
     0
 90
        0
176
     0
290
     0
176
     0
 90
        1
176
     0
 40
0.0
176
     0
 90
        0
176
     0
290
     0
176
     0
290
     1
176
     0
290
     1
176
     0
290
     0
176
     0
290
     0
176
     0
290
     0
176
     0
290
     0
176
     0
290
     0
176
     0
290
     0
176
     0
 90
       50
176
     0
 40
0.0
176
     0
 40
1.0
176
     0
 90
        0
176
     0
 62
    18
420
        0
176
     0
 90
       50
176
     0
 90
        3
176
     0
 62
     5
420
      255
176
     0
290
     0
176
     0
 90
       50
176
     0
 90
       50
176
     0
 90
       50
176
     0
290
     0
176
     0
 90
       50
176
     0
 62
   256
176
     0
 40
1.0
176
     0
 90
        2
176
     0
  1
strokes_ogs.tif
176
     0
290
     0
176
     0
 40
1.0
176
     0
 40
1.0
176
     0
  0
VISUALSTYLE
  5
33
102
{ACAD_REACTORS
330
2A
102
}
330
2A
100
AcDbVisualStyle
  2
Realistic
 70
     8
177
     3
291
     0
 70
    58
 90
        2
176
     1
 90
        3
176
     1
 90
        0
176
     1
 90
        2
176
     1
 40
0.6
176
     1
 40
30.0
176
     1
 62
     7
420
 16777215
176
     1
 90
        0
176
     1
 90
        0
176
     1
 62
     7
176
     1
 62
   257
176
     1
 90
        1
176
     1
 90
        1
176
     1
 40
1.0
176
     1
 90
        8
176
     1
 62
   257
176
     1
 40
1.0
176
     1
 90
        1
176
     1
 90
        6
176
     1
 90
        2
176
     1
 62
     7
176
     1
 90
        3
176
     1
 90
        0
176
     1
 90
        0
176
     1
290
     0
176
     1
 90
       13
176
     1
 40
0.0
176
     1
 90
        0
176
     1
290
     0
176
     1
290
     1
176
     1
290
     1
176
     1
290
     0
176
     1
290
     0
176
     1
290
     0
176
     1
290
     0
176
     1
290
     0
176
     1
290
     0
176
     1
 90
       50
176
     1
 40
0.0
176
     1
 40
1.0
176
     1
 90
        0
176
     1
 62
    18
420
        0
176
     1
 90
       50
176
     1
 90
        3
176
     1
 62
     5
420
      255
176
     1
290
     0
176
     1
 90
       50
176
     1
 90
       50
176
     1
 90
       50
176
     1
290
     0
176
     1
 90
       50
176
     1
 62
   256
176
     0
 40
1.0
176
     0
 90
        2
176
     1
  1
strokes_ogs.tif
176
     1
290
     0
176
     1
 40
1.0
176
     1
 40
1.0
176
     1
  0
VISUALSTYLE
  5
42
102
{ACAD_REACTORS
330
2A
102
}
330
2A
100
AcDbVisualStyle
  2
Shaded
 70
    27
177
     3
291
     0
 70
    58
 90
        2
176
     1
 90
        2
176
     1
 90
        1
176
     1
 90
        2
176
     1
 40
0.6
176
     1
 40
30.0
176
     1
 62
     7
420
 16777215
176
     1
 90
        0
176
     1
 90
        4
176
     1
 62
     7
176
     1
 62
   257
176
     1
 90
        1
176
     1
 90
        1
176
     1
 40
1.0
176
     1
 90
        8
176
     1
 62
   257
176
     1
 40
1.0
176
     1
 90
        1
176
     1
 90
        6
176
     1
 90
        2
176
     1
 62
     8
420
  7895160
176
     1
 90
        3
176
     1
 90
        0
176
     1
 90
        0
176
     1
290
     0
176
     1
 90
        5
176
     1
 40
0.0
176
     1
 90
        0
176
     1
290
     0
176
     1
290
     1
176
     1
290
     1
176
     1
290
     0
176
     1
290
     0
176
     1
290
     0
176
     1
290
     0
176
     1
290
     0
176
     1
290
     0
176
     1
 90
       50
176
     1
 40
0.0
176
     1
 40
1.0
176
     1
 90
        0
176
     1
 62
    18
420
        0
176
     1
 90
       50
176
     1
 90
        3
176
     1
 62
     5
420
      255
176
     1
290
     0
176
     1
 90
       50
176
     1
 90
       50
176
     1
 90
       50
176
     1
290
     0
176
     1
 90
       50
176
     1
 62
   256
176
     0
 40
1.0
176
     0
 90
        2
176
     1
  1
strokes_ogs.tif
176
     1
290
     0
176
     1
 40
1.0
176
     1
 40
1.0
176
     1
  0
VISUALSTYLE
  5
41
102
{ACAD_REACTORS
330
2A
102
}
330
2A
100
AcDbVisualStyle
  2
Shaded with edges
 70
    26
177
     3
291
     0
 70
    58
 90
        2
176
     1
 90
        2
176
     1
 90
        1
176
     1
 90
        2
176
     1
 40
0.6
176
     1
 40
30.0
176
     1
 62
     7
420
 16777215
176
     1
 90
        1
176
     1
 90
       10
176
     1
 62
     7
176
     1
 62
   257
176
     1
 90
        2
176
     1
 90
        1
176
     1
 40
1.0
176
     1
 90
        8
176
     1
 62
   257
176
     1
 40
1.0
176
     1
 90
        1
176
     1
 90
        6
176
     1
 90
        2
176
     1
 62
     7
176
     1
 90
        3
176
     1
 90
        0
176
     1
 90
        0
176
     1
290
     0
176
     1
 90
        5
176
     1
 40
0.0
176
     1
 90
        0
176
     1
290
     0
176
     1
290
     1
176
     1
290
     1
176
     1
290
     0
176
     1
290
     0
176
     1
290
     0
176
     1
290
     0
176
     1
290
     0
176
     1
290
     0
176
     1
 90
       50
176
     1
 40
0.0
176
     1
 40
1.0
176
     1
 90
        0
176
     1
 62
    18
420
        0
176
     1
 90
       50
176
     1
 90
        3
176
     1
 62
     5
420
      255
176
     1
290
     0
176
     1
 90
       50
176
     1
 90
       50
176
     1
 90
       50
176
     1
290
     0
176
     1
 90
       50
176
     1
 62
   256
176
     0
 40
1.0
176
     0
 90
        2
176
     1
  1
strokes_ogs.tif
176
     1
290
     0
176
     1
 40
1.0
176
     1
 40
1.0
176
     1
  0
VISUALSTYLE
  5
3E
102
{ACAD_REACTORS
330
2A
102
}
330
2A
100
AcDbVisualStyle
  2
Shades of Gray
 70
    23
177
     3
291
     0
 70
    58
 90
        2
176
     1
 90
        2
176
     1
 90
        3
176
     1
 90
        0
176
     1
 40
0.6
176
     1
 40
30.0
176
     1
 62
     7
420
 16777215
176
     1
 90
        2
176
     1
 90
        2
176
     1
 62
     7
176
     1
 62
     7
176
     1
 90
        1
176
     1
 90
        1
176
     1
 40
40.0
176
     1
 90
        8
176
     1
 62
     7
176
     1
 40
1.0
176
     1
 90
        1
176
     1
 90
        6
176
     1
 90
        2
176
     1
 62
     7
176
     1
 90
        3
176
     1
 90
        0
176
     1
 90
        0
176
     1
290
     0
176
     1
 90
        1
176
     1
 40
0.0
176
     1
 90
        0
176
     1
290
     0
176
     1
290
     1
176
     1
290
     1
176
     1
290
     0
176
     1
290
     0
176
     1
290
     0
176
     1
290
     0
176
     1
290
     0
176
     1
290
     0
176
     1
 90
       50
176
     1
 40
0.0
176
     1
 40
1.0
176
     1
 90
        0
176
     1
 62
    18
420
        0
176
     1
 90
       50
176
     1
 90
        3
176
     1
 62
     5
420
      255
176
     1
290
     0
176
     1
 90
       50
176
     1
 90
       50
176
     1
 90
       50
176
     1
290
     0
176
     1
 90
       50
176
     1
 62
   256
176
     0
 40
1.0
176
     0
 90
        2
176
     1
  1
strokes_ogs.tif
176
     1
290
     0
176
     1
 40
1.0
176
     1
 40
1.0
176
     1
  0
VISUALSTYLE
  5
3F
102
{ACAD_REACTORS
330
2A
102
}
330
2A
100
AcDbVisualStyle
  2
Sketchy
 70
    24
177
     3
291
     0
 70
    58
 90
        1
176
     1
 90
        2
176
     1
 90
        2
176
     1
 90
        0
176
     1
 40
0.6
176
     1
 40
30.0
176
     1
 62
     7
420
 16777215
176
     1
 90
        2
176
     1
 90
        2
176
     1
 62
     7
176
     1
 62
     7
176
     1
 90
        1
176
     1
 90
        1
176
     1
 40
40.0
176
     1
 90
       11
176
     1
 62
     7
176
     1
 40
1.0
176
     1
 90
        1
176
     1
 90
        6
176
     1
 90
        2
176
     1
 62
     7
176
     1
 90
        6
176
     1
 90
        0
176
     1
 90
        0
176
     1
290
     0
176
     1
 90
        1
176
     1
 40
0.0
176
     1
 90
        0
176
     1
290
     0
176
     1
290
     1
176
     1
290
     1
176
     1
290
     0
176
     1
290
     0
176
     1
290
     0
176
     1
290
     0
176
     1
290
     0
176
     1
290
     0
176
     1
 90
       50
176
     1
 40
0.0
176
     1
 40
1.0
176
     1
 90
        0
176
     1
 62
    18
420
        0
176
     1
 90
       50
176
     1
 90
        3
176
     1
 62
     5
420
      255
176
     1
290
     0
176
     1
 90
       50
176
     1
 90
       50
176
     1
 90
       50
176
     1
290
     0
176
     1
 90
       50
176
     1
 62
   256
176
     0
 40
1.0
176
     0
 90
        2
176
     1
  1
strokes_ogs.tif
176
     1
290
     0
176
     1
 40
1.0
176
     1
 40
1.0
176
     1
  0
VISUALSTYLE
  5
37
102
{ACAD_REACTORS
330
2A
102
}
330
2A
100
AcDbVisualStyle
  2
Thicken
 70
    13
177
     3
291
     1
 70
    58
 90
        2
176
     1
 90
        2
176
     1
 90
        0
176
     1
 90
        0
176
     1
 40
0.6
176
     1
 40
30.0
176
     1
 62
     7
420
 16777215
176
     1
 90
        1
176
     1
 90
        4
176
     1
 62
     7
176
     1
 62
   257
176
     1
 90
        1
176
     1
 90
        1
176
     1
 40
1.0
176
     1
 90
       12
176
     1
 62
     7
176
     1
 40
1.0
176
     1
 90
        1
176
     1
 90
        6
176
     1
 90
        2
176
     1
 62
     7
176
     1
 90
        5
176
     1
 90
        0
176
     1
 90
        0
176
     1
290
     0
176
     1
 90
        1
176
     1
 40
0.0
176
     1
 90
        0
176
     1
290
     0
176
     1
290
     1
176
     1
290
     1
176
     1
290
     0
176
     1
290
     0
176
     1
290
     0
176
     1
290
     0
176
     1
290
     0
176
     1
290
     0
176
     1
 90
       50
176
     1
 40
0.0
176
     1
 40
1.0
176
     1
 90
        0
176
     1
 62
    18
420
        0
176
     1
 90
       50
176
     1
 90
        3
176
     1
 62
     5
420
      255
176
     1
290
     0
176
     1
 90
       50
176
     1
 90
       50
176
     1
 90
       50
176
     1
290
     0
176
     1
 90
       50
176
     1
 62
   256
176
     0
 40
1.0
176
     0
 90
        2
176
     1
  1
strokes_ogs.tif
176
     1
290
     0
176
     1
 40
1.0
176
     1
 40
1.0
176
     1
  0
VISUALSTYLE
  5
30
102
{ACAD_REACTORS
330
2A
102
}
330
2A
100
AcDbVisualStyle
  2
Wireframe
 70
     5
177
     3
291
     0
 70
    58
 90
        0
176
     1
 90
        2
176
     1
 90
        0
176
     1
 90
        0
176
     1
 40
0.6
176
     1
 40
30.0
176
     1
 62
     7
420
 16777215
176
     1
 90
        1
176
     1
 90
        4
176
     1
 62
     7
176
     1
 62
   257
176
     1
 90
        1
176
     1
 90
        1
176
     1
 40
1.0
176
     1
 90
        0
176
     1
 62
   257
176
     1
 40
1.0
176
     1
 90
        1
176
     1
 90
        6
176
     1
 90
        2
176
     1
 62
     7
176
     1
 90
        3
176
     1
 90
        0
176
     1
 90
        0
176
     1
290
     0
176
     1
 90
        1
176
     1
 40
0.0
176
     1
 90
        0
176
     1
290
     0
176
     1
290
     1
176
     1
290
     1
176
     1
290
     0
176
     1
290
     0
176
     1
290
     0
176
     1
290
     0
176
     1
290
     0
176
     1
290
     0
176
     1
 90
       50
176
     1
 40
0.0
176
     1
 40
1.0
176
     1
 90
        0
176
     1
 62
    18
420
        0
176
     1
 90
       50
176
     1
 90
        3
176
     1
 62
     5
420
      255
176
     1
290
     0
176
     1
 90
       50
176
     1
 90
       50
176
     1
 90
       50
176
     1
290
     0
176
     1
 90
       50
176
     1
 62
   256
176
     0
 40
1.0
176
     0
 90
        2
176
     1
  1
strokes_ogs.tif
176
     1
290
     0
176
     1
 40
1.0
176
     1
 40
1.0
176
     1
  0
VISUALSTYLE
  5
40
102
{ACAD_REACTORS
330
2A
102
}
330
2A
100
AcDbVisualStyle
  2
X-Ray
 70
    25
177
     3
291
     0
 70
    58
 90
        2
176
     1
 90
        2
176
     1
 90
        1
176
     1
 90
        1
176
     1
 40
0.5
176
     1
 40
30.0
176
     1
 62
     7
420
 16777215
176
     1
 90
        1
176
     1
 90
        0
176
     1
 62
     7
176
     1
 62
   257
176
     1
 90
        1
176
     1
 90
        1
176
     1
 40
1.0
176
     1
 90
        8
176
     1
 62
     7
176
     1
 40
1.0
176
     1
 90
        1
176
     1
 90
        6
176
     1
 90
        2
176
     1
 62
     7
176
     1
 90
        3
176
     1
 90
        0
176
     1
 90
        0
176
     1
290
     0
176
     1
 90
       13
176
     1
 40
0.0
176
     1
 90
        0
176
     1
290
     0
176
     1
290
     1
176
     1
290
     1
176
     1
290
     0
176
     1
290
     0
176
     1
290
     0
176
     1
290
     0
176
     1
290
     0
176
     1
290
     0
176
     1
 90
       50
176
     1
 40
0.0
176
     1
 40
1.0
176
     1
 90
        0
176
     1
 62
    18
420
        0
176
     1
 90
       50
176
     1
 90
        3
176
     1
 62
     5
420
      255
176
     1
290
     0
176
     1
 90
       50
176
     1
 90
       50
176
     1
 90
       50
176
     1
290
     0
176
     1
 90
       50
176
     1
 62
   256
176
     0
 40
1.0
176
     0
 90
        2
176
     1
  1
strokes_ogs.tif
176
     1
290
     0
176
     1
 40
1.0
176
     1
 40
1.0
176
     1
  0
DICTIONARYVAR
  5
1FD
102
{ACAD_REACTORS
330
1FC
102
}
330
1FC
100
DictionaryVariables
280
     0
  1
1:1
  0
DICTIONARYVAR
  5
202
102
{ACAD_REACTORS
330
1FC
102
}
330
1FC
100
DictionaryVariables
280
     0
  1
Standard
  0
DICTIONARYVAR
  5
201
102
{ACAD_REACTORS
330
1FC
102
}
330
1FC
100
DictionaryVariables
280
     0
  1
Standard
  0
DICTIONARY
  5
1FE
330
6A
100
AcDbDictionary
280
     1
281
     1
  3
ACAD_ROUNDTRIP_2008_TABLESTYLE_CELLSTYLEMAP
360
1FF
  0
CELLSTYLEMAP
  5
1FF
102
{ACAD_REACTORS
330
1FE
102
}
330
1FE
100
AcDbCellStyleMap
 90
        3
300
CELLSTYLE
  1
TABLEFORMAT_BEGIN
 90
        5
170
     1
 91
        0
 92
    32768
 62
   257
 93
        1
300
CONTENTFORMAT
  1
CONTENTFORMAT_BEGIN
 90
        0
 91
        0
 92
        4
 93
        0
300

 40
0.0
140
1.0
 94
        5
 62
     0
340
11
144
0.25
309
CONTENTFORMAT_END
171
     1
301
MARGIN
  1
CELLMARGIN_BEGIN
 40
0.06
 40
0.06
 40
0.06
 40
0.06
 40
0.06
 40
0.06
309
CELLMARGIN_END
 94
        6
 95
        1
302
GRIDFORMAT
  1
GRIDFORMAT_BEGIN
 90
        0
 91
        1
 62
     0
 92
       -2
340
14
 93
        0
 40
0.045
309
GRIDFORMAT_END
 95
        2
302
GRIDFORMAT
  1
GRIDFORMAT_BEGIN
 90
        0
 91
        1
 62
     0
 92
       -2
340
14
 93
        0
 40
0.045
309
GRIDFORMAT_END
 95
        4
302
GRIDFORMAT
  1
GRIDFORMAT_BEGIN
 90
        0
 91
        1
 62
     0
 92
       -2
340
14
 93
        0
 40
0.045
309
GRIDFORMAT_END
 95
        8
302
GRIDFORMAT
  1
GRIDFORMAT_BEGIN
 90
        0
 91
        1
 62
     0
 92
       -2
340
14
 93
        0
 40
0.045
309
GRIDFORMAT_END
 95
       16
302
GRIDFORMAT
  1
GRIDFORMAT_BEGIN
 90
        0
 91
        1
 62
     0
 92
       -2
340
14
 93
        0
 40
0.045
309
GRIDFORMAT_END
 95
       32
302
GRIDFORMAT
  1
GRIDFORMAT_BEGIN
 90
        0
 91
        1
 62
     0
 92
       -2
340
14
 93
        0
 40
0.045
309
GRIDFORMAT_END
309
TABLEFORMAT_END
  1
CELLSTYLE_BEGIN
 90
        1
 91
        1
300
_TITLE
309
CELLSTYLE_END
300
CELLSTYLE
  1
TABLEFORMAT_BEGIN
 90
        5
170
     1
 91
        0
 92
        0
 62
   257
 93
        1
300
CONTENTFORMAT
  1
CONTENTFORMAT_BEGIN
 90
        0
 91
        0
 92
        4
 93
        0
300

 40
0.0
140
1.0
 94
        5
 62
     0
340
11
144
0.18
309
CONTENTFORMAT_END
171
     1
301
MARGIN
  1
CELLMARGIN_BEGIN
 40
0.06
 40
0.06
 40
0.06
 40
0.06
 40
0.06
 40
0.06
309
CELLMARGIN_END
 94
        6
 95
        1
302
GRIDFORMAT
  1
GRIDFORMAT_BEGIN
 90
        0
 91
        1
 62
     0
 92
       -2
340
14
 93
        0
 40
0.045
309
GRIDFORMAT_END
 95
        2
302
GRIDFORMAT
  1
GRIDFORMAT_BEGIN
 90
        0
 91
        1
 62
     0
 92
       -2
340
14
 93
        0
 40
0.045
309
GRIDFORMAT_END
 95
        4
302
GRIDFORMAT
  1
GRIDFORMAT_BEGIN
 90
        0
 91
        1
 62
     0
 92
       -2
340
14
 93
        0
 40
0.045
309
GRIDFORMAT_END
 95
        8
302
GRIDFORMAT
  1
GRIDFORMAT_BEGIN
 90
        0
 91
        1
 62
     0
 92
       -2
340
14
 93
        0
 40
0.045
309
GRIDFORMAT_END
 95
       16
302
GRIDFORMAT
  1
GRIDFORMAT_BEGIN
 90
        0
 91
        1
 62
     0
 92
       -2
340
14
 93
        0
 40
0.045
309
GRIDFORMAT_END
 95
       32
302
GRIDFORMAT
  1
GRIDFORMAT_BEGIN
 90
        0
 91
        1
 62
     0
 92
       -2
340
14
 93
        0
 40
0.045
309
GRIDFORMAT_END
309
TABLEFORMAT_END
  1
CELLSTYLE_BEGIN
 90
        2
 91
        1
300
_HEADER
309
CELLSTYLE_END
300
CELLSTYLE
  1
TABLEFORMAT_BEGIN
 90
        5
170
     1
 91
        0
 92
        0
 62
   257
 93
        1
300
CONTENTFORMAT
  1
CONTENTFORMAT_BEGIN
 90
        0
 91
        0
 92
        4
 93
        0
300

 40
0.0
140
1.0
 94
        2
 62
     0
340
11
144
0.18
309
CONTENTFORMAT_END
171
     1
301
MARGIN
  1
CELLMARGIN_BEGIN
 40
0.06
 40
0.06
 40
0.06
 40
0.06
 40
0.06
 40
0.06
309
CELLMARGIN_END
 94
        6
 95
        1
302
GRIDFORMAT
  1
GRIDFORMAT_BEGIN
 90
        0
 91
        1
 62
     0
 92
       -2
340
14
 93
        0
 40
0.045
309
GRIDFORMAT_END
 95
        2
302
GRIDFORMAT
  1
GRIDFORMAT_BEGIN
 90
        0
 91
        1
 62
     0
 92
       -2
340
14
 93
        0
 40
0.045
309
GRIDFORMAT_END
 95
        4
302
GRIDFORMAT
  1
GRIDFORMAT_BEGIN
 90
        0
 91
        1
 62
     0
 92
       -2
340
14
 93
        0
 40
0.045
309
GRIDFORMAT_END
 95
        8
302
GRIDFORMAT
  1
GRIDFORMAT_BEGIN
 90
        0
 91
        1
 62
     0
 92
       -2
340
14
 93
        0
 40
0.045
309
GRIDFORMAT_END
 95
       16
302
GRIDFORMAT
  1
GRIDFORMAT_BEGIN
 90
        0
 91
        1
 62
     0
 92
       -2
340
14
 93
        0
 40
0.045
309
GRIDFORMAT_END
 95
       32
302
GRIDFORMAT
  1
GRIDFORMAT_BEGIN
 90
        0
 91
        1
 62
     0
 92
       -2
340
14
 93
        0
 40
0.045
309
GRIDFORMAT_END
309
TABLEFORMAT_END
  1
CELLSTYLE_BEGIN
 90
        3
 91
        2
300
_DATA
309
CELLSTYLE_END
  0
ENDSEC
  0
EOF