0
SECTION
  2
HEADER
  9
$ACADVER
  1
AC1027
  9
$ACADMAINTVER
 70
     8
  9
$DWGCODEPAGE
  3
ANSI_1252
  9
$REQUIREDVERSIONS
160
                 0
  9
$COMMENTS
  1
File was created by Cadenas
  9
$CUSTOMPROPERTYTAG
  1
NN
  9
$CUSTOMPROPERTY
  1
S-2000 Pillow Block 2-Bolt Inch Bore (Labyrinth Seal)
  9
$CUSTOMPROPERTYTAG
  1
NT
  9
$CUSTOMPROPERTY
  1
S-2000 Pillow Block Bearing -Inch (2-Bolt Base)
  9
$CUSTOMPROPERTYTAG
  1
NB
  9
$CUSTOMPROPERTY
  1
070357
  9
$CUSTOMPROPERTYTAG
  1
NBSYN
  9
$CUSTOMPROPERTY
  1
$PN.
  9
$CUSTOMPROPERTYTAG
  1
LINA
  9
$CUSTOMPROPERTY
  1
070357
  9
$CUSTOMPROPERTYTAG
  1
SS
  9
$CUSTOMPROPERTY
  1
3-7/16
  9
$CUSTOMPROPERTYTAG
  1
PN
  9
$CUSTOMPROPERTY
  1
070357
  9
$CUSTOMPROPERTYTAG
  1
DESCRIPTION
  9
$CUSTOMPROPERTY
  1
P2B-S2-307LE
  9
$CUSTOMPROPERTYTAG
  1
EF
  9
$CUSTOMPROPERTY
  1
Expansion Type
  9
$CUSTOMPROPERTYTAG
  1
ST
  9
$CUSTOMPROPERTY
  1
Labyrinth Type
  9
$CUSTOMPROPERTYTAG
  1
A
  9
$CUSTOMPROPERTY
  1
4
  9
$CUSTOMPROPERTYTAG
  1
B
  9
$CUSTOMPROPERTY
  1
13
  9
$CUSTOMPROPERTYTAG
  1
C
  9
$CUSTOMPROPERTY
  1
3-27/64
  9
$CUSTOMPROPERTYTAG
  1
DMIN
  9
$CUSTOMPROPERTY
  1
9-3/8
  9
$CUSTOMPROPERTYTAG
  1
DMAX
  9
$CUSTOMPROPERTY
  1
10-5/8
  9
$CUSTOMPROPERTYTAG
  1
F
  9
$CUSTOMPROPERTY
  1
7/8
  9
$CUSTOMPROPERTYTAG
  1
G
  9
$CUSTOMPROPERTY
  1
1-5/8
  9
$CUSTOMPROPERTYTAG
  1
H
  9
$CUSTOMPROPERTY
  1
2-1/4
  9
$CUSTOMPROPERTYTAG
  1
J
  9
$CUSTOMPROPERTY
  1
7-1/2
  9
$CUSTOMPROPERTYTAG
  1
L
  9
$CUSTOMPROPERTY
  1
5-1/2
  9
$CUSTOMPROPERTYTAG
  1
M
  9
$CUSTOMPROPERTY
  1
3-3/4
  9
$CUSTOMPROPERTYTAG
  1
R
  9
$CUSTOMPROPERTY
  1
1-31/64
  9
$CUSTOMPROPERTYTAG
  1
S
  9
$CUSTOMPROPERTY
  1
2-33/64
  9
$CUSTOMPROPERTYTAG
  1
X
  9
$CUSTOMPROPERTY
  1
1/4
  9
$CUSTOMPROPERTYTAG
  1
Y
  9
$CUSTOMPROPERTY
  1
0.025
  9
$CUSTOMPROPERTYTAG
  1
Z
  9
$CUSTOMPROPERTY
  1
4-3/64
  9
$CUSTOMPROPERTYTAG
  1
COMPANY
  9
$CUSTOMPROPERTY
  1
baldor
  9
$INSBASE
 10
0.0
 20
0.0
 30
0.0
  9
$EXTMIN
 10
1.000000000000000E+20
 20
1.000000000000000E+20
 30
1.000000000000000E+20
  9
$EXTMAX
 10
-1.000000000000000E+20
 20
-1.000000000000000E+20
 30
-1.000000000000000E+20
  9
$LIMMIN
 10
0.0
 20
0.0
  9
$LIMMAX
 10
12.0
 20
9.0
  9
$ORTHOMODE
 70
     0
  9
$REGENMODE
 70
     1
  9
$FILLMODE
 70
     1
  9
$QTEXTMODE
 70
     0
  9
$MIRRTEXT
 70
     1
  9
$LTSCALE
 40
1.0
  9
$ATTMODE
 70
     1
  9
$TEXTSIZE
 40
0.2
  9
$TRACEWID
 40
0.05
  9
$TEXTSTYLE
  7
Standard
  9
$CLAYER
  8
0
  9
$CELTYPE
  6
ByLayer
  9
$CECOLOR
 62
   256
  9
$CELTSCALE
 40
1.0
  9
$DISPSILH
 70
     0
  9
$DIMSCALE
 40
1.0
  9
$DIMASZ
 40
0.18
  9
$DIMEXO
 40
0.0625
  9
$DIMDLI
 40
0.38
  9
$DIMRND
 40
0.0
  9
$DIMDLE
 40
0.0
  9
$DIMEXE
 40
0.18
  9
$DIMTP
 40
0.0
  9
$DIMTM
 40
0.0
  9
$DIMTXT
 40
0.18
  9
$DIMCEN
 40
0.09
  9
$DIMTSZ
 40
0.0
  9
$DIMTOL
 70
     0
  9
$DIMLIM
 70
     0
  9
$DIMTIH
 70
     1
  9
$DIMTOH
 70
     1
  9
$DIMSE1
 70
     0
  9
$DIMSE2
 70
     0
  9
$DIMTAD
 70
     0
  9
$DIMZIN
 70
     0
  9
$DIMBLK
  1

  9
$DIMASO
 70
     1
  9
$DIMSHO
 70
     1
  9
$DIMPOST
  1

  9
$DIMAPOST
  1

  9
$DIMALT
 70
     0
  9
$DIMALTD
 70
     2
  9
$DIMALTF
 40
25.4
  9
$DIMLFAC
 40
1.0
  9
$DIMTOFL
 70
     0
  9
$DIMTVP
 40
0.0
  9
$DIMTIX
 70
     0
  9
$DIMSOXD
 70
     0
  9
$DIMSAH
 70
     0
  9
$DIMBLK1
  1

  9
$DIMBLK2
  1

  9
$DIMSTYLE
  2
Standard
  9
$DIMCLRD
 70
     0
  9
$DIMCLRE
 70
     0
  9
$DIMCLRT
 70
     0
  9
$DIMTFAC
 40
1.0
  9
$DIMGAP
 40
0.09
  9
$DIMJUST
 70
     0
  9
$DIMSD1
 70
     0
  9
$DIMSD2
 70
     0
  9
$DIMTOLJ
 70
     1
  9
$DIMTZIN
 70
     0
  9
$DIMALTZ
 70
     0
  9
$DIMALTTZ
 70
     0
  9
$DIMUPT
 70
     0
  9
$DIMDEC
 70
     4
  9
$DIMTDEC
 70
     4
  9
$DIMALTU
 70
     2
  9
$DIMALTTD
 70
     2
  9
$DIMTXSTY
  7
Standard
  9
$DIMAUNIT
 70
     0
  9
$DIMADEC
 70
     0
  9
$DIMALTRND
 40
0.0
  9
$DIMAZIN
 70
     0
  9
$DIMDSEP
 70
    46
  9
$DIMATFIT
 70
     3
  9
$DIMFRAC
 70
     0
  9
$DIMLDRBLK
  1

  9
$DIMLUNIT
 70
     2
  9
$DIMLWD
 70
    -2
  9
$DIMLWE
 70
    -2
  9
$DIMTMOVE
 70
     0
  9
$DIMFXL
 40
1.0
  9
$DIMFXLON
 70
     0
  9
$DIMJOGANG
 40
0.7853981633974483
  9
$DIMTFILL
 70
     0
  9
$DIMTFILLCLR
 70
     0
  9
$DIMARCSYM
 70
     0
  9
$DIMLTYPE
  6

  9
$DIMLTEX1
  6

  9
$DIMLTEX2
  6

  9
$DIMTXTDIRECTION
 70
     0
  9
$LUNITS
 70
     2
  9
$LUPREC
 70
     4
  9
$SKETCHINC
 40
0.1
  9
$FILLETRAD
 40
0.5
  9
$AUNITS
 70
     0
  9
$AUPREC
 70
     0
  9
$MENU
  1
.
  9
$ELEVATION
 40
0.0
  9
$PELEVATION
 40
0.0
  9
$THICKNESS
 40
0.0
  9
$LIMCHECK
 70
     0
  9
$CHAMFERA
 40
0.0
  9
$CHAMFERB
 40
0.0
  9
$CHAMFERC
 40
0.0
  9
$CHAMFERD
 40
0.0
  9
$SKPOLY
 70
     0
  9
$TDCREATE
 40
2458168.97634728
  9
$TDUCREATE
 40
2458168.934680613
  9
$TDUPDATE
 40
2458168.976347465
  9
$TDUUPDATE
 40
2458168.934680799
  9
$TDINDWG
 40
0.0000000116
  9
$TDUSRTIMER
 40
0.0000000116
  9
$USRTIMER
 70
     1
  9
$ANGBASE
 50
0.0
  9
$ANGDIR
 70
     0
  9
$PDMODE
 70
     0
  9
$PDSIZE
 40
0.0
  9
$PLINEWID
 40
0.0
  9
$SPLFRAME
 70
     0
  9
$SPLINETYPE
 70
     6
  9
$SPLINESEGS
 70
     8
  9
$HANDSEED
  5
20F
  9
$SURFTAB1
 70
     6
  9
$SURFTAB2
 70
     6
  9
$SURFTYPE
 70
     6
  9
$SURFU
 70
     6
  9
$SURFV
 70
     6
  9
$UCSBASE
  2

  9
$UCSNAME
  2

  9
$UCSORG
 10
0.0
 20
0.0
 30
0.0
  9
$UCSXDIR
 10
1.0
 20
0.0
 30
0.0
  9
$UCSYDIR
 10
0.0
 20
1.0
 30
0.0
  9
$UCSORTHOREF
  2

  9
$UCSORTHOVIEW
 70
     0
  9
$UCSORGTOP
 10
0.0
 20
0.0
 30
0.0
  9
$UCSORGBOTTOM
 10
0.0
 20
0.0
 30
0.0
  9
$UCSORGLEFT
 10
0.0
 20
0.0
 30
0.0
  9
$UCSORGRIGHT
 10
0.0
 20
0.0
 30
0.0
  9
$UCSORGFRONT
 10
0.0
 20
0.0
 30
0.0
  9
$UCSORGBACK
 10
0.0
 20
0.0
 30
0.0
  9
$PUCSBASE
  2

  9
$PUCSNAME
  2

  9
$PUCSORG
 10
0.0
 20
0.0
 30
0.0
  9
$PUCSXDIR
 10
1.0
 20
0.0
 30
0.0
  9
$PUCSYDIR
 10
0.0
 20
1.0
 30
0.0
  9
$PUCSORTHOREF
  2

  9
$PUCSORTHOVIEW
 70
     0
  9
$PUCSORGTOP
 10
0.0
 20
0.0
 30
0.0
  9
$PUCSORGBOTTOM
 10
0.0
 20
0.0
 30
0.0
  9
$PUCSORGLEFT
 10
0.0
 20
0.0
 30
0.0
  9
$PUCSORGRIGHT
 10
0.0
 20
0.0
 30
0.0
  9
$PUCSORGFRONT
 10
0.0
 20
0.0
 30
0.0
  9
$PUCSORGBACK
 10
0.0
 20
0.0
 30
0.0
  9
$USERI1
 70
     0
  9
$USERI2
 70
     0
  9
$USERI3
 70
     0
  9
$USERI4
 70
     0
  9
$USERI5
 70
     0
  9
$USERR1
 40
0.0
  9
$USERR2
 40
0.0
  9
$USERR3
 40
0.0
  9
$USERR4
 40
0.0
  9
$USERR5
 40
0.0
  9
$WORLDVIEW
 70
     1
  9
$SHADEDGE
 70
     3
  9
$SHADEDIF
 70
    70
  9
$TILEMODE
 70
     1
  9
$MAXACTVP
 70
    64
  9
$PINSBASE
 10
0.0
 20
0.0
 30
0.0
  9
$PLIMCHECK
 70
     0
  9
$PEXTMIN
 10
1.000000000000000E+20
 20
1.000000000000000E+20
 30
1.000000000000000E+20
  9
$PEXTMAX
 10
-1.000000000000000E+20
 20
-1.000000000000000E+20
 30
-1.000000000000000E+20
  9
$PLIMMIN
 10
0.0
 20
0.0
  9
$PLIMMAX
 10
12.0
 20
9.0
  9
$UNITMODE
 70
     0
  9
$VISRETAIN
 70
     1
  9
$PLINEGEN
 70
     0
  9
$PSLTSCALE
 70
     1
  9
$TREEDEPTH
 70
  3020
  9
$CMLSTYLE
  2
Standard
  9
$CMLJUST
 70
     0
  9
$CMLSCALE
 40
1.0
  9
$PROXYGRAPHICS
 70
     1
  9
$MEASUREMENT
 70
     0
  9
$CELWEIGHT
370
    -1
  9
$ENDCAPS
280
     0
  9
$JOINSTYLE
280
     0
  9
$LWDISPLAY
290
     0
  9
$INSUNITS
 70
     1
  9
$HYPERLINKBASE
  1

  9
$STYLESHEET
  1

  9
$XEDIT
290
     1
  9
$CEPSNTYPE
380
     0
  9
$PSTYLEMODE
290
     1
  9
$FINGERPRINTGUID
  2
{E0E7249D-4AB8-439E-8301-0D1B83D869C4}
  9
$VERSIONGUID
  2
{FAEB1C32-E019-11D5-929B-00C0DF256EC4}
  9
$EXTNAMES
290
     1
  9
$PSVPSCALE
 40
0.0
  9
$OLESTARTUP
290
     0
  9
$SORTENTS
280
   127
  9
$INDEXCTL
280
     0
  9
$HIDETEXT
280
     1
  9
$XCLIPFRAME
280
     2
  9
$HALOGAP
280
     0
  9
$OBSCOLOR
 70
   257
  9
$OBSLTYPE
280
     0
  9
$INTERSECTIONDISPLAY
280
     0
  9
$INTERSECTIONCOLOR
 70
   257
  9
$DIMASSOC
280
     2
  9
$PROJECTNAME
  1

  9
$CAMERADISPLAY
290
     0
  9
$LENSLENGTH
 40
50.0
  9
$CAMERAHEIGHT
 40
0.0
  9
$STEPSPERSEC
 40
2.0
  9
$STEPSIZE
 40
6.0
  9
$3DDWFPREC
 40
2.0
  9
$PSOLWIDTH
 40
0.25
  9
$PSOLHEIGHT
 40
4.0
  9
$LOFTANG1
 40
1.570796326794897
  9
$LOFTANG2
 40
1.570796326794897
  9
$LOFTMAG1
 40
0.0
  9
$LOFTMAG2
 40
0.0
  9
$LOFTPARAM
 70
     7
  9
$LOFTNORMALS
280
     1
  9
$LATITUDE
 40
37.795
  9
$LONGITUDE
 40
-122.394
  9
$NORTHDIRECTION
 40
0.0
  9
$TIMEZONE
 70
 -8000
  9
$LIGHTGLYPHDISPLAY
280
     1
  9
$TILEMODELIGHTSYNCH
280
     1
  9
$CMATERIAL
347
44
  9
$SOLIDHIST
280
     0
  9
$SHOWHIST
280
     1
  9
$DWFFRAME
280
     2
  9
$DGNFRAME
280
     2
  9
$REALWORLDSCALE
290
     1
  9
$INTERFERECOLOR
 62
   256
  9
$CSHADOW
280
     0
  9
$SHADOWPLANELOCATION
 40
0.0
  0
ENDSEC
  0
SECTION
  2
CLASSES
  0
CLASS
  1
ACDBDICTIONARYWDFLT
  2
AcDbDictionaryWithDefault
  3
ObjectDBX Classes
 90
        0
 91
        4
280
     0
281
     0
  0
CLASS
  1
VISUALSTYLE
  2
AcDbVisualStyle
  3
ObjectDBX Classes
 90
     4095
 91
        4
280
     0
281
     0
  0
CLASS
  1
MATERIAL
  2
AcDbMaterial
  3
ObjectDBX Classes
 90
     1153
 91
        4
280
     0
281
     0
  0
CLASS
  1
SCALE
  2
AcDbScale
  3
ObjectDBX Classes
 90
     1153
 91
        4
280
     0
281
     0
  0
CLASS
  1
TABLESTYLE
  2
AcDbTableStyle
  3
ObjectDBX Classes
 90
     4095
 91
        4
280
     0
281
     0
  0
CLASS
  1
MLEADERSTYLE
  2
AcDbMLeaderStyle
  3
ACDB_MLEADERSTYLE_CLASS
 90
     4095
 91
        4
280
     0
281
     0
  0
CLASS
  1
SUN
  2
AcDbSun
  3
SCENEOE
 90
     1153
 91
        4
280
     0
281
     0
  0
CLASS
  1
DICTIONARYVAR
  2
AcDbDictionaryVar
  3
ObjectDBX Classes
 90
        0
 91
        4
280
     0
281
     0
  0
CLASS
  1
CELLSTYLEMAP
  2
AcDbCellStyleMap
  3
ObjectDBX Classes
 90
     1152
 91
        4
280
     0
281
     0
  0
ENDSEC
  0
SECTION
  2
TABLES
  0
TABLE
  2
VPORT
  5
8
330
0
100
AcDbSymbolTable
 70
     1
  0
VPORT
  5
29
330
8
100
AcDbSymbolTableRecord
100
AcDbViewportTableRecord
  2
*Active
 70
     0
 10
0.0
 20
0.0
 11
1.0
 21
1.0
 12
0.1263749999999995
 22
0.0
 13
0.0
 23
0.0
 14
0.5
 24
0.5
 15
0.5
 25
0.5
 16
0.0
 26
0.0
 36
1.0
 17
0.0
 27
0.0
 37
0.0
 40
7.65
 41
0.7045333333333332
 42
50.0
 43
0.0
 44
0.0
 50
0.0
 51
0.0
 71
     0
 72
   100
 73
     1
 74
     3
 75
     0
 76
     0
 77
     0
 78
     0
281
     0
 65
     1
110
0.0
120
0.0
130
0.0
111
1.0
121
0.0
131
0.0
112
0.0
122
1.0
132
0.0
 79
     0
146
0.0
348
2F
 60
     3
 61
     5
292
     1
282
     1
141
0.0
142
0.0
 63
   250
361
6D
  0
ENDTAB
  0
TABLE
  2
LTYPE
  5
5
330
0
100
AcDbSymbolTable
 70
     3
  0
LTYPE
  5
14
330
5
100
AcDbSymbolTableRecord
100
AcDbLinetypeTableRecord
  2
ByBlock
 70
     0
  3

 72
    65
 73
     0
 40
0.0
  0
LTYPE
  5
15
330
5
100
AcDbSymbolTableRecord
100
AcDbLinetypeTableRecord
  2
ByLayer
 70
     0
  3

 72
    65
 73
     0
 40
0.0
  0
LTYPE
  5
16
330
5
100
AcDbSymbolTableRecord
100
AcDbLinetypeTableRecord
  2
Continuous
 70
     0
  3
Solid line
 72
    65
 73
     0
 40
0.0
  0
LTYPE
  5
A7
330
5
100
AcDbSymbolTableRecord
100
AcDbLinetypeTableRecord
  2
Dashed
 70
     0
  3

 72
    65
 73
     2
 40
2.0
 49
1.0
 74
     0
 49
-1.0
 74
     0
  0
LTYPE
  5
13E
330
5
100
AcDbSymbolTableRecord
100
AcDbLinetypeTableRecord
  2
Center
 70
     0
  3

 72
    65
 73
     4
 40
1.5
 49
0.45
 74
     0
 49
-0.5
 74
     0
 49
0.05
 74
     0
 49
-0.5
 74
     0
  0
ENDTAB
  0
TABLE
  2
LAYER
  5
2
330
0
100
AcDbSymbolTable
 70
     7
  0
LAYER
  5
10
330
2
100
AcDbSymbolTableRecord
100
AcDbLayerTableRecord
  2
0
 70
     0
 62
     7
  6
Continuous
370
    -3
390
F
347
46
348
0
  0
LAYER
  5
72
330
2
100
AcDbSymbolTableRecord
100
AcDbLayerTableRecord
  2
AM_6
 70
     0
 62
    -2
  6
Continuous
370
    35
390
F
347
46
348
0
  0
LAYER
  5
A8
330
2
100
AcDbSymbolTableRecord
100
AcDbLayerTableRecord
  2
AM_9
 70
     0
 62
     6
  6
Dashed
370
    25
390
F
347
46
348
0
  0
LAYER
  5
D2
330
2
100
AcDbSymbolTableRecord
100
AcDbLayerTableRecord
  2
AM_5
 70
     0
 62
     3
  6
Continuous
370
    25
390
F
347
46
348
0
  0
LAYER
  5
D7
330
2
100
AcDbSymbolTableRecord
100
AcDbLayerTableRecord
  2
AM_4
 70
     0
 62
     7
  6
Continuous
370
    50
390
F
347
46
348
0
  0
LAYER
  5
13F
330
2
100
AcDbSymbolTableRecord
100
AcDbLayerTableRecord
  2
AM_7
 70
     0
 62
     7
  6
Center
370
    25
390
F
347
46
348
0
  0
LAYER
  5
1FE
330
2
100
AcDbSymbolTableRecord
100
AcDbLayerTableRecord
  2
ConnectionPoints
 70
     0
 62
     7
  6
Continuous
370
    50
390
F
347
46
348
0
  0
ENDTAB
  0
TABLE
  2
STYLE
  5
3
330
0
100
AcDbSymbolTable
 70
     1
  0
STYLE
  5
11
330
3
100
AcDbSymbolTableRecord
100
AcDbTextStyleTableRecord
  2
Standard
 70
     0
 40
0.0
 41
1.0
 50
0.0
 71
     0
 42
0.2
  3
txt
  4

  0
ENDTAB
  0
TABLE
  2
VIEW
  5
6
330
0
100
AcDbSymbolTable
 70
     0
  0
ENDTAB
  0
TABLE
  2
UCS
  5
7
330
0
100
AcDbSymbolTable
 70
     0
  0
ENDTAB
  0
TABLE
  2
APPID
  5
9
330
0
100
AcDbSymbolTable
 70
     1
  0
APPID
  5
12
330
9
100
AcDbSymbolTableRecord
100
AcDbRegAppTableRecord
  2
ACAD
 70
     0
  0
ENDTAB
  0
TABLE
  2
DIMSTYLE
  5
A
330
0
100
AcDbSymbolTable
 70
     1
100
AcDbDimStyleTable
  0
DIMSTYLE
105
27
330
A
100
AcDbSymbolTableRecord
100
AcDbDimStyleTableRecord
  2
Standard
 70
     0
178
     0
340
11
  0
ENDTAB
  0
TABLE
  2
BLOCK_RECORD
  5
1
330
0
100
AcDbSymbolTable
 70
     6
  0
BLOCK_RECORD
  5
1F
330
1
100
AcDbSymbolTableRecord
100
AcDbBlockTableRecord
  2
*Model_Space
340
22
 70
     0
280
     1
281
     0
  0
BLOCK_RECORD
  5
1B
330
1
100
AcDbSymbolTableRecord
100
AcDbBlockTableRecord
  2
*Paper_Space
340
1E
 70
     0
280
     1
281
     0
  0
BLOCK_RECORD
  5
23
330
1
100
AcDbSymbolTableRecord
100
AcDbBlockTableRecord
  2
*Paper_Space0
340
26
 70
     0
280
     1
281
     0
  0
BLOCK_RECORD
  5
6E
330
1
100
AcDbSymbolTableRecord
100
AcDbBlockTableRecord
  2
1_070357_2
340
0
102
{BLKREFS
331
6F
102
}
 70
     0
280
     1
281
     0
  0
BLOCK_RECORD
  5
8E
330
1
100
AcDbSymbolTableRecord
100
AcDbBlockTableRecord
  2
2_3_7_16CS2i_0_in_070357_2
340
0
102
{BLKREFS
331
8F
102
}
 70
     0
280
     1
281
     0
  0
BLOCK_RECORD
  5
E9
330
1
100
AcDbSymbolTableRecord
100
AcDbBlockTableRecord
  2
3_070028i_0_in_070357_2
340
0
102
{BLKREFS
331
EA
102
}
 70
     0
280
     1
281
     0
  0
BLOCK_RECORD
  5
14A
330
1
100
AcDbSymbolTableRecord
100
AcDbBlockTableRecord
  2
4_405015E_Inch_0_in_070357_2
340
0
102
{BLKREFS
331
14B
102
}
 70
     0
280
     1
281
     0
  0
BLOCK_RECORD
  5
1A9
330
1
100
AcDbSymbolTableRecord
100
AcDbBlockTableRecord
  2
5_070357H_0_in_070357_2
340
0
102
{BLKREFS
331
1AA
102
}
 70
     0
280
     1
281
     0
  0
ENDTAB
  0
ENDSEC
  0
SECTION
  2
BLOCKS
  0
BLOCK
  5
20
330
1F
100
AcDbEntity
  8
0
100
AcDbBlockBegin
  2
*Model_Space
 70
     0
 10
0.0
 20
0.0
 30
0.0
  3
*Model_Space
  1

  0
ENDBLK
  5
21
330
1F
100
AcDbEntity
  8
0
100
AcDbBlockEnd
  0
BLOCK
  5
1C
330
1B
100
AcDbEntity
 67
     1
  8
0
100
AcDbBlockBegin
  2
*Paper_Space
 70
     0
 10
0.0
 20
0.0
 30
0.0
  3
*Paper_Space
  1

  0
ENDBLK
  5
1D
330
1B
100
AcDbEntity
 67
     1
  8
0
100
AcDbBlockEnd
  0
BLOCK
  5
24
330
23
100
AcDbEntity
  8
0
100
AcDbBlockBegin
  2
*Paper_Space0
 70
     0
 10
0.0
 20
0.0
 30
0.0
  3
*Paper_Space0
  1

  0
ENDBLK
  5
25
330
23
100
AcDbEntity
  8
0
100
AcDbBlockEnd
  0
BLOCK
  5
70
330
6E
100
AcDbEntity
  8
0
100
AcDbBlockBegin
  2
1_070357_2
 70
     2
 10
0.0
 20
0.0
 30
0.0
  3
1_070357_2
  1

  0
ATTDEF
  5
73
330
6E
100
AcDbEntity
  8
AM_6
100
AcDbText
 10
6.934375
 20
3.75
 30
0.0
 40
0.5
  1
S-2000 Pillow Block 2-Bolt Inch Bore (Labyrinth Seal)
100
AcDbAttributeDefinition
  3

  2
NN
 70
     8
280
     0
  0
ATTDEF
  5
74
330
6E
100
AcDbEntity
  8
AM_6
100
AcDbText
 10
6.934375
 20
3.25
 30
0.0
 40
0.5
  1
S-2000 Pillow Block Bearing -Inch (2-Bolt Base)
100
AcDbAttributeDefinition
  3

  2
NT
 70
     8
280
     0
  0
ATTDEF
  5
75
330
6E
100
AcDbEntity
  8
AM_6
100
AcDbText
 10
6.934375
 20
2.75
 30
0.0
 40
0.5
  1
070357
100
AcDbAttributeDefinition
  3

  2
NB
 70
     8
280
     0
  0
ATTDEF
  5
76
330
6E
100
AcDbEntity
  8
AM_6
100
AcDbText
 10
6.934375
 20
2.25
 30
0.0
 40
0.5
  1
$PN.
100
AcDbAttributeDefinition
  3

  2
NBSYN
 70
     8
280
     0
  0
ATTDEF
  5
77
330
6E
100
AcDbEntity
  8
AM_6
100
AcDbText
 10
6.934375
 20
1.75
 30
0.0
 40
0.5
  1
070357
100
AcDbAttributeDefinition
  3

  2
LINA
 70
     8
280
     0
  0
ATTDEF
  5
78
330
6E
100
AcDbEntity
  8
AM_6
100
AcDbText
 10
6.934375
 20
1.25
 30
0.0
 40
0.5
  1
3-7/16
100
AcDbAttributeDefinition
  3

  2
SS
 70
     8
280
     0
  0
ATTDEF
  5
79
330
6E
100
AcDbEntity
  8
AM_6
100
AcDbText
 10
6.934375
 20
0.75
 30
0.0
 40
0.5
  1
070357
100
AcDbAttributeDefinition
  3

  2
PN
 70
     8
280
     0
  0
ATTDEF
  5
7A
330
6E
100
AcDbEntity
  8
AM_6
100
AcDbText
 10
6.934375
 20
0.25
 30
0.0
 40
0.5
  1
P2B-S2-307LE
100
AcDbAttributeDefinition
  3

  2
DESCRIPTION
 70
     8
280
     0
  0
ATTDEF
  5
7B
330
6E
100
AcDbEntity
  8
AM_6
100
AcDbText
 10
6.934375
 20
-0.25
 30
0.0
 40
0.5
  1
Expansion Type
100
AcDbAttributeDefinition
  3

  2
EF
 70
     8
280
     0
  0
ATTDEF
  5
7C
330
6E
100
AcDbEntity
  8
AM_6
100
AcDbText
 10
6.934375
 20
-0.75
 30
0.0
 40
0.5
  1
Labyrinth Type
100
AcDbAttributeDefinition
  3

  2
ST
 70
     8
280
     0
  0
ATTDEF
  5
7D
330
6E
100
AcDbEntity
  8
AM_6
100
AcDbText
 10
6.934375
 20
-1.25
 30
0.0
 40
0.5
  1
4
100
AcDbAttributeDefinition
  3

  2
A
 70
     8
280
     0
  0
ATTDEF
  5
7E
330
6E
100
AcDbEntity
  8
AM_6
100
AcDbText
 10
6.934375
 20
-1.75
 30
0.0
 40
0.5
  1
13
100
AcDbAttributeDefinition
  3

  2
B
 70
     8
280
     0
  0
ATTDEF
  5
7F
330
6E
100
AcDbEntity
  8
AM_6
100
AcDbText
 10
6.934375
 20
-2.25
 30
0.0
 40
0.5
  1
3-27/64
100
AcDbAttributeDefinition
  3

  2
C
 70
     8
280
     0
  0
ATTDEF
  5
80
330
6E
100
AcDbEntity
  8
AM_6
100
AcDbText
 10
6.934375
 20
-2.75
 30
0.0
 40
0.5
  1
9-3/8
100
AcDbAttributeDefinition
  3

  2
DMIN
 70
     8
280
     0
  0
ATTDEF
  5
81
330
6E
100
AcDbEntity
  8
AM_6
100
AcDbText
 10
6.934375
 20
-3.25
 30
0.0
 40
0.5
  1
10-5/8
100
AcDbAttributeDefinition
  3

  2
DMAX
 70
     8
280
     0
  0
ATTDEF
  5
82
330
6E
100
AcDbEntity
  8
AM_6
100
AcDbText
 10
6.934375
 20
-3.75
 30
0.0
 40
0.5
  1
7/8
100
AcDbAttributeDefinition
  3

  2
F
 70
     8
280
     0
  0
ATTDEF
  5
83
330
6E
100
AcDbEntity
  8
AM_6
100
AcDbText
 10
6.934375
 20
-4.25
 30
0.0
 40
0.5
  1
1-5/8
100
AcDbAttributeDefinition
  3

  2
G
 70
     8
280
     0
  0
ATTDEF
  5
84
330
6E
100
AcDbEntity
  8
AM_6
100
AcDbText
 10
6.934375
 20
-4.75
 30
0.0
 40
0.5
  1
2-1/4
100
AcDbAttributeDefinition
  3

  2
H
 70
     8
280
     0
  0
ATTDEF
  5
85
330
6E
100
AcDbEntity
  8
AM_6
100
AcDbText
 10
6.934375
 20
-5.25
 30
0.0
 40
0.5
  1
7-1/2
100
AcDbAttributeDefinition
  3

  2
J
 70
     8
280
     0
  0
ATTDEF
  5
86
330
6E
100
AcDbEntity
  8
AM_6
100
AcDbText
 10
6.934375
 20
-5.75
 30
0.0
 40
0.5
  1
5-1/2
100
AcDbAttributeDefinition
  3

  2
L
 70
     8
280
     0
  0
ATTDEF
  5
87
330
6E
100
AcDbEntity
  8
AM_6
100
AcDbText
 10
6.934375
 20
-6.25
 30
0.0
 40
0.5
  1
3-3/4
100
AcDbAttributeDefinition
  3

  2
M
 70
     8
280
     0
  0
ATTDEF
  5
88
330
6E
100
AcDbEntity
  8
AM_6
100
AcDbText
 10
6.934375
 20
-6.75
 30
0.0
 40
0.5
  1
1-31/64
100
AcDbAttributeDefinition
  3

  2
R
 70
     8
280
     0
  0
ATTDEF
  5
89
330
6E
100
AcDbEntity
  8
AM_6
100
AcDbText
 10
6.934375
 20
-7.25
 30
0.0
 40
0.5
  1
2-33/64
100
AcDbAttributeDefinition
  3

  2
S
 70
     8
280
     0
  0
ATTDEF
  5
8A
330
6E
100
AcDbEntity
  8
AM_6
100
AcDbText
 10
6.934375
 20
-7.75
 30
0.0
 40
0.5
  1
1/4
100
AcDbAttributeDefinition
  3

  2
X
 70
     8
280
     0
  0
ATTDEF
  5
8B
330
6E
100
AcDbEntity
  8
AM_6
100
AcDbText
 10
6.934375
 20
-8.25
 30
0.0
 40
0.5
  1
0.025
100
AcDbAttributeDefinition
  3

  2
Y
 70
     8
280
     0
  0
ATTDEF
  5
8C
330
6E
100
AcDbEntity
  8
AM_6
100
AcDbText
 10
6.934375
 20
-8.75
 30
0.0
 40
0.5
  1
4-3/64
100
AcDbAttributeDefinition
  3

  2
Z
 70
     8
280
     0
  0
ATTDEF
  5
8D
330
6E
100
AcDbEntity
  8
AM_6
100
AcDbText
 10
6.934375
 20
-9.25
 30
0.0
 40
0.5
  1
baldor
100
AcDbAttributeDefinition
  3

  2
COMPANY
 70
     8
280
     0
  0
INSERT
  5
8F
330
6E
100
AcDbEntity
  8
0
100
AcDbBlockReference
  2
2_3_7_16CS2i_0_in_070357_2
 10
0.0
 20
0.0
 30
0.0
  0
INSERT
  5
EA
330
6E
100
AcDbEntity
  8
0
100
AcDbBlockReference
  2
3_070028i_0_in_070357_2
 10
0.0
 20
0.0
 30
0.0
  0
INSERT
  5
14B
330
6E
100
AcDbEntity
  8
0
100
AcDbBlockReference
  2
4_405015E_Inch_0_in_070357_2
 10
0.0
 20
0.0
 30
0.0
  0
INSERT
  5
1AA
330
6E
100
AcDbEntity
  8
0
100
AcDbBlockReference
  2
5_070357H_0_in_070357_2
 10
0.0
 20
0.0
 30
0.0
  0
ENDBLK
  5
71
330
6E
100
AcDbEntity
  8
0
100
AcDbBlockEnd
  0
BLOCK
  5
90
330
8E
100
AcDbEntity
  8
0
100
AcDbBlockBegin
  2
2_3_7_16CS2i_0_in_070357_2
 70
     2
 10
0.0
 20
0.0
 30
0.0
  3
2_3_7_16CS2i_0_in_070357_2
  1

  0
ATTDEF
  5
92
330
8E
100
AcDbEntity
  8
AM_6
100
AcDbText
 10
3.618375
 20
2.75
 30
0.0
 40
0.5
  1
S-2000 Collar -Inch
100
AcDbAttributeDefinition
  3

  2
NN
 70
     8
280
     0
  0
ATTDEF
  5
93
330
8E
100
AcDbEntity
  8
AM_6
100
AcDbText
 10
3.618375
 20
2.25
 30
0.0
 40
0.5
  1
S-2000 Bearings
100
AcDbAttributeDefinition
  3

  2
NT
 70
     8
280
     0
  0
ATTDEF
  5
94
330
8E
100
AcDbEntity
  8
AM_6
100
AcDbText
 10
3.618375
 20
1.75
 30
0.0
 40
0.5
  1
3-7/16CS2i
100
AcDbAttributeDefinition
  3

  2
NB
 70
     8
280
     0
  0
ATTDEF
  5
95
330
8E
100
AcDbEntity
  8
AM_6
100
AcDbText
 10
3.618375
 20
1.25
 30
0.0
 40
0.5
  1
$BORE.CS2i
100
AcDbAttributeDefinition
  3

  2
NBSYN
 70
     8
280
     0
  0
ATTDEF
  5
96
330
8E
100
AcDbEntity
  8
AM_6
100
AcDbText
 10
3.618375
 20
0.75
 30
0.0
 40
0.5
  1
3-7/16CS2i
100
AcDbAttributeDefinition
  3

  2
LINA
 70
     8
280
     0
  0
ATTDEF
  5
97
330
8E
100
AcDbEntity
  8
AM_6
100
AcDbText
 10
3.618375
 20
0.25
 30
0.0
 40
0.5
  1
3-7/16
100
AcDbAttributeDefinition
  3

  2
BORE
 70
     8
280
     0
  0
ATTDEF
  5
98
330
8E
100
AcDbEntity
  8
AM_6
100
AcDbText
 10
3.618375
 20
-0.25
 30
0.0
 40
0.5
  1
3.437500
100
AcDbAttributeDefinition
  3

  2
BORE1
 70
     8
280
     0
  0
ATTDEF
  5
99
330
8E
100
AcDbEntity
  8
AM_6
100
AcDbText
 10
3.618375
 20
-0.75
 30
0.0
 40
0.5
  1
5-1/2
100
AcDbAttributeDefinition
  3

  2
L1
 70
     8
280
     0
  0
ATTDEF
  5
9A
330
8E
100
AcDbEntity
  8
AM_6
100
AcDbText
 10
3.618375
 20
-1.25
 30
0.0
 40
0.5
  1
5.50000
100
AcDbAttributeDefinition
  3

  2
L
 70
     8
280
     0
  0
ATTDEF
  5
9B
330
8E
100
AcDbEntity
  8
AM_6
100
AcDbText
 10
3.618375
 20
-1.75
 30
0.0
 40
0.5
  1
5.50000
100
AcDbAttributeDefinition
  3

  2
L2
 70
     8
280
     0
  0
ATTDEF
  5
9C
330
8E
100
AcDbEntity
  8
AM_6
100
AcDbText
 10
3.618375
 20
-2.25
 30
0.0
 40
0.5
  1
5.00
100
AcDbAttributeDefinition
  3

  2
A
 70
     8
280
     0
  0
ATTDEF
  5
9D
330
8E
100
AcDbEntity
  8
AM_6
100
AcDbText
 10
3.618375
 20
-2.75
 30
0.0
 40
0.5
  1
2.25
100
AcDbAttributeDefinition
  3

  2
B
 70
     8
280
     0
  0
ATTDEF
  5
9E
330
8E
100
AcDbEntity
  8
AM_6
100
AcDbText
 10
3.618375
 20
-3.25
 30
0.0
 40
0.5
  1
4.24
100
AcDbAttributeDefinition
  3

  2
C
 70
     8
280
     0
  0
ATTDEF
  5
9F
330
8E
100
AcDbEntity
  8
AM_6
100
AcDbText
 10
3.618375
 20
-3.75
 30
0.0
 40
0.5
  1
5.84
100
AcDbAttributeDefinition
  3

  2
D
 70
     8
280
     0
  0
ATTDEF
  5
A0
330
8E
100
AcDbEntity
  8
AM_6
100
AcDbText
 10
3.618375
 20
-4.25
 30
0.0
 40
0.5
  1
0.54
100
AcDbAttributeDefinition
  3

  2
E
 70
     8
280
     0
  0
ATTDEF
  5
A1
330
8E
100
AcDbEntity
  8
AM_6
100
AcDbText
 10
3.618375
 20
-4.75
 30
0.0
 40
0.5
  1
0.442
100
AcDbAttributeDefinition
  3

  2
F
 70
     8
280
     0
  0
ATTDEF
  5
A2
330
8E
100
AcDbEntity
  8
AM_6
100
AcDbText
 10
3.618375
 20
-5.25
 30
0.0
 40
0.5
  1
1/2-13
100
AcDbAttributeDefinition
  3

  2
CS
 70
     8
280
     0
  0
ATTDEF
  5
A3
330
8E
100
AcDbEntity
  8
AM_6
100
AcDbText
 10
3.618375
 20
-5.75
 30
0.0
 40
0.5
  1
0.5000
100
AcDbAttributeDefinition
  3

  2
NDM
 70
     8
280
     0
  0
ATTDEF
  5
A4
330
8E
100
AcDbEntity
  8
AM_6
100
AcDbText
 10
3.618375
 20
-6.25
 30
0.0
 40
0.5
  1
0.4170
100
AcDbAttributeDefinition
  3

  2
KDM
 70
     8
280
     0
  0
ATTDEF
  5
A5
330
8E
100
AcDbEntity
  8
AM_6
100
AcDbText
 10
3.618375
 20
-6.75
 30
0.0
 40
0.5
  1
2
100
AcDbAttributeDefinition
  3

  2
DD
 70
     8
280
     0
  0
ATTDEF
  5
A6
330
8E
100
AcDbEntity
  8
AM_6
100
AcDbText
 10
3.618375
 20
-7.25
 30
0.0
 40
0.5
  1
baldor
100
AcDbAttributeDefinition
  3

  2
COMPANY
 70
     8
280
     0
  0
ELLIPSE
  5
A9
330
8E
100
AcDbEntity
  8
AM_9
100
AcDbEllipse
 10
-1.823625
 20
1.144598169185423
 30
0.0
 11
0.20835
 21
0.0
 31
0.0
210
0.0
220
0.0
230
1.0
 40
0.9063077870366504
 41
0.0
 42
3.847974496363913
  0
LINE
  5
AA
330
8E
100
AcDbEntity
  8
AM_9
100
AcDbLine
 10
-1.615275
 20
0.8994654901004289
 30
0.0
 11
-1.615275
 21
1.144598169185423
 31
0.0
  0
LINE
  5
AB
330
8E
100
AcDbEntity
  8
AM_9
100
AcDbLine
 10
-2.031975000000001
 20
1.144598169185423
 30
0.0
 11
-2.031975
 21
0.8994654901004289
 31
0.0
  0
ELLIPSE
  5
AC
330
8E
100
AcDbEntity
  8
AM_9
100
AcDbEllipse
 10
-1.823625000000001
 20
1.144598169185423
 30
0.0
 11
0.2083499999999993
 21
3.104656934738150E-9
 31
0.0
210
0.0
220
0.0
230
1.0
 40
0.906307787036649
 41
3.847974481159516
 42
4.537563971017057
  0
ELLIPSE
  5
AD
330
8E
100
AcDbEntity
  8
AM_9
100
AcDbEllipse
 10
-1.823625
 20
1.144598169185425
 30
0.0
 11
0.2083500000000002
 21
3.104656934738163E-9
 31
0.0
210
0.0
220
0.0
230
1.0
 40
0.90630778703666
 41
4.537563971017052
 42
4.878239622569991
  0
ELLIPSE
  5
AE
330
8E
100
AcDbEntity
  8
AM_9
100
AcDbEllipse
 10
-1.823625000000001
 20
1.144598169185424
 30
0.0
 11
0.20835
 21
0.0
 31
0.0
210
0.0
220
0.0
230
1.0
 40
0.9063077870366515
 41
4.878239636155068
 42
5.576803464405462
  0
ELLIPSE
  5
AF
330
8E
100
AcDbEntity
  8
AM_9
100
AcDbEllipse
 10
-1.823625000000002
 20
1.144598169185422
 30
0.0
 11
0.2083500000000018
 21
0.0
 31
0.0
210
0.0
220
0.0
230
1.0
 40
0.9063077870366464
 41
5.576803464405474
 42
6.283185307179586
  0
ELLIPSE
  5
B0
330
8E
100
AcDbEntity
  8
AM_9
100
AcDbEllipse
 10
-1.823625000000077
 20
0.8994654901003836
 30
0.0
 11
0.2083499999999234
 21
0.0
 31
0.0
210
0.0
220
0.0
230
1.0
 40
0.9063077870366384
 41
3.141592653589793
 42
3.249137752710952
  0
ELLIPSE
  5
B1
330
8E
100
AcDbEntity
  8
AM_9
100
AcDbEllipse
 10
-1.823625
 20
0.8994654901004289
 30
0.0
 11
0.20835
 21
0.0
 31
0.0
210
0.0
220
0.0
230
1.0
 40
0.9063077870366484
 41
3.24913775271115
 42
6.175616064347519
  0
ELLIPSE
  5
B2
330
8E
100
AcDbEntity
  8
AM_9
100
AcDbEllipse
 10
-1.823624999999981
 20
0.8994654901004191
 30
0.0
 11
0.2083499999999807
 21
0.0
 31
0.0
210
0.0
220
0.0
230
1.0
 40
0.906307787036647
 41
6.17561606434756
 42
9.42477796076938
  0
LINE
  5
B3
330
8E
100
AcDbEntity
  8
AM_9
100
AcDbLine
 10
-2.031975
 20
2.128316666666672
 30
0.0
 11
-2.040049611826419
 21
2.120242054840253
 31
0.0
  0
LINE
  5
B4
330
8E
100
AcDbEntity
  8
AM_9
100
AcDbLine
 10
-1.607313276724855
 20
2.120354943391527
 30
0.0
 11
-1.615275
 21
2.128316666666672
 31
0.0
  0
LINE
  5
B5
330
8E
100
AcDbEntity
  8
AM_9
100
AcDbLine
 10
-1.615275
 20
2.708349999999999
 30
0.0
 11
-1.598175484400176
 21
2.725449515599824
 31
0.0
  0
LINE
  5
B6
330
8E
100
AcDbEntity
  8
AM_9
100
AcDbLine
 10
-2.073268953285003
 20
2.749643953285003
 30
0.0
 11
-2.031975
 21
2.708349999999999
 31
0.0
  0
LINE
  5
B7
330
8E
100
AcDbEntity
  8
AM_9
100
AcDbLine
 10
-1.615275
 20
2.128316666666672
 30
0.0
 11
-1.615275
 21
2.708349999999999
 31
0.0
  0
LINE
  5
B8
330
8E
100
AcDbEntity
  8
AM_9
100
AcDbLine
 10
-2.031975
 20
2.708349999999999
 30
0.0
 11
-2.031975
 21
2.128316666666672
 31
0.0
  0
LINE
  5
B9
330
8E
100
AcDbEntity
  8
AM_9
100
AcDbLine
 10
-2.031975
 20
2.708349999999999
 30
0.0
 11
-1.615275
 21
2.708349999999999
 31
0.0
  0
LINE
  5
BA
330
8E
100
AcDbEntity
  8
AM_9
100
AcDbLine
 10
-2.031975
 20
2.128316666666672
 30
0.0
 11
-1.615275
 21
2.128316666666672
 31
0.0
  0
LWPOLYLINE
  5
BB
330
8E
100
AcDbEntity
  8
AM_9
100
AcDbPolyline
 90
        6
 70
     0
 43
0.0
 10
-1.608676279148752
 20
0.8698217487732198
 10
-1.608786397225975
 20
0.8689980597706737
 10
-1.616924965631894
 20
0.833339511246782
 10
-1.631936707043655
 20
0.7981768857503324
 10
-1.648240013553351
 20
0.772389793770554
 10
-1.668689722724608
 20
0.7483987821969733
  0
LWPOLYLINE
  5
BC
330
8E
100
AcDbEntity
  8
AM_9
100
AcDbPolyline
 90
        4
 70
     0
 43
0.0
 10
-1.612279320454122
 20
0.9413485614390609
 10
-1.612091031346456
 20
0.9405521551685659
 10
-1.607191681920973
 20
0.9055552754850491
 10
-1.608676279148752
 20
0.8698217487732198
  0
LWPOLYLINE
  5
BD
330
8E
100
AcDbEntity
  8
AM_9
100
AcDbPolyline
 90
       20
 70
     0
 43
0.0
 10
-2.038722300041665
 20
0.8709764287578367
 10
-2.039074863970402
 20
0.873958963058355
 10
-2.039807956173149
 20
0.9097679429622395
 10
-2.033831316388953
 20
0.9458797501199375
 10
-2.021486595767474
 20
0.979559655397046
 10
-2.002335338956813
 20
1.011523036723778
 10
-1.978388064002315
 20
1.038555704167199
 10
-1.94847647539225
 20
1.062033341879491
 10
-1.916761256702722
 20
1.079072472128795
 10
-1.880898549354083
 20
1.091279797005787
 10
-1.846397149730405
 20
1.097225761392622
 10
-1.810109095318381
 20
1.097936221231979
 10
-1.776618293924178
 20
1.09360751300478
 10
-1.743515231451794
 20
1.084282170590918
 10
-1.713261014858389
 20
1.070651951144069
 10
-1.685206632183131
 20
1.052461071366767
 10
-1.66039784584006
 20
1.030081436202219
 10
-1.639441305205835
 20
1.003702108954143
 10
-1.623078515472045
 20
0.9736657200777625
 10
-1.612279320454122
 20
0.9413485614390609
  0
LWPOLYLINE
  5
BE
330
8E
100
AcDbEntity
  8
AM_9
100
AcDbPolyline
 90
       15
 70
     0
 43
0.0
 10
-1.668689722724608
 20
0.7483987821969733
 10
-1.692546760141793
 20
0.7274292358583339
 10
-1.720109825746909
 20
0.7095949449734629
 10
-1.753112237530668
 20
0.6949870803460474
 10
-1.789467931974718
 20
0.6858245990301007
 10
-1.823953885050801
 20
0.6830881594991679
 10
-1.859475320826093
 20
0.6861044799784577
 10
-1.892124192500935
 20
0.6943001094787262
 10
-1.923765536456125
 20
0.7077918515840089
 10
-1.952530203869771
 20
0.7258017956032087
 10
-1.978548585882267
 20
0.7483869084803636
 10
-2.000971179249622
 20
0.7751006938724042
 10
-2.019024301159098
 20
0.8054047623124807
 10
-2.031950513416773
 20
0.8385998014471758
 10
-2.038722300041665
 20
0.8709764287578367
  0
LINE
  5
BF
330
8E
100
AcDbEntity
  8
AM_9
100
AcDbLine
 10
-1.662152269720321
 20
2.114501364675657
 30
0.0
 11
-1.606958333333345
 21
2.119999999999998
 31
0.0
  0
LINE
  5
C0
330
8E
100
AcDbEntity
  8
AM_9
100
AcDbLine
 10
-2.265625
 20
-2.12
 30
0.0
 11
-1.381625
 21
-2.12
 31
0.0
  0
LINE
  5
C1
330
8E
100
AcDbEntity
  8
AM_9
100
AcDbLine
 10
-1.381625
 20
2.12
 30
0.0
 11
-1.607759253124067
 21
2.12
 31
0.0
  0
LINE
  5
C2
330
8E
100
AcDbEntity
  8
AM_9
100
AcDbLine
 10
-2.039744823404114
 20
2.12
 30
0.0
 11
-2.265625
 21
2.12
 31
0.0
  0
LINE
  5
C3
330
8E
100
AcDbEntity
  8
AM_9
100
AcDbLine
 10
-2.028565715448639
 20
2.118700404862288
 30
0.0
 11
-2.040291666666418
 21
2.119999999999971
 31
0.0
  0
LINE
  5
C4
330
8E
100
AcDbEntity
  8
AM_9
100
AcDbLine
 10
-1.650341996719269
 20
2.115545411927782
 30
0.0
 11
-1.666930676236986
 21
2.11409957177283
 31
0.0
  0
LWPOLYLINE
  5
C5
330
8E
100
AcDbEntity
  8
AM_9
100
AcDbPolyline
 90
       16
 70
     0
 43
0.0
 10
-2.040291666666418
 20
2.119999999999971
 10
-2.038150336237969
 20
2.119757414469725
 10
-2.029613917917191
 20
2.118813706289329
 10
-2.014206458022961
 20
2.117205225789475
 10
-1.99337795529086
 20
2.11522575337756
 10
-1.966233322870073
 20
2.112984480105585
 10
-1.936295739035511
 20
2.110959754530843
 10
-1.901586439144592
 20
2.109203258040766
 10
-1.867422212636088
 20
2.108097303774617
 10
-1.830767861238747
 20
2.107600458519539
 10
-1.796702210813957
 20
2.107779787640868
 10
-1.762426935484983
 20
2.10858320638433
 10
-1.731018798596706
 20
2.109866750951314
 10
-1.701302427931414
 20
2.111561104362663
 10
-1.680770411630231
 20
2.113003084585785
 10
-1.662152269720321
 20
2.114501364675657
  0
LINE
  5
C6
330
8E
100
AcDbEntity
  8
AM_9
100
AcDbLine
 10
-1.426412456445993
 20
-2.619047619047619
 30
0.0
 11
-1.381625
 21
-2.619047619047619
 31
0.0
  0
LINE
  5
C7
330
8E
100
AcDbEntity
  8
AM_9
100
AcDbLine
 10
-1.381625
 20
-0.7302528107907397
 30
0.0
 11
-1.381625
 21
-2.619047619047619
 31
0.0
  0
LINE
  5
C8
330
8E
100
AcDbEntity
  8
AM_9
100
AcDbLine
 10
-1.573625
 20
-2.682926829268293
 30
0.0
 11
-1.490291666666667
 21
-2.682926829268293
 31
0.0
  0
LINE
  5
C9
330
8E
100
AcDbEntity
  8
AM_9
100
AcDbLine
 10
-1.490291666666667
 20
-2.682926829268293
 30
0.0
 11
-1.426412456445993
 21
-2.619047619047619
 31
0.0
  0
LINE
  5
CA
330
8E
100
AcDbEntity
  8
AM_9
100
AcDbLine
 10
-1.490291666666667
 20
-1.370588023407961
 30
0.0
 11
-1.490291666666667
 21
-2.682926829268293
 31
0.0
  0
LINE
  5
CB
330
8E
100
AcDbEntity
  8
AM_9
100
AcDbLine
 10
-1.426412456445993
 20
-1.201423419776076
 30
0.0
 11
-1.426412456445993
 21
-2.619047619047619
 31
0.0
  0
LWPOLYLINE
  5
CC
330
8E
100
AcDbEntity
  8
AM_9
100
AcDbPolyline
 90
       33
 70
     0
 43
0.0
 10
-1.612349713177353
 20
1.276939649633282
 10
-1.612771436767927
 20
1.277503942491251
 10
-1.636847364772762
 20
1.304496545173623
 10
-1.666298289478171
 20
1.32820580028513
 10
-1.700171539952654
 20
1.347611887138414
 10
-1.738184799806417
 20
1.362311899129348
 10
-1.778866278780396
 20
1.371514601350501
 10
-1.821900474108166
 20
1.374880821582701
 10
-1.864710975827345
 20
1.372048957183011
 10
-1.907570890889934
 20
1.362761825810026
 10
-1.946886135590434
 20
1.347703371764336
 10
-1.983729348550008
 20
1.3262847943683
 10
-2.014185782021026
 20
1.300816983945558
 10
-2.039889044386285
 20
1.269941760997686
 10
-2.057764304565435
 20
1.237703981028517
 10
-2.069383643827456
 20
1.201842696265636
 10
-2.073561325303501
 20
1.167093763202161
 10
-2.07102715019805
 20
1.13091675579493
 10
-2.062254783675844
 20
1.097126348960564
 10
-2.047083346898272
 20
1.064027362752214
 10
-2.026519358394183
 20
1.033920765023439
 10
-2.000278311982076
 20
1.00643100896408
 10
-1.969295129168519
 20
0.9828935673169947
 10
-1.933722585851379
 20
0.9637552448735978
 10
-1.894783399844676
 20
0.9500320185920489
 10
-1.852856366668025
 20
0.9422314609068208
 10
-1.810137283196476
 20
0.9410089213228022
 10
-1.766590197199792
 20
0.9466441356588684
 10
-1.725535880149685
 20
0.9587947528022491
 10
-1.686149072702443
 20
0.9778347055134896
 10
-1.65925896021514
 20
0.9961680518317639
 10
-1.634826423641288
 20
1.018059032022254
 10
-1.612349713177353
 20
1.044941912550959
  0
LINE
  5
CD
330
8E
100
AcDbEntity
  8
AM_9
100
AcDbLine
 10
-1.7109375
 20
-2.75
 30
0.0
 11
-1.612349713177353
 21
-2.75
 31
0.0
  0
LWPOLYLINE
  5
CE
330
8E
100
AcDbEntity
  8
AM_9
100
AcDbPolyline
 90
        7
 70
     0
 43
0.0
 10
-1.612349713177353
 20
1.044941912550959
 10
-1.602298660914219
 20
1.092260540495752
 10
-1.599388285036935
 20
1.118916273784735
 10
-1.598197560223109
 20
1.147296757141814
 10
-1.600634433751827
 20
1.20141089406492
 10
-1.608898649081679
 20
1.259426264590018
 10
-1.612349713177353
 20
1.276939649633282
  0
LINE
  5
CF
330
8E
100
AcDbEntity
  8
AM_9
100
AcDbLine
 10
-1.612349713177353
 20
-1.403002730617456
 30
0.0
 11
-1.612349713177353
 21
-2.75
 31
0.0
  0
LINE
  5
D0
330
8E
100
AcDbEntity
  8
AM_9
100
AcDbLine
 10
-1.612349713177353
 20
-2.75
 30
0.0
 11
-1.573625
 21
-2.682926829268293
 31
0.0
  0
LINE
  5
D1
330
8E
100
AcDbEntity
  8
AM_9
100
AcDbLine
 10
-1.573625
 20
-1.385716468692119
 30
0.0
 11
-1.573625
 21
-2.682926829268293
 31
0.0
  0
LINE
  5
D3
330
8E
100
AcDbEntity
  8
AM_5
100
AcDbLine
 10
-2.073625
 20
2.75
 30
0.0
 11
-2.073625
 21
2.12
 31
0.0
  0
LINE
  5
D4
330
8E
100
AcDbEntity
  8
AM_5
100
AcDbLine
 10
-1.948625
 20
2.086666666666667
 30
0.0
 11
-2.073625
 21
2.086666666666667
 31
0.0
  0
LINE
  5
D5
330
8E
100
AcDbEntity
  8
AM_5
100
AcDbLine
 10
-1.573625
 20
2.682926829268292
 30
0.0
 11
-1.573625
 21
2.12
 31
0.0
  0
LINE
  5
D6
330
8E
100
AcDbEntity
  8
AM_5
100
AcDbLine
 10
-1.698625
 20
2.086666666666667
 30
0.0
 11
-1.573625
 21
2.086666666666667
 31
0.0
  0
LINE
  5
D8
330
8E
100
AcDbEntity
  8
AM_4
100
AcDbLine
 10
-1.381625
 20
2.619047619047619
 30
0.0
 11
-1.426412456445993
 21
2.619047619047619
 31
0.0
  0
LINE
  5
D9
330
8E
100
AcDbEntity
  8
AM_4
100
AcDbLine
 10
-1.381625
 20
2.619047619047619
 30
0.0
 11
-1.381625
 21
-0.7302528107907397
 31
0.0
  0
LINE
  5
DA
330
8E
100
AcDbEntity
  8
AM_4
100
AcDbLine
 10
-1.490291666666667
 20
2.682926829268293
 30
0.0
 11
-1.573625
 21
2.682926829268293
 31
0.0
  0
LINE
  5
DB
330
8E
100
AcDbEntity
  8
AM_4
100
AcDbLine
 10
-1.426412456445993
 20
2.619047619047619
 30
0.0
 11
-1.490291666666667
 21
2.682926829268292
 31
0.0
  0
LINE
  5
DC
330
8E
100
AcDbEntity
  8
AM_4
100
AcDbLine
 10
-1.490291666666667
 20
2.682926829268292
 30
0.0
 11
-1.490291666666667
 21
-1.370588023407961
 31
0.0
  0
LINE
  5
DD
330
8E
100
AcDbEntity
  8
AM_4
100
AcDbLine
 10
-1.426412456445993
 20
2.619047619047619
 30
0.0
 11
-1.426412456445993
 21
-1.201423419776076
 31
0.0
  0
LWPOLYLINE
  5
DE
330
8E
100
AcDbEntity
  8
AM_4
100
AcDbPolyline
 90
       17
 70
     0
 43
0.0
 10
-1.612349713177353
 20
2.747019914166474
 10
-1.626036962661573
 20
2.746085072755853
 10
-1.650767001548546
 20
2.744553426216113
 10
-1.679755835287553
 20
2.743016801070078
 10
-1.715397940539026
 20
2.741511497843642
 10
-1.754874007059648
 20
2.740340011378323
 10
-1.796428880073231
 20
2.739671042367923
 10
-1.839894122406342
 20
2.739591333947649
 10
-1.882451810207242
 20
2.740127610911085
 10
-1.924540159390214
 20
2.741255154122653
 10
-1.96242518931809
 20
2.742776857496581
 10
-1.997327435605901
 20
2.744602377914511
 10
-2.025398273079474
 20
2.746364336271284
 10
-2.048323409992958
 20
2.747996891761355
 10
-2.063362281175729
 20
2.74916209330171
 10
-2.071966657773877
 20
2.74986225683992
 10
-2.07362499999994
 20
2.749999999999994
  0
LINE
  5
DF
330
8E
100
AcDbEntity
  8
AM_4
100
AcDbLine
 10
-2.118291666666667
 20
-2.75
 30
0.0
 11
-1.7109375
 21
-2.75
 31
0.0
  0
LINE
  5
E0
330
8E
100
AcDbEntity
  8
AM_4
100
AcDbLine
 10
-2.072967197937064
 20
2.75
 30
0.0
 11
-2.118291666666667
 21
2.75
 31
0.0
  0
LINE
  5
E1
330
8E
100
AcDbEntity
  8
AM_4
100
AcDbLine
 10
-2.265625
 20
2.602666666666666
 30
0.0
 11
-2.265625
 21
-2.602666666666666
 31
0.0
  0
ARC
  5
E2
330
8E
100
AcDbEntity
  8
AM_4
100
AcDbCircle
 10
-2.118291666666666
 20
-2.602666666666667
 30
0.0
 40
0.1473333333333335
100
AcDbArc
 50
180.0
 51
270.0
  0
ARC
  5
E3
330
8E
100
AcDbEntity
  8
AM_4
100
AcDbCircle
 10
-2.118291666666666
 20
2.602666666666667
 30
0.0
 40
0.1473333333333331
100
AcDbArc
 50
90.0
 51
180.0
  0
LINE
  5
E4
330
8E
100
AcDbEntity
  8
AM_4
100
AcDbLine
 10
-2.118291666666667
 20
2.75
 30
0.0
 11
-2.118291666666667
 21
-2.75
 31
0.0
  0
LINE
  5
E5
330
8E
100
AcDbEntity
  8
AM_4
100
AcDbLine
 10
-1.612349713177353
 20
2.747019914166474
 30
0.0
 11
-1.612349713177353
 21
-1.403002730617456
 31
0.0
  0
LINE
  5
E6
330
8E
100
AcDbEntity
  8
AM_4
100
AcDbLine
 10
-1.573625
 20
2.682926829268293
 30
0.0
 11
-1.598175484400176
 21
2.725449515599824
 31
0.0
  0
LINE
  5
E7
330
8E
100
AcDbEntity
  8
AM_4
100
AcDbLine
 10
-1.598175484400186
 20
2.725449515599839
 30
0.0
 11
-1.612349713177353
 21
2.747019914166474
 31
0.0
  0
LINE
  5
E8
330
8E
100
AcDbEntity
  8
AM_4
100
AcDbLine
 10
-1.573625
 20
2.682926829268293
 30
0.0
 11
-1.573625
 21
-1.385716468692119
 31
0.0
  0
ENDBLK
  5
91
330
8E
100
AcDbEntity
  8
0
100
AcDbBlockEnd
  0
BLOCK
  5
EB
330
E9
100
AcDbEntity
  8
0
100
AcDbBlockBegin
  2
3_070028i_0_in_070357_2
 70
     2
 10
0.0
 20
0.0
 30
0.0
  3
3_070028i_0_in_070357_2
  1

  0
ATTDEF
  5
ED
330
E9
100
AcDbEntity
  8
AM_6
100
AcDbText
 10
6.934375
 20
3.1496
 30
0.0
 40
0.5
  1
S-2000 Insert -Inch
100
AcDbAttributeDefinition
  3

  2
NN
 70
     8
280
     0
  0
ATTDEF
  5
EE
330
E9
100
AcDbEntity
  8
AM_6
100
AcDbText
 10
6.934375
 20
2.6496
 30
0.0
 40
0.5
  1
S-2000 Bearings
100
AcDbAttributeDefinition
  3

  2
NT
 70
     8
280
     0
  0
ATTDEF
  5
EF
330
E9
100
AcDbEntity
  8
AM_6
100
AcDbText
 10
6.934375
 20
2.1496
 30
0.0
 40
0.5
  1
070028i
100
AcDbAttributeDefinition
  3

  2
NB
 70
     8
280
     0
  0
ATTDEF
  5
F0
330
E9
100
AcDbEntity
  8
AM_6
100
AcDbText
 10
6.934375
 20
1.6496
 30
0.0
 40
0.5
  1
$PN.i
100
AcDbAttributeDefinition
  3

  2
NBSYN
 70
     8
280
     0
  0
ATTDEF
  5
F1
330
E9
100
AcDbEntity
  8
AM_6
100
AcDbText
 10
6.934375
 20
1.1496
 30
0.0
 40
0.5
  1
070028i
100
AcDbAttributeDefinition
  3

  2
LINA
 70
     8
280
     0
  0
ATTDEF
  5
F2
330
E9
100
AcDbEntity
  8
AM_6
100
AcDbText
 10
6.934375
 20
0.6495999999999995
 30
0.0
 40
0.5
  1
3-7/16
100
AcDbAttributeDefinition
  3

  2
SS
 70
     8
280
     0
  0
ATTDEF
  5
F3
330
E9
100
AcDbEntity
  8
AM_6
100
AcDbText
 10
6.934375
 20
0.1495999999999995
 30
0.0
 40
0.5
  1
4.24
100
AcDbAttributeDefinition
  3

  2
CC
 70
     8
280
     0
  0
ATTDEF
  5
F4
330
E9
100
AcDbEntity
  8
AM_6
100
AcDbText
 10
6.934375
 20
-0.3504000000000005
 30
0.0
 40
0.5
  1
3.437500
100
AcDbAttributeDefinition
  3

  2
SS1
 70
     8
280
     0
  0
ATTDEF
  5
F5
330
E9
100
AcDbEntity
  8
AM_6
100
AcDbText
 10
6.934375
 20
-0.8504000000000005
 30
0.0
 40
0.5
  1
070028
100
AcDbAttributeDefinition
  3

  2
PN
 70
     8
280
     0
  0
ATTDEF
  5
F6
330
E9
100
AcDbEntity
  8
AM_6
100
AcDbText
 10
6.934375
 20
-1.3504
 30
0.0
 40
0.5
  1
INS-S2-307L
100
AcDbAttributeDefinition
  3

  2
DESCRIPTION
 70
     8
280
     0
  0
ATTDEF
  5
F7
330
E9
100
AcDbEntity
  8
AM_6
100
AcDbText
 10
6.934375
 20
-1.8504
 30
0.0
 40
0.5
  1
Labyrinth Seal
100
AcDbAttributeDefinition
  3

  2
ST
 70
     8
280
     0
  0
ATTDEF
  5
F8
330
E9
100
AcDbEntity
  8
AM_6
100
AcDbText
 10
6.934375
 20
-2.3504
 30
0.0
 40
0.5
  1
2
100
AcDbAttributeDefinition
  3

  2
ST1
 70
     8
280
     0
  0
ATTDEF
  5
F9
330
E9
100
AcDbEntity
  8
AM_6
100
AcDbText
 10
6.934375
 20
-2.8504
 30
0.0
 40
0.5
  1
6.2992
100
AcDbAttributeDefinition
  3

  2
A
 70
     8
280
     0
  0
ATTDEF
  5
FA
330
E9
100
AcDbEntity
  8
AM_6
100
AcDbText
 10
6.934375
 20
-3.3504
 30
0.0
 40
0.5
  1
1-5/8
100
AcDbAttributeDefinition
  3

  2
B
 70
     8
280
     0
  0
ATTDEF
  5
FB
330
E9
100
AcDbEntity
  8
AM_6
100
AcDbText
 10
6.934375
 20
-3.8504
 30
0.0
 40
0.5
  1
4
100
AcDbAttributeDefinition
  3

  2
C
 70
     8
280
     0
  0
ATTDEF
  5
FC
330
E9
100
AcDbEntity
  8
AM_6
100
AcDbText
 10
6.934375
 20
-4.3504
 30
0.0
 40
0.5
  1
1.483
100
AcDbAttributeDefinition
  3

  2
D
 70
     8
280
     0
  0
ATTDEF
  5
FD
330
E9
100
AcDbEntity
  8
AM_6
100
AcDbText
 10
6.934375
 20
-4.8504
 30
0.0
 40
0.5
  1
5-1/2
100
AcDbAttributeDefinition
  3

  2
E
 70
     8
280
     0
  0
ATTDEF
  5
FE
330
E9
100
AcDbEntity
  8
AM_6
100
AcDbText
 10
6.934375
 20
-5.3504
 30
0.0
 40
0.5
  1
0.34375
100
AcDbAttributeDefinition
  3

  2
F
 70
     8
280
     0
  0
ATTDEF
  5
FF
330
E9
100
AcDbEntity
  8
AM_6
100
AcDbText
 10
6.934375
 20
-5.8504
 30
0.0
 40
0.5
  1
2
100
AcDbAttributeDefinition
  3

  2
DD
 70
     8
280
     0
  0
ATTDEF
  5
100
330
E9
100
AcDbEntity
  8
AM_6
100
AcDbText
 10
6.934375
 20
-6.3504
 30
0.0
 40
0.5
  1
baldor
100
AcDbAttributeDefinition
  3

  2
COMPANY
 70
     8
280
     0
  0
LINE
  5
101
330
E9
100
AcDbEntity
  8
AM_9
100
AcDbLine
 10
-2.093625
 20
0.8959031063012051
 30
0.0
 11
-2.093625
 21
0.7263628634379331
 31
0.0
  0
LINE
  5
102
330
E9
100
AcDbEntity
  8
AM_9
100
AcDbLine
 10
-1.553624999999999
 20
0.7263156090741771
 30
0.0
 11
-1.553624999999999
 21
0.8959483170521761
 31
0.0
  0
LWPOLYLINE
  5
103
330
E9
100
AcDbEntity
  8
AM_9
100
AcDbPolyline
 90
       21
 70
     0
 43
0.0
 10
-1.553625000932964
 20
0.7263954798458682
 10
-1.55526004481094
 20
0.6993776431308667
 10
-1.563927998529208
 20
0.6588373237799396
 10
-1.579728624181008
 20
0.6197543434161663
 10
-1.602406046500949
 20
0.5831694524191579
 10
-1.631183322826185
 20
0.5503121971922345
 10
-1.66574437022787
 20
0.5219765505960682
 10
-1.704784349383279
 20
0.4993878078107932
 10
-1.747313120505064
 20
0.4833852538418104
 10
-1.792045405253785
 20
0.4744571371451572
 10
-1.837221476779391
 20
0.4730157890392807
 10
-1.88201071233509
 20
0.4788675120531314
 10
-1.924885800169434
 20
0.4918180991473555
 10
-1.964942665753095
 20
0.5113298647255077
 10
-2.001323055755114
 20
0.5370730557008556
 10
-2.032750260238623
 20
0.5679989834795077
 10
-2.058495321104039
 20
0.6035420777796372
 10
-2.077594299786925
 20
0.6422792496103372
 10
-2.089354167803696
 20
0.6828858236658529
 10
-2.093615005913609
 20
0.7242690471961433
 10
-2.093624999637359
 20
0.7263624546748617
  0
LWPOLYLINE
  5
104
330
E9
100
AcDbEntity
  8
AM_9
100
AcDbPolyline
 90
       11
 70
     0
 43
0.0
 10
-2.093624999637359
 20
0.7263624546748617
 10
-2.090214314616156
 20
0.7647646869929684
 10
-2.079448895034543
 20
0.8037063165742929
 10
-2.061556332668398
 20
0.8399895035276265
 10
-2.037137139798466
 20
0.8727905198387096
 10
-2.006443810320536
 20
0.9015477090811951
 10
-1.970620831584019
 20
0.9253001355966682
 10
-1.930343791316354
 20
0.9435256795499095
 10
-1.886993542386313
 20
0.955724410566363
 10
-1.85553721461102
 20
0.960465793879837
 10
-1.823625
 20
0.9620596725246996
  0
LWPOLYLINE
  5
105
330
E9
100
AcDbEntity
  8
AM_9
100
AcDbPolyline
 90
        5
 70
     0
 43
0.0
 10
-1.570650219715976
 20
0.8095438332532168
 10
-1.569040506013688
 20
0.8136434280233976
 10
-1.557581312213227
 20
0.8541497401390602
 10
-1.553625533557965
 20
0.895464208198933
 10
-1.553625000025108
 20
0.8959473776705272
  0
LWPOLYLINE
  5
106
330
E9
100
AcDbEntity
  8
AM_9
100
AcDbPolyline
 90
       16
 70
     0
 43
0.0
 10
-2.076926324127613
 20
0.8103579881285159
 10
-2.067123960689548
 20
0.7888684769640606
 10
-2.044226450434246
 20
0.7524824588542216
 10
-2.015199295305774
 20
0.7199001638437329
 10
-1.980506860238628
 20
0.6919988103405442
 10
-1.941372335731764
 20
0.6698392091981814
 10
-1.898817600984267
 20
0.6542293309392224
 10
-1.854109654766668
 20
0.6456097619730042
 10
-1.808833129285626
 20
0.6443690925428374
 10
-1.76397600277207
 20
0.6503554067146965
 10
-1.720979077188939
 20
0.6634110212919858
 10
-1.680851163107391
 20
0.6830087705445494
 10
-1.644562595018887
 20
0.7087562367893651
 10
-1.613285164087472
 20
0.7396661469748094
 10
-1.587830749338024
 20
0.7750649359171926
 10
-1.570650219715976
 20
0.8095438332532168
  0
LWPOLYLINE
  5
107
330
E9
100
AcDbEntity
  8
AM_9
100
AcDbPolyline
 90
        4
 70
     0
 43
0.0
 10
-2.093624998947692
 20
0.8959723193152055
 10
-2.091929267439844
 20
0.8684775279886504
 10
-2.083121683309979
 20
0.8278948101609958
 10
-2.076926324127613
 20
0.8103579881285159
  0
LWPOLYLINE
  5
108
330
E9
100
AcDbEntity
  8
AM_9
100
AcDbPolyline
 90
       11
 70
     0
 43
0.0
 10
-1.553625000025108
 20
0.8959473776705272
 10
-1.557346604390506
 20
0.936090322255598
 10
-1.568472562523247
 20
0.9752019363083957
 10
-1.586771476811262
 20
1.0116971268762
 10
-1.611629024015003
 20
1.044699427682732
 10
-1.642666916526436
 20
1.073518601491382
 10
-1.678793206321805
 20
1.097278621654302
 10
-1.719218915196048
 20
1.115392361423735
 10
-1.762629913387995
 20
1.127405769136362
 10
-1.792926068865182
 20
1.131860993637935
 10
-1.823625
 20
1.13335786779713
  0
LINE
  5
109
330
E9
100
AcDbEntity
  8
AM_9
100
AcDbLine
 10
-2.093625
 20
2.12
 30
0.0
 11
-2.093625
 21
1.71875
 31
0.0
  0
LINE
  5
10A
330
E9
100
AcDbEntity
  8
AM_9
100
AcDbLine
 10
-1.553624999999999
 20
1.71875
 30
0.0
 11
-1.553624999999999
 21
2.12
 31
0.0
  0
LWPOLYLINE
  5
10B
330
E9
100
AcDbEntity
  8
AM_9
100
AcDbPolyline
 90
       11
 70
     0
 43
0.0
 10
-1.823625
 20
1.697410251677537
 10
-1.779252653760553
 20
1.697990125887307
 10
-1.734880307521107
 20
1.699728561548336
 10
-1.694246247818061
 20
1.702333816857362
 10
-1.656149914870443
 20
1.70565221151299
 10
-1.623481741346013
 20
1.709169063166262
 10
-1.595609575255688
 20
1.712656590335998
 10
-1.574761627625451
 20
1.715556627048386
 10
-1.560512921678715
 20
1.717681439690883
 10
-1.554120622643141
 20
1.718672211887569
 10
-1.553625000000557
 20
1.718749999999912
  0
LWPOLYLINE
  5
10C
330
E9
100
AcDbEntity
  8
AM_9
100
AcDbPolyline
 90
       11
 70
     0
 43
0.0
 10
-1.823625
 20
0.9620596725246996
 10
-1.778614471823675
 20
0.9588658762061216
 10
-1.734880307521107
 20
0.9494437132308038
 10
-1.693701167993319
 20
0.9339398372663398
 10
-1.656149914870443
 20
0.9127804763009515
 10
-1.623069296272951
 20
0.8861441205410909
 10
-1.595609575255688
 20
0.8548514494513818
 10
-1.574529312243977
 20
0.8193833139249409
 10
-1.560512921678715
 20
0.7808433601537965
 10
-1.554109402172486
 20
0.7405602714907916
 10
-1.553625000932964
 20
0.7263954798458682
  0
LINE
  5
10D
330
E9
100
AcDbEntity
  8
AM_9
100
AcDbLine
 10
1.734375
 20
1.71875
 30
0.0
 11
-1.553625
 21
1.71875
 31
0.0
  0
LINE
  5
10E
330
E9
100
AcDbEntity
  8
AM_9
100
AcDbLine
 10
-2.093625
 20
1.71875
 30
0.0
 11
-2.265625
 21
1.71875
 31
0.0
  0
LINE
  5
10F
330
E9
100
AcDbEntity
  8
AM_9
100
AcDbLine
 10
-2.265625
 20
-1.71875
 30
0.0
 11
1.734375
 21
-1.71875
 31
0.0
  0
LINE
  5
110
330
E9
100
AcDbEntity
  8
AM_9
100
AcDbLine
 10
-2.086430467783122
 20
1.717634500234758
 30
0.0
 11
-2.093624999999801
 21
1.718749999999969
 31
0.0
  0
LINE
  5
111
330
E9
100
AcDbEntity
  8
AM_9
100
AcDbLine
 10
-1.807689615507005
 20
1.69748505117981
 30
0.0
 11
-1.831685744315652
 21
1.697429391196854
 31
0.0
  0
LWPOLYLINE
  5
112
330
E9
100
AcDbEntity
  8
AM_9
100
AcDbPolyline
 90
       11
 70
     0
 43
0.0
 10
-2.093624999999801
 20
1.718749999999969
 10
-2.090342490989609
 20
1.718237405744559
 10
-2.079448895034544
 20
1.716580154775956
 10
-2.061876227543537
 20
1.714049360411188
 10
-2.037137139798466
 20
1.710786075563312
 10
-2.006934054547872
 20
1.707279640826082
 10
-1.970620831584019
 20
1.703763286669565
 10
-1.930966771338168
 20
1.700800934375924
 10
-1.886993542386313
 20
1.698592692396905
 10
-1.855766840214175
 20
1.69771454031364
 10
-1.823625
 20
1.697410251677537
  0
LWPOLYLINE
  5
113
330
E9
100
AcDbEntity
  8
AM_9
100
AcDbPolyline
 90
       11
 70
     0
 43
0.0
 10
-1.823625
 20
2.102736312522329
 10
-1.868105009964312
 20
2.103206711497095
 10
-1.912585019928625
 20
2.104617277593649
 10
-1.953322313257162
 20
2.106732397117899
 10
-1.991509865365252
 20
2.10942772524178
 10
-2.024144208734502
 20
2.112275539097944
 10
-2.051961942289505
 20
2.11509757675955
 10
-2.072700117753342
 20
2.117436755675088
 10
-2.086841715408073
 20
2.11914677152627
 10
-2.093159958110078
 20
2.11994082314658
 10
-2.093624999999727
 20
2.119999999999965
  0
LWPOLYLINE
  5
114
330
E9
100
AcDbEntity
  8
AM_9
100
AcDbPolyline
 90
       11
 70
     0
 43
0.0
 10
-1.823625
 20
1.13335786779713
 10
-1.868743390831228
 20
1.13009931459351
 10
-1.912585019928625
 20
1.120489069061559
 10
-1.953871770506824
 20
1.104681051038227
 10
-1.991509865365252
 20
1.083129109603225
 10
-2.024557264453069
 20
1.056120280484209
 10
-2.051961942289505
 20
1.024469733709714
 10
-2.07292943801334
 20
0.9887690324712347
 10
-2.086841715408073
 20
0.950096538668429
 10
-2.093170046610922
 20
0.9096829474473109
 10
-2.093624998947692
 20
0.8959723193152055
  0
LINE
  5
115
330
E9
100
AcDbEntity
  8
AM_9
100
AcDbLine
 10
-1.381625
 20
2.12
 30
0.0
 11
-1.553624999999999
 21
2.12
 31
0.0
  0
LINE
  5
116
330
E9
100
AcDbEntity
  8
AM_9
100
AcDbLine
 10
-1.037875
 20
2.12
 30
0.0
 11
-1.36875
 21
2.12
 31
0.0
  0
LINE
  5
117
330
E9
100
AcDbEntity
  8
AM_9
100
AcDbLine
 10
-2.093624999999999
 20
2.12
 30
0.0
 11
-2.265625
 21
2.12
 31
0.0
  0
LINE
  5
118
330
E9
100
AcDbEntity
  8
AM_9
100
AcDbLine
 10
-2.265625
 20
-2.12
 30
0.0
 11
-1.037875
 21
-2.12
 31
0.0
  0
LINE
  5
119
330
E9
100
AcDbEntity
  8
AM_9
100
AcDbLine
 10
-1.557025642638419
 20
2.119569583039351
 30
0.0
 11
-1.553625000000006
 21
2.119999999999999
 31
0.0
  0
LINE
  5
11A
330
E9
100
AcDbEntity
  8
AM_9
100
AcDbLine
 10
-1.838995258871135
 20
2.102792487350512
 30
0.0
 11
-1.814488552345533
 21
2.102756161487999
 31
0.0
  0
LWPOLYLINE
  5
11B
330
E9
100
AcDbEntity
  8
AM_9
100
AcDbPolyline
 90
       11
 70
     0
 43
0.0
 10
-1.553625000000006
 20
2.119999999999999
 10
-1.557213667800407
 20
2.119545941451698
 10
-1.568472562523247
 20
2.11816023150996
 10
-1.586443089184131
 20
2.116070712149825
 10
-1.611629024015003
 20
2.113395915069827
 10
-1.642169781667061
 20
2.110551111975319
 10
-1.678793206321805
 20
2.107718256423293
 10
-1.71859806724373
 20
2.105357607772179
 10
-1.762629913387995
 20
2.103620783456658
 10
-1.792723333021195
 20
2.10296336464097
 10
-1.823625
 20
2.102736312522329
  0
LINE
  5
11C
330
E9
100
AcDbEntity
  8
AM_9
100
AcDbLine
 10
1.540625
 20
-2.120000000000001
 30
0.0
 11
1.7109375
 21
-2.120000000000001
 31
0.0
  0
LINE
  5
11D
330
E9
100
AcDbEntity
  8
AM_9
100
AcDbLine
 10
-1.037875
 20
-2.35718
 30
0.0
 11
-1.037875
 21
2.35718
 31
0.0
  0
ARC
  5
11E
330
E9
100
AcDbEntity
  8
AM_9
100
AcDbCircle
 10
-0.8753750000000005
 20
2.357180000000001
 30
0.0
 40
0.1624999999999992
100
AcDbArc
 50
90.0
 51
180.0
  0
ARC
  5
11F
330
E9
100
AcDbEntity
  8
AM_9
100
AcDbCircle
 10
-0.8753750000000005
 20
-2.357180000000001
 30
0.0
 40
0.1624999999999996
100
AcDbArc
 50
180.0
 51
270.0
  0
LINE
  5
120
330
E9
100
AcDbEntity
  8
AM_9
100
AcDbLine
 10
-0.5611250000000003
 20
2.51968
 30
0.0
 11
-0.8753750000000003
 21
2.51968
 31
0.0
  0
LINE
  5
121
330
E9
100
AcDbEntity
  8
AM_9
100
AcDbLine
 10
-0.8753750000000003
 20
-2.51968
 30
0.0
 11
-0.5611250000000003
 21
-2.51968
 31
0.0
  0
LINE
  5
122
330
E9
100
AcDbEntity
  8
AM_9
100
AcDbLine
 10
-0.8753750000000003
 20
-2.51968
 30
0.0
 11
-0.8753750000000003
 21
2.51968
 31
0.0
  0
LINE
  5
123
330
E9
100
AcDbEntity
  8
AM_9
100
AcDbLine
 10
1.36875
 20
2.51968
 30
0.0
 11
1.063875
 21
2.51968
 31
0.0
  0
LINE
  5
124
330
E9
100
AcDbEntity
  8
AM_9
100
AcDbLine
 10
1.063875
 20
-2.51968
 30
0.0
 11
1.378125
 21
-2.51968
 31
0.0
  0
LINE
  5
125
330
E9
100
AcDbEntity
  8
AM_9
100
AcDbLine
 10
1.540625
 20
-2.357180000000001
 30
0.0
 11
1.540625
 21
-1.380608657932693
 31
0.0
  0
ARC
  5
126
330
E9
100
AcDbEntity
  8
AM_9
100
AcDbCircle
 10
1.378125000000002
 20
-2.357180000000001
 30
0.0
 40
0.1624999999999988
100
AcDbArc
 50
270.0
 51
0.0
  0
LINE
  5
127
330
E9
100
AcDbEntity
  8
AM_9
100
AcDbLine
 10
1.378125
 20
-2.51968
 30
0.0
 11
1.378125
 21
-0.6605268926128554
 31
0.0
  0
LINE
  5
128
330
E9
100
AcDbEntity
  8
AM_9
100
AcDbLine
 10
0.3326250000000098
 20
3.023616
 30
0.0
 11
0.1701249999999899
 21
3.023616
 31
0.0
  0
LINE
  5
129
330
E9
100
AcDbEntity
  8
AM_9
100
AcDbLine
 10
0.1701249999999899
 20
-3.023616
 30
0.0
 11
0.3326250000000098
 21
-3.023616
 31
0.0
  0
LINE
  5
12A
330
E9
100
AcDbEntity
  8
AM_9
100
AcDbLine
 10
-0.5611250000000003
 20
-2.9871
 30
0.0
 11
-0.5611250000000003
 21
2.9871
 31
0.0
  0
ARC
  5
12B
330
E9
100
AcDbEntity
  8
AM_9
100
AcDbCircle
 10
-0.3986249999999999
 20
2.987099999999999
 30
0.0
 40
0.1625000000000005
100
AcDbArc
 50
90.0
 51
180.0
  0
ARC
  5
12C
330
E9
100
AcDbEntity
  8
AM_9
100
AcDbCircle
 10
-0.3986249999999999
 20
-2.987099999999999
 30
0.0
 40
0.1625000000000004
100
AcDbArc
 50
180.0
 51
270.0
  0
LINE
  5
12D
330
E9
100
AcDbEntity
  8
AM_9
100
AcDbLine
 10
1.063875
 20
-2.9871
 30
0.0
 11
1.063875
 21
2.9871
 31
0.0
  0
ARC
  5
12E
330
E9
100
AcDbEntity
  8
AM_9
100
AcDbCircle
 10
0.9013750000000011
 20
2.987100000000001
 30
0.0
 40
0.1624999999999988
100
AcDbArc
 50
0.0
 51
90.0
  0
ARC
  5
12F
330
E9
100
AcDbEntity
  8
AM_9
100
AcDbCircle
 10
0.9013750000000006
 20
-2.9871
 30
0.0
 40
0.1624999999999996
100
AcDbArc
 50
270.0
 51
0.0
  0
LINE
  5
130
330
E9
100
AcDbEntity
  8
AM_9
100
AcDbLine
 10
0.097388103686404
 20
3.1496
 30
0.0
 11
-0.3986250000000001
 21
3.1496
 31
0.0
  0
LINE
  5
131
330
E9
100
AcDbEntity
  8
AM_9
100
AcDbLine
 10
-0.3986250000000001
 20
-3.1496
 30
0.0
 11
0.097388103686404
 21
-3.1496
 31
0.0
  0
LINE
  5
132
330
E9
100
AcDbEntity
  8
AM_9
100
AcDbLine
 10
-0.3986250000000001
 20
-3.1496
 30
0.0
 11
-0.3986250000000001
 21
3.1496
 31
0.0
  0
LINE
  5
133
330
E9
100
AcDbEntity
  8
AM_9
100
AcDbLine
 10
0.1701249999999899
 20
3.023616
 30
0.0
 11
0.097388103686404
 21
3.1496
 31
0.0
  0
LINE
  5
134
330
E9
100
AcDbEntity
  8
AM_9
100
AcDbLine
 10
0.097388103686404
 20
-3.1496
 30
0.0
 11
0.1701249999999899
 21
-3.023616
 31
0.0
  0
LINE
  5
135
330
E9
100
AcDbEntity
  8
AM_9
100
AcDbLine
 10
0.1701249999999899
 20
-3.023616
 30
0.0
 11
0.1701249999999899
 21
3.023616
 31
0.0
  0
LINE
  5
136
330
E9
100
AcDbEntity
  8
AM_9
100
AcDbLine
 10
0.097388103686404
 20
-3.1496
 30
0.0
 11
0.097388103686404
 21
3.1496
 31
0.0
  0
LINE
  5
137
330
E9
100
AcDbEntity
  8
AM_9
100
AcDbLine
 10
0.9013749999999997
 20
3.1496
 30
0.0
 11
0.4053618963135957
 21
3.1496
 31
0.0
  0
LINE
  5
138
330
E9
100
AcDbEntity
  8
AM_9
100
AcDbLine
 10
0.4053618963135957
 20
-3.1496
 30
0.0
 11
0.9013749999999997
 21
-3.1496
 31
0.0
  0
LINE
  5
139
330
E9
100
AcDbEntity
  8
AM_9
100
AcDbLine
 10
0.9013749999999997
 20
-3.1496
 30
0.0
 11
0.9013749999999997
 21
3.1496
 31
0.0
  0
LINE
  5
13A
330
E9
100
AcDbEntity
  8
AM_9
100
AcDbLine
 10
0.3326250000000098
 20
-3.023616
 30
0.0
 11
0.4053618963135957
 21
-3.1496
 31
0.0
  0
LINE
  5
13B
330
E9
100
AcDbEntity
  8
AM_9
100
AcDbLine
 10
0.4053618963135957
 20
3.1496
 30
0.0
 11
0.3326250000000098
 21
3.023616
 31
0.0
  0
LINE
  5
13C
330
E9
100
AcDbEntity
  8
AM_9
100
AcDbLine
 10
0.4053618963135957
 20
-3.1496
 30
0.0
 11
0.4053618963135957
 21
3.1496
 31
0.0
  0
LINE
  5
13D
330
E9
100
AcDbEntity
  8
AM_9
100
AcDbLine
 10
0.3326250000000098
 20
-3.023616
 30
0.0
 11
0.3326250000000098
 21
3.023616
 31
0.0
  0
LINE
  5
140
330
E9
100
AcDbEntity
  8
AM_7
100
AcDbLine
 10
1.934375
 20
0.0
 30
0.0
 11
-2.465625
 21
0.0
 31
0.0
  0
LINE
  5
141
330
E9
100
AcDbEntity
  8
AM_7
100
AcDbLine
 10
-1.823625
 20
-0.1087179487179487
 30
0.0
 11
-1.823625
 21
2.783166666666667
 31
0.0
  0
LINE
  5
142
330
E9
100
AcDbEntity
  8
AM_4
100
AcDbLine
 10
-1.36875
 20
2.12
 30
0.0
 11
-1.381625
 21
2.12
 31
0.0
  0
LINE
  5
143
330
E9
100
AcDbEntity
  8
AM_4
100
AcDbLine
 10
1.734375
 20
-2.120000000000001
 30
0.0
 11
1.734375
 21
2.120000000000001
 31
0.0
  0
LINE
  5
144
330
E9
100
AcDbEntity
  8
AM_4
100
AcDbLine
 10
1.734375
 20
2.120000000000001
 30
0.0
 11
1.540625
 21
2.120000000000001
 31
0.0
  0
LINE
  5
145
330
E9
100
AcDbEntity
  8
AM_4
100
AcDbLine
 10
1.7109375
 20
-2.120000000000001
 30
0.0
 11
1.734375
 21
-2.120000000000001
 31
0.0
  0
LINE
  5
146
330
E9
100
AcDbEntity
  8
AM_4
100
AcDbLine
 10
1.378125
 20
2.51968
 30
0.0
 11
1.36875
 21
2.51968
 31
0.0
  0
LINE
  5
147
330
E9
100
AcDbEntity
  8
AM_4
100
AcDbLine
 10
1.540625
 20
-1.380608657932693
 30
0.0
 11
1.540625
 21
2.357180000000001
 31
0.0
  0
LINE
  5
148
330
E9
100
AcDbEntity
  8
AM_4
100
AcDbLine
 10
1.378125
 20
-0.6605268926128554
 30
0.0
 11
1.378125
 21
2.51968
 31
0.0
  0
ARC
  5
149
330
E9
100
AcDbEntity
  8
AM_4
100
AcDbCircle
 10
1.378125000000002
 20
2.357180000000001
 30
0.0
 40
0.1624999999999988
100
AcDbArc
 50
0.0
 51
90.0
  0
ENDBLK
  5
EC
330
E9
100
AcDbEntity
  8
0
100
AcDbBlockEnd
  0
BLOCK
  5
14C
330
14A
100
AcDbEntity
  8
0
100
AcDbBlockBegin
  2
4_405015E_Inch_0_in_070357_2
 70
     2
 10
0.0
 20
0.0
 30
0.0
  3
4_405015E_Inch_0_in_070357_2
  1

  0
ATTDEF
  5
14E
330
14A
100
AcDbEntity
  8
AM_6
100
AcDbText
 10
5.21875
 20
3.710296281955846
 30
0.0
 40
0.5
  1
405015E -Inch
100
AcDbAttributeDefinition
  3

  2
NN
 70
     8
280
     0
  0
ATTDEF
  5
14F
330
14A
100
AcDbEntity
  8
AM_6
100
AcDbText
 10
5.21875
 20
3.210296281955846
 30
0.0
 40
0.5
  1
Grease Fitting
100
AcDbAttributeDefinition
  3

  2
NT
 70
     8
280
     0
  0
ATTDEF
  5
150
330
14A
100
AcDbEntity
  8
AM_6
100
AcDbText
 10
5.21875
 20
2.710296281955846
 30
0.0
 40
0.5
  1
405015E-Inch
100
AcDbAttributeDefinition
  3

  2
NB
 70
     8
280
     0
  0
ATTDEF
  5
151
330
14A
100
AcDbEntity
  8
AM_6
100
AcDbText
 10
5.21875
 20
2.210296281955846
 30
0.0
 40
0.5
  1
$MN.-Inch
100
AcDbAttributeDefinition
  3

  2
NBSYN
 70
     8
280
     0
  0
ATTDEF
  5
152
330
14A
100
AcDbEntity
  8
AM_6
100
AcDbText
 10
5.21875
 20
1.710296281955846
 30
0.0
 40
0.5
  1
405015E
100
AcDbAttributeDefinition
  3

  2
LINA
 70
     8
280
     0
  0
ATTDEF
  5
153
330
14A
100
AcDbEntity
  8
AM_6
100
AcDbText
 10
5.21875
 20
1.210296281955846
 30
0.0
 40
0.5
  1
405015E
100
AcDbAttributeDefinition
  3

  2
MN
 70
     8
280
     0
  0
ATTDEF
  5
154
330
14A
100
AcDbEntity
  8
AM_6
100
AcDbText
 10
5.21875
 20
0.7102962819558463
 30
0.0
 40
0.5
  1
1/8 x 27PTF
100
AcDbAttributeDefinition
  3

  2
T
 70
     8
280
     0
  0
ATTDEF
  5
155
330
14A
100
AcDbEntity
  8
AM_6
100
AcDbText
 10
5.21875
 20
0.2102962819558463
 30
0.0
 40
0.5
  1
baldor
100
AcDbAttributeDefinition
  3

  2
COMPANY
 70
     8
280
     0
  0
ELLIPSE
  5
156
330
14A
100
AcDbEntity
  8
AM_9
100
AcDbEllipse
 10
0.0000000000000001
 20
3.334197804570087
 30
0.0
 11
0.2187499999999998
 21
0.0
 31
0.0
210
0.0
220
0.0
230
1.0
 40
0.5000000000000105
 41
1.047197551196598
 42
2.094395102393196
  0
LWPOLYLINE
  5
157
330
14A
100
AcDbEntity
  8
AM_9
100
AcDbPolyline
 90
        4
 70
     0
 43
0.0
 10
-0.1093749999999999
 20
3.428919333109012
 10
-0.0820312499999999
 20
3.437338829778666
 10
-0.0546874999999999
 20
3.446778983092935
 10
0.0000000000000001
 20
3.468345947643936
  0
LWPOLYLINE
  5
158
330
14A
100
AcDbEntity
  8
AM_9
100
AcDbPolyline
 90
        4
 70
     0
 43
0.0
 10
0.0000000000000001
 20
3.468345947643936
 10
0.0544416102741497
 20
3.446868276726313
 10
0.0818700010907652
 20
3.437391568514482
 10
0.1093750000000001
 20
3.428919333109012
  0
LINE
  5
159
330
14A
100
AcDbEntity
  8
AM_9
100
AcDbLine
 10
-0.0981413456891644
 20
3.518675583066257
 30
0.0
 11
-0.1059654017505042
 21
3.516497918903367
 31
0.0
  0
LWPOLYLINE
  5
15A
330
14A
100
AcDbEntity
  8
AM_9
100
AcDbPolyline
 90
        4
 70
     0
 43
0.0
 10
0.0000000000000001
 20
3.539242944645147
 10
-0.0544416102741495
 20
3.529288737215873
 10
-0.081870001090765
 20
3.522929656606292
 10
-0.0981413456891644
 20
3.518675583066257
  0
LWPOLYLINE
  5
15B
330
14A
100
AcDbEntity
  8
AM_9
100
AcDbPolyline
 90
        4
 70
     0
 43
0.0
 10
0.098140484250088
 20
3.518675818078427
 10
0.08203125
 20
3.522889298240955
 10
0.0546875000000001
 20
3.52923606634984
 10
0.0000000000000001
 20
3.539242944645147
  0
LINE
  5
15C
330
14A
100
AcDbEntity
  8
AM_9
100
AcDbLine
 10
0.1059651768586833
 20
3.51649798273963
 30
0.0
 11
0.098140484250088
 21
3.518675818078427
 31
0.0
  0
LWPOLYLINE
  5
15D
330
14A
100
AcDbEntity
  8
AM_9
100
AcDbPolyline
 90
        4
 70
     0
 43
0.0
 10
0.1093750000000001
 20
3.428919333109012
 10
0.1367187500000001
 20
3.421551908355513
 10
0.1640625000000001
 20
3.415205140246627
 10
0.2187500000000001
 20
3.40519826195132
  0
LINE
  5
15E
330
14A
100
AcDbEntity
  8
AM_9
100
AcDbLine
 10
0.0000000000000001
 20
3.539242944645147
 30
0.0
 11
0.0000000000000001
 21
3.468345947643936
 31
0.0
  0
LWPOLYLINE
  5
15F
330
14A
100
AcDbEntity
  8
AM_9
100
AcDbPolyline
 90
        4
 70
     0
 43
0.0
 10
-0.2187499999999999
 20
3.40519826195132
 10
-0.1643083897258503
 20
3.415152469380595
 10
-0.1368799989092348
 20
3.421511549990175
 10
-0.1093749999999999
 20
3.428919333109012
  0
ELLIPSE
  5
160
330
14A
100
AcDbEntity
  8
AM_9
100
AcDbEllipse
 10
-0.0000000000000006
 20
3.334197804570089
 30
0.0
 11
0.2187500000000006
 21
0.0
 31
0.0
210
0.0
220
0.0
230
1.0
 40
0.5000000000000007
 41
0.0
 42
1.047197551196595
  0
ELLIPSE
  5
161
330
14A
100
AcDbEntity
  8
AM_9
100
AcDbEllipse
 10
0.0000000000000009
 20
3.334197804570089
 30
0.0
 11
0.2187500000000008
 21
0.0
 31
0.0
210
0.0
220
0.0
230
1.0
 40
0.5000000000000003
 41
2.094395102393198
 42
3.141592653589793
  0
ELLIPSE
  5
162
330
14A
100
AcDbEntity
  8
AM_9
100
AcDbEllipse
 10
0.000000000000001
 20
3.104701072567213
 30
0.0
 11
0.1619028724722674
 21
0.0
 31
0.0
210
0.0
220
0.0
230
1.0
 40
0.5000000000000052
 41
4.71238898038469
 42
10.04025766943975
  0
LINE
  5
163
330
14A
100
AcDbEntity
  8
AM_9
100
AcDbLine
 10
0.1321931418159854
 20
3.057963739064994
 30
0.0
 11
0.1621706131788417
 21
3.079161012348495
 31
0.0
  0
LINE
  5
164
330
14A
100
AcDbEntity
  8
AM_9
100
AcDbLine
 10
-0.1621706131788415
 20
3.079161012348495
 30
0.0
 11
-0.1321931418159852
 21
3.057963739064994
 31
0.0
  0
ELLIPSE
  5
165
330
14A
100
AcDbEntity
  8
AM_9
100
AcDbEllipse
 10
0.0000000000000011
 20
3.136496982492464
 30
0.0
 11
0.1986176267812144
 21
0.0
 31
0.0
210
0.0
220
0.0
230
1.0
 40
0.5000000000000014
 41
4.71238898038469
 42
9.442822037473833
  0
ELLIPSE
  5
166
330
14A
100
AcDbEntity
  8
AM_9
100
AcDbEllipse
 10
-0.0000000000000013
 20
3.136496982492465
 30
0.0
 11
0.1986176267812128
 21
0.0
 31
0.0
210
0.0
220
0.0
230
1.0
 40
0.5000000000000054
 41
3.757072362260184
 42
4.71238898038469
  0
ELLIPSE
  5
167
330
14A
100
AcDbEntity
  8
AM_9
100
AcDbEllipse
 10
0.0000000000000002
 20
3.104701072567214
 30
0.0
 11
0.1619028724722689
 21
0.0
 31
0.0
210
0.0
220
0.0
230
1.0
 40
0.500000000000009
 41
3.757072362260191
 42
4.71238898038469
  0
ELLIPSE
  5
168
330
14A
100
AcDbEntity
  8
AM_9
100
AcDbEllipse
 10
0.0000000000000012
 20
3.334197804570086
 30
0.0
 11
0.2187500000000012
 21
0.0
 31
0.0
210
0.0
220
0.0
230
1.0
 40
0.4999999999999932
 41
3.141592653589793
 42
4.18879020478638
  0
ELLIPSE
  5
169
330
14A
100
AcDbEntity
  8
AM_9
100
AcDbEllipse
 10
-0.0000000000000009
 20
3.334197804570086
 30
0.0
 11
0.218750000000001
 21
0.0
 31
0.0
210
0.0
220
0.0
230
1.0
 40
0.4999999999999935
 41
4.188790204786388
 42
6.283185307179586
  0
LINE
  5
16A
330
14A
100
AcDbEntity
  8
AM_9
100
AcDbLine
 10
0.1985852938306409
 20
3.134705143883644
 30
0.0
 11
0.2057184028850728
 21
3.332341603792459
 31
0.0
  0
LINE
  5
16B
330
14A
100
AcDbEntity
  8
AM_9
100
AcDbLine
 10
-0.2057184028850726
 20
3.332341603792459
 30
0.0
 11
-0.1985852938306407
 21
3.134705143883644
 31
0.0
  0
ELLIPSE
  5
16C
330
14A
100
AcDbEntity
  8
AM_9
100
AcDbEllipse
 10
-0.0000000000000006
 20
3.136496982492464
 30
0.0
 11
0.1986176267812147
 21
0.0
 31
0.0
210
0.0
220
0.0
230
1.0
 40
0.5000000000000007
 41
3.159636730294235
 42
3.757072362260178
  0
LINE
  5
16D
330
14A
100
AcDbEntity
  8
AM_9
100
AcDbLine
 10
-0.1017810272422099
 20
3.524633178734376
 30
0.0
 11
-0.1049999999999999
 21
3.518330784094848
 31
0.0
  0
LINE
  5
16E
330
14A
100
AcDbEntity
  8
AM_9
100
AcDbLine
 10
0.1050000000000001
 20
3.518330784094848
 30
0.0
 11
0.1017810272422101
 21
3.524633178734376
 31
0.0
  0
ELLIPSE
  5
16F
330
14A
100
AcDbEntity
  8
AM_9
100
AcDbEllipse
 10
0.0000000000000001
 20
3.511733012345899
 30
0.0
 11
0.1050000000000002
 21
0.0
 31
0.0
210
0.0
220
0.0
230
1.0
 40
0.4999999999999883
 41
0.0
 42
2.891559760490988
  0
ELLIPSE
  5
170
330
14A
100
AcDbEntity
  8
AM_9
100
AcDbEllipse
 10
0.0000000000000034
 20
3.511733012345934
 30
0.0
 11
0.1050000000000033
 21
0.0
 31
0.0
210
0.0
220
0.0
230
1.0
 40
0.4999999999999527
 41
2.891559760491617
 42
3.141592653589793
  0
ELLIPSE
  5
171
330
14A
100
AcDbEntity
  8
AM_9
100
AcDbEllipse
 10
-0.0000000000000039
 20
3.48380639647485
 30
0.0
 11
0.1188200907349019
 21
1.770557325108379E-9
 31
0.0
210
0.0
220
0.0
230
1.0
 40
0.4999999999999468
 41
0.2500328646647265
 42
2.535447490847052
  0
LINE
  5
172
330
14A
100
AcDbEntity
  8
AM_9
100
AcDbLine
 10
0.1050000000000001
 20
3.529971241158358
 30
0.0
 11
0.1050000000000001
 21
3.537713774459432
 31
0.0
  0
LINE
  5
173
330
14A
100
AcDbEntity
  8
AM_9
100
AcDbLine
 10
-0.1049999999999999
 20
3.537713774459432
 30
0.0
 11
-0.1049999999999999
 21
3.529971241158358
 31
0.0
  0
ELLIPSE
  5
174
330
14A
100
AcDbEntity
  8
AM_9
100
AcDbEllipse
 10
0.0000000000000001
 20
3.537713774459432
 30
0.0
 11
0.1050000000000001
 21
0.0
 31
0.0
210
0.0
220
0.0
230
1.0
 40
0.4999999999999974
 41
0.0
 42
3.434435425318372
  0
LINE
  5
175
330
14A
100
AcDbEntity
  8
AM_9
100
AcDbLine
 10
-0.0976523208201057
 20
3.517652512207281
 30
0.0
 11
-0.1098343496897821
 21
3.508865659080432
 31
0.0
  0
LINE
  5
176
330
14A
100
AcDbEntity
  8
AM_9
100
AcDbLine
 10
0.1098343496897824
 20
3.508865659080432
 30
0.0
 11
0.0976523208201059
 21
3.517652512207281
 31
0.0
  0
ELLIPSE
  5
177
330
14A
100
AcDbEntity
  8
AM_9
100
AcDbEllipse
 10
0.0000000000000038
 20
3.483806396474851
 30
0.0
 11
0.1188200907349015
 21
0.0
 31
0.0
210
0.0
220
0.0
230
1.0
 40
0.4999999999999486
 41
2.53544751339489
 42
2.891559760491226
  0
ELLIPSE
  5
178
330
14A
100
AcDbEntity
  8
AM_9
100
AcDbEllipse
 10
0.0000000000000001
 20
3.436664370236503
 30
0.0
 11
0.1725340532830157
 21
0.0
 31
0.0
210
0.0
220
0.0
230
1.0
 40
0.5000000000000061
 41
0.6061451401950873
 42
2.535447513394706
  0
ELLIPSE
  5
179
330
14A
100
AcDbEntity
  8
AM_9
100
AcDbEllipse
 10
0.0000000000000001
 20
3.420800344948534
 30
0.0
 11
0.2187499999999996
 21
0.0
 31
0.0
210
0.0
220
0.0
230
1.0
 40
0.4999999999999949
 41
1.065244638251232
 42
2.076348015338561
  0
ELLIPSE
  5
17A
330
14A
100
AcDbEntity
  8
AM_9
100
AcDbEllipse
 10
0.0000000000003877
 20
3.420800344954368
 30
0.0
 11
0.2137500000007937
 21
0.0
 31
0.0
210
0.0
220
0.0
230
1.0
 40
0.4999999999748641
 41
-4.198889882946561
 42
-4.184564777750068
  0
ELLIPSE
  5
17B
330
14A
100
AcDbEntity
  8
AM_9
100
AcDbEllipse
 10
-0.0000000000016003
 20
3.420800344944119
 30
0.0
 11
0.2137499999966693
 21
0.0
 31
0.0
210
0.0
220
0.0
230
1.0
 40
0.5000000000240673
 41
-4.217356306601864
 42
-4.198889882959662
  0
ELLIPSE
  5
17C
330
14A
100
AcDbEntity
  8
AM_9
100
AcDbEllipse
 10
-0.0000000000005857
 20
3.420800344954196
 30
0.0
 11
0.213750000001191
 21
0.0
 31
0.0
210
0.0
220
0.0
230
1.0
 40
0.4999999999748654
 41
1.042972124160285
 42
2.065829000585555
  0
ELLIPSE
  5
17D
330
14A
100
AcDbEntity
  8
AM_9
100
AcDbEllipse
 10
-0.0000000000000079
 20
3.537713774459431
 30
0.0
 11
0.105000000000008
 21
0.0
 31
0.0
210
0.0
220
0.0
230
1.0
 40
0.5000000000000021
 41
5.990342535451054
 42
6.283185307179586
  0
ELLIPSE
  5
17E
330
14A
100
AcDbEntity
  8
AM_9
100
AcDbEllipse
 10
0.0000000000000001
 20
3.589675298686498
 30
0.0
 11
0.1350000000000004
 21
0.0
 31
0.0
210
0.0
220
0.0
230
1.0
 40
0.4999999999999944
 41
0.2354336045415621
 42
2.906159049048231
  0
ELLIPSE
  5
17F
330
14A
100
AcDbEntity
  8
AM_9
100
AcDbEllipse
 10
0.0000000000000002
 20
3.334197804570089
 30
0.0
 11
0.2057518972230694
 21
0.0
 31
0.0
210
0.0
220
0.0
230
1.0
 40
0.4999999999999979
 41
0.0
 42
6.283185307179586
  0
LINE
  5
180
330
14A
100
AcDbEntity
  8
AM_4
100
AcDbLine
 10
-0.1059654017505042
 20
3.516497918903367
 30
0.0
 11
-0.1093749999999999
 21
3.515521873487456
 31
0.0
  0
LINE
  5
181
330
14A
100
AcDbEntity
  8
AM_4
100
AcDbLine
 10
0.109375
 20
3.515521873487456
 30
0.0
 11
0.1059651768586833
 21
3.51649798273963
 31
0.0
  0
LWPOLYLINE
  5
182
330
14A
100
AcDbEntity
  8
AM_4
100
AcDbPolyline
 90
        4
 70
     0
 43
0.0
 10
0.2187500000000001
 20
3.476095258952532
 10
0.1643083897258505
 20
3.497572929870154
 10
0.1368799989092349
 20
3.507049638081985
 10
0.109375
 20
3.515521873487456
  0
LWPOLYLINE
  5
183
330
14A
100
AcDbEntity
  8
AM_4
100
AcDbPolyline
 90
        4
 70
     0
 43
0.0
 10
-0.1093749999999999
 20
3.515521873487456
 10
-0.1367187499999999
 20
3.507102376817802
 10
-0.1640624999999999
 20
3.497662223503533
 10
-0.2187499999999999
 20
3.476095258952532
  0
LINE
  5
184
330
14A
100
AcDbEntity
  8
AM_4
100
AcDbLine
 10
-0.1049999999999999
 20
3.518330784094848
 30
0.0
 11
-0.1151252948555656
 21
3.498506570340034
 31
0.0
  0
LINE
  5
185
330
14A
100
AcDbEntity
  8
AM_4
100
AcDbLine
 10
0.1151252948555659
 20
3.498506570340034
 30
0.0
 11
0.1050000000000001
 21
3.518330784094848
 31
0.0
  0
ELLIPSE
  5
186
330
14A
100
AcDbEntity
  8
AM_4
100
AcDbEllipse
 10
0.0
 20
3.483806396474835
 30
0.0
 11
0.1188200907348973
 21
0.0
 31
0.0
210
0.0
220
0.0
230
1.0
 40
0.5
 41
2.891559760490989
 42
4.71238898038469
  0
ELLIPSE
  5
187
330
14A
100
AcDbEntity
  8
AM_4
100
AcDbEllipse
 10
-0.0000000000000003
 20
3.511733012345899
 30
0.0
 11
0.1050000000000005
 21
0.0
 31
0.0
210
0.0
220
0.0
230
1.0
 40
0.4999999999999997
 41
3.141592653589793
 42
6.283185307179586
  0
LINE
  5
188
330
14A
100
AcDbEntity
  8
AM_4
100
AcDbLine
 10
0.1050000000000001
 20
3.511733012345899
 30
0.0
 11
0.1050000000000001
 21
3.529971241158358
 31
0.0
  0
LINE
  5
189
330
14A
100
AcDbEntity
  8
AM_4
100
AcDbLine
 10
-0.1049999999999999
 20
3.529971241158358
 30
0.0
 11
-0.1049999999999999
 21
3.511733012345899
 31
0.0
  0
ELLIPSE
  5
18A
330
14A
100
AcDbEntity
  8
AM_4
100
AcDbEllipse
 10
0.0000000000000002
 20
3.483806396474835
 30
0.0
 11
0.1188200907348975
 21
0.0
 31
0.0
210
0.0
220
0.0
230
1.0
 40
0.5000000000000028
 41
4.71238898038469
 42
6.533218200278388
  0
LINE
  5
18B
330
14A
100
AcDbEntity
  8
AM_4
100
AcDbLine
 10
-0.1098343496897821
 20
3.508865659080432
 30
0.0
 11
-0.1417971541629017
 21
3.485811004438574
 31
0.0
  0
LINE
  5
18C
330
14A
100
AcDbEntity
  8
AM_4
100
AcDbLine
 10
0.1417971541629019
 20
3.485811004438574
 30
0.0
 11
0.1098343496897824
 21
3.508865659080432
 31
0.0
  0
ELLIPSE
  5
18D
330
14A
100
AcDbEntity
  8
AM_4
100
AcDbEllipse
 10
0.0000000000000002
 20
3.436664370236503
 30
0.0
 11
0.1725340532830155
 21
0.0
 31
0.0
210
0.0
220
0.0
230
1.0
 40
0.4999999999999989
 41
2.535447513394703
 42
4.71238898038469
  0
ELLIPSE
  5
18E
330
14A
100
AcDbEntity
  8
AM_4
100
AcDbEllipse
 10
0.0000000000000014
 20
3.420800344948535
 30
0.0
 11
0.2187500000000013
 21
0.0
 31
0.0
210
0.0
220
0.0
230
1.0
 40
0.499999999999995
 41
2.07634801533857
 42
3.141592653589793
  0
ELLIPSE
  5
18F
330
14A
100
AcDbEntity
  8
AM_4
100
AcDbEllipse
 10
-0.0000000000000009
 20
3.420800344948533
 30
0.0
 11
0.218749999999999
 21
3.259629011154161E-9
 31
0.0
210
0.0
220
0.0
230
1.0
 40
0.4999999999999981
 41
3.141592627780224
 42
4.188790191747881
  0
ELLIPSE
  5
190
330
14A
100
AcDbEntity
  8
AM_4
100
AcDbEllipse
 10
0.0000000000000024
 20
3.420800344948532
 30
0.0
 11
0.2187499999999978
 21
0.0
 31
0.0
210
0.0
220
0.0
230
1.0
 40
0.499999999999997
 41
4.188790204786379
 42
6.283185307179586
  0
ELLIPSE
  5
191
330
14A
100
AcDbEntity
  8
AM_4
100
AcDbEllipse
 10
-0.0000000000000009
 20
3.420800344948535
 30
0.0
 11
0.2187500000000008
 21
0.0
 31
0.0
210
0.0
220
0.0
230
1.0
 40
0.4999999999999939
 41
0.0
 42
1.065244638251225
  0
ELLIPSE
  5
192
330
14A
100
AcDbEntity
  8
AM_4
100
AcDbEllipse
 10
0.0000000000000001
 20
3.436664370236503
 30
0.0
 11
0.1725340532830155
 21
0.0
 31
0.0
210
0.0
220
0.0
230
1.0
 40
0.4999999999999989
 41
4.71238898038469
 42
6.889330447374675
  0
ELLIPSE
  5
193
330
14A
100
AcDbEntity
  8
AM_4
100
AcDbEllipse
 10
-0.0000000000000002
 20
3.420800344948533
 30
0.0
 11
0.2137499999999998
 21
0.0
 31
0.0
210
0.0
220
0.0
230
1.0
 40
0.5000000000000008
 41
2.098620529422328
 42
4.71238898038469
  0
ELLIPSE
  5
194
330
14A
100
AcDbEntity
  8
AM_4
100
AcDbEllipse
 10
0.0000000000000004
 20
3.420800344948533
 30
0.0
 11
0.2137499999999998
 21
0.0
 31
0.0
210
0.0
220
0.0
230
1.0
 40
0.5000000000000008
 41
4.71238898038469
 42
7.326157431347053
  0
ELLIPSE
  5
195
330
14A
100
AcDbEntity
  8
AM_4
100
AcDbEllipse
 10
-0.0000000000000009
 20
3.537713774459433
 30
0.0
 11
0.1050000000000015
 21
1.564621925354026E-9
 31
0.0
210
0.0
220
0.0
230
1.0
 40
0.5000000000000034
 41
3.434435397378707
 42
5.990342507511319
  0
LINE
  5
196
330
14A
100
AcDbEntity
  8
AM_4
100
AcDbLine
 10
0.1005298463144156
 20
3.522558329893204
 30
0.0
 11
0.1292526595471058
 21
3.570189727101349
 31
0.0
  0
LINE
  5
197
330
14A
100
AcDbEntity
  8
AM_4
100
AcDbLine
 10
-0.1292526595471055
 20
3.570189727101349
 30
0.0
 11
-0.1005298463144154
 21
3.522558329893204
 31
0.0
  0
ELLIPSE
  5
198
330
14A
100
AcDbEntity
  8
AM_4
100
AcDbEllipse
 10
-0.0000000000000012
 20
3.589675298686497
 30
0.0
 11
0.1350000000000013
 21
0.0
 31
0.0
210
0.0
220
0.0
230
1.0
 40
0.4999999999999976
 41
4.71238898038469
 42
6.518618911721171
  0
ELLIPSE
  5
199
330
14A
100
AcDbEntity
  8
AM_4
100
AcDbEllipse
 10
0.0000000000000016
 20
3.589675298686499
 30
0.0
 11
0.1350000000000018
 21
0.0
 31
0.0
210
0.0
220
0.0
230
1.0
 40
0.5000000000000058
 41
3.434435425318375
 42
4.71238898038469
  0
LWPOLYLINE
  5
19A
330
14A
100
AcDbEntity
  8
AM_4
100
AcDbPolyline
 90
        4
 70
     0
 43
0.0
 10
-0.1093749999999998
 20
3.32607881640961
 10
-0.0820312499999998
 20
3.317659319739955
 10
-0.0546874999999999
 20
3.308219166425686
 10
0.0000000000000001
 20
3.286652201874686
  0
LWPOLYLINE
  5
19B
330
14A
100
AcDbEntity
  8
AM_4
100
AcDbPolyline
 90
        4
 70
     0
 43
0.0
 10
-0.2187499999999999
 20
3.349799887567301
 10
-0.1643083897258503
 20
3.339845680138027
 10
-0.1368799989092347
 20
3.333486599528447
 10
-0.1093749999999998
 20
3.32607881640961
  0
LINE
  5
19C
330
14A
100
AcDbEntity
  8
AM_4
100
AcDbLine
 10
-0.2187499999999999
 20
3.476095258952532
 30
0.0
 11
-0.2187499999999999
 21
3.27890289056609
 31
0.0
  0
LWPOLYLINE
  5
19D
330
14A
100
AcDbEntity
  8
AM_4
100
AcDbPolyline
 90
        4
 70
     0
 43
0.0
 10
-0.1093749999999998
 20
3.239476276031166
 10
-0.1367187499999998
 20
3.24789577270082
 10
-0.1640624999999999
 20
3.257335926015089
 10
-0.2187499999999999
 20
3.27890289056609
  0
LWPOLYLINE
  5
19E
330
14A
100
AcDbEntity
  8
AM_4
100
AcDbPolyline
 90
        4
 70
     0
 43
0.0
 10
0.0000000000000001
 20
3.215755204873475
 10
-0.0544416102741494
 20
3.225709412302749
 10
-0.0818700010907649
 20
3.232068492912329
 10
-0.1093749999999998
 20
3.239476276031166
  0
LINE
  5
19F
330
14A
100
AcDbEntity
  8
AM_4
100
AcDbLine
 10
0.2187500000000001
 20
3.476095258952532
 30
0.0
 11
0.2187500000000001
 21
3.27890289056609
 31
0.0
  0
LWPOLYLINE
  5
1A0
330
14A
100
AcDbEntity
  8
AM_4
100
AcDbPolyline
 90
        4
 70
     0
 43
0.0
 10
0.109375
 20
3.32607881640961
 10
0.1367187500000001
 20
3.333446241163109
 10
0.1640625000000001
 20
3.339793009271994
 10
0.2187500000000001
 20
3.349799887567301
  0
LWPOLYLINE
  5
1A1
330
14A
100
AcDbEntity
  8
AM_4
100
AcDbPolyline
 90
        4
 70
     0
 43
0.0
 10
0.0000000000000001
 20
3.286652201874686
 10
0.0544416102741497
 20
3.308129872792308
 10
0.0818700010907652
 20
3.31760658100414
 10
0.109375
 20
3.32607881640961
  0
LINE
  5
1A2
330
14A
100
AcDbEntity
  8
AM_4
100
AcDbLine
 10
0.0000000000000001
 20
3.286652201874686
 30
0.0
 11
0.0000000000000001
 21
3.215755204873475
 31
0.0
  0
LWPOLYLINE
  5
1A3
330
14A
100
AcDbEntity
  8
AM_4
100
AcDbPolyline
 90
        4
 70
     0
 43
0.0
 10
0.1093750000000001
 20
3.239476276031166
 10
0.0820312500000001
 20
3.232108851277666
 10
0.0546875000000001
 20
3.225762083168782
 10
0.0000000000000001
 20
3.215755204873475
  0
LWPOLYLINE
  5
1A4
330
14A
100
AcDbEntity
  8
AM_4
100
AcDbPolyline
 90
        4
 70
     0
 43
0.0
 10
0.2187500000000001
 20
3.27890289056609
 10
0.1643083897258505
 20
3.257425219648467
 10
0.136879998909235
 20
3.247948511436636
 10
0.1093750000000001
 20
3.239476276031166
  0
LINE
  5
1A5
330
14A
100
AcDbEntity
  8
AM_4
100
AcDbLine
 10
-0.0998453562378796
 20
3.670932893430451
 30
0.0
 11
-0.1312757938985218
 21
3.605420662578076
 31
0.0
  0
LINE
  5
1A6
330
14A
100
AcDbEntity
  8
AM_4
100
AcDbLine
 10
0.131275793898522
 20
3.605420662578076
 30
0.0
 11
0.0998453562378799
 21
3.670932893430451
 31
0.0
  0
ELLIPSE
  5
1A7
330
14A
100
AcDbEntity
  8
AM_4
100
AcDbEllipse
 10
0.0000000000000006
 20
3.589675298686497
 30
0.0
 11
0.1350000000000004
 21
0.0
 31
0.0
210
0.0
220
0.0
230
1.0
 40
0.4999999999999976
 41
2.906159049048207
 42
3.434435425318343
  0
ELLIPSE
  5
1A8
330
14A
100
AcDbEntity
  8
AM_4
100
AcDbEllipse
 10
0.0000000000000001
 20
3.658957330989254
 30
0.0
 11
0.1026779019331873
 21
0.0
 31
0.0
210
0.0
220
0.0
230
1.0
 40
0.4999999999999882
 41
0.0
 42
6.283185307179586
  0
ENDBLK
  5
14D
330
14A
100
AcDbEntity
  8
0
100
AcDbBlockEnd
  0
BLOCK
  5
1AB
330
1A9
100
AcDbEntity
  8
0
100
AcDbBlockBegin
  2
5_070357H_0_in_070357_2
 70
     2
 10
0.0
 20
0.0
 30
0.0
  3
5_070357H_0_in_070357_2
  1

  0
ATTDEF
  5
1AD
330
1A9
100
AcDbEntity
  8
AM_6
100
AcDbText
 10
6.7109375
 20
3.75
 30
0.0
 40
0.5
  1
P2B-S2-(Labyrinth Seal)-Housing
100
AcDbAttributeDefinition
  3

  2
NN
 70
     8
280
     0
  0
ATTDEF
  5
1AE
330
1A9
100
AcDbEntity
  8
AM_6
100
AcDbText
 10
6.7109375
 20
3.25
 30
0.0
 40
0.5
  1
S-2000 Pillow Block Bearing -Inch (2-Bolt Base)
100
AcDbAttributeDefinition
  3

  2
NT
 70
     8
280
     0
  0
ATTDEF
  5
1AF
330
1A9
100
AcDbEntity
  8
AM_6
100
AcDbText
 10
6.7109375
 20
2.75
 30
0.0
 40
0.5
  1
070357H
100
AcDbAttributeDefinition
  3

  2
NB
 70
     8
280
     0
  0
ATTDEF
  5
1B0
330
1A9
100
AcDbEntity
  8
AM_6
100
AcDbText
 10
6.7109375
 20
2.25
 30
0.0
 40
0.5
  1
$PN.H
100
AcDbAttributeDefinition
  3

  2
NBSYN
 70
     8
280
     0
  0
ATTDEF
  5
1B1
330
1A9
100
AcDbEntity
  8
AM_6
100
AcDbText
 10
6.7109375
 20
1.75
 30
0.0
 40
0.5
  1
070357
100
AcDbAttributeDefinition
  3

  2
LINA
 70
     8
280
     0
  0
ATTDEF
  5
1B2
330
1A9
100
AcDbEntity
  8
AM_6
100
AcDbText
 10
6.7109375
 20
1.25
 30
0.0
 40
0.5
  1
3-7/16
100
AcDbAttributeDefinition
  3

  2
SS
 70
     8
280
     0
  0
ATTDEF
  5
1B3
330
1A9
100
AcDbEntity
  8
AM_6
100
AcDbText
 10
6.7109375
 20
0.75
 30
0.0
 40
0.5
  1
070357
100
AcDbAttributeDefinition
  3

  2
PN
 70
     8
280
     0
  0
ATTDEF
  5
1B4
330
1A9
100
AcDbEntity
  8
AM_6
100
AcDbText
 10
6.7109375
 20
0.25
 30
0.0
 40
0.5
  1
P2B-S2-307LE
100
AcDbAttributeDefinition
  3

  2
DESCRIPTION
 70
     8
280
     0
  0
ATTDEF
  5
1B5
330
1A9
100
AcDbEntity
  8
AM_6
100
AcDbText
 10
6.7109375
 20
-0.25
 30
0.0
 40
0.5
  1
Expansion Type
100
AcDbAttributeDefinition
  3

  2
EF
 70
     8
280
     0
  0
ATTDEF
  5
1B6
330
1A9
100
AcDbEntity
  8
AM_6
100
AcDbText
 10
6.7109375
 20
-0.75
 30
0.0
 40
0.5
  1
2
100
AcDbAttributeDefinition
  3

  2
EF1
 70
     8
280
     0
  0
ATTDEF
  5
1B7
330
1A9
100
AcDbEntity
  8
AM_6
100
AcDbText
 10
6.7109375
 20
-1.25
 30
0.0
 40
0.5
  1
4
100
AcDbAttributeDefinition
  3

  2
A
 70
     8
280
     0
  0
ATTDEF
  5
1B8
330
1A9
100
AcDbEntity
  8
AM_6
100
AcDbText
 10
6.7109375
 20
-1.75
 30
0.0
 40
0.5
  1
13
100
AcDbAttributeDefinition
  3

  2
B
 70
     8
280
     0
  0
ATTDEF
  5
1B9
330
1A9
100
AcDbEntity
  8
AM_6
100
AcDbText
 10
6.7109375
 20
-2.25
 30
0.0
 40
0.5
  1
3-27/64
100
AcDbAttributeDefinition
  3

  2
C
 70
     8
280
     0
  0
ATTDEF
  5
1BA
330
1A9
100
AcDbEntity
  8
AM_6
100
AcDbText
 10
6.7109375
 20
-2.75
 30
0.0
 40
0.5
  1
9-3/8
100
AcDbAttributeDefinition
  3

  2
DMIN
 70
     8
280
     0
  0
ATTDEF
  5
1BB
330
1A9
100
AcDbEntity
  8
AM_6
100
AcDbText
 10
6.7109375
 20
-3.25
 30
0.0
 40
0.5
  1
10-5/8
100
AcDbAttributeDefinition
  3

  2
DMAX
 70
     8
280
     0
  0
ATTDEF
  5
1BC
330
1A9
100
AcDbEntity
  8
AM_6
100
AcDbText
 10
6.7109375
 20
-3.75
 30
0.0
 40
0.5
  1
7/8
100
AcDbAttributeDefinition
  3

  2
F
 70
     8
280
     0
  0
ATTDEF
  5
1BD
330
1A9
100
AcDbEntity
  8
AM_6
100
AcDbText
 10
6.7109375
 20
-4.25
 30
0.0
 40
0.5
  1
1-5/8
100
AcDbAttributeDefinition
  3

  2
G
 70
     8
280
     0
  0
ATTDEF
  5
1BE
330
1A9
100
AcDbEntity
  8
AM_6
100
AcDbText
 10
6.7109375
 20
-4.75
 30
0.0
 40
0.5
  1
2-1/4
100
AcDbAttributeDefinition
  3

  2
H
 70
     8
280
     0
  0
ATTDEF
  5
1BF
330
1A9
100
AcDbEntity
  8
AM_6
100
AcDbText
 10
6.7109375
 20
-5.25
 30
0.0
 40
0.5
  1
7-1/2
100
AcDbAttributeDefinition
  3

  2
J
 70
     8
280
     0
  0
ATTDEF
  5
1C0
330
1A9
100
AcDbEntity
  8
AM_6
100
AcDbText
 10
6.7109375
 20
-5.75
 30
0.0
 40
0.5
  1
5-1/2
100
AcDbAttributeDefinition
  3

  2
L
 70
     8
280
     0
  0
ATTDEF
  5
1C1
330
1A9
100
AcDbEntity
  8
AM_6
100
AcDbText
 10
6.7109375
 20
-6.25
 30
0.0
 40
0.5
  1
3-3/4
100
AcDbAttributeDefinition
  3

  2
M
 70
     8
280
     0
  0
ATTDEF
  5
1C2
330
1A9
100
AcDbEntity
  8
AM_6
100
AcDbText
 10
6.7109375
 20
-6.75
 30
0.0
 40
0.5
  1
1-31/64
100
AcDbAttributeDefinition
  3

  2
R
 70
     8
280
     0
  0
ATTDEF
  5
1C3
330
1A9
100
AcDbEntity
  8
AM_6
100
AcDbText
 10
6.7109375
 20
-7.25
 30
0.0
 40
0.5
  1
2-33/64
100
AcDbAttributeDefinition
  3

  2
S
 70
     8
280
     0
  0
ATTDEF
  5
1C4
330
1A9
100
AcDbEntity
  8
AM_6
100
AcDbText
 10
6.7109375
 20
-7.75
 30
0.0
 40
0.5
  1
1/4
100
AcDbAttributeDefinition
  3

  2
X
 70
     8
280
     0
  0
ATTDEF
  5
1C5
330
1A9
100
AcDbEntity
  8
AM_6
100
AcDbText
 10
6.7109375
 20
-8.25
 30
0.0
 40
0.5
  1
0.025
100
AcDbAttributeDefinition
  3

  2
Y
 70
     8
280
     0
  0
ATTDEF
  5
1C6
330
1A9
100
AcDbEntity
  8
AM_6
100
AcDbText
 10
6.7109375
 20
-8.75
 30
0.0
 40
0.5
  1
4-3/64
100
AcDbAttributeDefinition
  3

  2
Z
 70
     8
280
     0
  0
ATTDEF
  5
1C7
330
1A9
100
AcDbEntity
  8
AM_6
100
AcDbText
 10
6.7109375
 20
-9.25
 30
0.0
 40
0.5
  1
2
100
AcDbAttributeDefinition
  3

  2
ST1
 70
     8
280
     0
  0
ATTDEF
  5
1C8
330
1A9
100
AcDbEntity
  8
AM_6
100
AcDbText
 10
6.7109375
 20
-9.75
 30
0.0
 40
0.5
  1
baldor
100
AcDbAttributeDefinition
  3

  2
COMPANY
 70
     8
280
     0
  0
LWPOLYLINE
  5
1C9
330
1A9
100
AcDbEntity
  8
AM_9
100
AcDbPolyline
 90
       30
 70
     0
 43
0.0
 10
0.4999999999922534
 20
3.24759387254738
 10
0.4968806455748544
 20
3.275118177483539
 10
0.4875652369707064
 20
3.301493344130582
 10
0.4721939258987556
 20
3.326618033725475
 10
0.4510604659883569
 20
3.350087139732227
 10
0.4242015635676035
 20
3.371797769177181
 10
0.3920041326619297
 20
3.391609654826959
 10
0.355064210968017
 20
3.409271504538514
 10
0.3133209950692643
 20
3.424821827056229
 10
0.2674902417003731
 20
3.438121409777141
 10
0.2184236127284128
 20
3.44903601187152
 10
0.1665096901985109
 20
3.457543513181276
 10
0.1123006212734704
 20
3.463667411441831
 10
0.056827161780354
 20
3.467354613948311
 10
0.0010450219956543
 20
3.468586942319769
 10
-0.0549269415526865
 20
3.46742563164438
 10
-0.1100285998640004
 20
3.463880239346359
 10
-0.163513689465641
 20
3.457952274063388
 10
-0.2151207497125943
 20
3.449649501109427
 10
-0.2638986974491532
 20
3.439044745193471
 10
-0.3096212873799817
 20
3.426027007148773
 10
-0.351614059613663
 20
3.410687736829932
 10
-0.3891053812035883
 20
3.393191034745172
 10
-0.4218798792562427
 20
3.373410701051509
 10
-0.4494347539867473
 20
3.351554257651601
 10
-0.4712447618669872
 20
3.327927693472021
 10
-0.4869723040234337
 20
3.302712320767462
 10
-0.4966197023059926
 20
3.276046211685113
 10
-0.4999974264276255
 20
3.248397083869806
 10
-0.4999999999780225
 20
3.247597608187904
  0
ELLIPSE
  5
1CA
330
1A9
100
AcDbEntity
  8
AM_9
100
AcDbEllipse
 10
0.0000000000000001
 20
3.334197804570092
 30
0.0
 11
-0.4499999999999978
 21
5.510910596163063E-17
 31
0.0
210
0.0
220
0.0
230
1.0
 40
0.4999999999999967
 41
4.447327559919907
 42
4.977450400849472
  0
LWPOLYLINE
  5
1CB
330
1A9
100
AcDbEntity
  8
AM_9
100
AcDbPolyline
 90
        8
 70
     0
 43
0.0
 10
0.1218618527615637
 20
3.55795311414039
 10
0.0884705106990255
 20
3.561742162172564
 10
0.0510225204691241
 20
3.564522560958106
 10
0.0133048110201604
 20
3.565803349455313
 10
-0.0244797780913919
 20
3.565580933217732
 10
-0.0621272341876071
 20
3.563856651928137
 10
-0.0994305502917565
 20
3.560637251462918
 10
-0.1218478320437586
 20
3.557954972146447
  0
ELLIPSE
  5
1CC
330
1A9
100
AcDbEntity
  8
AM_9
100
AcDbEllipse
 10
-0.0000000000001918
 20
3.290896534380968
 30
0.0
 11
-0.5000000000001918
 21
6.123233995739115E-17
 31
0.0
210
0.0
220
0.0
230
1.0
 40
0.499999999999992
 41
3.140533303119247
 42
6.248749759362221
  0
ELLIPSE
  5
1CD
330
1A9
100
AcDbEntity
  8
AM_9
100
AcDbEllipse
 10
0.0000000000015999
 20
3.290896534384273
 30
0.0
 11
-0.5000000000015997
 21
6.123233995756357E-17
 31
0.0
210
0.0
220
0.0
230
1.0
 40
0.4999999999999413
 41
6.261924116173627
 42
6.280923400788983
  0
LINE
  5
1CE
330
1A9
100
AcDbEntity
  8
AM_9
100
AcDbLine
 10
-1.36875
 20
-3.1496
 30
0.0
 11
1.36875
 21
-3.1496
 31
0.0
  0
LINE
  5
1CF
330
1A9
100
AcDbEntity
  8
AM_9
100
AcDbLine
 10
1.36875
 20
3.1496
 30
0.0
 11
-1.36875
 21
3.1496
 31
0.0
  0
LINE
  5
1D0
330
1A9
100
AcDbEntity
  8
AM_9
100
AcDbLine
 10
-0.1232151825819233
 20
3.622221848584007
 30
0.0
 11
0.1232151825819239
 21
3.622221848584007
 31
0.0
  0
LINE
  5
1D1
330
1A9
100
AcDbEntity
  8
AM_9
100
AcDbLine
 10
-1.531696428571428
 20
-1.38060865793269
 30
0.0
 11
-1.531696428571428
 21
-3.75
 31
0.0
  0
LINE
  5
1D2
330
1A9
100
AcDbEntity
  8
AM_9
100
AcDbLine
 10
-1.36875
 20
-0.238956695152997
 30
0.0
 11
-1.36875
 21
-1.662500000000001
 31
0.0
  0
LINE
  5
1D3
330
1A9
100
AcDbEntity
  8
AM_9
100
AcDbLine
 10
1.531696428571429
 20
-1.380608657932691
 30
0.0
 11
1.531696428571429
 21
-3.75
 31
0.0
  0
LINE
  5
1D4
330
1A9
100
AcDbEntity
  8
AM_9
100
AcDbLine
 10
1.36875
 20
-0.2389566951530796
 30
0.0
 11
1.36875
 21
-1.662499999999998
 31
0.0
  0
LINE
  5
1D5
330
1A9
100
AcDbEntity
  8
AM_9
100
AcDbLine
 10
1.547991071428574
 20
-1.380608657932692
 30
0.0
 11
1.547991071428574
 21
-3.75
 31
0.0
  0
LINE
  5
1D6
330
1A9
100
AcDbEntity
  8
AM_9
100
AcDbLine
 10
-1.547991071428569
 20
-1.380608657932689
 30
0.0
 11
-1.547991071428569
 21
-3.75
 31
0.0
  0
LINE
  5
1D7
330
1A9
100
AcDbEntity
  8
AM_9
100
AcDbLine
 10
0.5000000000000002
 20
-1.5
 30
0.0
 11
0.5000000000000002
 21
-3.75
 31
0.0
  0
LINE
  5
1D8
330
1A9
100
AcDbEntity
  8
AM_9
100
AcDbLine
 10
-0.4999999999999997
 20
-1.5
 30
0.0
 11
-0.4999999999999997
 21
-3.75
 31
0.0
  0
LINE
  5
1D9
330
1A9
100
AcDbEntity
  8
AM_4
100
AcDbLine
 10
-1.36875
 20
3.75
 30
0.0
 11
1.36875
 21
3.75
 31
0.0
  0
LINE
  5
1DA
330
1A9
100
AcDbEntity
  8
AM_4
100
AcDbLine
 10
-0.4999999999999998
 20
3.290896534380867
 30
0.0
 11
-0.4999999999999998
 21
3.247585029662054
 31
0.0
  0
LINE
  5
1DB
330
1A9
100
AcDbEntity
  8
AM_4
100
AcDbLine
 10
0.5000000000000001
 20
3.247585055395807
 30
0.0
 11
0.5000000000000001
 21
3.290896534380867
 31
0.0
  0
LWPOLYLINE
  5
1DC
330
1A9
100
AcDbEntity
  8
AM_4
100
AcDbPolyline
 90
       15
 70
     0
 43
0.0
 10
-0.4999999999780225
 20
3.247597608187904
 10
-0.4970283200329133
 20
3.220216095963516
 10
-0.4878823670986782
 20
3.191594040861563
 10
-0.4727365836580479
 20
3.163106539133537
 10
-0.4516695280503
 20
3.135091014817704
 10
-0.4249599726427977
 20
3.107877590924198
 10
-0.3931063625274693
 20
3.082063880286278
 10
-0.3560426204370301
 20
3.05784094137986
 10
-0.314399669022267
 20
3.035730211499645
 10
-0.268946978324576
 20
3.01626164755947
 10
-0.2198535400622738
 20
2.999719203528632
 10
-0.1677981903125481
 20
2.986404333109685
 10
-0.1137640548136599
 20
2.976662973316345
 10
-0.0572637063999632
 20
2.970633447495984
 10
0.0000000000000001
 20
2.968598297395934
  0
ELLIPSE
  5
1DD
330
1A9
100
AcDbEntity
  8
AM_4
100
AcDbEllipse
 10
0.0000000000000002
 20
3.33419780457009
 30
0.0
 11
-0.4500000000000003
 21
6.705522592340555E-9
 31
0.0
210
0.0
220
0.0
230
1.0
 40
0.4999999999999998
 41
4.977450409833995
 42
10.73051287608402
  0
ELLIPSE
  5
1DE
330
1A9
100
AcDbEntity
  8
AM_4
100
AcDbEllipse
 10
0.0000000000000014
 20
3.290896534380868
 30
0.0
 11
-0.5000000000000013
 21
6.123233995736782E-17
 31
0.0
210
0.0
220
0.0
230
1.0
 40
0.4999999999999996
 41
6.280923400775436
 42
9.423718610299252
  0
LWPOLYLINE
  5
1DF
330
1A9
100
AcDbEntity
  8
AM_4
100
AcDbPolyline
 90
       19
 70
     0
 43
0.0
 10
-0.1218478320437586
 20
3.557954972146447
 10
-0.13619020415327
 20
3.555934101815443
 10
-0.1722104500214656
 20
3.549762593520668
 10
-0.2073004453862627
 20
3.542141332958919
 10
-0.2412750844800038
 20
3.533091065071982
 10
-0.2739553381995253
 20
3.522633359715236
 10
-0.3051678061579646
 20
3.510789187204809
 10
-0.3347430581519211
 20
3.497577702481424
 10
-0.3625122219738566
 20
3.48301594016927
 10
-0.3883013135101148
 20
3.467120793252716
 10
-0.4119234103719331
 20
3.449915584701436
 10
-0.4331494699723247
 20
3.431464461423938
 10
-0.4517432808415994
 20
3.411875028170972
 10
-0.4674764883415822
 20
3.391318845265971
 10
-0.4801654651059662
 20
3.370032561306001
 10
-0.4897120165760021
 20
3.348285449489941
 10
-0.4961140681586105
 20
3.326332544065278
 10
-0.4994399282564073
 20
3.304382550773125
 10
-0.4999983221330517
 20
3.291634982351027
  0
LWPOLYLINE
  5
1E0
330
1A9
100
AcDbEntity
  8
AM_4
100
AcDbPolyline
 90
       20
 70
     0
 43
0.0
 10
0.4999996266341882
 20
3.29054818997975
 10
0.4998989269837458
 20
3.296627487148362
 10
0.4977001929076499
 20
3.318189452342396
 10
0.4926929957833642
 20
3.339367025485668
 10
0.4849344843083896
 20
3.360103354064921
 10
0.4744358754910832
 20
3.380370376912653
 10
0.4611780204356705
 20
3.400125831212665
 10
0.4451435611596622
 20
3.419291630704677
 10
0.4263572777037648
 20
3.43774560123716
 10
0.4049146958648841
 20
3.455334353831135
 10
0.380981632335506
 20
3.471901802556847
 10
0.3547680548519199
 20
3.487315665162711
 10
0.3265090116205066
 20
3.501472806690381
 10
0.2964279851228267
 20
3.514306349136894
 10
0.2647223813983697
 20
3.525776272646274
 10
0.2315827441406688
 20
3.535851830433224
 10
0.1971972146936169
 20
3.544507256862544
 10
0.1617548518770419
 20
3.551720008211769
 10
0.1254475068412611
 20
3.557470442809721
 10
0.1218618527615637
 20
3.55795311414039
  0
LINE
  5
1E1
330
1A9
100
AcDbEntity
  8
AM_4
100
AcDbLine
 10
0.1232151825819239
 20
3.622221848584007
 30
0.0
 11
1.36875
 21
3.622221848584007
 31
0.0
  0
LINE
  5
1E2
330
1A9
100
AcDbEntity
  8
AM_4
100
AcDbLine
 10
-1.36875
 20
3.622221848584007
 30
0.0
 11
-0.1232151825819233
 21
3.622221848584007
 31
0.0
  0
LWPOLYLINE
  5
1E3
330
1A9
100
AcDbEntity
  8
AM_4
100
AcDbPolyline
 90
       16
 70
     0
 43
0.0
 10
0.0000000000000001
 20
2.968598297395934
 10
0.055766358636493
 20
2.970549403450457
 10
0.1110025946144852
 20
2.976301480611683
 10
0.1646674131397036
 20
2.985702667376105
 10
0.2162139928358454
 20
2.998650330984036
 10
0.265211452711783
 20
3.014877810491201
 10
0.3107583268387067
 20
3.033979951923466
 10
0.3526093073301461
 20
3.05583317330301
 10
0.3901677304798057
 20
3.079977947908573
 10
0.4227368791419004
 20
3.105848293429821
 10
0.4500303681430343
 20
3.133211800652785
 10
0.4717254917483044
 20
3.16160150491348
 10
0.4874028301163986
 20
3.190394704819173
 10
0.4967791042126125
 20
3.219069880818871
 10
0.4999592022043391
 20
3.247495952447955
 10
0.4999999999922534
 20
3.24759387254738
  0
LINE
  5
1E4
330
1A9
100
AcDbEntity
  8
AM_4
100
AcDbLine
 10
-1.0265625
 20
-1.387500000000001
 30
0.0
 11
1.0265625
 21
-1.387500000000001
 31
0.0
  0
LINE
  5
1E5
330
1A9
100
AcDbEntity
  8
AM_4
100
AcDbLine
 10
-1.0265625
 20
-1.5
 30
0.0
 11
-1.0265625
 21
0.2412762346381193
 31
0.0
  0
LINE
  5
1E6
330
1A9
100
AcDbEntity
  8
AM_4
100
AcDbLine
 10
1.0265625
 20
-1.5
 30
0.0
 11
1.0265625
 21
0.2412762346381193
 31
0.0
  0
LINE
  5
1E7
330
1A9
100
AcDbEntity
  8
AM_4
100
AcDbLine
 10
1.0265625
 20
0.2412762346381193
 30
0.0
 11
-1.0265625
 21
0.2412762346381193
 31
0.0
  0
LINE
  5
1E8
330
1A9
100
AcDbEntity
  8
AM_4
100
AcDbLine
 10
1.36875
 20
-0.2389566951530796
 30
0.0
 11
1.36875
 21
3.75
 31
0.0
  0
LINE
  5
1E9
330
1A9
100
AcDbEntity
  8
AM_4
100
AcDbLine
 10
-1.36875
 20
0.4805630928290744
 30
0.0
 11
1.36875
 21
0.4805630928290744
 31
0.0
  0
LINE
  5
1EA
330
1A9
100
AcDbEntity
  8
AM_4
100
AcDbLine
 10
-1.36875
 20
3.75
 30
0.0
 11
-1.36875
 21
-0.238956695152997
 31
0.0
  0
LWPOLYLINE
  5
1EB
330
1A9
100
AcDbEntity
  8
AM_4
100
AcDbPolyline
 90
       13
 70
     0
 43
0.0
 10
-1.443861946280539
 20
-1.301109254813769
 10
-1.432234349483696
 20
-1.237823193262329
 10
-1.421363719165555
 20
-1.166935154528196
 10
-1.411332787386705
 20
-1.088984639389504
 10
-1.402217895594824
 20
-1.004564898334267
 10
-1.39408841362017
 20
-0.914318416565949
 10
-1.387006211729287
 20
-0.8189320243031222
 10
-1.381025189754915
 20
-0.7191316695867851
 10
-1.376190866885717
 20
-0.6156768933774307
 10
-1.372540035237773
 20
-0.5093550489897141
 10
-1.370100479844356
 20
-0.4009753098583106
 10
-1.368890767195053
 20
-0.2913625112394861
 10
-1.36875
 20
-0.2389566951529976
  0
LWPOLYLINE
  5
1EC
330
1A9
100
AcDbEntity
  8
AM_4
100
AcDbPolyline
 90
       13
 70
     0
 43
0.0
 10
1.36875
 20
-0.2389566951530788
 10
1.369370060355586
 20
-0.3488638610239743
 10
1.371225522388636
 20
-0.4579345669988311
 10
1.374302264912719
 20
-0.5653387191464876
 10
1.378576872059439
 20
-0.6702589070166999
 10
1.384016811487332
 20
-0.7718966246272344
 10
1.390580681972625
 20
-0.8694783475765426
 10
1.398218528497553
 20
-0.9622614200315256
 10
1.406872222438202
 20
-1.04953970678685
 10
1.416475903958442
 20
-1.130648967380236
 10
1.426956483243042
 20
-1.204971911363459
 10
1.438234196755299
 20
-1.271942896255386
 10
1.443861946280539
 20
-1.301109254813769
  0
LINE
  5
1ED
330
1A9
100
AcDbEntity
  8
AM_4
100
AcDbLine
 10
1.7109375
 20
-1.496880371885369
 30
0.0
 11
1.7109375
 21
-3.75
 31
0.0
  0
LINE
  5
1EE
330
1A9
100
AcDbEntity
  8
AM_4
100
AcDbLine
 10
1.0265625
 20
-1.301109254813769
 30
0.0
 11
1.443861946280538
 21
-1.301109254813769
 31
0.0
  0
LWPOLYLINE
  5
1EF
330
1A9
100
AcDbEntity
  8
AM_4
100
AcDbPolyline
 90
       11
 70
     0
 43
0.0
 10
1.547991071428574
 20
-1.380608657932692
 10
1.577882141066447
 20
-1.385560561861055
 10
1.597294408530776
 20
-1.393633479626534
 10
1.615106751711873
 20
-1.403841493453238
 10
1.64224733486532
 20
-1.423355805708564
 10
1.665651429382182
 20
-1.443465167949254
 10
1.685692999926462
 20
-1.462877747441434
 10
1.700753375192244
 20
-1.479596898829682
 10
1.707216299680825
 20
-1.488272338534515
 10
1.710562492140954
 20
-1.49475285397229
 10
1.7109375
 20
-1.49688037188537
  0
LINE
  5
1F0
330
1A9
100
AcDbEntity
  8
AM_4
100
AcDbLine
 10
1.531696428571429
 20
-1.380608657932691
 30
0.0
 11
1.547991071428574
 21
-1.380608657932692
 31
0.0
  0
LWPOLYLINE
  5
1F1
330
1A9
100
AcDbEntity
  8
AM_4
100
AcDbPolyline
 90
        6
 70
     0
 43
0.0
 10
1.531696428571429
 20
-1.380608657932692
 10
1.502892767850528
 20
-1.375736629973205
 10
1.477993707112466
 20
-1.361812210486907
 10
1.45995620014862
 20
-1.341667382998941
 10
1.447012059397623
 20
-1.313591463089489
 10
1.443861946280539
 20
-1.301109254813769
  0
LINE
  5
1F2
330
1A9
100
AcDbEntity
  8
AM_4
100
AcDbLine
 10
-1.7109375
 20
-1.496880371885368
 30
0.0
 11
-1.7109375
 21
-3.75
 31
0.0
  0
LINE
  5
1F3
330
1A9
100
AcDbEntity
  8
AM_4
100
AcDbLine
 10
-1.443861946280539
 20
-1.301109254813769
 30
0.0
 11
-1.0265625
 21
-1.301109254813769
 31
0.0
  0
LWPOLYLINE
  5
1F4
330
1A9
100
AcDbEntity
  8
AM_4
100
AcDbPolyline
 90
        7
 70
     0
 43
0.0
 10
-1.443861946280539
 20
-1.301109254813769
 10
-1.454907553707356
 20
-1.333040293277755
 10
-1.46388702159263
 20
-1.34719693769362
 10
-1.475214571400821
 20
-1.359448111259479
 10
-1.488267451803015
 20
-1.368931753818954
 10
-1.503067283760813
 20
-1.375797708279521
 10
-1.531696428571417
 20
-1.38060865793272
  0
LINE
  5
1F5
330
1A9
100
AcDbEntity
  8
AM_4
100
AcDbLine
 10
-1.547991071428569
 20
-1.380608657932689
 30
0.0
 11
-1.531696428571428
 21
-1.38060865793269
 31
0.0
  0
LWPOLYLINE
  5
1F6
330
1A9
100
AcDbEntity
  8
AM_4
100
AcDbPolyline
 90
       11
 70
     0
 43
0.0
 10
-1.7109375
 20
-1.496880371885368
 10
-1.708978495117269
 20
-1.491204049434268
 10
-1.703429486306876
 20
-1.482968590100364
 10
-1.694801404978094
 20
-1.472654849766706
 10
-1.68357093947436
 20
-1.460716566733293
 10
-1.664021072962284
 20
-1.441981002640322
 10
-1.640068736436006
 20
-1.421691919127262
 10
-1.619173130716
 20
-1.406446866410348
 10
-1.595808030855187
 20
-1.392907711621809
 10
-1.565835807965695
 20
-1.382397121863891
 10
-1.547991071428569
 20
-1.380608657932691
  0
LINE
  5
1F7
330
1A9
100
AcDbEntity
  8
AM_4
100
AcDbLine
 10
-1.36875
 20
-1.662500000000001
 30
0.0
 11
1.36875
 21
-1.662499999999998
 31
0.0
  0
LINE
  5
1F8
330
1A9
100
AcDbEntity
  8
AM_4
100
AcDbLine
 10
-1.36875
 20
-1.662500000000001
 30
0.0
 11
-1.36875
 21
-3.75
 31
0.0
  0
LWPOLYLINE
  5
1F9
330
1A9
100
AcDbEntity
  8
AM_4
100
AcDbPolyline
 90
       19
 70
     0
 43
0.0
 10
-1.531250000000001
 20
-1.499999999999999
 10
-1.517087191803506
 20
-1.500618361560091
 10
-1.503032171129124
 20
-1.502468740135516
 10
-1.489191905170841
 20
-1.505537053228026
 10
-1.475671726709579
 20
-1.509799949122289
 10
-1.462574532467137
 20
-1.515224984606544
 10
-1.45
 20
-1.521770871885028
 10
-1.438043829092955
 20
-1.529387792803038
 10
-1.426797013425937
 20
-1.538017777993166
 10
-1.416345148057186
 20
-1.547595148057186
 10
-1.406767777993166
 20
-1.558047013425937
 10
-1.398137792803039
 20
-1.569293829092955
 10
-1.390520871885029
 20
-1.58125
 10
-1.383974984606544
 20
-1.593824532467136
 10
-1.37854994912229
 20
-1.606921726709579
 10
-1.374287053228026
 20
-1.620441905170841
 10
-1.371218740135516
 20
-1.634282171129124
 10
-1.369368361560091
 20
-1.648337191803506
 10
-1.36875
 20
-1.662500000000001
  0
LINE
  5
1FA
330
1A9
100
AcDbEntity
  8
AM_4
100
AcDbLine
 10
1.36875
 20
-1.662499999999998
 30
0.0
 11
1.36875
 21
-3.75
 31
0.0
  0
LINE
  5
1FB
330
1A9
100
AcDbEntity
  8
AM_4
100
AcDbLine
 10
-1.7109375
 20
-3.75
 30
0.0
 11
1.7109375
 21
-3.75
 31
0.0
  0
LINE
  5
1FC
330
1A9
100
AcDbEntity
  8
AM_4
100
AcDbLine
 10
-1.7109375
 20
-1.5
 30
0.0
 11
1.7109375
 21
-1.499999999999998
 31
0.0
  0
LWPOLYLINE
  5
1FD
330
1A9
100
AcDbEntity
  8
AM_4
100
AcDbPolyline
 90
       19
 70
     0
 43
0.0
 10
1.36875
 20
-1.662500000000001
 10
1.369368361560092
 20
-1.648337191803506
 10
1.371218740135516
 20
-1.634282171129124
 10
1.374287053228026
 20
-1.620441905170841
 10
1.37854994912229
 20
-1.606921726709579
 10
1.383974984606545
 20
-1.593824532467136
 10
1.390520871885029
 20
-1.58125
 10
1.398137792803039
 20
-1.569293829092955
 10
1.406767777993167
 20
-1.558047013425937
 10
1.416345148057186
 20
-1.547595148057186
 10
1.426797013425938
 20
-1.538017777993166
 10
1.438043829092956
 20
-1.529387792803039
 10
1.450000000000001
 20
-1.521770871885028
 10
1.462574532467137
 20
-1.515224984606544
 10
1.47567172670958
 20
-1.509799949122289
 10
1.489191905170841
 20
-1.505537053228026
 10
1.503032171129125
 20
-1.502468740135516
 10
1.517087191803507
 20
-1.500618361560091
 10
1.531250000000001
 20
-1.499999999999999
  0
ENDBLK
  5
1AC
330
1A9
100
AcDbEntity
  8
0
100
AcDbBlockEnd
  0
ENDSEC
  0
SECTION
  2
ENTITIES
  0
INSERT
  5
6F
330
1F
100
AcDbEntity
  8
0
100
AcDbBlockReference
  2
1_070357_2
 10
0.0
 20
0.0
 30
0.0
  0
POINT
  5
1FF
330
1F
100
AcDbEntity
  8
ConnectionPoints
100
AcDbPoint
 10
-2.265625
 20
0.0
 30
0.0000000000000001
  0
POINT
  5
200
330
1F
100
AcDbEntity
  8
ConnectionPoints
100
AcDbPoint
 10
2.768375
 20
0.0
 30
-0.0000000000000002
  0
POINT
  5
201
330
1F
100
AcDbEntity
  8
ConnectionPoints
100
AcDbPoint
 10
-2.265625
 20
0.0
 30
0.0000000000000001
  0
POINT
  5
202
330
1F
100
AcDbEntity
  8
ConnectionPoints
100
AcDbPoint
 10
0.0000000000000001
 20
3.334197804570089
 30
1.925
  0
POINT
  5
203
330
1F
100
AcDbEntity
  8
ConnectionPoints
100
AcDbPoint
 10
-2.265625
 20
0.0
 30
0.0000000000000001
  0
POINT
  5
204
330
1F
100
AcDbEntity
  8
ConnectionPoints
100
AcDbPoint
 10
-2.515625
 20
0.0
 30
0.0000000000000002
  0
POINT
  5
205
330
1F
100
AcDbEntity
  8
ConnectionPoints
100
AcDbPoint
 10
0.0000000000000001
 20
3.334197804570089
 30
1.925
  0
ENDSEC
  0
SECTION
  2
OBJECTS
  0
DICTIONARY
  5
C
330
0
100
AcDbDictionary
281
     1
  3
ACAD_DETAILVIEWSTYLE
350
20D
  3
ACAD_GROUP
350
D
  3
ACAD_LAYOUT
350
1A
  3
ACAD_MATERIAL
350
43
  3
ACAD_MLEADERSTYLE
350
6B
  3
ACAD_MLINESTYLE
350
17
  3
ACAD_PLOTSETTINGS
350
19
  3
ACAD_PLOTSTYLENAME
350
E
  3
ACAD_SCALELIST
350
47
  3
ACAD_SECTIONVIEWSTYLE
350
20E
  3
ACAD_TABLESTYLE
350
69
  3
ACAD_VISUALSTYLE
350
2A
  3
ACDB_RECOMPOSE_DATA
350
20A
  3
AcDbVariableDictionary
350
206
  0
SUN
  5
6D
330
29
100
AcDbSun
 90
        1
290
     0
 63
     7
421
 16777215
 40
1.0
291
     1
 91
  2455826
 92
 54000000
292
     0
 70
     2
 71
   256
280
     1
  0
DICTIONARY
  5
20D
102
{ACAD_REACTORS
330
C
102
}
330
C
100
AcDbDictionary
281
     1
  0
DICTIONARY
  5
D
102
{ACAD_REACTORS
330
C
102
}
330
C
100
AcDbDictionary
281
     1
  0
DICTIONARY
  5
1A
102
{ACAD_REACTORS
330
C
102
}
330
C
100
AcDbDictionary
281
     1
  3
Layout1
350
1E
  3
Layout2
350
26
  3
Model
350
22
  0
DICTIONARY
  5
43
102
{ACAD_REACTORS
330
C
102
}
330
C
100
AcDbDictionary
281
     1
  3
ByBlock
350
45
  3
ByLayer
350
44
  3
Global
350
46
  0
DICTIONARY
  5
6B
102
{ACAD_REACTORS
330
C
102
}
330
C
100
AcDbDictionary
281
     1
  3
Standard
350
6C
  0
DICTIONARY
  5
17
102
{ACAD_REACTORS
330
C
102
}
330
C
100
AcDbDictionary
281
     1
  3
Standard
350
18
  0
DICTIONARY
  5
19
102
{ACAD_REACTORS
330
C
102
}
330
C
100
AcDbDictionary
281
     1
  0
ACDBDICTIONARYWDFLT
  5
E
102
{ACAD_REACTORS
330
C
102
}
330
C
100
AcDbDictionary
281
     1
  3
Normal
350
F
100
AcDbDictionaryWithDefault
340
F
  0
DICTIONARY
  5
47
102
{ACAD_REACTORS
330
C
102
}
330
C
100
AcDbDictionary
281
     1
  3
A0
350
48
  3
A1
350
49
  3
A2
350
4A
  3
A3
350
4B
  3
A4
350
4C
  3
A5
350
4D
  3
A6
350
4E
  3
A7
350
4F
  3
A8
350
50
  3
A9
350
51
  3
B0
350
52
  3
B1
350
53
  3
B2
350
54
  3
B3
350
55
  3
B4
350
56
  3
B5
350
57
  3
B6
350
58
  3
B7
350
59
  3
B8
350
5A
  3
B9
350
5B
  3
C0
350
5C
  3
C1
350
5D
  3
C2
350
5E
  3
C3
350
5F
  3
C4
350
60
  3
C5
350
61
  3
C6
350
62
  3
C7
350
63
  3
C8
350
64
  3
C9
350
65
  3
D0
350
66
  3
D1
350
67
  3
D2
350
68
  0
DICTIONARY
  5
20E
102
{ACAD_REACTORS
330
C
102
}
330
C
100
AcDbDictionary
281
     1
  0
DICTIONARY
  5
69
102
{ACAD_REACTORS
330
C
102
}
330
C
100
AcDbDictionary
281
     1
  3
Standard
350
6A
  0
DICTIONARY
  5
2A
102
{ACAD_REACTORS
330
C
102
}
330
C
100
AcDbDictionary
281
     1
  3
2dWireframe
350
2F
  3
Basic
350
32
  3
Brighten
350
36
  3
ColorChange
350
3A
  3
Conceptual
350
34
  3
Dim
350
35
  3
EdgeColorOff
350
3D
  3
Facepattern
350
39
  3
Flat
350
2B
  3
FlatWithEdges
350
2C
  3
Gouraud
350
2D
  3
GouraudWithEdges
350
2E
  3
Hidden
350
31
  3
JitterOff
350
3B
  3
Linepattern
350
38
  3
OverhangOff
350
3C
  3
Realistic
350
33
  3
Shaded
350
42
  3
Shaded with edges
350
41
  3
Shades of Gray
350
3E
  3
Sketchy
350
3F
  3
Thicken
350
37
  3
Wireframe
350
30
  3
X-Ray
350
40
  0
XRECORD
  5
20A
102
{ACAD_REACTORS
330
C
102
}
330
C
100
AcDbXrecord
280
     1
 90
        1
330
6A
  0
DICTIONARY
  5
206
102
{ACAD_REACTORS
330
C
102
}
330
C
100
AcDbDictionary
281
     1
  3
CANNOSCALE
350
207
  3
CMLEADERSTYLE
350
20C
  3
CTABLESTYLE
350
20B
  0
LAYOUT
  5
1E
102
{ACAD_REACTORS
330
1A
102
}
330
1A
100
AcDbPlotSettings
  1

  2
none_device
  4

  6

 40
0.0
 41
0.0
 42
0.0
 43
0.0
 44
0.0
 45
0.0
 46
0.0
 47
0.0
 48
0.0
 49
0.0
140
0.0
141
0.0
142
1.0
143
1.0
 70
   688
 72
     0
 73
     0
 74
     5
  7

 75
    16
 76
     0
 77
     2
 78
   300
147
1.0
148
0.0
149
0.0
100
AcDbLayout
  1
Layout1
 70
     1
 71
     1
 10
0.0
 20
0.0
 11
12.0
 21
9.0
 12
0.0
 22
0.0
 32
0.0
 14
1.000000000000000E+20
 24
1.000000000000000E+20
 34
1.000000000000000E+20
 15
-1.000000000000000E+20
 25
-1.000000000000000E+20
 35
-1.000000000000000E+20
146
0.0
 13
0.0
 23
0.0
 33
0.0
 16
1.0
 26
0.0
 36
0.0
 17
0.0
 27
1.0
 37
0.0
 76
     0
330
1B
  0
LAYOUT
  5
26
102
{ACAD_REACTORS
330
1A
102
}
330
1A
100
AcDbPlotSettings
  1

  2
none_device
  4

  6

 40
0.0
 41
0.0
 42
0.0
 43
0.0
 44
0.0
 45
0.0
 46
0.0
 47
0.0
 48
0.0
 49
0.0
140
0.0
141
0.0
142
1.0
143
1.0
 70
   688
 72
     0
 73
     0
 74
     5
  7

 75
    16
 76
     0
 77
     2
 78
   300
147
1.0
148
0.0
149
0.0
100
AcDbLayout
  1
Layout2
 70
     1
 71
     2
 10
0.0
 20
0.0
 11
0.0
 21
0.0
 12
0.0
 22
0.0
 32
0.0
 14
0.0
 24
0.0
 34
0.0
 15
0.0
 25
0.0
 35
0.0
146
0.0
 13
0.0
 23
0.0
 33
0.0
 16
1.0
 26
0.0
 36
0.0
 17
0.0
 27
1.0
 37
0.0
 76
     0
330
23
  0
LAYOUT
  5
22
102
{ACAD_REACTORS
330
1A
102
}
330
1A
100
AcDbPlotSettings
  1

  2
none_device
  4
Letter_(8.50_x_11.00_Inches)
  6

 40
6.35
 41
6.35
 42
6.35000508
 43
6.35000508
 44
215.9
 45
279.4
 46
0.0
 47
0.0
 48
0.0
 49
0.0
140
0.0
141
0.0
142
1.0
143
1.0
 70
  1712
 72
     0
 73
     0
 74
     0
  7

 75
     0
 76
     0
 77
     2
 78
   300
147
1.0
148
0.0
149
0.0
100
AcDbLayout
  1
Model
 70
     1
 71
     0
 10
0.0
 20
0.0
 11
12.0
 21
9.0
 12
0.0
 22
0.0
 32
0.0
 14
1.000000000000000E+20
 24
1.000000000000000E+20
 34
1.000000000000000E+20
 15
-1.000000000000000E+20
 25
-1.000000000000000E+20
 35
-1.000000000000000E+20
146
0.0
 13
0.0
 23
0.0
 33
0.0
 16
1.0
 26
0.0
 36
0.0
 17
0.0
 27
1.0
 37
0.0
 76
     0
330
1F
331
29
  0
MATERIAL
  5
45
102
{ACAD_REACTORS
330
43
102
}
330
43
100
AcDbMaterial
  1
ByBlock
 72
     1
 94
      127
  0
MATERIAL
  5
44
102
{ACAD_REACTORS
330
43
102
}
330
43
100
AcDbMaterial
  1
ByLayer
 72
     1
 94
      127
  0
MATERIAL
  5
46
102
{ACAD_REACTORS
330
43
102
}
330
43
100
AcDbMaterial
  1
Global
 72
     1
 94
      127
  0
MLEADERSTYLE
  5
6C
102
{ACAD_REACTORS
330
6B
102
}
330
6B
100
AcDbMLeaderStyle
179
     2
170
     2
171
     1
172
     0
 90
        2
 40
0.0
 41
0.0
173
     1
 91
-1056964608
340
14
 92
       -2
290
     1
 42
0.09
291
     1
 43
0.36
  3
Standard
341
0
 44
0.18
300

342
11
174
     1
178
     6
175
     1
176
     0
 93
-1056964608
 45
0.18
292
     0
297
     0
 46
0.18
343
0
 94
-1056964608
 47
1.0
 49
1.0
140
1.0
293
     1
141
0.0
294
     1
177
     0
142
1.0
295
     0
296
     0
143
0.125
271
     0
272
     9
273
     9
298
     0
  0
MLINESTYLE
  5
18
102
{ACAD_REACTORS
330
17
102
}
330
17
100
AcDbMlineStyle
  2
Standard
 70
     0
  3

 62
   256
 51
90.0
 52
90.0
 71
     2
 49
0.5
 62
   256
  6
BYLAYER
 49
-0.5
 62
   256
  6
BYLAYER
  0
ACDBPLACEHOLDER
  5
F
102
{ACAD_REACTORS
330
E
102
}
330
E
  0
SCALE
  5
48
102
{ACAD_REACTORS
330
47
102
}
330
47
100
AcDbScale
 70
     0
300
1:1
140
1.0
141
1.0
290
     1
  0
SCALE
  5
49
102
{ACAD_REACTORS
330
47
102
}
330
47
100
AcDbScale
 70
     0
300
1:2
140
1.0
141
2.0
290
     0
  0
SCALE
  5
4A
102
{ACAD_REACTORS
330
47
102
}
330
47
100
AcDbScale
 70
     0
300
1:4
140
1.0
141
4.0
290
     0
  0
SCALE
  5
4B
102
{ACAD_REACTORS
330
47
102
}
330
47
100
AcDbScale
 70
     0
300
1:5
140
1.0
141
5.0
290
     0
  0
SCALE
  5
4C
102
{ACAD_REACTORS
330
47
102
}
330
47
100
AcDbScale
 70
     0
300
1:8
140
1.0
141
8.0
290
     0
  0
SCALE
  5
4D
102
{ACAD_REACTORS
330
47
102
}
330
47
100
AcDbScale
 70
     0
300
1:10
140
1.0
141
10.0
290
     0
  0
SCALE
  5
4E
102
{ACAD_REACTORS
330
47
102
}
330
47
100
AcDbScale
 70
     0
300
1:16
140
1.0
141
16.0
290
     0
  0
SCALE
  5
4F
102
{ACAD_REACTORS
330
47
102
}
330
47
100
AcDbScale
 70
     0
300
1:20
140
1.0
141
20.0
290
     0
  0
SCALE
  5
50
102
{ACAD_REACTORS
330
47
102
}
330
47
100
AcDbScale
 70
     0
300
1:30
140
1.0
141
30.0
290
     0
  0
SCALE
  5
51
102
{ACAD_REACTORS
330
47
102
}
330
47
100
AcDbScale
 70
     0
300
1:40
140
1.0
141
40.0
290
     0
  0
SCALE
  5
52
102
{ACAD_REACTORS
330
47
102
}
330
47
100
AcDbScale
 70
     0
300
1:50
140
1.0
141
50.0
290
     0
  0
SCALE
  5
53
102
{ACAD_REACTORS
330
47
102
}
330
47
100
AcDbScale
 70
     0
300
1:100
140
1.0
141
100.0
290
     0
  0
SCALE
  5
54
102
{ACAD_REACTORS
330
47
102
}
330
47
100
AcDbScale
 70
     0
300
2:1
140
2.0
141
1.0
290
     0
  0
SCALE
  5
55
102
{ACAD_REACTORS
330
47
102
}
330
47
100
AcDbScale
 70
     0
300
4:1
140
4.0
141
1.0
290
     0
  0
SCALE
  5
56
102
{ACAD_REACTORS
330
47
102
}
330
47
100
AcDbScale
 70
     0
300
8:1
140
8.0
141
1.0
290
     0
  0
SCALE
  5
57
102
{ACAD_REACTORS
330
47
102
}
330
47
100
AcDbScale
 70
     0
300
10:1
140
10.0
141
1.0
290
     0
  0
SCALE
  5
58
102
{ACAD_REACTORS
330
47
102
}
330
47
100
AcDbScale
 70
     0
300
100:1
140
100.0
141
1.0
290
     0
  0
SCALE
  5
59
102
{ACAD_REACTORS
330
47
102
}
330
47
100
AcDbScale
 70
     0
300
1/128" = 1'-0"
140
0.0078125
141
12.0
290
     0
  0
SCALE
  5
5A
102
{ACAD_REACTORS
330
47
102
}
330
47
100
AcDbScale
 70
     0
300
1/64" = 1'-0"
140
0.015625
141
12.0
290
     0
  0
SCALE
  5
5B
102
{ACAD_REACTORS
330
47
102
}
330
47
100
AcDbScale
 70
     0
300
1/32" = 1'-0"
140
0.03125
141
12.0
290
     0
  0
SCALE
  5
5C
102
{ACAD_REACTORS
330
47
102
}
330
47
100
AcDbScale
 70
     0
300
1/16" = 1'-0"
140
0.0625
141
12.0
290
     0
  0
SCALE
  5
5D
102
{ACAD_REACTORS
330
47
102
}
330
47
100
AcDbScale
 70
     0
300
3/32" = 1'-0"
140
0.09375
141
12.0
290
     0
  0
SCALE
  5
5E
102
{ACAD_REACTORS
330
47
102
}
330
47
100
AcDbScale
 70
     0
300
1/8" = 1'-0"
140
0.125
141
12.0
290
     0
  0
SCALE
  5
5F
102
{ACAD_REACTORS
330
47
102
}
330
47
100
AcDbScale
 70
     0
300
3/16" = 1'-0"
140
0.1875
141
12.0
290
     0
  0
SCALE
  5
60
102
{ACAD_REACTORS
330
47
102
}
330
47
100
AcDbScale
 70
     0
300
1/4" = 1'-0"
140
0.25
141
12.0
290
     0
  0
SCALE
  5
61
102
{ACAD_REACTORS
330
47
102
}
330
47
100
AcDbScale
 70
     0
300
3/8" = 1'-0"
140
0.375
141
12.0
290
     0
  0
SCALE
  5
62
102
{ACAD_REACTORS
330
47
102
}
330
47
100
AcDbScale
 70
     0
300
1/2" = 1'-0"
140
0.5
141
12.0
290
     0
  0
SCALE
  5
63
102
{ACAD_REACTORS
330
47
102
}
330
47
100
AcDbScale
 70
     0
300
3/4" = 1'-0"
140
0.75
141
12.0
290
     0
  0
SCALE
  5
64
102
{ACAD_REACTORS
330
47
102
}
330
47
100
AcDbScale
 70
     0
300
1" = 1'-0"
140
1.0
141
12.0
290
     0
  0
SCALE
  5
65
102
{ACAD_REACTORS
330
47
102
}
330
47
100
AcDbScale
 70
     0
300
1-1/2" = 1'-0"
140
1.5
141
12.0
290
     0
  0
SCALE
  5
66
102
{ACAD_REACTORS
330
47
102
}
330
47
100
AcDbScale
 70
     0
300
3" = 1'-0"
140
3.0
141
12.0
290
     0
  0
SCALE
  5
67
102
{ACAD_REACTORS
330
47
102
}
330
47
100
AcDbScale
 70
     0
300
6" = 1'-0"
140
6.0
141
12.0
290
     0
  0
SCALE
  5
68
102
{ACAD_REACTORS
330
47
102
}
330
47
100
AcDbScale
 70
     0
300
1'-0" = 1'-0"
140
12.0
141
12.0
290
     0
  0
TABLESTYLE
  5
6A
102
{ACAD_REACTORS
330
69
102
}
102
{ACAD_XDICTIONARY
360
208
102
}
330
69
100
AcDbTableStyle
  3
Standard
 70
     0
 71
     0
 40
0.06
 41
0.06
280
     0
281
     0
  7
Standard
140
0.18
170
     2
 62
     0
 63
   257
283
     0
 90
        4
 91
        0
  1

274
    -2
284
     1
 64
     0
275
    -2
285
     1
 65
     0
276
    -2
286
     1
 66
     0
277
    -2
287
     1
 67
     0
278
    -2
288
     1
 68
     0
279
    -2
289
     1
 69
     0
  7
Standard
140
0.25
170
     5
 62
     0
 63
   257
283
     0
 90
        4
 91
        0
  1

274
    -2
284
     1
 64
     0
275
    -2
285
     1
 65
     0
276
    -2
286
     1
 66
     0
277
    -2
287
     1
 67
     0
278
    -2
288
     1
 68
     0
279
    -2
289
     1
 69
     0
  7
Standard
140
0.18
170
     5
 62
     0
 63
   257
283
     0
 90
        4
 91
        0
  1

274
    -2
284
     1
 64
     0
275
    -2
285
     1
 65
     0
276
    -2
286
     1
 66
     0
277
    -2
287
     1
 67
     0
278
    -2
288
     1
 68
     0
279
    -2
289
     1
 69
     0
  0
VISUALSTYLE
  5
2F
102
{ACAD_REACTORS
330
2A
102
}
330
2A
100
AcDbVisualStyle
  2
2dWireframe
 70
     4
177
     3
291
     0
 70
    58
 90
        0
176
     1
 90
        2
176
     1
 90
        0
176
     1
 90
        0
176
     1
 40
0.6
176
     1
 40
30.0
176
     1
 62
     7
420
 16777215
176
     1
 90
        1
176
     1
 90
        4
176
     1
 62
     7
176
     1
 62
   257
176
     1
 90
        1
176
     1
 90
        1
176
     1
 40
1.0
176
     1
 90
        0
176
     1
 62
   257
176
     1
 40
1.0
176
     1
 90
        1
176
     1
 90
        6
176
     1
 90
        2
176
     1
 62
     7
176
     1
 90
        5
176
     1
 90
        0
176
     1
 90
        0
176
     1
290
     0
176
     1
 90
        1
176
     1
 40
0.0
176
     1
 90
        0
176
     1
290
     1
176
     1
290
     1
176
     1
290
     0
176
     1
290
     0
176
     1
290
     0
176
     1
290
     0
176
     1
290
     0
176
     1
290
     0
176
     1
290
     0
176
     1
 90
       50
176
     1
 40
0.0
176
     1
 40
1.0
176
     1
 90
        0
176
     1
 62
    18
420
        0
176
     1
 90
       50
176
     1
 90
        3
176
     1
 62
     5
420
      255
176
     1
290
     0
176
     1
 90
       50
176
     1
 90
       50
176
     1
 90
       50
176
     1
290
     0
176
     1
 90
       50
176
     1
 62
   256
176
     0
 40
1.0
176
     0
 90
        2
176
     1
  1
strokes_ogs.tif
176
     1
290
     0
176
     1
 40
1.0
176
     1
 40
1.0
176
     1
  0
VISUALSTYLE
  5
32
102
{ACAD_REACTORS
330
2A
102
}
330
2A
100
AcDbVisualStyle
  2
Basic
 70
     7
177
     3
291
     1
 70
    58
 90
        1
176
     1
 90
        0
176
     1
 90
        1
176
     1
 90
        0
176
     1
 40
0.6
176
     1
 40
30.0
176
     1
 62
     7
420
 16777215
176
     1
 90
        0
176
     1
 90
        4
176
     1
 62
     7
176
     1
 62
   257
176
     1
 90
        1
176
     1
 90
        1
176
     1
 40
1.0
176
     1
 90
        8
176
     1
 62
     7
176
     1
 40
1.0
176
     1
 90
        1
176
     1
 90
        6
176
     1
 90
        2
176
     1
 62
     7
176
     1
 90
        5
176
     1
 90
        0
176
     1
 90
        0
176
     1
290
     0
176
     1
 90
        1
176
     1
 40
0.0
176
     1
 90
        0
176
     1
290
     0
176
     1
290
     1
176
     1
290
     1
176
     1
290
     0
176
     1
290
     0
176
     1
290
     0
176
     1
290
     0
176
     1
290
     0
176
     1
290
     0
176
     1
 90
       50
176
     1
 40
0.0
176
     1
 40
1.0
176
     1
 90
        0
176
     1
 62
    18
420
        0
176
     1
 90
       50
176
     1
 90
        3
176
     1
 62
     5
420
      255
176
     1
290
     0
176
     1
 90
       50
176
     1
 90
       50
176
     1
 90
       50
176
     1
290
     0
176
     1
 90
       50
176
     1
 62
   256
176
     0
 40
1.0
176
     0
 90
        2
176
     1
  1
strokes_ogs.tif
176
     1
290
     0
176
     1
 40
1.0
176
     1
 40
1.0
176
     1
  0
VISUALSTYLE
  5
36
102
{ACAD_REACTORS
330
2A
102
}
330
2A
100
AcDbVisualStyle
  2
Brighten
 70
    12
177
     3
291
     1
 70
    58
 90
        2
176
     1
 90
        2
176
     1
 90
        0
176
     1
 90
        0
176
     1
 40
0.6
176
     1
 40
30.0
176
     1
 62
     7
420
 16777215
176
     1
 90
        1
176
     1
 90
        4
176
     1
 62
     7
176
     1
 62
   257
176
     1
 90
        1
176
     1
 90
        1
176
     1
 40
1.0
176
     1
 90
        8
176
     1
 62
     7
176
     1
 40
1.0
176
     1
 90
        1
176
     1
 90
        6
176
     1
 90
        2
176
     1
 62
     7
176
     1
 90
        5
176
     1
 90
        0
176
     1
 90
        0
176
     1
290
     0
176
     1
 90
        1
176
     1
 40
50.0
176
     1
 90
        0
176
     1
290
     0
176
     1
290
     1
176
     1
290
     1
176
     1
290
     0
176
     1
290
     0
176
     1
290
     0
176
     1
290
     0
176
     1
290
     0
176
     1
290
     0
176
     1
 90
       50
176
     1
 40
0.0
176
     1
 40
1.0
176
     1
 90
        0
176
     1
 62
    18
420
        0
176
     1
 90
       50
176
     1
 90
        3
176
     1
 62
     5
420
      255
176
     1
290
     0
176
     1
 90
       50
176
     1
 90
       50
176
     1
 90
       50
176
     1
290
     0
176
     1
 90
       50
176
     1
 62
   256
176
     0
 40
1.0
176
     0
 90
        2
176
     1
  1
strokes_ogs.tif
176
     1
290
     0
176
     1
 40
1.0
176
     1
 40
1.0
176
     1
  0
VISUALSTYLE
  5
3A
102
{ACAD_REACTORS
330
2A
102
}
330
2A
100
AcDbVisualStyle
  2
ColorChange
 70
    16
177
     3
291
     1
 70
    58
 90
        2
176
     1
 90
        2
176
     1
 90
        3
176
     1
 90
        0
176
     1
 40
0.6
176
     1
 40
30.0
176
     1
 62
     8
420
  8421504
176
     1
 90
        1
176
     1
 90
        4
176
     1
 62
     7
176
     1
 62
   257
176
     1
 90
        1
176
     1
 90
        1
176
     1
 40
1.0
176
     1
 90
        8
176
     1
 62
     8
420
  8421504
176
     1
 40
1.0
176
     1
 90
        1
176
     1
 90
        6
176
     1
 90
        2
176
     1
 62
     7
176
     1
 90
        5
176
     1
 90
        0
176
     1
 90
        0
176
     1
290
     0
176
     1
 90
        1
176
     1
 40
0.0
176
     1
 90
        0
176
     1
290
     0
176
     1
290
     1
176
     1
290
     1
176
     1
290
     0
176
     1
290
     0
176
     1
290
     0
176
     1
290
     0
176
     1
290
     0
176
     1
290
     0
176
     1
 90
       50
176
     1
 40
0.0
176
     1
 40
1.0
176
     1
 90
        0
176
     1
 62
    18
420
        0
176
     1
 90
       50
176
     1
 90
        3
176
     1
 62
     5
420
      255
176
     1
290
     0
176
     1
 90
       50
176
     1
 90
       50
176
     1
 90
       50
176
     1
290
     0
176
     1
 90
       50
176
     1
 62
   256
176
     0
 40
1.0
176
     0
 90
        2
176
     1
  1
strokes_ogs.tif
176
     1
290
     0
176
     1
 40
1.0
176
     1
 40
1.0
176
     1
  0
VISUALSTYLE
  5
34
102
{ACAD_REACTORS
330
2A
102
}
330
2A
100
AcDbVisualStyle
  2
Conceptual
 70
     9
177
     3
291
     0
 70
    58
 90
        3
176
     1
 90
        2
176
     1
 90
        0
176
     1
 90
        0
176
     1
 40
0.6
176
     1
 40
30.0
176
     1
 62
     7
420
 16777215
176
     1
 90
        2
176
     1
 90
        2
176
     1
 62
     7
176
     1
 62
   257
176
     1
 90
        1
176
     1
 90
        1
176
     1
 40
179.0
176
     1
 90
        8
176
     1
 62
     7
176
     1
 40
1.0
176
     1
 90
        1
176
     1
 90
        6
176
     1
 90
        2
176
     1
 62
     7
176
     1
 90
        3
176
     1
 90
        0
176
     1
 90
        0
176
     1
290
     0
176
     1
 90
        1
176
     1
 40
0.0
176
     1
 90
        0
176
     1
290
     0
176
     1
290
     1
176
     1
290
     1
176
     1
290
     0
176
     1
290
     0
176
     1
290
     0
176
     1
290
     0
176
     1
290
     0
176
     1
290
     0
176
     1
 90
       50
176
     1
 40
0.0
176
     1
 40
1.0
176
     1
 90
        0
176
     1
 62
    18
420
        0
176
     1
 90
       50
176
     1
 90
        3
176
     1
 62
     5
420
      255
176
     1
290
     0
176
     1
 90
       50
176
     1
 90
       50
176
     1
 90
       50
176
     1
290
     0
176
     1
 90
       50
176
     1
 62
   256
176
     0
 40
1.0
176
     0
 90
        2
176
     1
  1
strokes_ogs.tif
176
     1
290
     0
176
     1
 40
1.0
176
     1
 40
1.0
176
     1
  0
VISUALSTYLE
  5
35
102
{ACAD_REACTORS
330
2A
102
}
330
2A
100
AcDbVisualStyle
  2
Dim
 70
    11
177
     3
291
     1
 70
    58
 90
        2
176
     1
 90
        2
176
     1
 90
        0
176
     1
 90
        0
176
     1
 40
0.6
176
     1
 40
30.0
176
     1
 62
     7
420
 16777215
176
     1
 90
        1
176
     1
 90
        4
176
     1
 62
     7
176
     1
 62
   257
176
     1
 90
        1
176
     1
 90
        1
176
     1
 40
1.0
176
     1
 90
        8
176
     1
 62
     7
176
     1
 40
1.0
176
     1
 90
        1
176
     1
 90
        6
176
     1
 90
        2
176
     1
 62
     7
176
     1
 90
        5
176
     1
 90
        0
176
     1
 90
        0
176
     1
290
     0
176
     1
 90
        1
176
     1
 40
-50.0
176
     1
 90
        0
176
     1
290
     0
176
     1
290
     1
176
     1
290
     1
176
     1
290
     0
176
     1
290
     0
176
     1
290
     0
176
     1
290
     0
176
     1
290
     0
176
     1
290
     0
176
     1
 90
       50
176
     1
 40
0.0
176
     1
 40
1.0
176
     1
 90
        0
176
     1
 62
    18
420
        0
176
     1
 90
       50
176
     1
 90
        3
176
     1
 62
     5
420
      255
176
     1
290
     0
176
     1
 90
       50
176
     1
 90
       50
176
     1
 90
       50
176
     1
290
     0
176
     1
 90
       50
176
     1
 62
   256
176
     0
 40
1.0
176
     0
 90
        2
176
     1
  1
strokes_ogs.tif
176
     1
290
     0
176
     1
 40
1.0
176
     1
 40
1.0
176
     1
  0
VISUALSTYLE
  5
3D
102
{ACAD_REACTORS
330
2A
102
}
330
2A
100
AcDbVisualStyle
  2
EdgeColorOff
 70
    22
177
     3
291
     1
 70
    58
 90
        2
176
     0
 90
        2
176
     0
 90
        0
176
     0
 90
        0
176
     0
 40
0.6
176
     0
 40
30.0
176
     0
 62
     7
420
 16777215
176
     0
 90
        1
176
     0
 90
        4
176
     0
 62
     7
176
     0
 62
   257
176
     0
 90
        1
176
     0
 90
        1
176
     0
 40
1.0
176
     0
 90
        8
176
     2
 62
     7
176
     0
 40
1.0
176
     0
 90
        1
176
     0
 90
        6
176
     0
 90
        2
176
     0
 62
     7
176
     0
 90
        5
176
     0
 90
        0
176
     0
 90
        0
176
     0
290
     0
176
     0
 90
        1
176
     0
 40
0.0
176
     0
 90
        0
176
     0
290
     0
176
     0
290
     1
176
     0
290
     1
176
     0
290
     0
176
     0
290
     0
176
     0
290
     0
176
     0
290
     0
176
     0
290
     0
176
     0
290
     0
176
     0
 90
       50
176
     0
 40
0.0
176
     0
 40
1.0
176
     0
 90
        0
176
     0
 62
    18
420
        0
176
     0
 90
       50
176
     0
 90
        3
176
     0
 62
     5
420
      255
176
     0
290
     0
176
     0
 90
       50
176
     0
 90
       50
176
     0
 90
       50
176
     0
290
     0
176
     0
 90
       50
176
     0
 62
   256
176
     0
 40
1.0
176
     0
 90
        2
176
     0
  1
strokes_ogs.tif
176
     0
290
     0
176
     0
 40
1.0
176
     0
 40
1.0
176
     0
  0
VISUALSTYLE
  5
39
102
{ACAD_REACTORS
330
2A
102
}
330
2A
100
AcDbVisualStyle
  2
Facepattern
 70
    15
177
     3
291
     1
 70
    58
 90
        2
176
     1
 90
        2
176
     1
 90
        0
176
     1
 90
        0
176
     1
 40
0.6
176
     1
 40
30.0
176
     1
 62
     7
420
 16777215
176
     1
 90
        1
176
     1
 90
        4
176
     1
 62
     7
176
     1
 62
   257
176
     1
 90
        1
176
     1
 90
        1
176
     1
 40
1.0
176
     1
 90
        8
176
     1
 62
     7
176
     1
 40
1.0
176
     1
 90
        1
176
     1
 90
        6
176
     1
 90
        2
176
     1
 62
     7
176
     1
 90
        5
176
     1
 90
        0
176
     1
 90
        0
176
     1
290
     0
176
     1
 90
        1
176
     1
 40
0.0
176
     1
 90
        0
176
     1
290
     0
176
     1
290
     1
176
     1
290
     1
176
     1
290
     0
176
     1
290
     0
176
     1
290
     0
176
     1
290
     0
176
     1
290
     0
176
     1
290
     0
176
     1
 90
       50
176
     1
 40
0.0
176
     1
 40
1.0
176
     1
 90
        0
176
     1
 62
    18
420
        0
176
     1
 90
       50
176
     1
 90
        3
176
     1
 62
     5
420
      255
176
     1
290
     0
176
     1
 90
       50
176
     1
 90
       50
176
     1
 90
       50
176
     1
290
     0
176
     1
 90
       50
176
     1
 62
   256
176
     0
 40
1.0
176
     0
 90
        2
176
     1
  1
strokes_ogs.tif
176
     1
290
     0
176
     1
 40
1.0
176
     1
 40
1.0
176
     1
  0
VISUALSTYLE
  5
2B
102
{ACAD_REACTORS
330
2A
102
}
330
2A
100
AcDbVisualStyle
  2
Flat
 70
     0
177
     3
291
     1
 70
    58
 90
        2
176
     1
 90
        1
176
     1
 90
        1
176
     1
 90
        2
176
     1
 40
0.6
176
     1
 40
30.0
176
     1
 62
     7
420
 16777215
176
     1
 90
        0
176
     1
 90
        0
176
     1
 62
     7
176
     1
 62
   257
176
     1
 90
        1
176
     1
 90
        1
176
     1
 40
1.0
176
     1
 90
        8
176
     1
 62
     7
176
     1
 40
1.0
176
     1
 90
        1
176
     1
 90
        6
176
     1
 90
        2
176
     1
 62
     7
176
     1
 90
        5
176
     1
 90
        0
176
     1
 90
        0
176
     1
290
     0
176
     1
 90
       13
176
     1
 40
0.0
176
     1
 90
        0
176
     1
290
     0
176
     1
290
     1
176
     1
290
     1
176
     1
290
     0
176
     1
290
     0
176
     1
290
     0
176
     1
290
     0
176
     1
290
     0
176
     1
290
     0
176
     1
 90
       50
176
     1
 40
0.0
176
     1
 40
1.0
176
     1
 90
        0
176
     1
 62
    18
420
        0
176
     1
 90
       50
176
     1
 90
        3
176
     1
 62
     5
420
      255
176
     1
290
     0
176
     1
 90
       50
176
     1
 90
       50
176
     1
 90
       50
176
     1
290
     0
176
     1
 90
       50
176
     1
 62
   256
176
     0
 40
1.0
176
     0
 90
        2
176
     1
  1
strokes_ogs.tif
176
     1
290
     0
176
     1
 40
1.0
176
     1
 40
1.0
176
     1
  0
VISUALSTYLE
  5
2C
102
{ACAD_REACTORS
330
2A
102
}
330
2A
100
AcDbVisualStyle
  2
FlatWithEdges
 70
     1
177
     3
291
     1
 70
    58
 90
        2
176
     1
 90
        1
176
     1
 90
        1
176
     1
 90
        2
176
     1
 40
0.6
176
     1
 40
30.0
176
     1
 62
     7
420
 16777215
176
     1
 90
        1
176
     1
 90
        0
176
     1
 62
     7
176
     1
 62
   257
176
     1
 90
        1
176
     1
 90
        1
176
     1
 40
1.0
176
     1
 90
        0
176
     1
 62
   257
176
     1
 40
1.0
176
     1
 90
        1
176
     1
 90
        6
176
     1
 90
        2
176
     1
 62
     7
176
     1
 90
        5
176
     1
 90
        0
176
     1
 90
        0
176
     1
290
     0
176
     1
 90
       13
176
     1
 40
0.0
176
     1
 90
        0
176
     1
290
     0
176
     1
290
     1
176
     1
290
     1
176
     1
290
     0
176
     1
290
     0
176
     1
290
     0
176
     1
290
     0
176
     1
290
     0
176
     1
290
     0
176
     1
 90
       50
176
     1
 40
0.0
176
     1
 40
1.0
176
     1
 90
        0
176
     1
 62
    18
420
        0
176
     1
 90
       50
176
     1
 90
        3
176
     1
 62
     5
420
      255
176
     1
290
     0
176
     1
 90
       50
176
     1
 90
       50
176
     1
 90
       50
176
     1
290
     0
176
     1
 90
       50
176
     1
 62
   256
176
     0
 40
1.0
176
     0
 90
        2
176
     1
  1
strokes_ogs.tif
176
     1
290
     0
176
     1
 40
1.0
176
     1
 40
1.0
176
     1
  0
VISUALSTYLE
  5
2D
102
{ACAD_REACTORS
330
2A
102
}
330
2A
100
AcDbVisualStyle
  2
Gouraud
 70
     2
177
     3
291
     1
 70
    58
 90
        2
176
     1
 90
        2
176
     1
 90
        1
176
     1
 90
        2
176
     1
 40
0.6
176
     1
 40
30.0
176
     1
 62
     7
420
 16777215
176
     1
 90
        0
176
     1
 90
        0
176
     1
 62
     7
176
     1
 62
   257
176
     1
 90
        1
176
     1
 90
        1
176
     1
 40
1.0
176
     1
 90
        0
176
     1
 62
     7
176
     1
 40
1.0
176
     1
 90
        1
176
     1
 90
        6
176
     1
 90
        2
176
     1
 62
     7
176
     1
 90
        5
176
     1
 90
        0
176
     1
 90
        0
176
     1
290
     0
176
     1
 90
       13
176
     1
 40
0.0
176
     1
 90
        0
176
     1
290
     0
176
     1
290
     1
176
     1
290
     1
176
     1
290
     0
176
     1
290
     0
176
     1
290
     0
176
     1
290
     0
176
     1
290
     0
176
     1
290
     0
176
     1
 90
       50
176
     1
 40
0.0
176
     1
 40
1.0
176
     1
 90
        0
176
     1
 62
    18
420
        0
176
     1
 90
       50
176
     1
 90
        3
176
     1
 62
     5
420
      255
176
     1
290
     0
176
     1
 90
       50
176
     1
 90
       50
176
     1
 90
       50
176
     1
290
     0
176
     1
 90
       50
176
     1
 62
   256
176
     0
 40
1.0
176
     0
 90
        2
176
     1
  1
strokes_ogs.tif
176
     1
290
     0
176
     1
 40
1.0
176
     1
 40
1.0
176
     1
  0
VISUALSTYLE
  5
2E
102
{ACAD_REACTORS
330
2A
102
}
330
2A
100
AcDbVisualStyle
  2
GouraudWithEdges
 70
     3
177
     3
291
     1
 70
    58
 90
        2
176
     1
 90
        2
176
     1
 90
        1
176
     1
 90
        2
176
     1
 40
0.6
176
     1
 40
30.0
176
     1
 62
     7
420
 16777215
176
     1
 90
        1
176
     1
 90
        0
176
     1
 62
     7
176
     1
 62
   257
176
     1
 90
        1
176
     1
 90
        1
176
     1
 40
1.0
176
     1
 90
        0
176
     1
 62
   257
176
     1
 40
1.0
176
     1
 90
        1
176
     1
 90
        6
176
     1
 90
        2
176
     1
 62
     7
176
     1
 90
        5
176
     1
 90
        0
176
     1
 90
        0
176
     1
290
     0
176
     1
 90
       13
176
     1
 40
0.0
176
     1
 90
        0
176
     1
290
     0
176
     1
290
     1
176
     1
290
     1
176
     1
290
     0
176
     1
290
     0
176
     1
290
     0
176
     1
290
     0
176
     1
290
     0
176
     1
290
     0
176
     1
 90
       50
176
     1
 40
0.0
176
     1
 40
1.0
176
     1
 90
        0
176
     1
 62
    18
420
        0
176
     1
 90
       50
176
     1
 90
        3
176
     1
 62
     5
420
      255
176
     1
290
     0
176
     1
 90
       50
176
     1
 90
       50
176
     1
 90
       50
176
     1
290
     0
176
     1
 90
       50
176
     1
 62
   256
176
     0
 40
1.0
176
     0
 90
        2
176
     1
  1
strokes_ogs.tif
176
     1
290
     0
176
     1
 40
1.0
176
     1
 40
1.0
176
     1
  0
VISUALSTYLE
  5
31
102
{ACAD_REACTORS
330
2A
102
}
330
2A
100
AcDbVisualStyle
  2
Hidden
 70
     6
177
     3
291
     0
 70
    58
 90
        1
176
     1
 90
        2
176
     1
 90
        2
176
     1
 90
        0
176
     1
 40
0.6
176
     1
 40
30.0
176
     1
 62
     7
420
 16777215
176
     1
 90
        2
176
     1
 90
        2
176
     1
 62
     7
176
     1
 62
   257
176
     1
 90
        2
176
     1
 90
        1
176
     1
 40
40.0
176
     1
 90
        0
176
     1
 62
   257
176
     1
 40
1.0
176
     1
 90
        1
176
     1
 90
        6
176
     1
 90
        2
176
     1
 62
     7
176
     1
 90
        3
176
     1
 90
        0
176
     1
 90
        0
176
     1
290
     0
176
     1
 90
        1
176
     1
 40
0.0
176
     1
 90
        0
176
     1
290
     0
176
     1
290
     1
176
     1
290
     1
176
     1
290
     0
176
     1
290
     0
176
     1
290
     0
176
     1
290
     0
176
     1
290
     0
176
     1
290
     0
176
     1
 90
       50
176
     1
 40
0.0
176
     1
 40
1.0
176
     1
 90
        0
176
     1
 62
    18
420
        0
176
     1
 90
       50
176
     1
 90
        3
176
     1
 62
     5
420
      255
176
     1
290
     0
176
     1
 90
       50
176
     1
 90
       50
176
     1
 90
       50
176
     1
290
     0
176
     1
 90
       50
176
     1
 62
   256
176
     0
 40
1.0
176
     0
 90
        2
176
     1
  1
strokes_ogs.tif
176
     1
290
     0
176
     1
 40
1.0
176
     1
 40
1.0
176
     1
  0
VISUALSTYLE
  5
3B
102
{ACAD_REACTORS
330
2A
102
}
330
2A
100
AcDbVisualStyle
  2
JitterOff
 70
    20
177
     3
291
     1
 70
    58
 90
        2
176
     0
 90
        2
176
     0
 90
        0
176
     0
 90
        0
176
     0
 40
0.6
176
     0
 40
30.0
176
     0
 62
     7
420
 16777215
176
     0
 90
        1
176
     0
 90
        4
176
     0
 62
     7
176
     0
 62
   257
176
     0
 90
        1
176
     0
 90
        1
176
     0
 40
1.0
176
     0
 90
       10
176
     2
 62
     7
176
     0
 40
1.0
176
     0
 90
        1
176
     0
 90
        6
176
     0
 90
        2
176
     0
 62
     7
176
     0
 90
        5
176
     0
 90
        0
176
     0
 90
        0
176
     0
290
     0
176
     0
 90
        1
176
     0
 40
0.0
176
     0
 90
        0
176
     0
290
     0
176
     0
290
     1
176
     0
290
     1
176
     0
290
     0
176
     0
290
     0
176
     0
290
     0
176
     0
290
     0
176
     0
290
     0
176
     0
290
     0
176
     0
 90
       50
176
     0
 40
0.0
176
     0
 40
1.0
176
     0
 90
        0
176
     0
 62
    18
420
        0
176
     0
 90
       50
176
     0
 90
        3
176
     0
 62
     5
420
      255
176
     0
290
     0
176
     0
 90
       50
176
     0
 90
       50
176
     0
 90
       50
176
     0
290
     0
176
     0
 90
       50
176
     0
 62
   256
176
     0
 40
1.0
176
     0
 90
        2
176
     0
  1
strokes_ogs.tif
176
     0
290
     0
176
     0
 40
1.0
176
     0
 40
1.0
176
     0
  0
VISUALSTYLE
  5
38
102
{ACAD_REACTORS
330
2A
102
}
330
2A
100
AcDbVisualStyle
  2
Linepattern
 70
    14
177
     3
291
     1
 70
    58
 90
        2
176
     1
 90
        2
176
     1
 90
        0
176
     1
 90
        0
176
     1
 40
0.6
176
     1
 40
30.0
176
     1
 62
     7
420
 16777215
176
     1
 90
        1
176
     1
 90
        4
176
     1
 62
     7
176
     1
 62
   257
176
     1
 90
        7
176
     1
 90
        7
176
     1
 40
1.0
176
     1
 90
        8
176
     1
 62
     7
176
     1
 40
1.0
176
     1
 90
        1
176
     1
 90
        6
176
     1
 90
        2
176
     1
 62
     7
176
     1
 90
        5
176
     1
 90
        0
176
     1
 90
        0
176
     1
290
     0
176
     1
 90
        1
176
     1
 40
0.0
176
     1
 90
        0
176
     1
290
     0
176
     1
290
     1
176
     1
290
     1
176
     1
290
     0
176
     1
290
     0
176
     1
290
     0
176
     1
290
     0
176
     1
290
     0
176
     1
290
     0
176
     1
 90
       50
176
     1
 40
0.0
176
     1
 40
1.0
176
     1
 90
        0
176
     1
 62
    18
420
        0
176
     1
 90
       50
176
     1
 90
        3
176
     1
 62
     5
420
      255
176
     1
290
     0
176
     1
 90
       50
176
     1
 90
       50
176
     1
 90
       50
176
     1
290
     0
176
     1
 90
       50
176
     1
 62
   256
176
     0
 40
1.0
176
     0
 90
        2
176
     1
  1
strokes_ogs.tif
176
     1
290
     0
176
     1
 40
1.0
176
     1
 40
1.0
176
     1
  0
VISUALSTYLE
  5
3C
102
{ACAD_REACTORS
330
2A
102
}
330
2A
100
AcDbVisualStyle
  2
OverhangOff
 70
    21
177
     3
291
     1
 70
    58
 90
        2
176
     0
 90
        2
176
     0
 90
        0
176
     0
 90
        0
176
     0
 40
0.6
176
     0
 40
30.0
176
     0
 62
     7
420
 16777215
176
     0
 90
        1
176
     0
 90
        4
176
     0
 62
     7
176
     0
 62
   257
176
     0
 90
        1
176
     0
 90
        1
176
     0
 40
1.0
176
     0
 90
        9
176
     2
 62
     7
176
     0
 40
1.0
176
     0
 90
        1
176
     0
 90
        6
176
     0
 90
        2
176
     0
 62
     7
176
     0
 90
        5
176
     0
 90
        0
176
     0
 90
        0
176
     0
290
     0
176
     0
 90
        1
176
     0
 40
0.0
176
     0
 90
        0
176
     0
290
     0
176
     0
290
     1
176
     0
290
     1
176
     0
290
     0
176
     0
290
     0
176
     0
290
     0
176
     0
290
     0
176
     0
290
     0
176
     0
290
     0
176
     0
 90
       50
176
     0
 40
0.0
176
     0
 40
1.0
176
     0
 90
        0
176
     0
 62
    18
420
        0
176
     0
 90
       50
176
     0
 90
        3
176
     0
 62
     5
420
      255
176
     0
290
     0
176
     0
 90
       50
176
     0
 90
       50
176
     0
 90
       50
176
     0
290
     0
176
     0
 90
       50
176
     0
 62
   256
176
     0
 40
1.0
176
     0
 90
        2
176
     0
  1
strokes_ogs.tif
176
     0
290
     0
176
     0
 40
1.0
176
     0
 40
1.0
176
     0
  0
VISUALSTYLE
  5
33
102
{ACAD_REACTORS
330
2A
102
}
330
2A
100
AcDbVisualStyle
  2
Realistic
 70
     8
177
     3
291
     0
 70
    58
 90
        2
176
     1
 90
        3
176
     1
 90
        0
176
     1
 90
        2
176
     1
 40
0.6
176
     1
 40
30.0
176
     1
 62
     7
420
 16777215
176
     1
 90
        0
176
     1
 90
        0
176
     1
 62
     7
176
     1
 62
   257
176
     1
 90
        1
176
     1
 90
        1
176
     1
 40
1.0
176
     1
 90
        8
176
     1
 62
   257
176
     1
 40
1.0
176
     1
 90
        1
176
     1
 90
        6
176
     1
 90
        2
176
     1
 62
     7
176
     1
 90
        3
176
     1
 90
        0
176
     1
 90
        0
176
     1
290
     0
176
     1
 90
       13
176
     1
 40
0.0
176
     1
 90
        0
176
     1
290
     0
176
     1
290
     1
176
     1
290
     1
176
     1
290
     0
176
     1
290
     0
176
     1
290
     0
176
     1
290
     0
176
     1
290
     0
176
     1
290
     0
176
     1
 90
       50
176
     1
 40
0.0
176
     1
 40
1.0
176
     1
 90
        0
176
     1
 62
    18
420
        0
176
     1
 90
       50
176
     1
 90
        3
176
     1
 62
     5
420
      255
176
     1
290
     0
176
     1
 90
       50
176
     1
 90
       50
176
     1
 90
       50
176
     1
290
     0
176
     1
 90
       50
176
     1
 62
   256
176
     0
 40
1.0
176
     0
 90
        2
176
     1
  1
strokes_ogs.tif
176
     1
290
     0
176
     1
 40
1.0
176
     1
 40
1.0
176
     1
  0
VISUALSTYLE
  5
42
102
{ACAD_REACTORS
330
2A
102
}
330
2A
100
AcDbVisualStyle
  2
Shaded
 70
    27
177
     3
291
     0
 70
    58
 90
        2
176
     1
 90
        2
176
     1
 90
        1
176
     1
 90
        2
176
     1
 40
0.6
176
     1
 40
30.0
176
     1
 62
     7
420
 16777215
176
     1
 90
        0
176
     1
 90
        4
176
     1
 62
     7
176
     1
 62
   257
176
     1
 90
        1
176
     1
 90
        1
176
     1
 40
1.0
176
     1
 90
        8
176
     1
 62
   257
176
     1
 40
1.0
176
     1
 90
        1
176
     1
 90
        6
176
     1
 90
        2
176
     1
 62
     8
420
  7895160
176
     1
 90
        3
176
     1
 90
        0
176
     1
 90
        0
176
     1
290
     0
176
     1
 90
        5
176
     1
 40
0.0
176
     1
 90
        0
176
     1
290
     0
176
     1
290
     1
176
     1
290
     1
176
     1
290
     0
176
     1
290
     0
176
     1
290
     0
176
     1
290
     0
176
     1
290
     0
176
     1
290
     0
176
     1
 90
       50
176
     1
 40
0.0
176
     1
 40
1.0
176
     1
 90
        0
176
     1
 62
    18
420
        0
176
     1
 90
       50
176
     1
 90
        3
176
     1
 62
     5
420
      255
176
     1
290
     0
176
     1
 90
       50
176
     1
 90
       50
176
     1
 90
       50
176
     1
290
     0
176
     1
 90
       50
176
     1
 62
   256
176
     0
 40
1.0
176
     0
 90
        2
176
     1
  1
strokes_ogs.tif
176
     1
290
     0
176
     1
 40
1.0
176
     1
 40
1.0
176
     1
  0
VISUALSTYLE
  5
41
102
{ACAD_REACTORS
330
2A
102
}
330
2A
100
AcDbVisualStyle
  2
Shaded with edges
 70
    26
177
     3
291
     0
 70
    58
 90
        2
176
     1
 90
        2
176
     1
 90
        1
176
     1
 90
        2
176
     1
 40
0.6
176
     1
 40
30.0
176
     1
 62
     7
420
 16777215
176
     1
 90
        1
176
     1
 90
       10
176
     1
 62
     7
176
     1
 62
   257
176
     1
 90
        2
176
     1
 90
        1
176
     1
 40
1.0
176
     1
 90
        8
176
     1
 62
   257
176
     1
 40
1.0
176
     1
 90
        1
176
     1
 90
        6
176
     1
 90
        2
176
     1
 62
     7
176
     1
 90
        3
176
     1
 90
        0
176
     1
 90
        0
176
     1
290
     0
176
     1
 90
        5
176
     1
 40
0.0
176
     1
 90
        0
176
     1
290
     0
176
     1
290
     1
176
     1
290
     1
176
     1
290
     0
176
     1
290
     0
176
     1
290
     0
176
     1
290
     0
176
     1
290
     0
176
     1
290
     0
176
     1
 90
       50
176
     1
 40
0.0
176
     1
 40
1.0
176
     1
 90
        0
176
     1
 62
    18
420
        0
176
     1
 90
       50
176
     1
 90
        3
176
     1
 62
     5
420
      255
176
     1
290
     0
176
     1
 90
       50
176
     1
 90
       50
176
     1
 90
       50
176
     1
290
     0
176
     1
 90
       50
176
     1
 62
   256
176
     0
 40
1.0
176
     0
 90
        2
176
     1
  1
strokes_ogs.tif
176
     1
290
     0
176
     1
 40
1.0
176
     1
 40
1.0
176
     1
  0
VISUALSTYLE
  5
3E
102
{ACAD_REACTORS
330
2A
102
}
330
2A
100
AcDbVisualStyle
  2
Shades of Gray
 70
    23
177
     3
291
     0
 70
    58
 90
        2
176
     1
 90
        2
176
     1
 90
        3
176
     1
 90
        0
176
     1
 40
0.6
176
     1
 40
30.0
176
     1
 62
     7
420
 16777215
176
     1
 90
        2
176
     1
 90
        2
176
     1
 62
     7
176
     1
 62
     7
176
     1
 90
        1
176
     1
 90
        1
176
     1
 40
40.0
176
     1
 90
        8
176
     1
 62
     7
176
     1
 40
1.0
176
     1
 90
        1
176
     1
 90
        6
176
     1
 90
        2
176
     1
 62
     7
176
     1
 90
        3
176
     1
 90
        0
176
     1
 90
        0
176
     1
290
     0
176
     1
 90
        1
176
     1
 40
0.0
176
     1
 90
        0
176
     1
290
     0
176
     1
290
     1
176
     1
290
     1
176
     1
290
     0
176
     1
290
     0
176
     1
290
     0
176
     1
290
     0
176
     1
290
     0
176
     1
290
     0
176
     1
 90
       50
176
     1
 40
0.0
176
     1
 40
1.0
176
     1
 90
        0
176
     1
 62
    18
420
        0
176
     1
 90
       50
176
     1
 90
        3
176
     1
 62
     5
420
      255
176
     1
290
     0
176
     1
 90
       50
176
     1
 90
       50
176
     1
 90
       50
176
     1
290
     0
176
     1
 90
       50
176
     1
 62
   256
176
     0
 40
1.0
176
     0
 90
        2
176
     1
  1
strokes_ogs.tif
176
     1
290
     0
176
     1
 40
1.0
176
     1
 40
1.0
176
     1
  0
VISUALSTYLE
  5
3F
102
{ACAD_REACTORS
330
2A
102
}
330
2A
100
AcDbVisualStyle
  2
Sketchy
 70
    24
177
     3
291
     0
 70
    58
 90
        1
176
     1
 90
        2
176
     1
 90
        2
176
     1
 90
        0
176
     1
 40
0.6
176
     1
 40
30.0
176
     1
 62
     7
420
 16777215
176
     1
 90
        2
176
     1
 90
        2
176
     1
 62
     7
176
     1
 62
     7
176
     1
 90
        1
176
     1
 90
        1
176
     1
 40
40.0
176
     1
 90
       11
176
     1
 62
     7
176
     1
 40
1.0
176
     1
 90
        1
176
     1
 90
        6
176
     1
 90
        2
176
     1
 62
     7
176
     1
 90
        6
176
     1
 90
        0
176
     1
 90
        0
176
     1
290
     0
176
     1
 90
        1
176
     1
 40
0.0
176
     1
 90
        0
176
     1
290
     0
176
     1
290
     1
176
     1
290
     1
176
     1
290
     0
176
     1
290
     0
176
     1
290
     0
176
     1
290
     0
176
     1
290
     0
176
     1
290
     0
176
     1
 90
       50
176
     1
 40
0.0
176
     1
 40
1.0
176
     1
 90
        0
176
     1
 62
    18
420
        0
176
     1
 90
       50
176
     1
 90
        3
176
     1
 62
     5
420
      255
176
     1
290
     0
176
     1
 90
       50
176
     1
 90
       50
176
     1
 90
       50
176
     1
290
     0
176
     1
 90
       50
176
     1
 62
   256
176
     0
 40
1.0
176
     0
 90
        2
176
     1
  1
strokes_ogs.tif
176
     1
290
     0
176
     1
 40
1.0
176
     1
 40
1.0
176
     1
  0
VISUALSTYLE
  5
37
102
{ACAD_REACTORS
330
2A
102
}
330
2A
100
AcDbVisualStyle
  2
Thicken
 70
    13
177
     3
291
     1
 70
    58
 90
        2
176
     1
 90
        2
176
     1
 90
        0
176
     1
 90
        0
176
     1
 40
0.6
176
     1
 40
30.0
176
     1
 62
     7
420
 16777215
176
     1
 90
        1
176
     1
 90
        4
176
     1
 62
     7
176
     1
 62
   257
176
     1
 90
        1
176
     1
 90
        1
176
     1
 40
1.0
176
     1
 90
       12
176
     1
 62
     7
176
     1
 40
1.0
176
     1
 90
        1
176
     1
 90
        6
176
     1
 90
        2
176
     1
 62
     7
176
     1
 90
        5
176
     1
 90
        0
176
     1
 90
        0
176
     1
290
     0
176
     1
 90
        1
176
     1
 40
0.0
176
     1
 90
        0
176
     1
290
     0
176
     1
290
     1
176
     1
290
     1
176
     1
290
     0
176
     1
290
     0
176
     1
290
     0
176
     1
290
     0
176
     1
290
     0
176
     1
290
     0
176
     1
 90
       50
176
     1
 40
0.0
176
     1
 40
1.0
176
     1
 90
        0
176
     1
 62
    18
420
        0
176
     1
 90
       50
176
     1
 90
        3
176
     1
 62
     5
420
      255
176
     1
290
     0
176
     1
 90
       50
176
     1
 90
       50
176
     1
 90
       50
176
     1
290
     0
176
     1
 90
       50
176
     1
 62
   256
176
     0
 40
1.0
176
     0
 90
        2
176
     1
  1
strokes_ogs.tif
176
     1
290
     0
176
     1
 40
1.0
176
     1
 40
1.0
176
     1
  0
VISUALSTYLE
  5
30
102
{ACAD_REACTORS
330
2A
102
}
330
2A
100
AcDbVisualStyle
  2
Wireframe
 70
     5
177
     3
291
     0
 70
    58
 90
        0
176
     1
 90
        2
176
     1
 90
        0
176
     1
 90
        0
176
     1
 40
0.6
176
     1
 40
30.0
176
     1
 62
     7
420
 16777215
176
     1
 90
        1
176
     1
 90
        4
176
     1
 62
     7
176
     1
 62
   257
176
     1
 90
        1
176
     1
 90
        1
176
     1
 40
1.0
176
     1
 90
        0
176
     1
 62
   257
176
     1
 40
1.0
176
     1
 90
        1
176
     1
 90
        6
176
     1
 90
        2
176
     1
 62
     7
176
     1
 90
        3
176
     1
 90
        0
176
     1
 90
        0
176
     1
290
     0
176
     1
 90
        1
176
     1
 40
0.0
176
     1
 90
        0
176
     1
290
     0
176
     1
290
     1
176
     1
290
     1
176
     1
290
     0
176
     1
290
     0
176
     1
290
     0
176
     1
290
     0
176
     1
290
     0
176
     1
290
     0
176
     1
 90
       50
176
     1
 40
0.0
176
     1
 40
1.0
176
     1
 90
        0
176
     1
 62
    18
420
        0
176
     1
 90
       50
176
     1
 90
        3
176
     1
 62
     5
420
      255
176
     1
290
     0
176
     1
 90
       50
176
     1
 90
       50
176
     1
 90
       50
176
     1
290
     0
176
     1
 90
       50
176
     1
 62
   256
176
     0
 40
1.0
176
     0
 90
        2
176
     1
  1
strokes_ogs.tif
176
     1
290
     0
176
     1
 40
1.0
176
     1
 40
1.0
176
     1
  0
VISUALSTYLE
  5
40
102
{ACAD_REACTORS
330
2A
102
}
330
2A
100
AcDbVisualStyle
  2
X-Ray
 70
    25
177
     3
291
     0
 70
    58
 90
        2
176
     1
 90
        2
176
     1
 90
        1
176
     1
 90
        1
176
     1
 40
0.5
176
     1
 40
30.0
176
     1
 62
     7
420
 16777215
176
     1
 90
        1
176
     1
 90
        0
176
     1
 62
     7
176
     1
 62
   257
176
     1
 90
        1
176
     1
 90
        1
176
     1
 40
1.0
176
     1
 90
        8
176
     1
 62
     7
176
     1
 40
1.0
176
     1
 90
        1
176
     1
 90
        6
176
     1
 90
        2
176
     1
 62
     7
176
     1
 90
        3
176
     1
 90
        0
176
     1
 90
        0
176
     1
290
     0
176
     1
 90
       13
176
     1
 40
0.0
176
     1
 90
        0
176
     1
290
     0
176
     1
290
     1
176
     1
290
     1
176
     1
290
     0
176
     1
290
     0
176
     1
290
     0
176
     1
290
     0
176
     1
290
     0
176
     1
290
     0
176
     1
 90
       50
176
     1
 40
0.0
176
     1
 40
1.0
176
     1
 90
        0
176
     1
 62
    18
420
        0
176
     1
 90
       50
176
     1
 90
        3
176
     1
 62
     5
420
      255
176
     1
290
     0
176
     1
 90
       50
176
     1
 90
       50
176
     1
 90
       50
176
     1
290
     0
176
     1
 90
       50
176
     1
 62
   256
176
     0
 40
1.0
176
     0
 90
        2
176
     1
  1
strokes_ogs.tif
176
     1
290
     0
176
     1
 40
1.0
176
     1
 40
1.0
176
     1
  0
DICTIONARYVAR
  5
207
102
{ACAD_REACTORS
330
206
102
}
330
206
100
DictionaryVariables
280
     0
  1
1:1
  0
DICTIONARYVAR
  5
20C
102
{ACAD_REACTORS
330
206
102
}
330
206
100
DictionaryVariables
280
     0
  1
Standard
  0
DICTIONARYVAR
  5
20B
102
{ACAD_REACTORS
330
206
102
}
330
206
100
DictionaryVariables
280
     0
  1
Standard
  0
DICTIONARY
  5
208
330
6A
100
AcDbDictionary
280
     1
281
     1
  3
ACAD_ROUNDTRIP_2008_TABLESTYLE_CELLSTYLEMAP
360
209
  0
CELLSTYLEMAP
  5
209
102
{ACAD_REACTORS
330
208
102
}
330
208
100
AcDbCellStyleMap
 90
        3
300
CELLSTYLE
  1
TABLEFORMAT_BEGIN
 90
        5
170
     1
 91
        0
 92
    32768
 62
   257
 93
        1
300
CONTENTFORMAT
  1
CONTENTFORMAT_BEGIN
 90
        0
 91
        0
 92
        4
 93
        0
300

 40
0.0
140
1.0
 94
        5
 62
     0
340
11
144
0.25
309
CONTENTFORMAT_END
171
     1
301
MARGIN
  1
CELLMARGIN_BEGIN
 40
0.06
 40
0.06
 40
0.06
 40
0.06
 40
0.06
 40
0.06
309
CELLMARGIN_END
 94
        6
 95
        1
302
GRIDFORMAT
  1
GRIDFORMAT_BEGIN
 90
        0
 91
        1
 62
     0
 92
       -2
340
14
 93
        0
 40
0.045
309
GRIDFORMAT_END
 95
        2
302
GRIDFORMAT
  1
GRIDFORMAT_BEGIN
 90
        0
 91
        1
 62
     0
 92
       -2
340
14
 93
        0
 40
0.045
309
GRIDFORMAT_END
 95
        4
302
GRIDFORMAT
  1
GRIDFORMAT_BEGIN
 90
        0
 91
        1
 62
     0
 92
       -2
340
14
 93
        0
 40
0.045
309
GRIDFORMAT_END
 95
        8
302
GRIDFORMAT
  1
GRIDFORMAT_BEGIN
 90
        0
 91
        1
 62
     0
 92
       -2
340
14
 93
        0
 40
0.045
309
GRIDFORMAT_END
 95
       16
302
GRIDFORMAT
  1
GRIDFORMAT_BEGIN
 90
        0
 91
        1
 62
     0
 92
       -2
340
14
 93
        0
 40
0.045
309
GRIDFORMAT_END
 95
       32
302
GRIDFORMAT
  1
GRIDFORMAT_BEGIN
 90
        0
 91
        1
 62
     0
 92
       -2
340
14
 93
        0
 40
0.045
309
GRIDFORMAT_END
309
TABLEFORMAT_END
  1
CELLSTYLE_BEGIN
 90
        1
 91
        1
300
_TITLE
309
CELLSTYLE_END
300
CELLSTYLE
  1
TABLEFORMAT_BEGIN
 90
        5
170
     1
 91
        0
 92
        0
 62
   257
 93
        1
300
CONTENTFORMAT
  1
CONTENTFORMAT_BEGIN
 90
        0
 91
        0
 92
        4
 93
        0
300

 40
0.0
140
1.0
 94
        5
 62
     0
340
11
144
0.18
309
CONTENTFORMAT_END
171
     1
301
MARGIN
  1
CELLMARGIN_BEGIN
 40
0.06
 40
0.06
 40
0.06
 40
0.06
 40
0.06
 40
0.06
309
CELLMARGIN_END
 94
        6
 95
        1
302
GRIDFORMAT
  1
GRIDFORMAT_BEGIN
 90
        0
 91
        1
 62
     0
 92
       -2
340
14
 93
        0
 40
0.045
309
GRIDFORMAT_END
 95
        2
302
GRIDFORMAT
  1
GRIDFORMAT_BEGIN
 90
        0
 91
        1
 62
     0
 92
       -2
340
14
 93
        0
 40
0.045
309
GRIDFORMAT_END
 95
        4
302
GRIDFORMAT
  1
GRIDFORMAT_BEGIN
 90
        0
 91
        1
 62
     0
 92
       -2
340
14
 93
        0
 40
0.045
309
GRIDFORMAT_END
 95
        8
302
GRIDFORMAT
  1
GRIDFORMAT_BEGIN
 90
        0
 91
        1
 62
     0
 92
       -2
340
14
 93
        0
 40
0.045
309
GRIDFORMAT_END
 95
       16
302
GRIDFORMAT
  1
GRIDFORMAT_BEGIN
 90
        0
 91
        1
 62
     0
 92
       -2
340
14
 93
        0
 40
0.045
309
GRIDFORMAT_END
 95
       32
302
GRIDFORMAT
  1
GRIDFORMAT_BEGIN
 90
        0
 91
        1
 62
     0
 92
       -2
340
14
 93
        0
 40
0.045
309
GRIDFORMAT_END
309
TABLEFORMAT_END
  1
CELLSTYLE_BEGIN
 90
        2
 91
        1
300
_HEADER
309
CELLSTYLE_END
300
CELLSTYLE
  1
TABLEFORMAT_BEGIN
 90
        5
170
     1
 91
        0
 92
        0
 62
   257
 93
        1
300
CONTENTFORMAT
  1
CONTENTFORMAT_BEGIN
 90
        0
 91
        0
 92
        4
 93
        0
300

 40
0.0
140
1.0
 94
        2
 62
     0
340
11
144
0.18
309
CONTENTFORMAT_END
171
     1
301
MARGIN
  1
CELLMARGIN_BEGIN
 40
0.06
 40
0.06
 40
0.06
 40
0.06
 40
0.06
 40
0.06
309
CELLMARGIN_END
 94
        6
 95
        1
302
GRIDFORMAT
  1
GRIDFORMAT_BEGIN
 90
        0
 91
        1
 62
     0
 92
       -2
340
14
 93
        0
 40
0.045
309
GRIDFORMAT_END
 95
        2
302
GRIDFORMAT
  1
GRIDFORMAT_BEGIN
 90
        0
 91
        1
 62
     0
 92
       -2
340
14
 93
        0
 40
0.045
309
GRIDFORMAT_END
 95
        4
302
GRIDFORMAT
  1
GRIDFORMAT_BEGIN
 90
        0
 91
        1
 62
     0
 92
       -2
340
14
 93
        0
 40
0.045
309
GRIDFORMAT_END
 95
        8
302
GRIDFORMAT
  1
GRIDFORMAT_BEGIN
 90
        0
 91
        1
 62
     0
 92
       -2
340
14
 93
        0
 40
0.045
309
GRIDFORMAT_END
 95
       16
302
GRIDFORMAT
  1
GRIDFORMAT_BEGIN
 90
        0
 91
        1
 62
     0
 92
       -2
340
14
 93
        0
 40
0.045
309
GRIDFORMAT_END
 95
       32
302
GRIDFORMAT
  1
GRIDFORMAT_BEGIN
 90
        0
 91
        1
 62
     0
 92
       -2
340
14
 93
        0
 40
0.045
309
GRIDFORMAT_END
309
TABLEFORMAT_END
  1
CELLSTYLE_BEGIN
 90
        3
 91
        2
300
_DATA
309
CELLSTYLE_END
  0
ENDSEC
  0
EOF