0
SECTION
  2
HEADER
  9
$ACADVER
  1
AC1027
  9
$ACADMAINTVER
 70
     8
  9
$DWGCODEPAGE
  3
ANSI_1252
  9
$REQUIREDVERSIONS
160
                 0
  9
$COMMENTS
  1
File was created by Cadenas
  9
$CUSTOMPROPERTYTAG
  1
NN
  9
$CUSTOMPROPERTY
  1
S-2000 Pillow Block 2-Bolt Inch Bore (Labyrinth Seal)
  9
$CUSTOMPROPERTYTAG
  1
NT
  9
$CUSTOMPROPERTY
  1
S-2000 Pillow Block Bearing -Inch (2-Bolt Base)
  9
$CUSTOMPROPERTYTAG
  1
NB
  9
$CUSTOMPROPERTY
  1
070336
  9
$CUSTOMPROPERTYTAG
  1
NBSYN
  9
$CUSTOMPROPERTY
  1
$PN.
  9
$CUSTOMPROPERTYTAG
  1
LINA
  9
$CUSTOMPROPERTY
  1
070336
  9
$CUSTOMPROPERTYTAG
  1
SS
  9
$CUSTOMPROPERTY
  1
3-15/16
  9
$CUSTOMPROPERTYTAG
  1
PN
  9
$CUSTOMPROPERTY
  1
070336
  9
$CUSTOMPROPERTYTAG
  1
DESCRIPTION
  9
$CUSTOMPROPERTY
  1
P2B-S2-315L
  9
$CUSTOMPROPERTYTAG
  1
EF
  9
$CUSTOMPROPERTY
  1
Non-Expansion Type
  9
$CUSTOMPROPERTYTAG
  1
ST
  9
$CUSTOMPROPERTY
  1
Labyrinth Type
  9
$CUSTOMPROPERTYTAG
  1
A
  9
$CUSTOMPROPERTY
  1
4-15/32
  9
$CUSTOMPROPERTYTAG
  1
B
  9
$CUSTOMPROPERTY
  1
15-1/4
  9
$CUSTOMPROPERTYTAG
  1
C
  9
$CUSTOMPROPERTY
  1
3-29/32
  9
$CUSTOMPROPERTYTAG
  1
DMIN
  9
$CUSTOMPROPERTY
  1
10-5/8
  9
$CUSTOMPROPERTYTAG
  1
DMAX
  9
$CUSTOMPROPERTY
  1
12-7/8
  9
$CUSTOMPROPERTYTAG
  1
F
  9
$CUSTOMPROPERTY
  1
1
  9
$CUSTOMPROPERTYTAG
  1
G
  9
$CUSTOMPROPERTY
  1
2-1/4
  9
$CUSTOMPROPERTYTAG
  1
H
  9
$CUSTOMPROPERTY
  1
2-7/16
  9
$CUSTOMPROPERTYTAG
  1
J
  9
$CUSTOMPROPERTY
  1
8-3/8
  9
$CUSTOMPROPERTYTAG
  1
L
  9
$CUSTOMPROPERTY
  1
6
  9
$CUSTOMPROPERTYTAG
  1
M
  9
$CUSTOMPROPERTY
  1
4-1/4
  9
$CUSTOMPROPERTYTAG
  1
R
  9
$CUSTOMPROPERTY
  1
1-41/64
  9
$CUSTOMPROPERTYTAG
  1
S
  9
$CUSTOMPROPERTY
  1
2-53/64
  9
$CUSTOMPROPERTYTAG
  1
X
  9
$CUSTOMPROPERTY
  1
5/16
  9
$CUSTOMPROPERTYTAG
  1
Y
  9
$CUSTOMPROPERTY
  1
0.025
  9
$CUSTOMPROPERTYTAG
  1
Z
  9
$CUSTOMPROPERTY
  1
4-1/2
  9
$CUSTOMPROPERTYTAG
  1
COMPANY
  9
$CUSTOMPROPERTY
  1
baldor
  9
$INSBASE
 10
0.0
 20
0.0
 30
0.0
  9
$EXTMIN
 10
1.000000000000000E+20
 20
1.000000000000000E+20
 30
1.000000000000000E+20
  9
$EXTMAX
 10
-1.000000000000000E+20
 20
-1.000000000000000E+20
 30
-1.000000000000000E+20
  9
$LIMMIN
 10
0.0
 20
0.0
  9
$LIMMAX
 10
12.0
 20
9.0
  9
$ORTHOMODE
 70
     0
  9
$REGENMODE
 70
     1
  9
$FILLMODE
 70
     1
  9
$QTEXTMODE
 70
     0
  9
$MIRRTEXT
 70
     1
  9
$LTSCALE
 40
1.0
  9
$ATTMODE
 70
     1
  9
$TEXTSIZE
 40
0.2
  9
$TRACEWID
 40
0.05
  9
$TEXTSTYLE
  7
Standard
  9
$CLAYER
  8
0
  9
$CELTYPE
  6
ByLayer
  9
$CECOLOR
 62
   256
  9
$CELTSCALE
 40
1.0
  9
$DISPSILH
 70
     0
  9
$DIMSCALE
 40
1.0
  9
$DIMASZ
 40
0.18
  9
$DIMEXO
 40
0.0625
  9
$DIMDLI
 40
0.38
  9
$DIMRND
 40
0.0
  9
$DIMDLE
 40
0.0
  9
$DIMEXE
 40
0.18
  9
$DIMTP
 40
0.0
  9
$DIMTM
 40
0.0
  9
$DIMTXT
 40
0.18
  9
$DIMCEN
 40
0.09
  9
$DIMTSZ
 40
0.0
  9
$DIMTOL
 70
     0
  9
$DIMLIM
 70
     0
  9
$DIMTIH
 70
     1
  9
$DIMTOH
 70
     1
  9
$DIMSE1
 70
     0
  9
$DIMSE2
 70
     0
  9
$DIMTAD
 70
     0
  9
$DIMZIN
 70
     0
  9
$DIMBLK
  1

  9
$DIMASO
 70
     1
  9
$DIMSHO
 70
     1
  9
$DIMPOST
  1

  9
$DIMAPOST
  1

  9
$DIMALT
 70
     0
  9
$DIMALTD
 70
     2
  9
$DIMALTF
 40
25.4
  9
$DIMLFAC
 40
1.0
  9
$DIMTOFL
 70
     0
  9
$DIMTVP
 40
0.0
  9
$DIMTIX
 70
     0
  9
$DIMSOXD
 70
     0
  9
$DIMSAH
 70
     0
  9
$DIMBLK1
  1

  9
$DIMBLK2
  1

  9
$DIMSTYLE
  2
Standard
  9
$DIMCLRD
 70
     0
  9
$DIMCLRE
 70
     0
  9
$DIMCLRT
 70
     0
  9
$DIMTFAC
 40
1.0
  9
$DIMGAP
 40
0.09
  9
$DIMJUST
 70
     0
  9
$DIMSD1
 70
     0
  9
$DIMSD2
 70
     0
  9
$DIMTOLJ
 70
     1
  9
$DIMTZIN
 70
     0
  9
$DIMALTZ
 70
     0
  9
$DIMALTTZ
 70
     0
  9
$DIMUPT
 70
     0
  9
$DIMDEC
 70
     4
  9
$DIMTDEC
 70
     4
  9
$DIMALTU
 70
     2
  9
$DIMALTTD
 70
     2
  9
$DIMTXSTY
  7
Standard
  9
$DIMAUNIT
 70
     0
  9
$DIMADEC
 70
     0
  9
$DIMALTRND
 40
0.0
  9
$DIMAZIN
 70
     0
  9
$DIMDSEP
 70
    46
  9
$DIMATFIT
 70
     3
  9
$DIMFRAC
 70
     0
  9
$DIMLDRBLK
  1

  9
$DIMLUNIT
 70
     2
  9
$DIMLWD
 70
    -2
  9
$DIMLWE
 70
    -2
  9
$DIMTMOVE
 70
     0
  9
$DIMFXL
 40
1.0
  9
$DIMFXLON
 70
     0
  9
$DIMJOGANG
 40
0.7853981633974483
  9
$DIMTFILL
 70
     0
  9
$DIMTFILLCLR
 70
     0
  9
$DIMARCSYM
 70
     0
  9
$DIMLTYPE
  6

  9
$DIMLTEX1
  6

  9
$DIMLTEX2
  6

  9
$DIMTXTDIRECTION
 70
     0
  9
$LUNITS
 70
     2
  9
$LUPREC
 70
     4
  9
$SKETCHINC
 40
0.1
  9
$FILLETRAD
 40
0.5
  9
$AUNITS
 70
     0
  9
$AUPREC
 70
     0
  9
$MENU
  1
.
  9
$ELEVATION
 40
0.0
  9
$PELEVATION
 40
0.0
  9
$THICKNESS
 40
0.0
  9
$LIMCHECK
 70
     0
  9
$CHAMFERA
 40
0.0
  9
$CHAMFERB
 40
0.0
  9
$CHAMFERC
 40
0.0
  9
$CHAMFERD
 40
0.0
  9
$SKPOLY
 70
     0
  9
$TDCREATE
 40
2458168.984990058
  9
$TDUCREATE
 40
2458168.943323391
  9
$TDUPDATE
 40
2458168.984990243
  9
$TDUUPDATE
 40
2458168.943323576
  9
$TDINDWG
 40
0.0000000116
  9
$TDUSRTIMER
 40
0.0000000116
  9
$USRTIMER
 70
     1
  9
$ANGBASE
 50
0.0
  9
$ANGDIR
 70
     0
  9
$PDMODE
 70
     0
  9
$PDSIZE
 40
0.0
  9
$PLINEWID
 40
0.0
  9
$SPLFRAME
 70
     0
  9
$SPLINETYPE
 70
     6
  9
$SPLINESEGS
 70
     8
  9
$HANDSEED
  5
1F4
  9
$SURFTAB1
 70
     6
  9
$SURFTAB2
 70
     6
  9
$SURFTYPE
 70
     6
  9
$SURFU
 70
     6
  9
$SURFV
 70
     6
  9
$UCSBASE
  2

  9
$UCSNAME
  2

  9
$UCSORG
 10
0.0
 20
0.0
 30
0.0
  9
$UCSXDIR
 10
1.0
 20
0.0
 30
0.0
  9
$UCSYDIR
 10
0.0
 20
1.0
 30
0.0
  9
$UCSORTHOREF
  2

  9
$UCSORTHOVIEW
 70
     0
  9
$UCSORGTOP
 10
0.0
 20
0.0
 30
0.0
  9
$UCSORGBOTTOM
 10
0.0
 20
0.0
 30
0.0
  9
$UCSORGLEFT
 10
0.0
 20
0.0
 30
0.0
  9
$UCSORGRIGHT
 10
0.0
 20
0.0
 30
0.0
  9
$UCSORGFRONT
 10
0.0
 20
0.0
 30
0.0
  9
$UCSORGBACK
 10
0.0
 20
0.0
 30
0.0
  9
$PUCSBASE
  2

  9
$PUCSNAME
  2

  9
$PUCSORG
 10
0.0
 20
0.0
 30
0.0
  9
$PUCSXDIR
 10
1.0
 20
0.0
 30
0.0
  9
$PUCSYDIR
 10
0.0
 20
1.0
 30
0.0
  9
$PUCSORTHOREF
  2

  9
$PUCSORTHOVIEW
 70
     0
  9
$PUCSORGTOP
 10
0.0
 20
0.0
 30
0.0
  9
$PUCSORGBOTTOM
 10
0.0
 20
0.0
 30
0.0
  9
$PUCSORGLEFT
 10
0.0
 20
0.0
 30
0.0
  9
$PUCSORGRIGHT
 10
0.0
 20
0.0
 30
0.0
  9
$PUCSORGFRONT
 10
0.0
 20
0.0
 30
0.0
  9
$PUCSORGBACK
 10
0.0
 20
0.0
 30
0.0
  9
$USERI1
 70
     0
  9
$USERI2
 70
     0
  9
$USERI3
 70
     0
  9
$USERI4
 70
     0
  9
$USERI5
 70
     0
  9
$USERR1
 40
0.0
  9
$USERR2
 40
0.0
  9
$USERR3
 40
0.0
  9
$USERR4
 40
0.0
  9
$USERR5
 40
0.0
  9
$WORLDVIEW
 70
     1
  9
$SHADEDGE
 70
     3
  9
$SHADEDIF
 70
    70
  9
$TILEMODE
 70
     1
  9
$MAXACTVP
 70
    64
  9
$PINSBASE
 10
0.0
 20
0.0
 30
0.0
  9
$PLIMCHECK
 70
     0
  9
$PEXTMIN
 10
1.000000000000000E+20
 20
1.000000000000000E+20
 30
1.000000000000000E+20
  9
$PEXTMAX
 10
-1.000000000000000E+20
 20
-1.000000000000000E+20
 30
-1.000000000000000E+20
  9
$PLIMMIN
 10
0.0
 20
0.0
  9
$PLIMMAX
 10
12.0
 20
9.0
  9
$UNITMODE
 70
     0
  9
$VISRETAIN
 70
     1
  9
$PLINEGEN
 70
     0
  9
$PSLTSCALE
 70
     1
  9
$TREEDEPTH
 70
  3020
  9
$CMLSTYLE
  2
Standard
  9
$CMLJUST
 70
     0
  9
$CMLSCALE
 40
1.0
  9
$PROXYGRAPHICS
 70
     1
  9
$MEASUREMENT
 70
     0
  9
$CELWEIGHT
370
    -1
  9
$ENDCAPS
280
     0
  9
$JOINSTYLE
280
     0
  9
$LWDISPLAY
290
     0
  9
$INSUNITS
 70
     1
  9
$HYPERLINKBASE
  1

  9
$STYLESHEET
  1

  9
$XEDIT
290
     1
  9
$CEPSNTYPE
380
     0
  9
$PSTYLEMODE
290
     1
  9
$FINGERPRINTGUID
  2
{D07256B2-F275-422F-851F-79995780C2B0}
  9
$VERSIONGUID
  2
{FAEB1C32-E019-11D5-929B-00C0DF256EC4}
  9
$EXTNAMES
290
     1
  9
$PSVPSCALE
 40
0.0
  9
$OLESTARTUP
290
     0
  9
$SORTENTS
280
   127
  9
$INDEXCTL
280
     0
  9
$HIDETEXT
280
     1
  9
$XCLIPFRAME
280
     2
  9
$HALOGAP
280
     0
  9
$OBSCOLOR
 70
   257
  9
$OBSLTYPE
280
     0
  9
$INTERSECTIONDISPLAY
280
     0
  9
$INTERSECTIONCOLOR
 70
   257
  9
$DIMASSOC
280
     2
  9
$PROJECTNAME
  1

  9
$CAMERADISPLAY
290
     0
  9
$LENSLENGTH
 40
50.0
  9
$CAMERAHEIGHT
 40
0.0
  9
$STEPSPERSEC
 40
2.0
  9
$STEPSIZE
 40
6.0
  9
$3DDWFPREC
 40
2.0
  9
$PSOLWIDTH
 40
0.25
  9
$PSOLHEIGHT
 40
4.0
  9
$LOFTANG1
 40
1.570796326794897
  9
$LOFTANG2
 40
1.570796326794897
  9
$LOFTMAG1
 40
0.0
  9
$LOFTMAG2
 40
0.0
  9
$LOFTPARAM
 70
     7
  9
$LOFTNORMALS
280
     1
  9
$LATITUDE
 40
37.795
  9
$LONGITUDE
 40
-122.394
  9
$NORTHDIRECTION
 40
0.0
  9
$TIMEZONE
 70
 -8000
  9
$LIGHTGLYPHDISPLAY
280
     1
  9
$TILEMODELIGHTSYNCH
280
     1
  9
$CMATERIAL
347
44
  9
$SOLIDHIST
280
     0
  9
$SHOWHIST
280
     1
  9
$DWFFRAME
280
     2
  9
$DGNFRAME
280
     2
  9
$REALWORLDSCALE
290
     1
  9
$INTERFERECOLOR
 62
   256
  9
$CSHADOW
280
     0
  9
$SHADOWPLANELOCATION
 40
0.0
  0
ENDSEC
  0
SECTION
  2
CLASSES
  0
CLASS
  1
ACDBDICTIONARYWDFLT
  2
AcDbDictionaryWithDefault
  3
ObjectDBX Classes
 90
        0
 91
        4
280
     0
281
     0
  0
CLASS
  1
VISUALSTYLE
  2
AcDbVisualStyle
  3
ObjectDBX Classes
 90
     4095
 91
        4
280
     0
281
     0
  0
CLASS
  1
MATERIAL
  2
AcDbMaterial
  3
ObjectDBX Classes
 90
     1153
 91
        4
280
     0
281
     0
  0
CLASS
  1
SCALE
  2
AcDbScale
  3
ObjectDBX Classes
 90
     1153
 91
        4
280
     0
281
     0
  0
CLASS
  1
TABLESTYLE
  2
AcDbTableStyle
  3
ObjectDBX Classes
 90
     4095
 91
        4
280
     0
281
     0
  0
CLASS
  1
MLEADERSTYLE
  2
AcDbMLeaderStyle
  3
ACDB_MLEADERSTYLE_CLASS
 90
     4095
 91
        4
280
     0
281
     0
  0
CLASS
  1
SUN
  2
AcDbSun
  3
SCENEOE
 90
     1153
 91
        4
280
     0
281
     0
  0
CLASS
  1
DICTIONARYVAR
  2
AcDbDictionaryVar
  3
ObjectDBX Classes
 90
        0
 91
        4
280
     0
281
     0
  0
CLASS
  1
CELLSTYLEMAP
  2
AcDbCellStyleMap
  3
ObjectDBX Classes
 90
     1152
 91
        4
280
     0
281
     0
  0
ENDSEC
  0
SECTION
  2
TABLES
  0
TABLE
  2
VPORT
  5
8
330
0
100
AcDbSymbolTable
 70
     1
  0
VPORT
  5
29
330
8
100
AcDbSymbolTableRecord
100
AcDbViewportTableRecord
  2
*Active
 70
     0
 10
0.0
 20
0.0
 11
1.0
 21
1.0
 12
0.0
 22
-0.1018593750000001
 13
0.0
 23
0.0
 14
0.5
 24
0.5
 15
0.5
 25
0.5
 16
0.0
 26
0.0
 36
1.0
 17
0.0
 27
0.0
 37
0.0
 40
6.018988125000001
 41
2.584321430273631
 42
50.0
 43
0.0
 44
0.0
 50
0.0
 51
0.0
 71
     0
 72
   100
 73
     1
 74
     3
 75
     0
 76
     0
 77
     0
 78
     0
281
     0
 65
     1
110
0.0
120
0.0
130
0.0
111
1.0
121
0.0
131
0.0
112
0.0
122
1.0
132
0.0
 79
     0
146
0.0
348
2F
 60
     3
 61
     5
292
     1
282
     1
141
0.0
142
0.0
 63
   250
361
6D
  0
ENDTAB
  0
TABLE
  2
LTYPE
  5
5
330
0
100
AcDbSymbolTable
 70
     3
  0
LTYPE
  5
14
330
5
100
AcDbSymbolTableRecord
100
AcDbLinetypeTableRecord
  2
ByBlock
 70
     0
  3

 72
    65
 73
     0
 40
0.0
  0
LTYPE
  5
15
330
5
100
AcDbSymbolTableRecord
100
AcDbLinetypeTableRecord
  2
ByLayer
 70
     0
  3

 72
    65
 73
     0
 40
0.0
  0
LTYPE
  5
16
330
5
100
AcDbSymbolTableRecord
100
AcDbLinetypeTableRecord
  2
Continuous
 70
     0
  3
Solid line
 72
    65
 73
     0
 40
0.0
  0
LTYPE
  5
A7
330
5
100
AcDbSymbolTableRecord
100
AcDbLinetypeTableRecord
  2
Dashed
 70
     0
  3

 72
    65
 73
     2
 40
2.0
 49
1.0
 74
     0
 49
-1.0
 74
     0
  0
LTYPE
  5
BC
330
5
100
AcDbSymbolTableRecord
100
AcDbLinetypeTableRecord
  2
Center
 70
     0
  3

 72
    65
 73
     4
 40
1.5
 49
0.45
 74
     0
 49
-0.5
 74
     0
 49
0.05
 74
     0
 49
-0.5
 74
     0
  0
ENDTAB
  0
TABLE
  2
LAYER
  5
2
330
0
100
AcDbSymbolTable
 70
     7
  0
LAYER
  5
10
330
2
100
AcDbSymbolTableRecord
100
AcDbLayerTableRecord
  2
0
 70
     0
 62
     7
  6
Continuous
370
    -3
390
F
347
46
348
0
  0
LAYER
  5
72
330
2
100
AcDbSymbolTableRecord
100
AcDbLayerTableRecord
  2
AM_6
 70
     0
 62
    -2
  6
Continuous
370
    35
390
F
347
46
348
0
  0
LAYER
  5
A8
330
2
100
AcDbSymbolTableRecord
100
AcDbLayerTableRecord
  2
AM_9
 70
     0
 62
     6
  6
Dashed
370
    25
390
F
347
46
348
0
  0
LAYER
  5
BD
330
2
100
AcDbSymbolTableRecord
100
AcDbLayerTableRecord
  2
AM_7
 70
     0
 62
     7
  6
Center
370
    25
390
F
347
46
348
0
  0
LAYER
  5
BF
330
2
100
AcDbSymbolTableRecord
100
AcDbLayerTableRecord
  2
AM_4
 70
     0
 62
     7
  6
Continuous
370
    50
390
F
347
46
348
0
  0
LAYER
  5
DD
330
2
100
AcDbSymbolTableRecord
100
AcDbLayerTableRecord
  2
AM_5
 70
     0
 62
     3
  6
Continuous
370
    25
390
F
347
46
348
0
  0
LAYER
  5
1E3
330
2
100
AcDbSymbolTableRecord
100
AcDbLayerTableRecord
  2
ConnectionPoints
 70
     0
 62
     7
  6
Continuous
370
    50
390
F
347
46
348
0
  0
ENDTAB
  0
TABLE
  2
STYLE
  5
3
330
0
100
AcDbSymbolTable
 70
     1
  0
STYLE
  5
11
330
3
100
AcDbSymbolTableRecord
100
AcDbTextStyleTableRecord
  2
Standard
 70
     0
 40
0.0
 41
1.0
 50
0.0
 71
     0
 42
0.2
  3
txt
  4

  0
ENDTAB
  0
TABLE
  2
VIEW
  5
6
330
0
100
AcDbSymbolTable
 70
     0
  0
ENDTAB
  0
TABLE
  2
UCS
  5
7
330
0
100
AcDbSymbolTable
 70
     0
  0
ENDTAB
  0
TABLE
  2
APPID
  5
9
330
0
100
AcDbSymbolTable
 70
     1
  0
APPID
  5
12
330
9
100
AcDbSymbolTableRecord
100
AcDbRegAppTableRecord
  2
ACAD
 70
     0
  0
ENDTAB
  0
TABLE
  2
DIMSTYLE
  5
A
330
0
100
AcDbSymbolTable
 70
     1
100
AcDbDimStyleTable
  0
DIMSTYLE
105
27
330
A
100
AcDbSymbolTableRecord
100
AcDbDimStyleTableRecord
  2
Standard
 70
     0
178
     0
340
11
  0
ENDTAB
  0
TABLE
  2
BLOCK_RECORD
  5
1
330
0
100
AcDbSymbolTable
 70
     6
  0
BLOCK_RECORD
  5
1F
330
1
100
AcDbSymbolTableRecord
100
AcDbBlockTableRecord
  2
*Model_Space
340
22
 70
     0
280
     1
281
     0
  0
BLOCK_RECORD
  5
1B
330
1
100
AcDbSymbolTableRecord
100
AcDbBlockTableRecord
  2
*Paper_Space
340
1E
 70
     0
280
     1
281
     0
  0
BLOCK_RECORD
  5
23
330
1
100
AcDbSymbolTableRecord
100
AcDbBlockTableRecord
  2
*Paper_Space0
340
26
 70
     0
280
     1
281
     0
  0
BLOCK_RECORD
  5
6E
330
1
100
AcDbSymbolTableRecord
100
AcDbBlockTableRecord
  2
1_070336_4
340
0
102
{BLKREFS
331
6F
102
}
 70
     0
280
     1
281
     0
  0
BLOCK_RECORD
  5
8E
330
1
100
AcDbSymbolTableRecord
100
AcDbBlockTableRecord
  2
2_3_15_16CS2i_0_in_070336_4
340
0
102
{BLKREFS
331
8F
102
}
 70
     0
280
     1
281
     0
  0
BLOCK_RECORD
  5
DF
330
1
100
AcDbSymbolTableRecord
100
AcDbBlockTableRecord
  2
3_070029i_0_in_070336_4
340
0
102
{BLKREFS
331
E0
102
}
 70
     0
280
     1
281
     0
  0
BLOCK_RECORD
  5
133
330
1
100
AcDbSymbolTableRecord
100
AcDbBlockTableRecord
  2
4_405015E_Inch_0_in_070336_4
340
0
102
{BLKREFS
331
134
102
}
 70
     0
280
     1
281
     0
  0
BLOCK_RECORD
  5
172
330
1
100
AcDbSymbolTableRecord
100
AcDbBlockTableRecord
  2
5_070336H_0_in_070336_4
340
0
102
{BLKREFS
331
173
102
}
 70
     0
280
     1
281
     0
  0
ENDTAB
  0
ENDSEC
  0
SECTION
  2
BLOCKS
  0
BLOCK
  5
20
330
1F
100
AcDbEntity
  8
0
100
AcDbBlockBegin
  2
*Model_Space
 70
     0
 10
0.0
 20
0.0
 30
0.0
  3
*Model_Space
  1

  0
ENDBLK
  5
21
330
1F
100
AcDbEntity
  8
0
100
AcDbBlockEnd
  0
BLOCK
  5
1C
330
1B
100
AcDbEntity
 67
     1
  8
0
100
AcDbBlockBegin
  2
*Paper_Space
 70
     0
 10
0.0
 20
0.0
 30
0.0
  3
*Paper_Space
  1

  0
ENDBLK
  5
1D
330
1B
100
AcDbEntity
 67
     1
  8
0
100
AcDbBlockEnd
  0
BLOCK
  5
24
330
23
100
AcDbEntity
  8
0
100
AcDbBlockBegin
  2
*Paper_Space0
 70
     0
 10
0.0
 20
0.0
 30
0.0
  3
*Paper_Space0
  1

  0
ENDBLK
  5
25
330
23
100
AcDbEntity
  8
0
100
AcDbBlockEnd
  0
BLOCK
  5
70
330
6E
100
AcDbEntity
  8
0
100
AcDbBlockBegin
  2
1_070336_4
 70
     2
 10
0.0
 20
0.0
 30
0.0
  3
1_070336_4
  1

  0
ATTDEF
  5
73
330
6E
100
AcDbEntity
  8
AM_6
100
AcDbText
 10
12.625
 20
2.203525641025641
 30
0.0
 40
0.5
  1
S-2000 Pillow Block 2-Bolt Inch Bore (Labyrinth Seal)
100
AcDbAttributeDefinition
  3

  2
NN
 70
     8
280
     0
  0
ATTDEF
  5
74
330
6E
100
AcDbEntity
  8
AM_6
100
AcDbText
 10
12.625
 20
1.703525641025641
 30
0.0
 40
0.5
  1
S-2000 Pillow Block Bearing -Inch (2-Bolt Base)
100
AcDbAttributeDefinition
  3

  2
NT
 70
     8
280
     0
  0
ATTDEF
  5
75
330
6E
100
AcDbEntity
  8
AM_6
100
AcDbText
 10
12.625
 20
1.203525641025641
 30
0.0
 40
0.5
  1
070336
100
AcDbAttributeDefinition
  3

  2
NB
 70
     8
280
     0
  0
ATTDEF
  5
76
330
6E
100
AcDbEntity
  8
AM_6
100
AcDbText
 10
12.625
 20
0.703525641025641
 30
0.0
 40
0.5
  1
$PN.
100
AcDbAttributeDefinition
  3

  2
NBSYN
 70
     8
280
     0
  0
ATTDEF
  5
77
330
6E
100
AcDbEntity
  8
AM_6
100
AcDbText
 10
12.625
 20
0.203525641025641
 30
0.0
 40
0.5
  1
070336
100
AcDbAttributeDefinition
  3

  2
LINA
 70
     8
280
     0
  0
ATTDEF
  5
78
330
6E
100
AcDbEntity
  8
AM_6
100
AcDbText
 10
12.625
 20
-0.296474358974359
 30
0.0
 40
0.5
  1
3-15/16
100
AcDbAttributeDefinition
  3

  2
SS
 70
     8
280
     0
  0
ATTDEF
  5
79
330
6E
100
AcDbEntity
  8
AM_6
100
AcDbText
 10
12.625
 20
-0.796474358974359
 30
0.0
 40
0.5
  1
070336
100
AcDbAttributeDefinition
  3

  2
PN
 70
     8
280
     0
  0
ATTDEF
  5
7A
330
6E
100
AcDbEntity
  8
AM_6
100
AcDbText
 10
12.625
 20
-1.296474358974359
 30
0.0
 40
0.5
  1
P2B-S2-315L
100
AcDbAttributeDefinition
  3

  2
DESCRIPTION
 70
     8
280
     0
  0
ATTDEF
  5
7B
330
6E
100
AcDbEntity
  8
AM_6
100
AcDbText
 10
12.625
 20
-1.796474358974359
 30
0.0
 40
0.5
  1
Non-Expansion Type
100
AcDbAttributeDefinition
  3

  2
EF
 70
     8
280
     0
  0
ATTDEF
  5
7C
330
6E
100
AcDbEntity
  8
AM_6
100
AcDbText
 10
12.625
 20
-2.296474358974359
 30
0.0
 40
0.5
  1
Labyrinth Type
100
AcDbAttributeDefinition
  3

  2
ST
 70
     8
280
     0
  0
ATTDEF
  5
7D
330
6E
100
AcDbEntity
  8
AM_6
100
AcDbText
 10
12.625
 20
-2.796474358974359
 30
0.0
 40
0.5
  1
4-15/32
100
AcDbAttributeDefinition
  3

  2
A
 70
     8
280
     0
  0
ATTDEF
  5
7E
330
6E
100
AcDbEntity
  8
AM_6
100
AcDbText
 10
12.625
 20
-3.296474358974359
 30
0.0
 40
0.5
  1
15-1/4
100
AcDbAttributeDefinition
  3

  2
B
 70
     8
280
     0
  0
ATTDEF
  5
7F
330
6E
100
AcDbEntity
  8
AM_6
100
AcDbText
 10
12.625
 20
-3.796474358974359
 30
0.0
 40
0.5
  1
3-29/32
100
AcDbAttributeDefinition
  3

  2
C
 70
     8
280
     0
  0
ATTDEF
  5
80
330
6E
100
AcDbEntity
  8
AM_6
100
AcDbText
 10
12.625
 20
-4.296474358974359
 30
0.0
 40
0.5
  1
10-5/8
100
AcDbAttributeDefinition
  3

  2
DMIN
 70
     8
280
     0
  0
ATTDEF
  5
81
330
6E
100
AcDbEntity
  8
AM_6
100
AcDbText
 10
12.625
 20
-4.796474358974359
 30
0.0
 40
0.5
  1
12-7/8
100
AcDbAttributeDefinition
  3

  2
DMAX
 70
     8
280
     0
  0
ATTDEF
  5
82
330
6E
100
AcDbEntity
  8
AM_6
100
AcDbText
 10
12.625
 20
-5.296474358974359
 30
0.0
 40
0.5
  1
1
100
AcDbAttributeDefinition
  3

  2
F
 70
     8
280
     0
  0
ATTDEF
  5
83
330
6E
100
AcDbEntity
  8
AM_6
100
AcDbText
 10
12.625
 20
-5.796474358974359
 30
0.0
 40
0.5
  1
2-1/4
100
AcDbAttributeDefinition
  3

  2
G
 70
     8
280
     0
  0
ATTDEF
  5
84
330
6E
100
AcDbEntity
  8
AM_6
100
AcDbText
 10
12.625
 20
-6.296474358974359
 30
0.0
 40
0.5
  1
2-7/16
100
AcDbAttributeDefinition
  3

  2
H
 70
     8
280
     0
  0
ATTDEF
  5
85
330
6E
100
AcDbEntity
  8
AM_6
100
AcDbText
 10
12.625
 20
-6.796474358974359
 30
0.0
 40
0.5
  1
8-3/8
100
AcDbAttributeDefinition
  3

  2
J
 70
     8
280
     0
  0
ATTDEF
  5
86
330
6E
100
AcDbEntity
  8
AM_6
100
AcDbText
 10
12.625
 20
-7.296474358974359
 30
0.0
 40
0.5
  1
6
100
AcDbAttributeDefinition
  3

  2
L
 70
     8
280
     0
  0
ATTDEF
  5
87
330
6E
100
AcDbEntity
  8
AM_6
100
AcDbText
 10
12.625
 20
-7.796474358974359
 30
0.0
 40
0.5
  1
4-1/4
100
AcDbAttributeDefinition
  3

  2
M
 70
     8
280
     0
  0
ATTDEF
  5
88
330
6E
100
AcDbEntity
  8
AM_6
100
AcDbText
 10
12.625
 20
-8.29647435897436
 30
0.0
 40
0.5
  1
1-41/64
100
AcDbAttributeDefinition
  3

  2
R
 70
     8
280
     0
  0
ATTDEF
  5
89
330
6E
100
AcDbEntity
  8
AM_6
100
AcDbText
 10
12.625
 20
-8.79647435897436
 30
0.0
 40
0.5
  1
2-53/64
100
AcDbAttributeDefinition
  3

  2
S
 70
     8
280
     0
  0
ATTDEF
  5
8A
330
6E
100
AcDbEntity
  8
AM_6
100
AcDbText
 10
12.625
 20
-9.29647435897436
 30
0.0
 40
0.5
  1
5/16
100
AcDbAttributeDefinition
  3

  2
X
 70
     8
280
     0
  0
ATTDEF
  5
8B
330
6E
100
AcDbEntity
  8
AM_6
100
AcDbText
 10
12.625
 20
-9.79647435897436
 30
0.0
 40
0.5
  1
0.025
100
AcDbAttributeDefinition
  3

  2
Y
 70
     8
280
     0
  0
ATTDEF
  5
8C
330
6E
100
AcDbEntity
  8
AM_6
100
AcDbText
 10
12.625
 20
-10.29647435897436
 30
0.0
 40
0.5
  1
4-1/2
100
AcDbAttributeDefinition
  3

  2
Z
 70
     8
280
     0
  0
ATTDEF
  5
8D
330
6E
100
AcDbEntity
  8
AM_6
100
AcDbText
 10
12.625
 20
-10.79647435897436
 30
0.0
 40
0.5
  1
baldor
100
AcDbAttributeDefinition
  3

  2
COMPANY
 70
     8
280
     0
  0
INSERT
  5
8F
330
6E
100
AcDbEntity
  8
0
100
AcDbBlockReference
  2
2_3_15_16CS2i_0_in_070336_4
 10
0.0
 20
0.0
 30
0.0
  0
INSERT
  5
E0
330
6E
100
AcDbEntity
  8
0
100
AcDbBlockReference
  2
3_070029i_0_in_070336_4
 10
0.0
 20
0.0
 30
0.0
  0
INSERT
  5
134
330
6E
100
AcDbEntity
  8
0
100
AcDbBlockReference
  2
4_405015E_Inch_0_in_070336_4
 10
0.0
 20
0.0
 30
0.0
  0
INSERT
  5
173
330
6E
100
AcDbEntity
  8
0
100
AcDbBlockReference
  2
5_070336H_0_in_070336_4
 10
0.0
 20
0.0
 30
0.0
  0
ENDBLK
  5
71
330
6E
100
AcDbEntity
  8
0
100
AcDbBlockEnd
  0
BLOCK
  5
90
330
8E
100
AcDbEntity
  8
0
100
AcDbBlockBegin
  2
2_3_15_16CS2i_0_in_070336_4
 70
     2
 10
0.0
 20
0.0
 30
0.0
  3
2_3_15_16CS2i_0_in_070336_4
  1

  0
ATTDEF
  5
92
330
8E
100
AcDbEntity
  8
AM_6
100
AcDbText
 10
8.0
 20
-1.818125
 30
0.0
 40
0.5
  1
S-2000 Collar -Inch
100
AcDbAttributeDefinition
  3

  2
NN
 70
     8
280
     0
  0
ATTDEF
  5
93
330
8E
100
AcDbEntity
  8
AM_6
100
AcDbText
 10
8.0
 20
-2.318125
 30
0.0
 40
0.5
  1
S-2000 Bearings
100
AcDbAttributeDefinition
  3

  2
NT
 70
     8
280
     0
  0
ATTDEF
  5
94
330
8E
100
AcDbEntity
  8
AM_6
100
AcDbText
 10
8.0
 20
-2.818125
 30
0.0
 40
0.5
  1
3-15/16CS2i
100
AcDbAttributeDefinition
  3

  2
NB
 70
     8
280
     0
  0
ATTDEF
  5
95
330
8E
100
AcDbEntity
  8
AM_6
100
AcDbText
 10
8.0
 20
-3.318125
 30
0.0
 40
0.5
  1
$BORE.CS2i
100
AcDbAttributeDefinition
  3

  2
NBSYN
 70
     8
280
     0
  0
ATTDEF
  5
96
330
8E
100
AcDbEntity
  8
AM_6
100
AcDbText
 10
8.0
 20
-3.818125
 30
0.0
 40
0.5
  1
3-15/16CS2i
100
AcDbAttributeDefinition
  3

  2
LINA
 70
     8
280
     0
  0
ATTDEF
  5
97
330
8E
100
AcDbEntity
  8
AM_6
100
AcDbText
 10
8.0
 20
-4.318125
 30
0.0
 40
0.5
  1
3-15/16
100
AcDbAttributeDefinition
  3

  2
BORE
 70
     8
280
     0
  0
ATTDEF
  5
98
330
8E
100
AcDbEntity
  8
AM_6
100
AcDbText
 10
8.0
 20
-4.818125
 30
0.0
 40
0.5
  1
3.937500
100
AcDbAttributeDefinition
  3

  2
BORE1
 70
     8
280
     0
  0
ATTDEF
  5
99
330
8E
100
AcDbEntity
  8
AM_6
100
AcDbText
 10
8.0
 20
-5.318125
 30
0.0
 40
0.5
  1
6
100
AcDbAttributeDefinition
  3

  2
L1
 70
     8
280
     0
  0
ATTDEF
  5
9A
330
8E
100
AcDbEntity
  8
AM_6
100
AcDbText
 10
8.0
 20
-5.818125
 30
0.0
 40
0.5
  1
6.00000
100
AcDbAttributeDefinition
  3

  2
L
 70
     8
280
     0
  0
ATTDEF
  5
9B
330
8E
100
AcDbEntity
  8
AM_6
100
AcDbText
 10
8.0
 20
-6.318125
 30
0.0
 40
0.5
  1
6.00000
100
AcDbAttributeDefinition
  3

  2
L2
 70
     8
280
     0
  0
ATTDEF
  5
9C
330
8E
100
AcDbEntity
  8
AM_6
100
AcDbText
 10
8.0
 20
-6.818125
 30
0.0
 40
0.5
  1
6.25
100
AcDbAttributeDefinition
  3

  2
A
 70
     8
280
     0
  0
ATTDEF
  5
9D
330
8E
100
AcDbEntity
  8
AM_6
100
AcDbText
 10
8.0
 20
-7.318125
 30
0.0
 40
0.5
  1
3.12
100
AcDbAttributeDefinition
  3

  2
B
 70
     8
280
     0
  0
ATTDEF
  5
9E
330
8E
100
AcDbEntity
  8
AM_6
100
AcDbText
 10
8.0
 20
-7.818125
 30
0.0
 40
0.5
  1
4.50
100
AcDbAttributeDefinition
  3

  2
C
 70
     8
280
     0
  0
ATTDEF
  5
9F
330
8E
100
AcDbEntity
  8
AM_6
100
AcDbText
 10
8.0
 20
-8.318125
 30
0.0
 40
0.5
  1
6.38
100
AcDbAttributeDefinition
  3

  2
D
 70
     8
280
     0
  0
ATTDEF
  5
A0
330
8E
100
AcDbEntity
  8
AM_6
100
AcDbText
 10
8.0
 20
-8.818125
 30
0.0
 40
0.5
  1
0.66
100
AcDbAttributeDefinition
  3

  2
E
 70
     8
280
     0
  0
ATTDEF
  5
A1
330
8E
100
AcDbEntity
  8
AM_6
100
AcDbText
 10
8.0
 20
-9.318125
 30
0.0
 40
0.5
  1
0.505
100
AcDbAttributeDefinition
  3

  2
F
 70
     8
280
     0
  0
ATTDEF
  5
A2
330
8E
100
AcDbEntity
  8
AM_6
100
AcDbText
 10
8.0
 20
-9.818125
 30
0.0
 40
0.5
  1
5/8-11
100
AcDbAttributeDefinition
  3

  2
CS
 70
     8
280
     0
  0
ATTDEF
  5
A3
330
8E
100
AcDbEntity
  8
AM_6
100
AcDbText
 10
8.0
 20
-10.318125
 30
0.0
 40
0.5
  1
0.6250
100
AcDbAttributeDefinition
  3

  2
NDM
 70
     8
280
     0
  0
ATTDEF
  5
A4
330
8E
100
AcDbEntity
  8
AM_6
100
AcDbText
 10
8.0
 20
-10.818125
 30
0.0
 40
0.5
  1
0.5270
100
AcDbAttributeDefinition
  3

  2
KDM
 70
     8
280
     0
  0
ATTDEF
  5
A5
330
8E
100
AcDbEntity
  8
AM_6
100
AcDbText
 10
8.0
 20
-11.318125
 30
0.0
 40
0.5
  1
2
100
AcDbAttributeDefinition
  3

  2
DD
 70
     8
280
     0
  0
ATTDEF
  5
A6
330
8E
100
AcDbEntity
  8
AM_6
100
AcDbText
 10
8.0
 20
-11.818125
 30
0.0
 40
0.5
  1
baldor
100
AcDbAttributeDefinition
  3

  2
COMPANY
 70
     8
280
     0
  0
LINE
  5
A9
330
8E
100
AcDbEntity
  8
AM_9
100
AcDbLine
 10
-2.09790860523088
 20
-2.556046134079552
 30
0.0
 11
-2.090011055309278
 21
-2.565896642156641
 31
0.0
  0
LINE
  5
AA
330
8E
100
AcDbEntity
  8
AM_9
100
AcDbLine
 10
-2.090072875797818
 20
-2.080430465709436
 30
0.0
 11
-2.09790860523088
 21
-2.090203865920448
 31
0.0
  0
LWPOLYLINE
  5
AB
330
8E
100
AcDbEntity
  8
AM_9
100
AcDbPolyline
 90
        4
 70
     0
 43
0.0
 10
-2.032567234591323
 20
-2.052685191254298
 10
-2.052838304806677
 20
-2.054044465138445
 10
-2.072947198390901
 20
-2.063796339632454
 10
-2.089981507670013
 20
-2.080316503470044
  0
LWPOLYLINE
  5
AC
330
8E
100
AcDbEntity
  8
AM_9
100
AcDbPolyline
 90
       22
 70
     0
 43
0.0
 10
-2.089981724904041
 20
-2.565933225577644
 10
-2.072917514316267
 20
-2.582480902375443
 10
-2.053746884821736
 20
-2.591959159892087
 10
-2.032450072068687
 20
-2.593525107094719
 10
-2.010323310485024
 20
-2.586743068610811
 10
-1.987821406098944
 20
-2.571458219078028
 10
-1.965989395886057
 20
-2.548125172924427
 10
-1.946058899586572
 20
-2.517713329814246
 10
-1.928589132796398
 20
-2.48071808984657
 10
-1.915174079836391
 20
-2.440222393106152
 10
-1.905609981472747
 20
-2.395768841859466
 10
-1.90079783357821
 20
-2.352117483755951
 10
-1.900132207928191
 20
-2.307564621316519
 10
-1.90345940192693
 20
-2.265671163383112
 10
-1.910388058324633
 20
-2.225373441284868
 10
-1.920694566571126
 20
-2.187480318120328
 10
-1.933791260752487
 20
-2.153146789540425
 10
-1.950052197931656
 20
-2.121597272766271
 10
-1.968116166296122
 20
-2.095438639702128
 10
-1.988650127937346
 20
-2.074072079236531
 10
-2.009742879236897
 20
-2.05979498964712
 10
-2.031540344144376
 20
-2.052815572003142
  0
LWPOLYLINE
  5
AD
330
8E
100
AcDbEntity
  8
AM_9
100
AcDbPolyline
 90
        3
 70
     0
 43
0.0
 10
-2.094419721007712
 20
-2.086221576652187
 10
-2.104515422184558
 20
-2.102793858105402
 10
-2.116145170315186
 20
-2.128860211364561
  0
LWPOLYLINE
  5
AE
330
8E
100
AcDbEntity
  8
AM_9
100
AcDbPolyline
 90
        3
 70
     0
 43
0.0
 10
-2.089981507670013
 20
-2.080316503470044
 10
-2.091167402921127
 20
-2.081821355065426
 10
-2.094419721007712
 20
-2.086221576652187
  0
LINE
  5
AF
330
8E
100
AcDbEntity
  8
AM_9
100
AcDbLine
 10
-2.046020039494807
 20
-2.059825
 30
0.0
 11
-2.674333017987747
 21
-2.059825
 31
0.0
  0
LINE
  5
B0
330
8E
100
AcDbEntity
  8
AM_9
100
AcDbLine
 10
-2.674333017987747
 20
-2.586425
 30
0.0
 11
-2.046020039494807
 21
-2.586425
 31
0.0
  0
LINE
  5
B1
330
8E
100
AcDbEntity
  8
AM_9
100
AcDbLine
 10
-2.622444452251672
 20
-2.09020386592045
 30
0.0
 11
-2.653418663984541
 21
-2.051570147123495
 31
0.0
  0
LINE
  5
B2
330
8E
100
AcDbEntity
  8
AM_9
100
AcDbLine
 10
-2.65479093519092
 20
-2.596391468344161
 30
0.0
 11
-2.622444452251672
 21
-2.55604613407955
 31
0.0
  0
ELLIPSE
  5
B3
330
8E
100
AcDbEntity
  8
AM_9
100
AcDbEllipse
 10
-2.674333017987882
 20
-2.323124999999993
 30
0.0
 11
1.612247511077442E-17
 21
0.2632999999999921
 31
0.0
210
0.0
220
0.0
230
1.0
 40
0.4226182617409012
 41
3.490434948057665
 42
5.939364019432478
  0
LWPOLYLINE
  5
B4
330
8E
100
AcDbEntity
  8
AM_9
100
AcDbPolyline
 90
        3
 70
     0
 43
0.0
 10
-2.094821507159614
 20
-2.559455952133249
 10
-2.090364483813966
 20
-2.565453153422487
 10
-2.089981724904041
 20
-2.565933225577644
  0
LWPOLYLINE
  5
B5
330
8E
100
AcDbEntity
  8
AM_9
100
AcDbPolyline
 90
       13
 70
     0
 43
0.0
 10
-2.116145170315186
 20
-2.128860211364561
 10
-2.125719619838393
 20
-2.158943437361136
 10
-2.133423410842157
 20
-2.192965353049987
 10
-2.139710100980414
 20
-2.234990758963571
 10
-2.143462075827083
 20
-2.279899836284429
 10
-2.144595755095368
 20
-2.323329045270305
 10
-2.143440562341229
 20
-2.366752155212641
 10
-2.140133631275197
 20
-2.407519229606026
 10
-2.134739441714002
 20
-2.446005977350694
 10
-2.127073185887232
 20
-2.482133209580277
 10
-2.117360887623854
 20
-2.514092199008948
 10
-2.104876382486219
 20
-2.542763819722744
 10
-2.094821507159614
 20
-2.559455952133249
  0
LWPOLYLINE
  5
B6
330
8E
100
AcDbEntity
  8
AM_9
100
AcDbPolyline
 90
       39
 70
     0
 43
0.0
 10
0.1938703118744629
 20
-2.122207972374701
 10
0.1608222830230702
 20
-2.098097826598441
 10
0.1239519686303262
 20
-2.078484313984088
 10
0.0780890341945334
 20
-2.062378261054201
 10
0.0288947699956691
 20
-2.053650839022779
 10
-0.0213182146142885
 20
-2.053030675973036
 10
-0.0723491015655274
 20
-2.060926822298492
 10
-0.1203044678683075
 20
-2.076890811161917
 10
-0.1661334341670259
 20
-2.101506185166672
 10
-0.205016739002424
 20
-2.132137108091877
 10
-0.2388908850873998
 20
-2.170375357517012
 10
-0.2632092227875849
 20
-2.210527801008145
 10
-0.2804385038247809
 20
-2.255920473323701
 10
-0.2883708637791359
 20
-2.298867185322314
 10
-0.2886794020329329
 20
-2.343945447616849
 10
-0.2818236116010893
 20
-2.385078936365339
 10
-0.2679032718614698
 20
-2.425617995204235
 10
-0.2479145035042433
 20
-2.462758543703656
 10
-0.221641255676652
 20
-2.497116935643686
 10
-0.1892942330739295
 20
-2.527826796669555
 10
-0.1515689590722257
 20
-2.553715758007778
 10
-0.1085483409521393
 20
-2.574110926567897
 10
-0.0615738178060728
 20
-2.587731347972985
 10
-0.0121315822681475
 20
-2.59371922739318
 10
0.0390256398414236
 20
-2.591473926536563
 10
0.088498876325297
 20
-2.580932654395756
 10
0.1368377956003033
 20
-2.561661016522359
 10
0.1794331858123518
 20
-2.535463027630897
 10
0.2179283638638966
 20
-2.50117001513362
 10
0.2474842227312753
 20
-2.463423141071972
 10
0.2704889406862722
 20
-2.419517751805567
 10
0.2837631343340037
 20
-2.376820328898885
 10
0.2894189645939441
 20
-2.3309618690661
 10
0.2872099722381273
 20
-2.288919757154366
 10
0.2776972540850463
 20
-2.24664668124918
 10
0.2619417462802831
 20
-2.207979463128269
 10
0.2396412663493755
 20
-2.171405229800551
 10
0.2184139757087103
 20
-2.145601018481636
 10
0.193870311874463
 20
-2.122207972374701
  0
LINE
  5
B7
330
8E
100
AcDbEntity
  8
AM_9
100
AcDbLine
 10
2.25
 20
-2.828125
 30
0.0
 11
2.25
 21
-1.818125
 31
0.0
  0
LINE
  5
B8
330
8E
100
AcDbEntity
  8
AM_9
100
AcDbLine
 10
-2.25
 20
-1.818125
 30
0.0
 11
-2.25
 21
-2.828125
 31
0.0
  0
LINE
  5
B9
330
8E
100
AcDbEntity
  8
AM_9
100
AcDbLine
 10
-2.654123116523491
 20
-2.052870141648021
 30
0.0
 11
-2.778672397794984
 21
-2.052870141648021
 31
0.0
  0
LINE
  5
BA
330
8E
100
AcDbEntity
  8
AM_9
100
AcDbLine
 10
0.1493562326913089
 20
-2.052870141648021
 30
0.0
 11
-0.1493562326913255
 21
-2.052870141648021
 31
0.0
  0
ELLIPSE
  5
BB
330
8E
100
AcDbEntity
  8
AM_9
100
AcDbEllipse
 10
-2.046020039494807
 20
-2.323125
 30
0.0
 11
1.612247511077491E-17
 21
0.2633000000000001
 31
0.0
210
0.0
220
0.0
230
1.0
 40
0.4226182617406978
 41
0.0
 42
6.283185307179586
  0
LINE
  5
BE
330
8E
100
AcDbEntity
  8
AM_7
100
AcDbLine
 10
-0.276465
 20
-2.323125
 30
0.0
 11
0.276465
 21
-2.323125
 31
0.0
  0
ELLIPSE
  5
C0
330
8E
100
AcDbEntity
  8
AM_4
100
AcDbEllipse
 10
-2.674333017987747
 20
-2.323125
 30
0.0
 11
1.612247511077491E-17
 21
0.2633000000000001
 31
0.0
210
0.0
220
0.0
230
1.0
 40
0.4226182617406995
 41
5.939364019433473
 42
9.77362025523628
  0
LWPOLYLINE
  5
C1
330
8E
100
AcDbEntity
  8
AM_4
100
AcDbPolyline
 90
       20
 70
     0
 43
0.0
 10
-2.654875034922767
 20
-2.596496364136775
 10
-2.674845459498785
 20
-2.617142847859778
 10
-2.696753146280653
 20
-2.630901987821323
 10
-2.717598501019022
 20
-2.635573501607487
 10
-2.737784268838571
 20
-2.63196811582029
 10
-2.756310000572141
 20
-2.620451015294872
 10
-2.773242896440979
 20
-2.601558449712219
 10
-2.78846756846537
 20
-2.575356491347812
 10
-2.801512906542085
 20
-2.543015687048852
 10
-2.812638832288242
 20
-2.503678285932343
 10
-2.821195633468779
 20
-2.459815320257429
 10
-2.827351961964821
 20
-2.410303577208741
 10
-2.830677371516832
 20
-2.358487284379947
 10
-2.831124293910678
 20
-2.304115334363098
 10
-2.82857357873125
 20
-2.250271941020062
 10
-2.822930288677225
 20
-2.198070283520515
 10
-2.814227074826813
 20
-2.149478573302442
 10
-2.805377354979915
 20
-2.115351017475936
 10
-2.794729050993865
 20
-2.084985745092534
 10
-2.778672397794984
 20
-2.052870141648021
  0
LINE
  5
C2
330
8E
100
AcDbEntity
  8
AM_4
100
AcDbLine
 10
-2.653369512741448
 20
-2.051631458903663
 30
0.0
 11
-2.652431054914698
 21
-2.052870141648009
 31
0.0
  0
CIRCLE
  5
C3
330
8E
100
AcDbEntity
  8
AM_4
100
AcDbCircle
 10
0.0
 20
-2.323125
 30
0.0
 40
0.2633
  0
LINE
  5
C4
330
8E
100
AcDbEntity
  8
AM_4
100
AcDbLine
 10
2.857142857142857
 20
-1.836771922183507
 30
0.0
 11
2.857142857142857
 21
-1.818125
 31
0.0
  0
LINE
  5
C5
330
8E
100
AcDbEntity
  8
AM_4
100
AcDbLine
 10
-2.857142857142857
 20
-1.818125
 30
0.0
 11
-2.857142857142857
 21
-1.836771922183507
 31
0.0
  0
LINE
  5
C6
330
8E
100
AcDbEntity
  8
AM_4
100
AcDbLine
 10
-2.857142857142857
 20
-1.818125
 30
0.0
 11
2.857142857142857
 21
-1.818125
 31
0.0
  0
LINE
  5
C7
330
8E
100
AcDbEntity
  8
AM_4
100
AcDbLine
 10
-2.857142857142857
 20
-1.836771922183507
 30
0.0
 11
-2.926829268292683
 21
-1.906458333333333
 31
0.0
  0
LINE
  5
C8
330
8E
100
AcDbEntity
  8
AM_4
100
AcDbLine
 10
2.926829268292683
 20
-1.906458333333333
 30
0.0
 11
2.857142857142857
 21
-1.836771922183507
 31
0.0
  0
LINE
  5
C9
330
8E
100
AcDbEntity
  8
AM_4
100
AcDbLine
 10
-2.857142857142857
 20
-1.836771922183507
 30
0.0
 11
2.857142857142857
 21
-1.836771922183507
 31
0.0
  0
LINE
  5
CA
330
8E
100
AcDbEntity
  8
AM_4
100
AcDbLine
 10
2.926829268292683
 20
-2.010625
 30
0.0
 11
2.926829268292683
 21
-1.906458333333333
 31
0.0
  0
LINE
  5
CB
330
8E
100
AcDbEntity
  8
AM_4
100
AcDbLine
 10
-2.926829268292683
 20
-1.906458333333333
 30
0.0
 11
-2.926829268292683
 21
-2.010625
 31
0.0
  0
LINE
  5
CC
330
8E
100
AcDbEntity
  8
AM_4
100
AcDbLine
 10
-2.926829268292683
 20
-1.906458333333333
 30
0.0
 11
2.926829268292683
 21
-1.906458333333333
 31
0.0
  0
LINE
  5
CD
330
8E
100
AcDbEntity
  8
AM_4
100
AcDbLine
 10
-2.831666666666667
 20
-2.828125
 30
0.0
 11
2.831666666666667
 21
-2.828125
 31
0.0
  0
ARC
  5
CE
330
8E
100
AcDbEntity
  8
AM_4
100
AcDbCircle
 10
2.831666666666666
 20
-2.659791666666667
 30
0.0
 40
0.1683333333333339
100
AcDbArc
 50
270.0
 51
0.0
  0
ARC
  5
CF
330
8E
100
AcDbEntity
  8
AM_4
100
AcDbCircle
 10
-2.831666666666666
 20
-2.659791666666667
 30
0.0
 40
0.1683333333333339
100
AcDbArc
 50
180.0
 51
270.0
  0
LWPOLYLINE
  5
D0
330
8E
100
AcDbEntity
  8
AM_4
100
AcDbPolyline
 90
       33
 70
     0
 43
0.0
 10
0.1493562326913089
 20
-2.052870141648012
 10
0.1803309217469387
 20
-2.074577326167853
 10
0.2133107072611068
 20
-2.105256444297213
 10
0.2420165560904348
 20
-2.14127716784804
 10
0.2672516601294315
 20
-2.185573896834479
 10
0.2854945974614457
 20
-2.234666961948553
 10
0.2956527488741232
 20
-2.286635324910899
 10
0.2972020767335385
 20
-2.341050862772161
 10
0.2898053807376939
 20
-2.394516753063951
 10
0.2730698463332664
 20
-2.447465812245213
 10
0.2484164396791247
 20
-2.495207574901551
 10
0.2149004285129223
 20
-2.539265279055363
 10
0.176519328001054
 20
-2.574671500258515
 10
0.131079354486174
 20
-2.603646007225607
 10
0.0850296690807879
 20
-2.622581803293699
 10
0.0348061972151044
 20
-2.63347741295304
 10
-0.0127537568251617
 20
-2.635337505788837
 10
-0.0613496757909176
 20
-2.628903938395098
 10
-0.1061283005449501
 20
-2.615054684912907
 10
-0.1491847907735975
 20
-2.593484289742345
 10
-0.1879781789723729
 20
-2.565345507517167
 10
-0.2226470399412725
 20
-2.530446356389244
 10
-0.2518107246655221
 20
-2.48968714220744
 10
-0.2746534968121725
 20
-2.443566433730955
 10
-0.2900321849002998
 20
-2.393496357320157
 10
-0.2972503979998116
 20
-2.340146954526157
 10
-0.2956251387894155
 20
-2.286390130579194
 10
-0.2847742027257127
 20
-2.232148282560687
 10
-0.265446479641058
 20
-2.18177905828238
 10
-0.2369606395988469
 20
-2.134086344280545
 10
-0.2024261457221717
 20
-2.09409789705408
 10
-0.1601091678706964
 20
-2.059748133971536
 10
-0.1493562326913255
 20
-2.052870141648021
  0
LWPOLYLINE
  5
D1
330
8E
100
AcDbEntity
  8
AM_4
100
AcDbPolyline
 90
       15
 70
     0
 43
0.0
 10
-2.652431054914719
 20
-2.052870141647983
 10
-2.646781641482874
 20
-2.060609006632576
 10
-2.628629093511916
 20
-2.091245208225037
 10
-2.612685624169607
 20
-2.127553551198745
 10
-2.598946593807349
 20
-2.170597443111682
 10
-2.588646077725789
 20
-2.217526140104653
 10
-2.581994552154324
 20
-2.269292374917343
 10
-2.579693583163861
 20
-2.322506691648928
 10
-2.581998859247804
 20
-2.376988742926851
 10
-2.588861159196925
 20
-2.429952675890445
 10
-2.600102425357154
 20
-2.479881974567226
 10
-2.615220753464328
 20
-2.525245778962604
 10
-2.633229369693054
 20
-2.563668140865345
 10
-2.653697370733845
 20
-2.595011618165172
 10
-2.654875034922767
 20
-2.596496364136775
  0
LINE
  5
D2
330
8E
100
AcDbEntity
  8
AM_4
100
AcDbLine
 10
3.0
 20
-2.659791666666667
 30
0.0
 11
3.0
 21
-2.052870141648021
 31
0.0
  0
LINE
  5
D3
330
8E
100
AcDbEntity
  8
AM_4
100
AcDbLine
 10
-3.0
 20
-2.052870141648021
 30
0.0
 11
-3.0
 21
-2.659791666666667
 31
0.0
  0
LINE
  5
D4
330
8E
100
AcDbEntity
  8
AM_4
100
AcDbLine
 10
-3.0
 20
-2.659791666666667
 30
0.0
 11
3.0
 21
-2.659791666666667
 31
0.0
  0
LWPOLYLINE
  5
D5
330
8E
100
AcDbEntity
  8
AM_4
100
AcDbPolyline
 90
        6
 70
     0
 43
0.0
 10
-2.778672397794984
 20
-2.052870141648021
 10
-2.732274882477905
 20
-2.04145641042474
 10
-2.711679451292491
 20
-2.03838247140556
 10
-2.693779627988369
 20
-2.037410354536923
 10
-2.668067872657386
 20
-2.041422327016094
 10
-2.653369512741448
 20
-2.051631458903663
  0
LINE
  5
D6
330
8E
100
AcDbEntity
  8
AM_4
100
AcDbLine
 10
-2.65243105491472
 20
-2.052870141647982
 30
0.0
 11
-0.1493562326913255
 21
-2.052870141648021
 31
0.0
  0
LWPOLYLINE
  5
D7
330
8E
100
AcDbEntity
  8
AM_4
100
AcDbPolyline
 90
        6
 70
     0
 43
0.0
 10
-0.1493562326913255
 20
-2.052870141648021
 10
-0.0760697940912174
 20
-2.041456410424741
 10
-0.0373583387553023
 20
-2.038386417035386
 10
0.00206984099024
 20
-2.037410354536923
 10
0.0757478832551122
 20
-2.041422327016094
 10
0.1493562326913089
 20
-2.052870141648012
  0
LINE
  5
D8
330
8E
100
AcDbEntity
  8
AM_4
100
AcDbLine
 10
0.1493562326913089
 20
-2.052870141648012
 30
0.0
 11
3.0
 21
-2.052870141648021
 31
0.0
  0
LINE
  5
D9
330
8E
100
AcDbEntity
  8
AM_4
100
AcDbLine
 10
-2.926829268292683
 20
-2.010625
 30
0.0
 11
-2.999999999999999
 21
-2.052870141648021
 31
0.0
  0
LINE
  5
DA
330
8E
100
AcDbEntity
  8
AM_4
100
AcDbLine
 10
3.0
 20
-2.052870141648021
 30
0.0
 11
2.926829268292683
 21
-2.010625
 31
0.0
  0
LINE
  5
DB
330
8E
100
AcDbEntity
  8
AM_4
100
AcDbLine
 10
-2.999999999999999
 20
-2.052870141648021
 30
0.0
 11
-2.778672397794984
 21
-2.052870141648021
 31
0.0
  0
LINE
  5
DC
330
8E
100
AcDbEntity
  8
AM_4
100
AcDbLine
 10
-2.926829268292683
 20
-2.010625
 30
0.0
 11
2.926829268292683
 21
-2.010625
 31
0.0
  0
CIRCLE
  5
DE
330
8E
100
AcDbEntity
  8
AM_5
100
AcDbCircle
 10
0.0000000000000002
 20
-2.323125000000001
 30
0.0
 40
0.3124999999999997
  0
ENDBLK
  5
91
330
8E
100
AcDbEntity
  8
0
100
AcDbBlockEnd
  0
BLOCK
  5
E1
330
DF
100
AcDbEntity
  8
0
100
AcDbBlockBegin
  2
3_070029i_0_in_070336_4
 70
     2
 10
0.0
 20
0.0
 30
0.0
  3
3_070029i_0_in_070336_4
  1

  0
ATTDEF
  5
E3
330
DF
100
AcDbEntity
  8
AM_6
100
AcDbText
 10
8.5433
 20
1.65625
 30
0.0
 40
0.5
  1
S-2000 Insert -Inch
100
AcDbAttributeDefinition
  3

  2
NN
 70
     8
280
     0
  0
ATTDEF
  5
E4
330
DF
100
AcDbEntity
  8
AM_6
100
AcDbText
 10
8.5433
 20
1.15625
 30
0.0
 40
0.5
  1
S-2000 Bearings
100
AcDbAttributeDefinition
  3

  2
NT
 70
     8
280
     0
  0
ATTDEF
  5
E5
330
DF
100
AcDbEntity
  8
AM_6
100
AcDbText
 10
8.5433
 20
0.6562499999999998
 30
0.0
 40
0.5
  1
070029i
100
AcDbAttributeDefinition
  3

  2
NB
 70
     8
280
     0
  0
ATTDEF
  5
E6
330
DF
100
AcDbEntity
  8
AM_6
100
AcDbText
 10
8.5433
 20
0.1562499999999998
 30
0.0
 40
0.5
  1
$PN.i
100
AcDbAttributeDefinition
  3

  2
NBSYN
 70
     8
280
     0
  0
ATTDEF
  5
E7
330
DF
100
AcDbEntity
  8
AM_6
100
AcDbText
 10
8.5433
 20
-0.3437500000000002
 30
0.0
 40
0.5
  1
070029i
100
AcDbAttributeDefinition
  3

  2
LINA
 70
     8
280
     0
  0
ATTDEF
  5
E8
330
DF
100
AcDbEntity
  8
AM_6
100
AcDbText
 10
8.5433
 20
-0.8437500000000002
 30
0.0
 40
0.5
  1
3-15/16
100
AcDbAttributeDefinition
  3

  2
SS
 70
     8
280
     0
  0
ATTDEF
  5
E9
330
DF
100
AcDbEntity
  8
AM_6
100
AcDbText
 10
8.5433
 20
-1.34375
 30
0.0
 40
0.5
  1
4.50
100
AcDbAttributeDefinition
  3

  2
CC
 70
     8
280
     0
  0
ATTDEF
  5
EA
330
DF
100
AcDbEntity
  8
AM_6
100
AcDbText
 10
8.5433
 20
-1.84375
 30
0.0
 40
0.5
  1
3.937500
100
AcDbAttributeDefinition
  3

  2
SS1
 70
     8
280
     0
  0
ATTDEF
  5
EB
330
DF
100
AcDbEntity
  8
AM_6
100
AcDbText
 10
8.5433
 20
-2.34375
 30
0.0
 40
0.5
  1
070029
100
AcDbAttributeDefinition
  3

  2
PN
 70
     8
280
     0
  0
ATTDEF
  5
EC
330
DF
100
AcDbEntity
  8
AM_6
100
AcDbText
 10
8.5433
 20
-2.84375
 30
0.0
 40
0.5
  1
INS-S2-315L
100
AcDbAttributeDefinition
  3

  2
DESCRIPTION
 70
     8
280
     0
  0
ATTDEF
  5
ED
330
DF
100
AcDbEntity
  8
AM_6
100
AcDbText
 10
8.5433
 20
-3.34375
 30
0.0
 40
0.5
  1
Labyrinth Seal
100
AcDbAttributeDefinition
  3

  2
ST
 70
     8
280
     0
  0
ATTDEF
  5
EE
330
DF
100
AcDbEntity
  8
AM_6
100
AcDbText
 10
8.5433
 20
-3.84375
 30
0.0
 40
0.5
  1
2
100
AcDbAttributeDefinition
  3

  2
ST1
 70
     8
280
     0
  0
ATTDEF
  5
EF
330
DF
100
AcDbEntity
  8
AM_6
100
AcDbText
 10
8.5433
 20
-4.34375
 30
0.0
 40
0.5
  1
7.0866
100
AcDbAttributeDefinition
  3

  2
A
 70
     8
280
     0
  0
ATTDEF
  5
F0
330
DF
100
AcDbEntity
  8
AM_6
100
AcDbText
 10
8.5433
 20
-4.84375
 30
0.0
 40
0.5
  1
1-7/8
100
AcDbAttributeDefinition
  3

  2
B
 70
     8
280
     0
  0
ATTDEF
  5
F1
330
DF
100
AcDbEntity
  8
AM_6
100
AcDbText
 10
8.5433
 20
-5.34375
 30
0.0
 40
0.5
  1
4-31/64
100
AcDbAttributeDefinition
  3

  2
C
 70
     8
280
     0
  0
ATTDEF
  5
F2
330
DF
100
AcDbEntity
  8
AM_6
100
AcDbText
 10
8.5433
 20
-5.84375
 30
0.0
 40
0.5
  1
1.646
100
AcDbAttributeDefinition
  3

  2
D
 70
     8
280
     0
  0
ATTDEF
  5
F3
330
DF
100
AcDbEntity
  8
AM_6
100
AcDbText
 10
8.5433
 20
-6.34375
 30
0.0
 40
0.5
  1
6
100
AcDbAttributeDefinition
  3

  2
E
 70
     8
280
     0
  0
ATTDEF
  5
F4
330
DF
100
AcDbEntity
  8
AM_6
100
AcDbText
 10
8.5433
 20
-6.84375
 30
0.0
 40
0.5
  1
0.34375
100
AcDbAttributeDefinition
  3

  2
F
 70
     8
280
     0
  0
ATTDEF
  5
F5
330
DF
100
AcDbEntity
  8
AM_6
100
AcDbText
 10
8.5433
 20
-7.34375
 30
0.0
 40
0.5
  1
2
100
AcDbAttributeDefinition
  3

  2
DD
 70
     8
280
     0
  0
ATTDEF
  5
F6
330
DF
100
AcDbEntity
  8
AM_6
100
AcDbText
 10
8.5433
 20
-7.84375
 30
0.0
 40
0.5
  1
baldor
100
AcDbAttributeDefinition
  3

  2
COMPANY
 70
     8
280
     0
  0
LINE
  5
F7
330
DF
100
AcDbEntity
  8
AM_9
100
AcDbLine
 10
-2.039047566147771
 20
-2.653125
 30
0.0
 11
-1.784249267244132
 21
-2.653125
 31
0.0
  0
LINE
  5
F8
330
DF
100
AcDbEntity
  8
AM_9
100
AcDbLine
 10
-1.784126112694715
 20
-1.993125
 30
0.0
 11
-2.039170777895248
 21
-1.993125
 31
0.0
  0
LWPOLYLINE
  5
F9
330
DF
100
AcDbEntity
  8
AM_9
100
AcDbPolyline
 90
        9
 70
     0
 43
0.0
 10
-1.891795823630266
 20
-2.447855489298099
 10
-1.884964355752125
 20
-2.495128868682407
 10
-1.875196108640107
 20
-2.539636507390495
 10
-1.862691368900239
 20
-2.57811902012058
 10
-1.847226184539234
 20
-2.609728061897489
 10
-1.829058502630537
 20
-2.633223461516363
 10
-1.808475320479421
 20
-2.647745617014139
 10
-1.785862173958416
 20
-2.653104038394185
 10
-1.784302416441257
 20
-2.653124999318831
  0
LWPOLYLINE
  5
FA
330
DF
100
AcDbEntity
  8
AM_9
100
AcDbPolyline
 90
        7
 70
     0
 43
0.0
 10
-1.891745455837982
 20
-2.197955254387729
 10
-1.894805590469507
 20
-2.22930276611687
 10
-1.89788633926064
 20
-2.283988381715791
 10
-1.898404210015945
 20
-2.339155226482792
 10
-1.896438970547202
 20
-2.3938653203112
 10
-1.891976021142608
 20
-2.446206954210204
 10
-1.891795823630266
 20
-2.447855489298099
  0
LWPOLYLINE
  5
FB
330
DF
100
AcDbEntity
  8
AM_9
100
AcDbPolyline
 90
        9
 70
     0
 43
0.0
 10
-1.784282162579313
 20
-1.993125001081875
 10
-1.799207056063455
 20
-1.995093884608024
 10
-1.820389724220119
 20
-2.005619766874516
 10
-1.83935426699404
 20
-2.024835374747981
 10
-1.855825038585048
 20
-2.05244394952105
 10
-1.869604705225741
 20
-2.087492910331735
 10
-1.880738887235367
 20
-2.129668184603041
 10
-1.889120458567551
 20
-2.177335447890908
 10
-1.891745455837982
 20
-2.197955254387729
  0
LWPOLYLINE
  5
FC
330
DF
100
AcDbEntity
  8
AM_9
100
AcDbPolyline
 90
       11
 70
     0
 43
0.0
 10
-1.784302416441257
 20
-2.653124999318831
 10
-1.762068910653755
 20
-2.649104543602194
 10
-1.737587238445396
 20
-2.636122818446589
 10
-1.713271002069078
 20
-2.614453327738502
 10
-1.690006752340035
 20
-2.584823055650594
 10
-1.668509244372572
 20
-2.547481265431267
 10
-1.64996808991248
 20
-2.503850872719702
 10
-1.635210209205828
 20
-2.454698403038649
 10
-1.625043471100621
 20
-2.401746342220627
 10
-1.620965594017062
 20
-2.362728199391447
 10
-1.619584964076881
 20
-2.323125
  0
LWPOLYLINE
  5
FD
330
DF
100
AcDbEntity
  8
AM_9
100
AcDbPolyline
 90
       11
 70
     0
 43
0.0
 10
-2.155817191641288
 20
-2.280791259318878
 10
-2.154304044894745
 20
-2.25118830734216
 10
-2.149456732858205
 20
-2.198729226687894
 10
-2.1419146829614
 20
-2.149737749819562
 10
-2.131532319041112
 20
-2.105313754082994
 10
-2.118381845544202
 20
-2.066970228979192
 10
-2.102341515557485
 20
-2.035636746803392
 10
-2.083706083454754
 20
-2.012434699709472
 10
-2.062798808726756
 20
-1.998199294062984
 10
-2.040046614745504
 20
-1.993131200298957
 10
-2.039197933045963
 20
-1.993125000248493
  0
LWPOLYLINE
  5
FE
330
DF
100
AcDbEntity
  8
AM_9
100
AcDbPolyline
 90
       11
 70
     0
 43
0.0
 10
-2.039180653255052
 20
-2.653124998805263
 10
-2.054354107032967
 20
-2.651099039456843
 10
-2.075778946236114
 20
-2.640441269347093
 10
-2.095117138549551
 20
-2.621039660889279
 10
-2.112044154861157
 20
-2.593222285822627
 10
-2.126328153443735
 20
-2.557935786466518
 10
-2.137933803765894
 20
-2.515633931055774
 10
-2.14673361499658
 20
-2.467874495644122
 10
-2.152725783694557
 20
-2.415883232267907
 10
-2.155967670132255
 20
-2.361221912303111
 10
-2.156052723517326
 20
-2.358599101982098
  0
LWPOLYLINE
  5
FF
330
DF
100
AcDbEntity
  8
AM_9
100
AcDbPolyline
 90
       11
 70
     0
 43
0.0
 10
-2.039197933045963
 20
-1.993125000248493
 10
-2.016243976027023
 20
-1.997433630939521
 10
-1.991935160115817
 20
-2.010755468604248
 10
-1.967947453817252
 20
-2.032809465591985
 10
-1.945145832673892
 20
-2.062855272438296
 10
-1.924266722335783
 20
-2.100527875115725
 10
-1.906376639579519
 20
-2.144451728268981
 10
-1.89226920045603
 20
-2.193747882027202
 10
-1.882649144469622
 20
-2.246759936451604
 10
-1.87893285528837
 20
-2.284676352710035
 10
-1.877676611179535
 20
-2.323125
  0
LWPOLYLINE
  5
100
330
DF
100
AcDbEntity
  8
AM_9
100
AcDbPolyline
 90
       11
 70
     0
 43
0.0
 10
-1.619584964076881
 20
-2.323125
 10
-1.622261913127771
 20
-2.268165506710481
 10
-1.630057211331448
 20
-2.214765830395146
 10
-1.64264320466379
 20
-2.164489052999512
 10
-1.659324207819381
 20
-2.11863614189252
 10
-1.679561601526144
 20
-2.078188087178228
 10
-1.702272310825656
 20
-2.04459918670843
 10
-1.726666499858682
 20
-2.018778470618385
 10
-1.751626746005861
 20
-2.001595654594451
 10
-1.775986668759727
 20
-1.993731920207309
 10
-1.784282162579313
 20
-1.993125001081875
  0
LINE
  5
101
330
DF
100
AcDbEntity
  8
AM_9
100
AcDbLine
 10
-1.96875
 20
1.65625
 30
0.0
 11
-1.96875
 21
-2.828125
 31
0.0
  0
LINE
  5
102
330
DF
100
AcDbEntity
  8
AM_9
100
AcDbLine
 10
1.96875
 20
-2.828125
 30
0.0
 11
1.96875
 21
1.65625
 31
0.0
  0
LINE
  5
103
330
DF
100
AcDbEntity
  8
AM_9
100
AcDbLine
 10
-2.25
 20
1.5625
 30
0.0
 11
-2.25
 21
1.494875
 31
0.0
  0
LINE
  5
104
330
DF
100
AcDbEntity
  8
AM_9
100
AcDbLine
 10
2.25
 20
1.494875
 30
0.0
 11
2.25
 21
1.5625
 31
0.0
  0
LWPOLYLINE
  5
105
330
DF
100
AcDbEntity
  8
AM_9
100
AcDbPolyline
 90
       39
 70
     0
 43
0.0
 10
0.33
 20
-2.323125
 10
0.3255049089045431
 20
-2.377407172755382
 10
0.3116308439224521
 20
-2.431689345510763
 10
0.2895666932252116
 20
-2.481400488230541
 10
0.2586975059833155
 20
-2.528004477737553
 10
0.2213073632188
 20
-2.567916852366745
 10
0.1764997378573133
 20
-2.60195800116073
 10
0.1277643244134047
 20
-2.627388499958812
 10
0.0738544741392967
 20
-2.644754471052651
 10
0.0197516239306235
 20
-2.65253336867345
 10
-0.0365106757313635
 20
-2.651099039456843
 10
-0.0897488170158791
 20
-2.64068625368856
 10
-0.1419396168348564
 20
-2.621039660889279
 10
-0.1889263935206995
 20
-2.59369258459073
 10
-0.2318704262276136
 20
-2.557935786466518
 10
-0.2675507947621389
 20
-2.516299978250673
 10
-0.2965595783493974
 20
-2.467874495644122
 10
-0.316462141999
 20
-2.416675588888606
 10
-0.3277935711281859
 20
-2.361221912303111
 10
-0.329593923854973
 20
-2.306759018273192
 10
-0.3220638325696499
 20
-2.25118830734216
 10
-0.3059429904575708
 20
-2.199436332007016
 10
-0.2807790260594014
 20
-2.149737749819561
 10
-0.2484037635600508
 20
-2.105879585205573
 10
-0.2080498336535679
 20
-2.066970228979191
 10
-0.1626707200052011
 20
-2.036004403641972
 10
-0.1112274125626494
 20
-2.012434699709472
 10
-0.0582579230021326
 20
-1.998308106339159
 10
-0.0020229085169292
 20
-1.993131200298957
 10
0.0521694781490275
 20
-1.997274811186708
 10
0.1064202793437354
 20
-2.010755468604248
 10
0.1561649211386653
 20
-2.032414633129889
 10
0.2028784584793472
 20
-2.062855272438295
 10
0.2430678463639257
 20
-2.099925488208412
 10
0.2774452413881583
 20
-2.144451728268981
 10
0.3032560016853086
 20
-2.192987390363738
 10
0.3210426405779294
 20
-2.246759936451605
 10
0.3277209490795907
 20
-2.284408342933921
 10
0.33
 20
-2.323125
  0
LWPOLYLINE
  5
106
330
DF
100
AcDbEntity
  8
AM_9
100
AcDbPolyline
 90
       11
 70
     0
 43
0.0
 10
-1.877676611179535
 20
-2.323125
 10
-1.880271746402541
 20
-2.378187261214315
 10
-1.88783804136864
 20
-2.431689345510763
 10
-1.900077138646097
 20
-2.482068696294787
 10
-1.916338697914035
 20
-2.528004477737553
 10
-1.936083854450057
 20
-2.568421235998819
 10
-1.958316728253736
 20
-2.60195800116073
 10
-1.98226147057352
 20
-2.627671066386122
 10
-2.006881432904629
 20
-2.644754471052651
 10
-2.031105990582734
 20
-2.652546562493002
 10
-2.039180653255052
 20
-2.653124998805263
  0
LINE
  5
107
330
DF
100
AcDbEntity
  8
AM_9
100
AcDbLine
 10
-2.25
 20
-1.818125
 30
0.0
 11
-2.25
 21
-2.828125
 31
0.0
  0
LINE
  5
108
330
DF
100
AcDbEntity
  8
AM_9
100
AcDbLine
 10
-2.25
 20
-1.474375
 30
0.0
 11
-2.25
 21
-1.5625
 31
0.0
  0
LINE
  5
109
330
DF
100
AcDbEntity
  8
AM_9
100
AcDbLine
 10
2.25
 20
-1.5625
 30
0.0
 11
2.25
 21
-1.474375
 31
0.0
  0
LINE
  5
10A
330
DF
100
AcDbEntity
  8
AM_9
100
AcDbLine
 10
2.25
 20
-2.828125
 30
0.0
 11
2.25
 21
-1.818125
 31
0.0
  0
LINE
  5
10B
330
DF
100
AcDbEntity
  8
AM_9
100
AcDbLine
 10
-2.834639999999999
 20
1.307375
 30
0.0
 11
-2.834639999999999
 21
0.9477500000000002
 31
0.0
  0
LINE
  5
10C
330
DF
100
AcDbEntity
  8
AM_9
100
AcDbLine
 10
2.834639999999999
 20
0.9477500000000002
 30
0.0
 11
2.834639999999999
 21
1.307375
 31
0.0
  0
LINE
  5
10D
330
DF
100
AcDbEntity
  8
AM_9
100
AcDbLine
 10
2.647139999999999
 20
1.494875
 30
0.0
 11
-2.647139999989151
 21
1.494875
 31
0.0
  0
LINE
  5
10E
330
DF
100
AcDbEntity
  8
AM_9
100
AcDbLine
 10
2.834639999999999
 20
1.307375
 30
0.0
 11
-2.834639999999999
 21
1.307375
 31
0.0
  0
ARC
  5
10F
330
DF
100
AcDbEntity
  8
AM_9
100
AcDbCircle
 10
-2.647140000000001
 20
1.307375000000001
 30
0.0
 40
0.1874999999999991
100
AcDbArc
 50
90.0
 51
180.0
  0
ARC
  5
110
330
DF
100
AcDbEntity
  8
AM_9
100
AcDbCircle
 10
2.64714
 20
1.307375
 30
0.0
 40
0.1874999999999996
100
AcDbArc
 50
0.0
 51
90.0
  0
LINE
  5
111
330
DF
100
AcDbEntity
  8
AM_9
100
AcDbLine
 10
2.64714
 20
-1.474375
 30
0.0
 11
-2.647139999989152
 21
-1.474375
 31
0.0
  0
ARC
  5
112
330
DF
100
AcDbEntity
  8
AM_9
100
AcDbCircle
 10
-2.647139999999999
 20
-1.286875
 30
0.0
 40
0.1875
100
AcDbArc
 50
180.0
 51
270.0
  0
ARC
  5
113
330
DF
100
AcDbEntity
  8
AM_9
100
AcDbCircle
 10
2.64714
 20
-1.286875
 30
0.0
 40
0.1874999999999998
100
AcDbArc
 50
270.0
 51
0.0
  0
LINE
  5
114
330
DF
100
AcDbEntity
  8
AM_9
100
AcDbLine
 10
2.834639999999999
 20
-1.286875
 30
0.0
 11
-2.834639999999999
 21
-1.286875
 31
0.0
  0
LINE
  5
115
330
DF
100
AcDbEntity
  8
AM_9
100
AcDbLine
 10
-2.834639999999999
 20
-0.9272499999999999
 30
0.0
 11
-2.834639999999999
 21
-1.286875
 31
0.0
  0
LINE
  5
116
330
DF
100
AcDbEntity
  8
AM_9
100
AcDbLine
 10
2.834639999999999
 20
-1.286875
 30
0.0
 11
2.834639999999999
 21
-0.9272499999999999
 31
0.0
  0
LINE
  5
117
330
DF
100
AcDbEntity
  8
AM_9
100
AcDbLine
 10
-3.401568
 20
0.1040000000000012
 30
0.0
 11
-3.401568
 21
-0.083500000000001
 31
0.0
  0
LINE
  5
118
330
DF
100
AcDbEntity
  8
AM_9
100
AcDbLine
 10
3.401568
 20
-0.083500000000001
 30
0.0
 11
3.401568
 21
0.1040000000000012
 31
0.0
  0
LINE
  5
119
330
DF
100
AcDbEntity
  8
AM_9
100
AcDbLine
 10
3.3558
 20
-0.9272499999999999
 30
0.0
 11
-3.355799999999835
 21
-0.9272499999999999
 31
0.0
  0
ARC
  5
11A
330
DF
100
AcDbEntity
  8
AM_9
100
AcDbCircle
 10
-3.355799999999999
 20
-0.739749999999999
 30
0.0
 40
0.1875000000000004
100
AcDbArc
 50
180.0
 51
270.0
  0
ARC
  5
11B
330
DF
100
AcDbEntity
  8
AM_9
100
AcDbCircle
 10
3.355799999999999
 20
-0.7397499999999992
 30
0.0
 40
0.1875000000000007
100
AcDbArc
 50
270.0
 51
0.0
  0
LINE
  5
11C
330
DF
100
AcDbEntity
  8
AM_9
100
AcDbLine
 10
3.3558
 20
0.9477500000000002
 30
0.0
 11
-3.355799999999835
 21
0.9477500000000002
 31
0.0
  0
ARC
  5
11D
330
DF
100
AcDbEntity
  8
AM_9
100
AcDbCircle
 10
-3.355799999999999
 20
0.7602499999999992
 30
0.0
 40
0.187500000000001
100
AcDbArc
 50
90.0
 51
180.0
  0
ARC
  5
11E
330
DF
100
AcDbEntity
  8
AM_9
100
AcDbCircle
 10
3.355799999999999
 20
0.7602499999999992
 30
0.0
 40
0.1875000000000004
100
AcDbArc
 50
0.0
 51
90.0
  0
LINE
  5
11F
330
DF
100
AcDbEntity
  8
AM_9
100
AcDbLine
 10
2.32991847217288
 20
0.1040000000000014
 30
0.0
 11
-3.401568
 21
0.1040000000000012
 31
0.0
  0
LINE
  5
120
330
DF
100
AcDbEntity
  8
AM_9
100
AcDbLine
 10
3.401568
 20
0.1040000000000012
 30
0.0
 11
2.334543611396282
 21
0.1040000000000014
 31
0.0
  0
LINE
  5
121
330
DF
100
AcDbEntity
  8
AM_9
100
AcDbLine
 10
3.401568
 20
0.1040000000000012
 30
0.0
 11
3.5433
 21
0.1858290083527855
 31
0.0
  0
LINE
  5
122
330
DF
100
AcDbEntity
  8
AM_9
100
AcDbLine
 10
-3.5433
 20
0.1858290083527855
 30
0.0
 11
-3.401568
 21
0.1040000000000012
 31
0.0
  0
LINE
  5
123
330
DF
100
AcDbEntity
  8
AM_9
100
AcDbLine
 10
3.5433
 20
0.7602500000000001
 30
0.0
 11
-3.5433
 21
0.7602500000000001
 31
0.0
  0
LINE
  5
124
330
DF
100
AcDbEntity
  8
AM_9
100
AcDbLine
 10
3.5433
 20
0.1858290083527855
 30
0.0
 11
-3.5433
 21
0.1858290083527855
 31
0.0
  0
LINE
  5
125
330
DF
100
AcDbEntity
  8
AM_9
100
AcDbLine
 10
-3.5433
 20
0.7602500000000001
 30
0.0
 11
-3.5433
 21
0.1858290083527855
 31
0.0
  0
LINE
  5
126
330
DF
100
AcDbEntity
  8
AM_9
100
AcDbLine
 10
3.5433
 20
0.1858290083527855
 30
0.0
 11
3.5433
 21
0.7602500000000001
 31
0.0
  0
LINE
  5
127
330
DF
100
AcDbEntity
  8
AM_9
100
AcDbLine
 10
3.5433
 20
-0.7397499999999998
 30
0.0
 11
-3.5433
 21
-0.7397499999999998
 31
0.0
  0
LINE
  5
128
330
DF
100
AcDbEntity
  8
AM_9
100
AcDbLine
 10
-3.5433
 20
-0.1653290083527853
 30
0.0
 11
-3.5433
 21
-0.7397499999999998
 31
0.0
  0
LINE
  5
129
330
DF
100
AcDbEntity
  8
AM_9
100
AcDbLine
 10
3.5433
 20
-0.7397499999999998
 30
0.0
 11
3.5433
 21
-0.1653290083527853
 31
0.0
  0
LINE
  5
12A
330
DF
100
AcDbEntity
  8
AM_9
100
AcDbLine
 10
3.401568
 20
-0.083500000000001
 30
0.0
 11
-3.401568
 21
-0.083500000000001
 31
0.0
  0
LINE
  5
12B
330
DF
100
AcDbEntity
  8
AM_9
100
AcDbLine
 10
3.5433
 20
-0.1653290083527853
 30
0.0
 11
-3.5433
 21
-0.1653290083527853
 31
0.0
  0
LINE
  5
12C
330
DF
100
AcDbEntity
  8
AM_9
100
AcDbLine
 10
-3.401568
 20
-0.083500000000001
 30
0.0
 11
-3.5433
 21
-0.1653290083527853
 31
0.0
  0
LINE
  5
12D
330
DF
100
AcDbEntity
  8
AM_9
100
AcDbLine
 10
3.5433
 20
-0.1653290083527853
 30
0.0
 11
3.401568
 21
-0.083500000000001
 31
0.0
  0
LINE
  5
12E
330
DF
100
AcDbEntity
  8
AM_4
100
AcDbLine
 10
2.25
 20
1.65625
 30
0.0
 11
-2.25
 21
1.65625
 31
0.0
  0
LINE
  5
12F
330
DF
100
AcDbEntity
  8
AM_4
100
AcDbLine
 10
-2.25
 20
1.65625
 30
0.0
 11
-2.25
 21
1.5625
 31
0.0
  0
LINE
  5
130
330
DF
100
AcDbEntity
  8
AM_4
100
AcDbLine
 10
2.25
 20
1.5625
 30
0.0
 11
2.25
 21
1.65625
 31
0.0
  0
LINE
  5
131
330
DF
100
AcDbEntity
  8
AM_4
100
AcDbLine
 10
-2.25
 20
-1.5625
 30
0.0
 11
-2.25
 21
-1.818125
 31
0.0
  0
LINE
  5
132
330
DF
100
AcDbEntity
  8
AM_4
100
AcDbLine
 10
2.25
 20
-1.818125
 30
0.0
 11
2.25
 21
-1.5625
 31
0.0
  0
ENDBLK
  5
E2
330
DF
100
AcDbEntity
  8
0
100
AcDbBlockEnd
  0
BLOCK
  5
135
330
133
100
AcDbEntity
  8
0
100
AcDbBlockBegin
  2
4_405015E_Inch_0_in_070336_4
 70
     2
 10
0.0
 20
0.0
 30
0.0
  3
4_405015E_Inch_0_in_070336_4
  1

  0
ATTDEF
  5
137
330
133
100
AcDbEntity
  8
AM_6
100
AcDbText
 10
7.388921671481428
 20
0.2187500000000002
 30
0.0
 40
0.5
  1
405015E -Inch
100
AcDbAttributeDefinition
  3

  2
NN
 70
     8
280
     0
  0
ATTDEF
  5
138
330
133
100
AcDbEntity
  8
AM_6
100
AcDbText
 10
7.388921671481428
 20
-0.2812499999999998
 30
0.0
 40
0.5
  1
Grease Fitting
100
AcDbAttributeDefinition
  3

  2
NT
 70
     8
280
     0
  0
ATTDEF
  5
139
330
133
100
AcDbEntity
  8
AM_6
100
AcDbText
 10
7.388921671481428
 20
-0.7812499999999998
 30
0.0
 40
0.5
  1
405015E-Inch
100
AcDbAttributeDefinition
  3

  2
NB
 70
     8
280
     0
  0
ATTDEF
  5
13A
330
133
100
AcDbEntity
  8
AM_6
100
AcDbText
 10
7.388921671481428
 20
-1.28125
 30
0.0
 40
0.5
  1
$MN.-Inch
100
AcDbAttributeDefinition
  3

  2
NBSYN
 70
     8
280
     0
  0
ATTDEF
  5
13B
330
133
100
AcDbEntity
  8
AM_6
100
AcDbText
 10
7.388921671481428
 20
-1.78125
 30
0.0
 40
0.5
  1
405015E
100
AcDbAttributeDefinition
  3

  2
LINA
 70
     8
280
     0
  0
ATTDEF
  5
13C
330
133
100
AcDbEntity
  8
AM_6
100
AcDbText
 10
7.388921671481428
 20
-2.28125
 30
0.0
 40
0.5
  1
405015E
100
AcDbAttributeDefinition
  3

  2
MN
 70
     8
280
     0
  0
ATTDEF
  5
13D
330
133
100
AcDbEntity
  8
AM_6
100
AcDbText
 10
7.388921671481428
 20
-2.78125
 30
0.0
 40
0.5
  1
1/8 x 27PTF
100
AcDbAttributeDefinition
  3

  2
T
 70
     8
280
     0
  0
ATTDEF
  5
13E
330
133
100
AcDbEntity
  8
AM_6
100
AcDbText
 10
7.388921671481428
 20
-3.28125
 30
0.0
 40
0.5
  1
baldor
100
AcDbAttributeDefinition
  3

  2
COMPANY
 70
     8
280
     0
  0
ELLIPSE
  5
13F
330
133
100
AcDbEntity
  8
AM_9
100
AcDbEllipse
 10
1.98
 20
0.0000000000000002
 30
0.0
 11
9.913691727296317E-18
 21
0.161902872472269
 31
0.0
210
0.0
220
0.0
230
1.0
 40
0.8660254037844383
 41
0.0
 42
6.283185307179586
  0
LINE
  5
140
330
133
100
AcDbEntity
  8
AM_9
100
AcDbLine
 10
2.299982124350759
 20
-0.0641806177729352
 30
0.0
 11
2.2765625
 21
-0.1093749999999998
 31
0.0
  0
LINE
  5
141
330
133
100
AcDbEntity
  8
AM_9
100
AcDbLine
 10
2.335783799848307
 20
0.0000000000000002
 30
0.0
 11
2.311150648751853
 21
-0.0436282620339304
 31
0.0
  0
LINE
  5
142
330
133
100
AcDbEntity
  8
AM_9
100
AcDbLine
 10
2.314478948681491
 20
0.0376071729637961
 30
0.0
 11
2.335783799848307
 21
0.0000000000000002
 31
0.0
  0
LINE
  5
143
330
133
100
AcDbEntity
  8
AM_9
100
AcDbLine
 10
2.2765625
 20
0.1093750000000002
 30
0.0
 11
2.295447464007373
 21
0.0726937202379253
 31
0.0
  0
LWPOLYLINE
  5
144
330
133
100
AcDbEntity
  8
AM_9
100
AcDbPolyline
 90
        4
 70
     0
 43
0.0
 10
2.326562500000001
 20
-0.1093749999999998
 10
2.339930667998001
 20
-0.0820312499999998
 10
2.364961766333199
 20
-0.0273136508384381
 10
2.376716200151693
 20
0.0000000000000002
  0
LWPOLYLINE
  5
145
330
133
100
AcDbEntity
  8
AM_9
100
AcDbPolyline
 90
        4
 70
     0
 43
0.0
 10
2.376716200151693
 20
0.0000000000000002
 10
2.365025889819991
 20
0.0271674048184099
 10
2.340007718547504
 20
0.0818700010907653
 10
2.326562500000001
 20
0.1093750000000001
  0
LWPOLYLINE
  5
146
330
133
100
AcDbEntity
  8
AM_9
100
AcDbPolyline
 90
        4
 70
     0
 43
0.0
 10
2.2765625
 20
-0.1093749999999998
 10
2.263194332002
 20
-0.1367187499999997
 10
2.250415440392517
 20
-0.1640624999999997
 10
2.226408799848307
 20
-0.2187499999999998
  0
LWPOLYLINE
  5
147
330
133
100
AcDbEntity
  8
AM_9
100
AcDbPolyline
 90
        4
 70
     0
 43
0.0
 10
2.226408799848307
 20
0.2187500000000002
 10
2.250315688882015
 20
0.1642807675819313
 10
2.263117281452496
 20
0.1368799989092351
 10
2.2765625
 20
0.1093750000000002
  0
LINE
  5
148
330
133
100
AcDbEntity
  8
AM_9
100
AcDbLine
 10
2.376716200151693
 20
0.0000000000000002
 30
0.0
 11
2.335783799848307
 21
0.0000000000000002
 31
0.0
  0
LINE
  5
149
330
133
100
AcDbEntity
  8
AM_9
100
AcDbLine
 10
1.989046710626155
 20
-0.1983264404626877
 30
0.0
 11
2.102854897832291
 21
-0.2054502516015132
 31
0.0
  0
LINE
  5
14A
330
133
100
AcDbEntity
  8
AM_9
100
AcDbLine
 10
2.102854897832291
 20
0.2054502516015137
 30
0.0
 11
1.989046710626155
 21
0.1983264404626882
 31
0.0
  0
ELLIPSE
  5
14B
330
133
100
AcDbEntity
  8
AM_9
100
AcDbEllipse
 10
2.162500000008049
 20
-0.0000000000000146
 30
0.0
 11
-4.018372309702817E-17
 21
-0.2187500000000307
 31
0.0
210
0.0
220
0.0
230
1.0
 40
0.8660254037526587
 41
1.032970329609411
 42
2.1086223239805
  0
ELLIPSE
  5
14C
330
133
100
AcDbEntity
  8
AM_9
100
AcDbEllipse
 10
2.162499999999997
 20
-0.0000000000000007
 30
0.0
 11
-3.926523799766165E-17
 21
-0.2137499999999981
 31
0.0
210
0.0
220
0.0
230
1.0
 40
0.8660254037844635
 41
0.9862868522353168
 42
2.155305801354484
  0
ELLIPSE
  5
14D
330
133
100
AcDbEntity
  8
AM_9
100
AcDbEllipse
 10
2.171659099270439
 20
0.0000000000000005
 30
0.0
 11
-3.169399141454468E-17
 21
-0.1725340532830161
 31
0.0
210
0.0
220
0.0
230
1.0
 40
0.8660254037844444
 41
0.6732704101475635
 42
2.468322243442227
  0
LINE
  5
14E
330
133
100
AcDbEntity
  8
AM_9
100
AcDbLine
 10
2.2825
 20
0.0703562363973518
 30
0.0
 11
2.275260904853149
 21
0.0796165180238022
 31
0.0
  0
LINE
  5
14F
330
133
100
AcDbEntity
  8
AM_9
100
AcDbLine
 10
2.275260904853149
 20
-0.0796165180238017
 30
0.0
 11
2.2825
 21
-0.0703562363973513
 31
0.0
  0
ELLIPSE
  5
150
330
133
100
AcDbEntity
  8
AM_9
100
AcDbEllipse
 10
2.198876560809288
 20
-0.0000000000000008
 30
0.0
 11
-2.182689656893336E-17
 21
-0.1188200907348965
 31
0.0
210
0.0
220
0.0
230
1.0
 40
0.8660254037844324
 41
0.0521714424104687
 42
3.089421211179322
  0
LINE
  5
151
330
133
100
AcDbEntity
  8
AM_9
100
AcDbLine
 10
2.215
 20
-0.1049999999999998
 30
0.0
 11
2.23
 21
-0.1049999999999998
 31
0.0
  0
LINE
  5
152
330
133
100
AcDbEntity
  8
AM_9
100
AcDbLine
 10
2.23
 20
0.1050000000000002
 30
0.0
 11
2.215
 21
0.1050000000000002
 31
0.0
  0
ELLIPSE
  5
153
330
133
100
AcDbEntity
  8
AM_9
100
AcDbEllipse
 10
2.230000000000001
 20
0.0000000000000012
 30
0.0
 11
-1.928818708657062E-17
 21
-0.1049999999999989
 31
0.0
210
0.0
220
0.0
230
1.0
 40
0.8660254037844454
 41
5.235987755982997
 42
10.47197551196599
  0
ELLIPSE
  5
154
330
133
100
AcDbEntity
  8
AM_9
100
AcDbEllipse
 10
2.215000000000002
 20
-0.0000000000000001
 30
0.0
 11
-1.928818708657076E-17
 21
-0.1049999999999997
 31
0.0
210
0.0
220
0.0
230
1.0
 40
0.8660254037844431
 41
5.858105981271137
 42
9.849857286677828
  0
ELLIPSE
  5
155
330
133
100
AcDbEntity
  8
AM_9
100
AcDbEllipse
 10
2.259999999999995
 20
-0.0000000000000019
 30
0.0
 11
-2.479909768273488E-17
 21
-0.1350000000000053
 31
0.0
210
0.0
220
0.0
230
1.0
 40
0.8660254037844431
 41
0.7751090107151635
 42
2.366483642874653
  0
ELLIPSE
  5
156
330
133
100
AcDbEntity
  8
AM_9
100
AcDbEllipse
 10
2.1125
 20
0.0000000000000004
 30
0.0
 11
-3.779601035290908E-17
 21
-0.2057518972230695
 31
0.0
210
0.0
220
0.0
230
1.0
 40
0.8660254037844404
 41
0.0
 42
6.283185307179586
  0
ELLIPSE
  5
157
330
133
100
AcDbEntity
  8
AM_9
100
AcDbEllipse
 10
1.998357377154473
 20
-0.0000000000000002
 30
0.0
 11
-3.648546613377895E-17
 21
-0.1986176267812159
 31
0.0
210
0.0
220
0.0
230
1.0
 40
0.8660254037844397
 41
0.0
 42
6.283185307179586
  0
ELLIPSE
  5
158
330
133
100
AcDbEntity
  8
AM_9
100
AcDbEllipse
 10
2.112499999999998
 20
0.0000000000000002
 30
0.0
 11
-4.018372309702242E-17
 21
-0.2187499999999994
 31
0.0
210
0.0
220
0.0
230
1.0
 40
0.8660254037844322
 41
0.0
 42
6.283185307179586
  0
LWPOLYLINE
  5
159
330
133
100
AcDbEntity
  8
AM_4
100
AcDbPolyline
 90
        4
 70
     0
 43
0.0
 10
2.326562500000001
 20
0.1093750000000001
 10
2.312586917998001
 20
0.1367187500000002
 10
2.298004189737884
 20
0.1640954144832174
 10
2.267341200151693
 20
0.2187500000000002
  0
LWPOLYLINE
  5
15A
330
133
100
AcDbEntity
  8
AM_4
100
AcDbPolyline
 90
        4
 70
     0
 43
0.0
 10
2.267341200151693
 20
-0.2187499999999998
 10
2.297903543536054
 20
-0.1642807675819308
 10
2.312502719638269
 20
-0.1368799989092347
 10
2.326562500000001
 20
-0.1093749999999998
  0
ELLIPSE
  5
15B
330
133
100
AcDbEntity
  8
AM_4
100
AcDbEllipse
 10
2.162499999999998
 20
0.0000000000000004
 30
0.0
 11
-4.018372309702251E-17
 21
-0.2187499999999999
 31
0.0
210
0.0
220
0.0
230
1.0
 40
0.8660254037844444
 41
2.108622323974816
 42
7.316155636794561
  0
ELLIPSE
  5
15C
330
133
100
AcDbEntity
  8
AM_4
100
AcDbEllipse
 10
2.1625
 20
0.0000000000000002
 30
0.0
 11
-3.926523799766202E-17
 21
-0.2137500000000001
 31
0.0
210
0.0
220
0.0
230
1.0
 40
0.8660254037844387
 41
2.155305801354477
 42
7.269472159414902
  0
LINE
  5
15D
330
133
100
AcDbEntity
  8
AM_4
100
AcDbLine
 10
2.267341200151693
 20
-0.2187499999999998
 30
0.0
 11
2.007658799848307
 21
-0.2187499999999998
 31
0.0
  0
LWPOLYLINE
  5
15E
330
133
100
AcDbEntity
  8
AM_4
100
AcDbPolyline
 90
        4
 70
     0
 43
0.0
 10
1.9984375
 20
-0.1093749999999998
 10
2.011805667998001
 20
-0.1367187499999998
 10
2.024584559607483
 20
-0.1640624999999997
 10
2.048591200151693
 20
-0.2187499999999998
  0
LWPOLYLINE
  5
15F
330
133
100
AcDbEntity
  8
AM_4
100
AcDbPolyline
 90
        4
 70
     0
 43
0.0
 10
1.9484375
 20
-0.1093749999999998
 10
1.935069332002
 20
-0.0820312499999998
 10
1.922290440392518
 20
-0.0546874999999998
 10
1.898283799848308
 20
0.0000000000000002
  0
LWPOLYLINE
  5
160
330
133
100
AcDbEntity
  8
AM_4
100
AcDbPolyline
 90
        4
 70
     0
 43
0.0
 10
2.007658799848307
 20
-0.2187499999999998
 10
1.984583161094528
 20
-0.1779449093802247
 10
1.962497280361731
 20
-0.1368799989092347
 10
1.9484375
 20
-0.1093749999999998
  0
LINE
  5
161
330
133
100
AcDbEntity
  8
AM_4
100
AcDbLine
 10
1.939216200151693
 20
0.0000000000000002
 30
0.0
 11
1.898283799848308
 21
0.0000000000000002
 31
0.0
  0
LWPOLYLINE
  5
162
330
133
100
AcDbEntity
  8
AM_4
100
AcDbPolyline
 90
        4
 70
     0
 43
0.0
 10
2.048591200151693
 20
0.2187500000000002
 10
2.036900889819991
 20
0.1915825951815905
 10
2.011882718547504
 20
0.1368799989092351
 10
1.9984375
 20
0.1093750000000001
  0
LINE
  5
163
330
133
100
AcDbEntity
  8
AM_4
100
AcDbLine
 10
2.267341200151693
 20
0.2187500000000002
 30
0.0
 11
2.007658799848307
 21
0.2187500000000002
 31
0.0
  0
LWPOLYLINE
  5
164
330
133
100
AcDbEntity
  8
AM_4
100
AcDbPolyline
 90
        4
 70
     0
 43
0.0
 10
1.9484375
 20
0.1093750000000002
 10
1.962413082002
 20
0.1367187500000002
 10
1.976977940392517
 20
0.1640625000000002
 10
2.007658799848307
 20
0.2187500000000002
  0
LWPOLYLINE
  5
165
330
133
100
AcDbEntity
  8
AM_4
100
AcDbPolyline
 90
        4
 70
     0
 43
0.0
 10
1.898283799848308
 20
0.0000000000000002
 10
1.916013251714304
 20
0.0408050906197753
 10
1.934992281452496
 20
0.0818700010907653
 10
1.9484375
 20
0.1093750000000002
  0
LWPOLYLINE
  5
166
330
133
100
AcDbEntity
  8
AM_4
100
AcDbPolyline
 90
        4
 70
     0
 43
0.0
 10
1.9984375
 20
0.1093750000000001
 10
1.984461917998001
 20
0.0820312500000002
 10
1.969879189737884
 20
0.054654585516783
 10
1.939216200151693
 20
0.0000000000000002
  0
LWPOLYLINE
  5
167
330
133
100
AcDbEntity
  8
AM_4
100
AcDbPolyline
 90
        4
 70
     0
 43
0.0
 10
1.939216200151693
 20
0.0000000000000002
 10
1.962291838905472
 20
-0.0408050906197748
 10
1.984377719638269
 20
-0.0818700010907649
 10
1.9984375
 20
-0.1093749999999998
  0
ELLIPSE
  5
168
330
133
100
AcDbEntity
  8
AM_4
100
AcDbEllipse
 10
2.171659099270441
 20
0.0000000000000002
 30
0.0
 11
-3.169399141454451E-17
 21
-0.1725340532830152
 31
0.0
210
0.0
220
0.0
230
1.0
 40
0.8660254037844388
 41
2.468322243442234
 42
6.956455717327144
  0
ELLIPSE
  5
169
330
133
100
AcDbEntity
  8
AM_4
100
AcDbEllipse
 10
2.198876560809287
 20
0.0000000000000002
 30
0.0
 11
-2.182689656893358E-17
 21
-0.1188200907348977
 31
0.0
210
0.0
220
0.0
230
1.0
 40
0.8660254037844312
 41
3.089421211179316
 42
6.335356749590064
  0
ELLIPSE
  5
16A
330
133
100
AcDbEntity
  8
AM_4
100
AcDbEllipse
 10
2.215
 20
0.0000000000000002
 30
0.0
 11
-1.928818708657080E-17
 21
-0.105
 31
0.0
210
0.0
220
0.0
230
1.0
 40
0.8660254037844325
 41
3.566671979498228
 42
5.858105981271152
  0
LINE
  5
16B
330
133
100
AcDbEntity
  8
AM_4
100
AcDbLine
 10
2.15125
 20
-0.0524999999999998
 30
0.0
 11
2.15875
 21
-0.0674999999999998
 31
0.0
  0
LINE
  5
16C
330
133
100
AcDbEntity
  8
AM_4
100
AcDbLine
 10
2.15875
 20
0.0675000000000003
 30
0.0
 11
2.15125
 21
0.0525000000000003
 31
0.0
  0
ELLIPSE
  5
16D
330
133
100
AcDbEntity
  8
AM_4
100
AcDbEllipse
 10
2.259999999999999
 20
0.0000000000000002
 30
0.0
 11
-2.479909768273349E-17
 21
-0.1349999999999978
 31
0.0
210
0.0
220
0.0
230
1.0
 40
0.8660254037844457
 41
2.366483642874668
 42
7.058294317894712
  0
ELLIPSE
  5
16E
330
133
100
AcDbEntity
  8
AM_4
100
AcDbEllipse
 10
2.230000000000003
 20
0.0000000000000002
 30
0.0
 11
-1.928818708657114E-17
 21
-0.1050000000000018
 31
0.0
210
0.0
220
0.0
230
1.0
 40
0.8660254037844471
 41
4.1887902047864
 42
5.235987755982978
  0
LINE
  5
16F
330
133
100
AcDbEntity
  8
AM_4
100
AcDbLine
 10
2.362226847792107
 20
0.0733474205218689
 30
0.0
 11
2.34181531073162
 21
0.0964365416902993
 31
0.0
  0
LINE
  5
170
330
133
100
AcDbEntity
  8
AM_4
100
AcDbLine
 10
2.34181531073162
 20
-0.0964365416902988
 30
0.0
 11
2.362226847792107
 21
-0.0733474205218684
 31
0.0
  0
ELLIPSE
  5
171
330
133
100
AcDbEntity
  8
AM_4
100
AcDbEllipse
 10
2.300000000000002
 20
0.0000000000000015
 30
0.0
 11
-1.886162459184612E-17
 21
-0.102677901933185
 31
0.0
210
0.0
220
0.0
230
1.0
 40
0.8660254037844441
 41
0.0
 42
6.283185307179586
  0
ENDBLK
  5
136
330
133
100
AcDbEntity
  8
0
100
AcDbBlockEnd
  0
BLOCK
  5
174
330
172
100
AcDbEntity
  8
0
100
AcDbBlockBegin
  2
5_070336H_0_in_070336_4
 70
     2
 10
0.0
 20
0.0
 30
0.0
  3
5_070336H_0_in_070336_4
  1

  0
ATTDEF
  5
176
330
172
100
AcDbEntity
  8
AM_6
100
AcDbText
 10
12.625
 20
2.203525641025641
 30
0.0
 40
0.5
  1
P2B-S2-(Labyrinth Seal)-Housing
100
AcDbAttributeDefinition
  3

  2
NN
 70
     8
280
     0
  0
ATTDEF
  5
177
330
172
100
AcDbEntity
  8
AM_6
100
AcDbText
 10
12.625
 20
1.703525641025641
 30
0.0
 40
0.5
  1
S-2000 Pillow Block Bearing -Inch (2-Bolt Base)
100
AcDbAttributeDefinition
  3

  2
NT
 70
     8
280
     0
  0
ATTDEF
  5
178
330
172
100
AcDbEntity
  8
AM_6
100
AcDbText
 10
12.625
 20
1.203525641025641
 30
0.0
 40
0.5
  1
070336H
100
AcDbAttributeDefinition
  3

  2
NB
 70
     8
280
     0
  0
ATTDEF
  5
179
330
172
100
AcDbEntity
  8
AM_6
100
AcDbText
 10
12.625
 20
0.703525641025641
 30
0.0
 40
0.5
  1
$PN.H
100
AcDbAttributeDefinition
  3

  2
NBSYN
 70
     8
280
     0
  0
ATTDEF
  5
17A
330
172
100
AcDbEntity
  8
AM_6
100
AcDbText
 10
12.625
 20
0.203525641025641
 30
0.0
 40
0.5
  1
070336
100
AcDbAttributeDefinition
  3

  2
LINA
 70
     8
280
     0
  0
ATTDEF
  5
17B
330
172
100
AcDbEntity
  8
AM_6
100
AcDbText
 10
12.625
 20
-0.296474358974359
 30
0.0
 40
0.5
  1
3-15/16
100
AcDbAttributeDefinition
  3

  2
SS
 70
     8
280
     0
  0
ATTDEF
  5
17C
330
172
100
AcDbEntity
  8
AM_6
100
AcDbText
 10
12.625
 20
-0.796474358974359
 30
0.0
 40
0.5
  1
070336
100
AcDbAttributeDefinition
  3

  2
PN
 70
     8
280
     0
  0
ATTDEF
  5
17D
330
172
100
AcDbEntity
  8
AM_6
100
AcDbText
 10
12.625
 20
-1.296474358974359
 30
0.0
 40
0.5
  1
P2B-S2-315L
100
AcDbAttributeDefinition
  3

  2
DESCRIPTION
 70
     8
280
     0
  0
ATTDEF
  5
17E
330
172
100
AcDbEntity
  8
AM_6
100
AcDbText
 10
12.625
 20
-1.796474358974359
 30
0.0
 40
0.5
  1
Non-Expansion Type
100
AcDbAttributeDefinition
  3

  2
EF
 70
     8
280
     0
  0
ATTDEF
  5
17F
330
172
100
AcDbEntity
  8
AM_6
100
AcDbText
 10
12.625
 20
-2.296474358974359
 30
0.0
 40
0.5
  1
1
100
AcDbAttributeDefinition
  3

  2
EF1
 70
     8
280
     0
  0
ATTDEF
  5
180
330
172
100
AcDbEntity
  8
AM_6
100
AcDbText
 10
12.625
 20
-2.796474358974359
 30
0.0
 40
0.5
  1
4-15/32
100
AcDbAttributeDefinition
  3

  2
A
 70
     8
280
     0
  0
ATTDEF
  5
181
330
172
100
AcDbEntity
  8
AM_6
100
AcDbText
 10
12.625
 20
-3.296474358974359
 30
0.0
 40
0.5
  1
15-1/4
100
AcDbAttributeDefinition
  3

  2
B
 70
     8
280
     0
  0
ATTDEF
  5
182
330
172
100
AcDbEntity
  8
AM_6
100
AcDbText
 10
12.625
 20
-3.796474358974359
 30
0.0
 40
0.5
  1
3-29/32
100
AcDbAttributeDefinition
  3

  2
C
 70
     8
280
     0
  0
ATTDEF
  5
183
330
172
100
AcDbEntity
  8
AM_6
100
AcDbText
 10
12.625
 20
-4.296474358974359
 30
0.0
 40
0.5
  1
10-5/8
100
AcDbAttributeDefinition
  3

  2
DMIN
 70
     8
280
     0
  0
ATTDEF
  5
184
330
172
100
AcDbEntity
  8
AM_6
100
AcDbText
 10
12.625
 20
-4.796474358974359
 30
0.0
 40
0.5
  1
12-7/8
100
AcDbAttributeDefinition
  3

  2
DMAX
 70
     8
280
     0
  0
ATTDEF
  5
185
330
172
100
AcDbEntity
  8
AM_6
100
AcDbText
 10
12.625
 20
-5.296474358974359
 30
0.0
 40
0.5
  1
1
100
AcDbAttributeDefinition
  3

  2
F
 70
     8
280
     0
  0
ATTDEF
  5
186
330
172
100
AcDbEntity
  8
AM_6
100
AcDbText
 10
12.625
 20
-5.796474358974359
 30
0.0
 40
0.5
  1
2-1/4
100
AcDbAttributeDefinition
  3

  2
G
 70
     8
280
     0
  0
ATTDEF
  5
187
330
172
100
AcDbEntity
  8
AM_6
100
AcDbText
 10
12.625
 20
-6.296474358974359
 30
0.0
 40
0.5
  1
2-7/16
100
AcDbAttributeDefinition
  3

  2
H
 70
     8
280
     0
  0
ATTDEF
  5
188
330
172
100
AcDbEntity
  8
AM_6
100
AcDbText
 10
12.625
 20
-6.796474358974359
 30
0.0
 40
0.5
  1
8-3/8
100
AcDbAttributeDefinition
  3

  2
J
 70
     8
280
     0
  0
ATTDEF
  5
189
330
172
100
AcDbEntity
  8
AM_6
100
AcDbText
 10
12.625
 20
-7.296474358974359
 30
0.0
 40
0.5
  1
6
100
AcDbAttributeDefinition
  3

  2
L
 70
     8
280
     0
  0
ATTDEF
  5
18A
330
172
100
AcDbEntity
  8
AM_6
100
AcDbText
 10
12.625
 20
-7.796474358974359
 30
0.0
 40
0.5
  1
4-1/4
100
AcDbAttributeDefinition
  3

  2
M
 70
     8
280
     0
  0
ATTDEF
  5
18B
330
172
100
AcDbEntity
  8
AM_6
100
AcDbText
 10
12.625
 20
-8.29647435897436
 30
0.0
 40
0.5
  1
1-41/64
100
AcDbAttributeDefinition
  3

  2
R
 70
     8
280
     0
  0
ATTDEF
  5
18C
330
172
100
AcDbEntity
  8
AM_6
100
AcDbText
 10
12.625
 20
-8.79647435897436
 30
0.0
 40
0.5
  1
2-53/64
100
AcDbAttributeDefinition
  3

  2
S
 70
     8
280
     0
  0
ATTDEF
  5
18D
330
172
100
AcDbEntity
  8
AM_6
100
AcDbText
 10
12.625
 20
-9.29647435897436
 30
0.0
 40
0.5
  1
5/16
100
AcDbAttributeDefinition
  3

  2
X
 70
     8
280
     0
  0
ATTDEF
  5
18E
330
172
100
AcDbEntity
  8
AM_6
100
AcDbText
 10
12.625
 20
-9.79647435897436
 30
0.0
 40
0.5
  1
0.025
100
AcDbAttributeDefinition
  3

  2
Y
 70
     8
280
     0
  0
ATTDEF
  5
18F
330
172
100
AcDbEntity
  8
AM_6
100
AcDbText
 10
12.625
 20
-10.29647435897436
 30
0.0
 40
0.5
  1
4-1/2
100
AcDbAttributeDefinition
  3

  2
Z
 70
     8
280
     0
  0
ATTDEF
  5
190
330
172
100
AcDbEntity
  8
AM_6
100
AcDbText
 10
12.625
 20
-10.79647435897436
 30
0.0
 40
0.5
  1
2
100
AcDbAttributeDefinition
  3

  2
ST1
 70
     8
280
     0
  0
ATTDEF
  5
191
330
172
100
AcDbEntity
  8
AM_6
100
AcDbText
 10
12.625
 20
-11.29647435897436
 30
0.0
 40
0.5
  1
baldor
100
AcDbAttributeDefinition
  3

  2
COMPANY
 70
     8
280
     0
  0
LINE
  5
192
330
172
100
AcDbEntity
  8
AM_9
100
AcDbLine
 10
3.5433
 20
-1.5625
 30
0.0
 11
3.5433
 21
1.5625
 31
0.0
  0
LINE
  5
193
330
172
100
AcDbEntity
  8
AM_9
100
AcDbLine
 10
-3.5433
 20
1.5625
 30
0.0
 11
-3.5433
 21
-1.5625
 31
0.0
  0
LWPOLYLINE
  5
194
330
172
100
AcDbEntity
  8
AM_9
100
AcDbPolyline
 90
        6
 70
     0
 43
0.0
 10
2.386553436333698
 20
-0.3195564886624984
 10
2.417498502385159
 20
-0.267480406226819
 10
2.449121819482406
 20
-0.1925690856378164
 10
2.470038177255538
 20
-0.1121588387622569
 10
2.47772380520124
 20
-0.0564439250383302
 10
2.480305121162119
 20
0.0000000000000002
  0
LWPOLYLINE
  5
195
330
172
100
AcDbEntity
  8
AM_9
100
AcDbPolyline
 90
        7
 70
     0
 43
0.0
 10
2.074553464027209
 20
-0.4998058693678761
 10
2.134012115607892
 20
-0.493000988005496
 10
2.203051716854215
 20
-0.4722755225120645
 10
2.267347679682948
 20
-0.4382518351442674
 10
2.325375072475784
 20
-0.3920720742124269
 10
2.375913935730386
 20
-0.334480436120318
 10
2.386553436333698
 20
-0.3195564886624984
  0
LINE
  5
196
330
172
100
AcDbEntity
  8
AM_9
100
AcDbLine
 10
2.062497599596285
 20
-0.4999999999923182
 30
0.0
 11
2.074553464027209
 21
-0.4998058693678761
 31
0.0
  0
ELLIPSE
  5
197
330
172
100
AcDbEntity
  8
AM_9
100
AcDbEllipse
 10
2.087499999999999
 20
0.0000000000000001
 30
0.0
 11
3.061616997868385E-17
 21
0.5000000000000004
 31
0.0
210
0.0
220
0.0
230
1.0
 40
0.8660254037844385
 41
3.140399757929179
 42
6.267938110822791
  0
LINE
  5
198
330
172
100
AcDbEntity
  8
AM_9
100
AcDbLine
 10
2.081960288876695
 20
0.4994932116821996
 30
0.0
 11
2.062538620938868
 21
0.4999999980112188
 31
0.0
  0
LWPOLYLINE
  5
199
330
172
100
AcDbEntity
  8
AM_9
100
AcDbPolyline
 90
        7
 70
     0
 43
0.0
 10
2.387748584693963
 20
0.317792439286892
 10
2.344787333011837
 20
0.3722223675728861
 10
2.289124940101196
 20
0.4229532585746239
 10
2.226266732390127
 20
0.4617443653291437
 10
2.158069684625725
 20
0.4874731462965807
 10
2.086644781890478
 20
0.49916716067544
 10
2.081960288876695
 20
0.4994932116821996
  0
LWPOLYLINE
  5
19A
330
172
100
AcDbEntity
  8
AM_9
100
AcDbPolyline
 90
        6
 70
     0
 43
0.0
 10
2.480305121162119
 20
0.0000000000000002
 10
2.474599192074108
 20
0.0835886104701115
 10
2.457762633386505
 20
0.1648127068098041
 10
2.430047567795698
 20
0.2413055851309455
 10
2.392223186614251
 20
0.3110347205712211
 10
2.387748584693963
 20
0.317792439286892
  0
LINE
  5
19B
330
172
100
AcDbEntity
  8
AM_7
100
AcDbLine
 10
0.0
 20
2.203525641025641
 30
0.0
 11
0.0
 21
-3.052343749999999
 31
0.0
  0
LINE
  5
19C
330
172
100
AcDbEntity
  8
AM_7
100
AcDbLine
 10
-7.028125000000001
 20
0.0000000000000007
 30
0.0
 11
-4.721875
 21
0.0000000000000005
 31
0.0
  0
LINE
  5
19D
330
172
100
AcDbEntity
  8
AM_7
100
AcDbLine
 10
-6.437500000000001
 20
-0.5906249999999994
 30
0.0
 11
-6.437500000000001
 21
0.5906250000000007
 31
0.0
  0
LINE
  5
19E
330
172
100
AcDbEntity
  8
AM_7
100
AcDbLine
 10
4.721875
 20
-0.0000000000000001
 30
0.0
 11
7.028125000000001
 21
-0.0000000000000001
 31
0.0
  0
LINE
  5
19F
330
172
100
AcDbEntity
  8
AM_7
100
AcDbLine
 10
6.437500000000001
 20
-0.5906250000000002
 30
0.0
 11
6.437500000000001
 21
0.590625
 31
0.0
  0
LINE
  5
1A0
330
172
100
AcDbEntity
  8
AM_7
100
AcDbLine
 10
5.3125
 20
-0.5906250000000002
 30
0.0
 11
5.3125
 21
0.590625
 31
0.0
  0
LINE
  5
1A1
330
172
100
AcDbEntity
  8
AM_7
100
AcDbLine
 10
-5.3125
 20
-0.5906249999999995
 30
0.0
 11
-5.3125
 21
0.5906250000000006
 31
0.0
  0
LINE
  5
1A2
330
172
100
AcDbEntity
  8
AM_4
100
AcDbLine
 10
-7.234375
 20
1.953125
 30
0.0
 11
-7.625
 21
1.562500000000001
 31
0.0
  0
LINE
  5
1A3
330
172
100
AcDbEntity
  8
AM_4
100
AcDbLine
 10
-7.625
 20
-1.5625
 30
0.0
 11
-7.625
 21
1.5625
 31
0.0
  0
LINE
  5
1A4
330
172
100
AcDbEntity
  8
AM_4
100
AcDbLine
 10
-7.625
 20
-1.562500000000001
 30
0.0
 11
-7.234375
 21
-1.953125
 31
0.0
  0
LINE
  5
1A5
330
172
100
AcDbEntity
  8
AM_4
100
AcDbLine
 10
-4.554761904761905
 20
1.953125
 30
0.0
 11
-7.234375
 21
1.953125
 31
0.0
  0
LINE
  5
1A6
330
172
100
AcDbEntity
  8
AM_4
100
AcDbLine
 10
-4.554761904761905
 20
-1.953125
 30
0.0
 11
-7.234375
 21
-1.953125
 31
0.0
  0
LINE
  5
1A7
330
172
100
AcDbEntity
  8
AM_4
100
AcDbLine
 10
-5.3125
 20
0.5625000000000004
 30
0.0
 11
-6.4375
 21
0.5625000000000007
 31
0.0
  0
ARC
  5
1A8
330
172
100
AcDbEntity
  8
AM_4
100
AcDbCircle
 10
-5.3125
 20
0.0000000000000004
 30
0.0
 40
0.5624999999999999
100
AcDbArc
 50
270.0
 51
90.0
  0
LINE
  5
1A9
330
172
100
AcDbEntity
  8
AM_4
100
AcDbLine
 10
-6.4375
 20
-0.5624999999999992
 30
0.0
 11
-5.3125
 21
-0.5624999999999994
 31
0.0
  0
ARC
  5
1AA
330
172
100
AcDbEntity
  8
AM_4
100
AcDbCircle
 10
-6.4375
 20
0.0000000000000007
 30
0.0
 40
0.5625
100
AcDbArc
 50
90.0
 51
270.0
  0
LINE
  5
1AB
330
172
100
AcDbEntity
  8
AM_4
100
AcDbLine
 10
-7.399999999999999
 20
-1.7875
 30
0.0
 11
-7.399999999999999
 21
1.787500000000001
 31
0.0
  0
LINE
  5
1AC
330
172
100
AcDbEntity
  8
AM_4
100
AcDbLine
 10
7.234375
 20
1.953125
 30
0.0
 11
4.554761904761905
 21
1.953125
 31
0.0
  0
LINE
  5
1AD
330
172
100
AcDbEntity
  8
AM_4
100
AcDbLine
 10
7.234374999999999
 20
-1.953125
 30
0.0
 11
4.554761904761905
 21
-1.953125
 31
0.0
  0
LINE
  5
1AE
330
172
100
AcDbEntity
  8
AM_4
100
AcDbLine
 10
7.625
 20
1.5625
 30
0.0
 11
7.234375
 21
1.953125
 31
0.0
  0
LINE
  5
1AF
330
172
100
AcDbEntity
  8
AM_4
100
AcDbLine
 10
7.234374999999999
 20
-1.953125
 30
0.0
 11
7.625
 21
-1.5625
 31
0.0
  0
LINE
  5
1B0
330
172
100
AcDbEntity
  8
AM_4
100
AcDbLine
 10
6.4375
 20
0.5624999999999999
 30
0.0
 11
5.3125
 21
0.5624999999999999
 31
0.0
  0
ARC
  5
1B1
330
172
100
AcDbEntity
  8
AM_4
100
AcDbCircle
 10
6.4375
 20
-0.0000000000000002
 30
0.0
 40
0.5625
100
AcDbArc
 50
270.0
 51
90.0
  0
LINE
  5
1B2
330
172
100
AcDbEntity
  8
AM_4
100
AcDbLine
 10
5.3125
 20
-0.5625000000000001
 30
0.0
 11
6.4375
 21
-0.5625000000000001
 31
0.0
  0
ARC
  5
1B3
330
172
100
AcDbEntity
  8
AM_4
100
AcDbCircle
 10
5.3125
 20
-0.0000000000000001
 30
0.0
 40
0.5625
100
AcDbArc
 50
90.0
 51
270.0
  0
LINE
  5
1B4
330
172
100
AcDbEntity
  8
AM_4
100
AcDbLine
 10
7.625
 20
-1.5625
 30
0.0
 11
7.625
 21
1.5625
 31
0.0
  0
LINE
  5
1B5
330
172
100
AcDbEntity
  8
AM_4
100
AcDbLine
 10
7.399999999999999
 20
-1.787500000000001
 30
0.0
 11
7.399999999999999
 21
1.787500000000001
 31
0.0
  0
LINE
  5
1B6
330
172
100
AcDbEntity
  8
AM_4
100
AcDbLine
 10
4.246874999999998
 20
-1.171875
 30
0.0
 11
4.246874999999998
 21
1.171875
 31
0.0
  0
LINE
  5
1B7
330
172
100
AcDbEntity
  8
AM_4
100
AcDbLine
 10
-4.246875
 20
-1.171875
 30
0.0
 11
-4.246875
 21
1.171875
 31
0.0
  0
LINE
  5
1B8
330
172
100
AcDbEntity
  8
AM_4
100
AcDbLine
 10
4.124999999999976
 20
1.171875
 30
0.0
 11
4.600118579677413
 21
1.171875
 31
0.0
  0
LWPOLYLINE
  5
1B9
330
172
100
AcDbEntity
  8
AM_4
100
AcDbPolyline
 90
        6
 70
     0
 43
0.0
 10
4.36875
 20
1.748511904761905
 10
4.365961809071298
 20
1.716426091661402
 10
4.358903546657534
 20
1.688794550170986
 10
4.350916494677884
 20
1.669035778314884
 10
4.343485569734773
 20
1.65491341035044
 10
4.341512712216707
 20
1.651604476169215
  0
LINE
  5
1BA
330
172
100
AcDbEntity
  8
AM_4
100
AcDbLine
 10
4.600118579677413
 20
1.171875
 30
0.0
 11
4.600118579677413
 21
1.953125
 31
0.0
  0
LWPOLYLINE
  5
1BB
330
172
100
AcDbEntity
  8
AM_4
100
AcDbPolyline
 90
       11
 70
     0
 43
0.0
 10
4.36875
 20
1.767113095238095
 10
4.371731755750404
 20
1.800285271319559
 10
4.377016890985122
 20
1.821954126210379
 10
4.384419160338259
 20
1.841837777474775
 10
4.401837313115573
 20
1.873050544097833
 10
4.424609898972602
 20
1.900007354339733
 10
4.453763558901028
 20
1.923299581579693
 10
4.488486634615062
 20
1.940917632808654
 10
4.513729383183584
 20
1.948528205204808
 10
4.540618958317689
 20
1.952586559051731
 10
4.554761904761906
 20
1.953125
  0
LINE
  5
1BC
330
172
100
AcDbEntity
  8
AM_4
100
AcDbLine
 10
4.36875
 20
1.748511904761905
 30
0.0
 11
4.36875
 21
1.767113095238095
 31
0.0
  0
LINE
  5
1BD
330
172
100
AcDbEntity
  8
AM_4
100
AcDbLine
 10
4.124999999999976
 20
-1.171875
 30
0.0
 11
4.600118579677413
 21
-1.171875
 31
0.0
  0
LWPOLYLINE
  5
1BE
330
172
100
AcDbEntity
  8
AM_4
100
AcDbPolyline
 90
        6
 70
     0
 43
0.0
 10
4.341512712216707
 20
-1.651604476169215
 10
4.348185650826964
 20
-1.663496993935472
 10
4.357769044642728
 20
-1.68554687110287
 10
4.362282172457327
 20
-1.69992448284946
 10
4.36593589118422
 20
-1.716278439642035
 10
4.368750000000005
 20
-1.748511904761887
  0
LINE
  5
1BF
330
172
100
AcDbEntity
  8
AM_4
100
AcDbLine
 10
4.36875
 20
-1.767113095238097
 30
0.0
 11
4.36875
 21
-1.748511904761905
 31
0.0
  0
LWPOLYLINE
  5
1C0
330
172
100
AcDbEntity
  8
AM_4
100
AcDbPolyline
 90
       11
 70
     0
 43
0.0
 10
4.554761904761905
 20
-1.953125
 10
4.526070429259382
 20
-1.950878181418274
 10
4.498851590019958
 20
-1.944523538613361
 10
4.473980839025643
 20
-1.934661319795398
 10
4.4515209265271
 20
-1.921844246356001
 10
4.423629917403686
 20
-1.89904875049888
 10
4.401062454169605
 20
-1.871883833523061
 10
4.387298503448176
 20
-1.848114548199641
 10
4.376887291211564
 20
-1.821528631323561
 10
4.3699530846255
 20
-1.788234854467427
 10
4.36875
 20
-1.767113095238097
  0
LINE
  5
1C1
330
172
100
AcDbEntity
  8
AM_4
100
AcDbLine
 10
4.600118579677413
 20
-1.953125
 30
0.0
 11
4.600118579677413
 21
-1.171875
 31
0.0
  0
LINE
  5
1C2
330
172
100
AcDbEntity
  8
AM_4
100
AcDbLine
 10
-4.600118579677412
 20
-1.171875
 30
0.0
 11
-4.125000000000003
 21
-1.171875
 31
0.0
  0
LWPOLYLINE
  5
1C3
330
172
100
AcDbEntity
  8
AM_4
100
AcDbPolyline
 90
        6
 70
     0
 43
0.0
 10
-4.36875
 20
-1.748511904761905
 10
-4.365961809071298
 20
-1.716426091661402
 10
-4.358903546657534
 20
-1.688794550170985
 10
-4.350916494677884
 20
-1.669035778314883
 10
-4.343485569734773
 20
-1.654913410350439
 10
-4.341512712216707
 20
-1.651604476169215
  0
LINE
  5
1C4
330
172
100
AcDbEntity
  8
AM_4
100
AcDbLine
 10
-4.600118579677413
 20
-1.953125
 30
0.0
 11
-4.600118579677412
 21
-1.171875
 31
0.0
  0
LWPOLYLINE
  5
1C5
330
172
100
AcDbEntity
  8
AM_4
100
AcDbPolyline
 90
       11
 70
     0
 43
0.0
 10
-4.36875
 20
-1.767113095238095
 10
-4.371731755750404
 20
-1.800285271319559
 10
-4.377016890985122
 20
-1.821954126210379
 10
-4.38441916033826
 20
-1.841837777474775
 10
-4.401572255847986
 20
-1.87262783439231
 10
-4.424609898972604
 20
-1.900007354339734
 10
-4.453125538193826
 20
-1.922902946332417
 10
-4.488486634615064
 20
-1.940917632808655
 10
-4.513729383183587
 20
-1.948528205204809
 10
-4.540618958317693
 20
-1.952586559051731
 10
-4.554761904761906
 20
-1.953125
  0
LINE
  5
1C6
330
172
100
AcDbEntity
  8
AM_4
100
AcDbLine
 10
-4.36875
 20
-1.748511904761905
 30
0.0
 11
-4.36875
 21
-1.767113095238095
 31
0.0
  0
LINE
  5
1C7
330
172
100
AcDbEntity
  8
AM_4
100
AcDbLine
 10
-4.600118579677412
 20
1.171875
 30
0.0
 11
-4.125000000000003
 21
1.171875
 31
0.0
  0
LWPOLYLINE
  5
1C8
330
172
100
AcDbEntity
  8
AM_4
100
AcDbPolyline
 90
        6
 70
     0
 43
0.0
 10
-4.341512712216707
 20
1.651604476169215
 10
-4.348185650826964
 20
1.663496993935472
 10
-4.357769044642728
 20
1.685546871102871
 10
-4.362282172457328
 20
1.699924482849461
 10
-4.365935891184221
 20
1.716278439642036
 10
-4.368750000000005
 20
1.748511904761887
  0
LINE
  5
1C9
330
172
100
AcDbEntity
  8
AM_4
100
AcDbLine
 10
-4.600118579677412
 20
1.171875
 30
0.0
 11
-4.600118579677413
 21
1.953125
 31
0.0
  0
LINE
  5
1CA
330
172
100
AcDbEntity
  8
AM_4
100
AcDbLine
 10
-4.36875
 20
1.767113095238095
 30
0.0
 11
-4.36875
 21
1.748511904761905
 31
0.0
  0
LWPOLYLINE
  5
1CB
330
172
100
AcDbEntity
  8
AM_4
100
AcDbPolyline
 90
       11
 70
     0
 43
0.0
 10
-4.554761904761905
 20
1.953125
 10
-4.526070429259381
 20
1.950878181418274
 10
-4.498851590019957
 20
1.944523538613361
 10
-4.473980839025643
 20
1.934661319795397
 10
-4.451520926527099
 20
1.921844246356001
 10
-4.423629917403686
 20
1.89904875049888
 10
-4.401062454169605
 20
1.871883833523061
 10
-4.387298503448176
 20
1.84811454819964
 10
-4.376887291211564
 20
1.821528631323561
 10
-4.3699530846255
 20
1.788234854467428
 10
-4.36875
 20
1.767113095238095
  0
LINE
  5
1CC
330
172
100
AcDbEntity
  8
AM_4
100
AcDbLine
 10
4.341512712216707
 20
-1.651604476169215
 30
0.0
 11
4.341512712216707
 21
-1.171875
 31
0.0
  0
LINE
  5
1CD
330
172
100
AcDbEntity
  8
AM_4
100
AcDbLine
 10
4.124999999999976
 20
1.171875
 30
0.0
 11
4.124999999999976
 21
-1.171875
 31
0.0
  0
LINE
  5
1CE
330
172
100
AcDbEntity
  8
AM_4
100
AcDbLine
 10
4.341512712216707
 20
1.171874999999999
 30
0.0
 11
4.341512712216707
 21
1.651604476169214
 31
0.0
  0
LWPOLYLINE
  5
1CF
330
172
100
AcDbEntity
  8
AM_4
100
AcDbPolyline
 90
       13
 70
     0
 43
0.0
 10
4.182738095238095
 20
1.5625
 10
4.198950100957526
 20
1.563207831456149
 10
4.215038723524355
 20
1.565325938799813
 10
4.230881518806273
 20
1.568838201955159
 10
4.246357913565042
 20
1.573717890478812
 10
4.261350123091648
 20
1.579927866994671
 10
4.275744047619047
 20
1.587420869831764
 10
4.289430140690299
 20
1.596139872714102
 10
4.30230424287324
 20
1.606018518765071
 10
4.314268374476664
 20
1.616981625523336
 10
4.325231481234929
 20
1.62894575712676
 10
4.335110127285899
 20
1.641819859309702
 10
4.341512712216707
 20
1.651604476169216
  0
LWPOLYLINE
  5
1D0
330
172
100
AcDbEntity
  8
AM_4
100
AcDbPolyline
 90
       13
 70
     0
 43
0.0
 10
4.341512712216707
 20
-1.651604476169215
 10
4.332462487946974
 20
-1.638135118519917
 10
4.322272770642666
 20
-1.625505794861247
 10
4.31102111020519
 20
-1.61381262197204
 10
4.298793138564411
 20
-1.603144591958514
 10
4.285681917967969
 20
-1.593582894970606
 10
4.271787232721372
 20
-1.585200301295904
 10
4.257214829769188
 20
-1.57806060753382
 10
4.24207561389694
 20
-1.572218151064948
 10
4.226484803678726
 20
-1.56771739651079
 10
4.210561054594294
 20
-1.564592597331132
 10
4.194425555989199
 20
-1.562867535134535
 10
4.182738095238077
 20
-1.5625
  0
LINE
  5
1D1
330
172
100
AcDbEntity
  8
AM_4
100
AcDbLine
 10
-4.182738095238095
 20
-1.5625
 30
0.0
 11
4.182738095238085
 21
-1.5625
 31
0.0
  0
LINE
  5
1D2
330
172
100
AcDbEntity
  8
AM_4
100
AcDbLine
 10
4.182738095238095
 20
1.5625
 30
0.0
 11
-4.182738095238085
 21
1.5625
 31
0.0
  0
LINE
  5
1D3
330
172
100
AcDbEntity
  8
AM_4
100
AcDbLine
 10
-4.125000000000003
 20
-1.171875
 30
0.0
 11
-4.125000000000003
 21
1.171875
 31
0.0
  0
LINE
  5
1D4
330
172
100
AcDbEntity
  8
AM_4
100
AcDbLine
 10
-4.341512712216707
 20
-1.651604476169215
 30
0.0
 11
-4.341512712216707
 21
-1.171875
 31
0.0
  0
LWPOLYLINE
  5
1D5
330
172
100
AcDbEntity
  8
AM_4
100
AcDbPolyline
 90
       13
 70
     0
 43
0.0
 10
-4.182738095238095
 20
-1.5625
 10
-4.198950100957526
 20
-1.563207831456149
 10
-4.215038723524355
 20
-1.565325938799813
 10
-4.230881518806273
 20
-1.568838201955159
 10
-4.246357913565042
 20
-1.573717890478812
 10
-4.261350123091648
 20
-1.579927866994671
 10
-4.275744047619047
 20
-1.587420869831764
 10
-4.289430140690299
 20
-1.596139872714102
 10
-4.30230424287324
 20
-1.606018518765071
 10
-4.314268374476664
 20
-1.616981625523336
 10
-4.325231481234929
 20
-1.62894575712676
 10
-4.335110127285899
 20
-1.641819859309702
 10
-4.341512712216707
 20
-1.651604476169215
  0
LWPOLYLINE
  5
1D6
330
172
100
AcDbEntity
  8
AM_4
100
AcDbPolyline
 90
       13
 70
     0
 43
0.0
 10
-4.341512712216707
 20
1.651604476169215
 10
-4.332462487946974
 20
1.638135118519917
 10
-4.322272770642666
 20
1.625505794861247
 10
-4.31102111020519
 20
1.61381262197204
 10
-4.298793138564411
 20
1.603144591958514
 10
-4.285681917967969
 20
1.593582894970606
 10
-4.271787232721372
 20
1.585200301295904
 10
-4.257214829769188
 20
1.57806060753382
 10
-4.24207561389694
 20
1.572218151064948
 10
-4.226484803678725
 20
1.56771739651079
 10
-4.210561054594294
 20
1.564592597331132
 10
-4.194425555989199
 20
1.562867535134535
 10
-4.182738095238077
 20
1.5625
  0
LINE
  5
1D7
330
172
100
AcDbEntity
  8
AM_4
100
AcDbLine
 10
-4.341512712216707
 20
1.171874999999999
 30
0.0
 11
-4.341512712216707
 21
1.651604476169215
 31
0.0
  0
LINE
  5
1D8
330
172
100
AcDbEntity
  8
AM_4
100
AcDbLine
 10
2.087499999999999
 20
0.5000000000000004
 30
0.0
 11
2.062400984629153
 21
0.5000000000000004
 31
0.0
  0
LINE
  5
1D9
330
172
100
AcDbEntity
  8
AM_4
100
AcDbLine
 10
2.062497998230198
 20
-0.5000000000000001
 30
0.0
 11
2.087499999999999
 21
-0.5000000000000001
 31
0.0
  0
LWPOLYLINE
  5
1DA
330
172
100
AcDbEntity
  8
AM_4
100
AcDbPolyline
 90
       21
 70
     0
 43
0.0
 10
2.062538620938868
 20
0.4999999980112188
 10
2.0136970618415
 20
0.4968391777210215
 10
1.941689027239571
 20
0.480481722319165
 10
1.87233522881392
 20
0.450789737383993
 10
1.807598508190573
 20
0.4083130590747289
 10
1.749564324857492
 20
0.3544753820337734
 10
1.699859135505811
 20
0.290186802473309
 10
1.660363126159995
 20
0.2176847148156316
 10
1.63254523542913
 20
0.1388706441823862
 10
1.617204578141469
 20
0.0560858230803937
 10
1.615046716800766
 20
-0.0277939149034494
 10
1.625812968681136
 20
-0.1108860694170226
 10
1.649223766785249
 20
-0.1905501457719792
 10
1.684315388737442
 20
-0.2648840657150485
 10
1.730334603151384
 20
-0.3320528925812554
 10
1.785500356022605
 20
-0.3899225326565048
 10
1.848536038955239
 20
-0.4369627072613766
 10
1.91711011508108
 20
-0.4716560023063739
 10
1.988988197330188
 20
-0.4927763864241527
 10
2.062157888258511
 20
-0.4999998439546786
 10
2.062497599596285
 20
-0.4999999999923182
  0
ELLIPSE
  5
1DB
330
172
100
AcDbEntity
  8
AM_4
100
AcDbEllipse
 10
2.112499999999999
 20
0.0000000000000002
 30
0.0
 11
-8.266365894244634E-17
 21
-0.4500000000000001
 31
0.0
210
0.0
220
0.0
230
1.0
 40
0.8660254037844387
 41
0.0
 42
6.283185307179586
  0
LWPOLYLINE
  5
1DC
330
172
100
AcDbEntity
  8
AM_4
100
AcDbPolyline
 90
       21
 70
     0
 43
0.0
 10
2.527211431702997
 20
0.0000000000000002
 10
2.526758548275422
 20
0.0227083935608991
 10
2.523571723813695
 20
0.064258783463153
 10
2.517351961866436
 20
0.1053824258208095
 10
2.508139170769244
 20
0.1457856341927659
 10
2.495993224135133
 20
0.1851871742667404
 10
2.480994256612573
 20
0.2233114868141684
 10
2.463242603962124
 20
0.2598904441722619
 10
2.442858685849583
 20
0.2946652309995959
 10
2.419982772302384
 20
0.3273883763224292
 10
2.394774548156213
 20
0.3578259509618116
 10
2.367412368921149
 20
0.385759909239923
 10
2.338092096640336
 20
0.4109905018450201
 10
2.307025427660453
 20
0.4333386251808091
 10
2.274437683704043
 20
0.4526479179295013
 10
2.24056512998323
 20
0.4687863910616415
 10
2.205651990347052
 20
0.4816474046310853
 10
2.169947417372183
 20
0.4911498914865415
 10
2.133702710571167
 20
0.4972378603158621
 10
2.097169037679008
 20
0.4998793526761552
 10
2.088738750893496
 20
0.4999980199911708
  0
LWPOLYLINE
  5
1DD
330
172
100
AcDbEntity
  8
AM_4
100
AcDbPolyline
 90
       21
 70
     0
 43
0.0
 10
2.086958848292801
 20
-0.4999996221351202
 10
2.089380393031376
 20
-0.4999954375558247
 10
2.125914756802137
 20
-0.4980922056994968
 10
2.162161192731797
 20
-0.4927543811351113
 10
2.197874942648975
 20
-0.4840229159237856
 10
2.232818529927125
 20
-0.4719584526321411
 10
2.266758885693911
 20
-0.4566413382373047
 10
2.299467802610834
 20
-0.4381720293683605
 10
2.330722882616193
 20
-0.4166716470668116
 10
2.360309015755794
 20
-0.3922823882731287
 10
2.388020292878672
 20
-0.36516754179431
 10
2.413662160056226
 20
-0.3355109554626112
 10
2.437053588433476
 20
-0.303515922848286
 10
2.458029058337319
 20
-0.2694035647990997
 10
2.476440221335851
 20
-0.2334108476101157
 10
2.492157181503738
 20
-0.1957883987321784
 10
2.505069404168804
 20
-0.1567982618682769
 10
2.515086304273623
 20
-0.1167116934648665
 10
2.522137585653318
 20
-0.0758070588423901
 10
2.526173402758711
 20
-0.0343678496529355
 10
2.527211431702997
 20
0.0000000000000002
  0
ELLIPSE
  5
1DE
330
172
100
AcDbEntity
  8
AM_4
100
AcDbEllipse
 10
2.0875
 20
0.0000000000000002
 30
0.0
 11
3.061616997868385E-17
 21
0.5000000000000004
 31
0.0
210
0.0
220
0.0
230
1.0
 40
0.8660254037844394
 41
6.280434892078667
 42
9.423585065108766
  0
LINE
  5
1DF
330
172
100
AcDbEntity
  8
AM_4
100
AcDbLine
 10
4.096316940577581
 20
-1.5625
 30
0.0
 11
4.096316940577581
 21
1.5625
 31
0.0
  0
LINE
  5
1E0
330
172
100
AcDbEntity
  8
AM_4
100
AcDbLine
 10
-4.096316940577581
 20
-1.5625
 30
0.0
 11
-4.096316940577581
 21
1.5625
 31
0.0
  0
LINE
  5
1E1
330
172
100
AcDbEntity
  8
AM_4
100
AcDbLine
 10
1.067628561047898
 20
-1.5625
 30
0.0
 11
1.067628561047898
 21
1.5625
 31
0.0
  0
LINE
  5
1E2
330
172
100
AcDbEntity
  8
AM_4
100
AcDbLine
 10
-1.067628561047898
 20
-1.5625
 30
0.0
 11
-1.067628561047898
 21
1.5625
 31
0.0
  0
ENDBLK
  5
175
330
172
100
AcDbEntity
  8
0
100
AcDbBlockEnd
  0
ENDSEC
  0
SECTION
  2
ENTITIES
  0
INSERT
  5
6F
330
1F
100
AcDbEntity
  8
0
100
AcDbBlockReference
  2
1_070336_4
 10
0.0
 20
0.0
 30
0.0
  0
POINT
  5
1E4
330
1F
100
AcDbEntity
  8
ConnectionPoints
100
AcDbPoint
 10
0.0
 20
-2.828125
 30
0.0000000000000002
  0
POINT
  5
1E5
330
1F
100
AcDbEntity
  8
ConnectionPoints
100
AcDbPoint
 10
0.0
 20
2.848625
 30
-0.0000000000000002
  0
POINT
  5
1E6
330
1F
100
AcDbEntity
  8
ConnectionPoints
100
AcDbPoint
 10
0.0
 20
-2.828125
 30
0.0000000000000002
  0
POINT
  5
1E7
330
1F
100
AcDbEntity
  8
ConnectionPoints
100
AcDbPoint
 10
2.1125
 20
0.0000000000000002
 30
3.658957330989253
  0
POINT
  5
1E8
330
1F
100
AcDbEntity
  8
ConnectionPoints
100
AcDbPoint
 10
0.0
 20
-2.515625
 30
0.0000000000000002
  0
POINT
  5
1E9
330
1F
100
AcDbEntity
  8
ConnectionPoints
100
AcDbPoint
 10
0.0
 20
-2.828125
 30
0.0000000000000002
  0
POINT
  5
1EA
330
1F
100
AcDbEntity
  8
ConnectionPoints
100
AcDbPoint
 10
2.1125
 20
0.0000000000000002
 30
3.658957330989253
  0
ENDSEC
  0
SECTION
  2
OBJECTS
  0
DICTIONARY
  5
C
330
0
100
AcDbDictionary
281
     1
  3
ACAD_DETAILVIEWSTYLE
350
1F2
  3
ACAD_GROUP
350
D
  3
ACAD_LAYOUT
350
1A
  3
ACAD_MATERIAL
350
43
  3
ACAD_MLEADERSTYLE
350
6B
  3
ACAD_MLINESTYLE
350
17
  3
ACAD_PLOTSETTINGS
350
19
  3
ACAD_PLOTSTYLENAME
350
E
  3
ACAD_SCALELIST
350
47
  3
ACAD_SECTIONVIEWSTYLE
350
1F3
  3
ACAD_TABLESTYLE
350
69
  3
ACAD_VISUALSTYLE
350
2A
  3
ACDB_RECOMPOSE_DATA
350
1EF
  3
AcDbVariableDictionary
350
1EB
  0
SUN
  5
6D
330
29
100
AcDbSun
 90
        1
290
     0
 63
     7
421
 16777215
 40
1.0
291
     1
 91
  2455826
 92
 54000000
292
     0
 70
     2
 71
   256
280
     1
  0
DICTIONARY
  5
1F2
102
{ACAD_REACTORS
330
C
102
}
330
C
100
AcDbDictionary
281
     1
  0
DICTIONARY
  5
D
102
{ACAD_REACTORS
330
C
102
}
330
C
100
AcDbDictionary
281
     1
  0
DICTIONARY
  5
1A
102
{ACAD_REACTORS
330
C
102
}
330
C
100
AcDbDictionary
281
     1
  3
Layout1
350
1E
  3
Layout2
350
26
  3
Model
350
22
  0
DICTIONARY
  5
43
102
{ACAD_REACTORS
330
C
102
}
330
C
100
AcDbDictionary
281
     1
  3
ByBlock
350
45
  3
ByLayer
350
44
  3
Global
350
46
  0
DICTIONARY
  5
6B
102
{ACAD_REACTORS
330
C
102
}
330
C
100
AcDbDictionary
281
     1
  3
Standard
350
6C
  0
DICTIONARY
  5
17
102
{ACAD_REACTORS
330
C
102
}
330
C
100
AcDbDictionary
281
     1
  3
Standard
350
18
  0
DICTIONARY
  5
19
102
{ACAD_REACTORS
330
C
102
}
330
C
100
AcDbDictionary
281
     1
  0
ACDBDICTIONARYWDFLT
  5
E
102
{ACAD_REACTORS
330
C
102
}
330
C
100
AcDbDictionary
281
     1
  3
Normal
350
F
100
AcDbDictionaryWithDefault
340
F
  0
DICTIONARY
  5
47
102
{ACAD_REACTORS
330
C
102
}
330
C
100
AcDbDictionary
281
     1
  3
A0
350
48
  3
A1
350
49
  3
A2
350
4A
  3
A3
350
4B
  3
A4
350
4C
  3
A5
350
4D
  3
A6
350
4E
  3
A7
350
4F
  3
A8
350
50
  3
A9
350
51
  3
B0
350
52
  3
B1
350
53
  3
B2
350
54
  3
B3
350
55
  3
B4
350
56
  3
B5
350
57
  3
B6
350
58
  3
B7
350
59
  3
B8
350
5A
  3
B9
350
5B
  3
C0
350
5C
  3
C1
350
5D
  3
C2
350
5E
  3
C3
350
5F
  3
C4
350
60
  3
C5
350
61
  3
C6
350
62
  3
C7
350
63
  3
C8
350
64
  3
C9
350
65
  3
D0
350
66
  3
D1
350
67
  3
D2
350
68
  0
DICTIONARY
  5
1F3
102
{ACAD_REACTORS
330
C
102
}
330
C
100
AcDbDictionary
281
     1
  0
DICTIONARY
  5
69
102
{ACAD_REACTORS
330
C
102
}
330
C
100
AcDbDictionary
281
     1
  3
Standard
350
6A
  0
DICTIONARY
  5
2A
102
{ACAD_REACTORS
330
C
102
}
330
C
100
AcDbDictionary
281
     1
  3
2dWireframe
350
2F
  3
Basic
350
32
  3
Brighten
350
36
  3
ColorChange
350
3A
  3
Conceptual
350
34
  3
Dim
350
35
  3
EdgeColorOff
350
3D
  3
Facepattern
350
39
  3
Flat
350
2B
  3
FlatWithEdges
350
2C
  3
Gouraud
350
2D
  3
GouraudWithEdges
350
2E
  3
Hidden
350
31
  3
JitterOff
350
3B
  3
Linepattern
350
38
  3
OverhangOff
350
3C
  3
Realistic
350
33
  3
Shaded
350
42
  3
Shaded with edges
350
41
  3
Shades of Gray
350
3E
  3
Sketchy
350
3F
  3
Thicken
350
37
  3
Wireframe
350
30
  3
X-Ray
350
40
  0
XRECORD
  5
1EF
102
{ACAD_REACTORS
330
C
102
}
330
C
100
AcDbXrecord
280
     1
 90
        1
330
6A
  0
DICTIONARY
  5
1EB
102
{ACAD_REACTORS
330
C
102
}
330
C
100
AcDbDictionary
281
     1
  3
CANNOSCALE
350
1EC
  3
CMLEADERSTYLE
350
1F1
  3
CTABLESTYLE
350
1F0
  0
LAYOUT
  5
1E
102
{ACAD_REACTORS
330
1A
102
}
330
1A
100
AcDbPlotSettings
  1

  2
none_device
  4

  6

 40
0.0
 41
0.0
 42
0.0
 43
0.0
 44
0.0
 45
0.0
 46
0.0
 47
0.0
 48
0.0
 49
0.0
140
0.0
141
0.0
142
1.0
143
1.0
 70
   688
 72
     0
 73
     0
 74
     5
  7

 75
    16
 76
     0
 77
     2
 78
   300
147
1.0
148
0.0
149
0.0
100
AcDbLayout
  1
Layout1
 70
     1
 71
     1
 10
0.0
 20
0.0
 11
12.0
 21
9.0
 12
0.0
 22
0.0
 32
0.0
 14
1.000000000000000E+20
 24
1.000000000000000E+20
 34
1.000000000000000E+20
 15
-1.000000000000000E+20
 25
-1.000000000000000E+20
 35
-1.000000000000000E+20
146
0.0
 13
0.0
 23
0.0
 33
0.0
 16
1.0
 26
0.0
 36
0.0
 17
0.0
 27
1.0
 37
0.0
 76
     0
330
1B
  0
LAYOUT
  5
26
102
{ACAD_REACTORS
330
1A
102
}
330
1A
100
AcDbPlotSettings
  1

  2
none_device
  4

  6

 40
0.0
 41
0.0
 42
0.0
 43
0.0
 44
0.0
 45
0.0
 46
0.0
 47
0.0
 48
0.0
 49
0.0
140
0.0
141
0.0
142
1.0
143
1.0
 70
   688
 72
     0
 73
     0
 74
     5
  7

 75
    16
 76
     0
 77
     2
 78
   300
147
1.0
148
0.0
149
0.0
100
AcDbLayout
  1
Layout2
 70
     1
 71
     2
 10
0.0
 20
0.0
 11
0.0
 21
0.0
 12
0.0
 22
0.0
 32
0.0
 14
0.0
 24
0.0
 34
0.0
 15
0.0
 25
0.0
 35
0.0
146
0.0
 13
0.0
 23
0.0
 33
0.0
 16
1.0
 26
0.0
 36
0.0
 17
0.0
 27
1.0
 37
0.0
 76
     0
330
23
  0
LAYOUT
  5
22
102
{ACAD_REACTORS
330
1A
102
}
330
1A
100
AcDbPlotSettings
  1

  2
none_device
  4
Letter_(8.50_x_11.00_Inches)
  6

 40
6.35
 41
6.35
 42
6.35000508
 43
6.35000508
 44
215.9
 45
279.4
 46
0.0
 47
0.0
 48
0.0
 49
0.0
140
0.0
141
0.0
142
1.0
143
1.0
 70
  1712
 72
     0
 73
     0
 74
     0
  7

 75
     0
 76
     0
 77
     2
 78
   300
147
1.0
148
0.0
149
0.0
100
AcDbLayout
  1
Model
 70
     1
 71
     0
 10
0.0
 20
0.0
 11
12.0
 21
9.0
 12
0.0
 22
0.0
 32
0.0
 14
1.000000000000000E+20
 24
1.000000000000000E+20
 34
1.000000000000000E+20
 15
-1.000000000000000E+20
 25
-1.000000000000000E+20
 35
-1.000000000000000E+20
146
0.0
 13
0.0
 23
0.0
 33
0.0
 16
1.0
 26
0.0
 36
0.0
 17
0.0
 27
1.0
 37
0.0
 76
     0
330
1F
331
29
  0
MATERIAL
  5
45
102
{ACAD_REACTORS
330
43
102
}
330
43
100
AcDbMaterial
  1
ByBlock
 72
     1
 94
      127
  0
MATERIAL
  5
44
102
{ACAD_REACTORS
330
43
102
}
330
43
100
AcDbMaterial
  1
ByLayer
 72
     1
 94
      127
  0
MATERIAL
  5
46
102
{ACAD_REACTORS
330
43
102
}
330
43
100
AcDbMaterial
  1
Global
 72
     1
 94
      127
  0
MLEADERSTYLE
  5
6C
102
{ACAD_REACTORS
330
6B
102
}
330
6B
100
AcDbMLeaderStyle
179
     2
170
     2
171
     1
172
     0
 90
        2
 40
0.0
 41
0.0
173
     1
 91
-1056964608
340
14
 92
       -2
290
     1
 42
0.09
291
     1
 43
0.36
  3
Standard
341
0
 44
0.18
300

342
11
174
     1
178
     6
175
     1
176
     0
 93
-1056964608
 45
0.18
292
     0
297
     0
 46
0.18
343
0
 94
-1056964608
 47
1.0
 49
1.0
140
1.0
293
     1
141
0.0
294
     1
177
     0
142
1.0
295
     0
296
     0
143
0.125
271
     0
272
     9
273
     9
298
     0
  0
MLINESTYLE
  5
18
102
{ACAD_REACTORS
330
17
102
}
330
17
100
AcDbMlineStyle
  2
Standard
 70
     0
  3

 62
   256
 51
90.0
 52
90.0
 71
     2
 49
0.5
 62
   256
  6
BYLAYER
 49
-0.5
 62
   256
  6
BYLAYER
  0
ACDBPLACEHOLDER
  5
F
102
{ACAD_REACTORS
330
E
102
}
330
E
  0
SCALE
  5
48
102
{ACAD_REACTORS
330
47
102
}
330
47
100
AcDbScale
 70
     0
300
1:1
140
1.0
141
1.0
290
     1
  0
SCALE
  5
49
102
{ACAD_REACTORS
330
47
102
}
330
47
100
AcDbScale
 70
     0
300
1:2
140
1.0
141
2.0
290
     0
  0
SCALE
  5
4A
102
{ACAD_REACTORS
330
47
102
}
330
47
100
AcDbScale
 70
     0
300
1:4
140
1.0
141
4.0
290
     0
  0
SCALE
  5
4B
102
{ACAD_REACTORS
330
47
102
}
330
47
100
AcDbScale
 70
     0
300
1:5
140
1.0
141
5.0
290
     0
  0
SCALE
  5
4C
102
{ACAD_REACTORS
330
47
102
}
330
47
100
AcDbScale
 70
     0
300
1:8
140
1.0
141
8.0
290
     0
  0
SCALE
  5
4D
102
{ACAD_REACTORS
330
47
102
}
330
47
100
AcDbScale
 70
     0
300
1:10
140
1.0
141
10.0
290
     0
  0
SCALE
  5
4E
102
{ACAD_REACTORS
330
47
102
}
330
47
100
AcDbScale
 70
     0
300
1:16
140
1.0
141
16.0
290
     0
  0
SCALE
  5
4F
102
{ACAD_REACTORS
330
47
102
}
330
47
100
AcDbScale
 70
     0
300
1:20
140
1.0
141
20.0
290
     0
  0
SCALE
  5
50
102
{ACAD_REACTORS
330
47
102
}
330
47
100
AcDbScale
 70
     0
300
1:30
140
1.0
141
30.0
290
     0
  0
SCALE
  5
51
102
{ACAD_REACTORS
330
47
102
}
330
47
100
AcDbScale
 70
     0
300
1:40
140
1.0
141
40.0
290
     0
  0
SCALE
  5
52
102
{ACAD_REACTORS
330
47
102
}
330
47
100
AcDbScale
 70
     0
300
1:50
140
1.0
141
50.0
290
     0
  0
SCALE
  5
53
102
{ACAD_REACTORS
330
47
102
}
330
47
100
AcDbScale
 70
     0
300
1:100
140
1.0
141
100.0
290
     0
  0
SCALE
  5
54
102
{ACAD_REACTORS
330
47
102
}
330
47
100
AcDbScale
 70
     0
300
2:1
140
2.0
141
1.0
290
     0
  0
SCALE
  5
55
102
{ACAD_REACTORS
330
47
102
}
330
47
100
AcDbScale
 70
     0
300
4:1
140
4.0
141
1.0
290
     0
  0
SCALE
  5
56
102
{ACAD_REACTORS
330
47
102
}
330
47
100
AcDbScale
 70
     0
300
8:1
140
8.0
141
1.0
290
     0
  0
SCALE
  5
57
102
{ACAD_REACTORS
330
47
102
}
330
47
100
AcDbScale
 70
     0
300
10:1
140
10.0
141
1.0
290
     0
  0
SCALE
  5
58
102
{ACAD_REACTORS
330
47
102
}
330
47
100
AcDbScale
 70
     0
300
100:1
140
100.0
141
1.0
290
     0
  0
SCALE
  5
59
102
{ACAD_REACTORS
330
47
102
}
330
47
100
AcDbScale
 70
     0
300
1/128" = 1'-0"
140
0.0078125
141
12.0
290
     0
  0
SCALE
  5
5A
102
{ACAD_REACTORS
330
47
102
}
330
47
100
AcDbScale
 70
     0
300
1/64" = 1'-0"
140
0.015625
141
12.0
290
     0
  0
SCALE
  5
5B
102
{ACAD_REACTORS
330
47
102
}
330
47
100
AcDbScale
 70
     0
300
1/32" = 1'-0"
140
0.03125
141
12.0
290
     0
  0
SCALE
  5
5C
102
{ACAD_REACTORS
330
47
102
}
330
47
100
AcDbScale
 70
     0
300
1/16" = 1'-0"
140
0.0625
141
12.0
290
     0
  0
SCALE
  5
5D
102
{ACAD_REACTORS
330
47
102
}
330
47
100
AcDbScale
 70
     0
300
3/32" = 1'-0"
140
0.09375
141
12.0
290
     0
  0
SCALE
  5
5E
102
{ACAD_REACTORS
330
47
102
}
330
47
100
AcDbScale
 70
     0
300
1/8" = 1'-0"
140
0.125
141
12.0
290
     0
  0
SCALE
  5
5F
102
{ACAD_REACTORS
330
47
102
}
330
47
100
AcDbScale
 70
     0
300
3/16" = 1'-0"
140
0.1875
141
12.0
290
     0
  0
SCALE
  5
60
102
{ACAD_REACTORS
330
47
102
}
330
47
100
AcDbScale
 70
     0
300
1/4" = 1'-0"
140
0.25
141
12.0
290
     0
  0
SCALE
  5
61
102
{ACAD_REACTORS
330
47
102
}
330
47
100
AcDbScale
 70
     0
300
3/8" = 1'-0"
140
0.375
141
12.0
290
     0
  0
SCALE
  5
62
102
{ACAD_REACTORS
330
47
102
}
330
47
100
AcDbScale
 70
     0
300
1/2" = 1'-0"
140
0.5
141
12.0
290
     0
  0
SCALE
  5
63
102
{ACAD_REACTORS
330
47
102
}
330
47
100
AcDbScale
 70
     0
300
3/4" = 1'-0"
140
0.75
141
12.0
290
     0
  0
SCALE
  5
64
102
{ACAD_REACTORS
330
47
102
}
330
47
100
AcDbScale
 70
     0
300
1" = 1'-0"
140
1.0
141
12.0
290
     0
  0
SCALE
  5
65
102
{ACAD_REACTORS
330
47
102
}
330
47
100
AcDbScale
 70
     0
300
1-1/2" = 1'-0"
140
1.5
141
12.0
290
     0
  0
SCALE
  5
66
102
{ACAD_REACTORS
330
47
102
}
330
47
100
AcDbScale
 70
     0
300
3" = 1'-0"
140
3.0
141
12.0
290
     0
  0
SCALE
  5
67
102
{ACAD_REACTORS
330
47
102
}
330
47
100
AcDbScale
 70
     0
300
6" = 1'-0"
140
6.0
141
12.0
290
     0
  0
SCALE
  5
68
102
{ACAD_REACTORS
330
47
102
}
330
47
100
AcDbScale
 70
     0
300
1'-0" = 1'-0"
140
12.0
141
12.0
290
     0
  0
TABLESTYLE
  5
6A
102
{ACAD_REACTORS
330
69
102
}
102
{ACAD_XDICTIONARY
360
1ED
102
}
330
69
100
AcDbTableStyle
  3
Standard
 70
     0
 71
     0
 40
0.06
 41
0.06
280
     0
281
     0
  7
Standard
140
0.18
170
     2
 62
     0
 63
   257
283
     0
 90
        4
 91
        0
  1

274
    -2
284
     1
 64
     0
275
    -2
285
     1
 65
     0
276
    -2
286
     1
 66
     0
277
    -2
287
     1
 67
     0
278
    -2
288
     1
 68
     0
279
    -2
289
     1
 69
     0
  7
Standard
140
0.25
170
     5
 62
     0
 63
   257
283
     0
 90
        4
 91
        0
  1

274
    -2
284
     1
 64
     0
275
    -2
285
     1
 65
     0
276
    -2
286
     1
 66
     0
277
    -2
287
     1
 67
     0
278
    -2
288
     1
 68
     0
279
    -2
289
     1
 69
     0
  7
Standard
140
0.18
170
     5
 62
     0
 63
   257
283
     0
 90
        4
 91
        0
  1

274
    -2
284
     1
 64
     0
275
    -2
285
     1
 65
     0
276
    -2
286
     1
 66
     0
277
    -2
287
     1
 67
     0
278
    -2
288
     1
 68
     0
279
    -2
289
     1
 69
     0
  0
VISUALSTYLE
  5
2F
102
{ACAD_REACTORS
330
2A
102
}
330
2A
100
AcDbVisualStyle
  2
2dWireframe
 70
     4
177
     3
291
     0
 70
    58
 90
        0
176
     1
 90
        2
176
     1
 90
        0
176
     1
 90
        0
176
     1
 40
0.6
176
     1
 40
30.0
176
     1
 62
     7
420
 16777215
176
     1
 90
        1
176
     1
 90
        4
176
     1
 62
     7
176
     1
 62
   257
176
     1
 90
        1
176
     1
 90
        1
176
     1
 40
1.0
176
     1
 90
        0
176
     1
 62
   257
176
     1
 40
1.0
176
     1
 90
        1
176
     1
 90
        6
176
     1
 90
        2
176
     1
 62
     7
176
     1
 90
        5
176
     1
 90
        0
176
     1
 90
        0
176
     1
290
     0
176
     1
 90
        1
176
     1
 40
0.0
176
     1
 90
        0
176
     1
290
     1
176
     1
290
     1
176
     1
290
     0
176
     1
290
     0
176
     1
290
     0
176
     1
290
     0
176
     1
290
     0
176
     1
290
     0
176
     1
290
     0
176
     1
 90
       50
176
     1
 40
0.0
176
     1
 40
1.0
176
     1
 90
        0
176
     1
 62
    18
420
        0
176
     1
 90
       50
176
     1
 90
        3
176
     1
 62
     5
420
      255
176
     1
290
     0
176
     1
 90
       50
176
     1
 90
       50
176
     1
 90
       50
176
     1
290
     0
176
     1
 90
       50
176
     1
 62
   256
176
     0
 40
1.0
176
     0
 90
        2
176
     1
  1
strokes_ogs.tif
176
     1
290
     0
176
     1
 40
1.0
176
     1
 40
1.0
176
     1
  0
VISUALSTYLE
  5
32
102
{ACAD_REACTORS
330
2A
102
}
330
2A
100
AcDbVisualStyle
  2
Basic
 70
     7
177
     3
291
     1
 70
    58
 90
        1
176
     1
 90
        0
176
     1
 90
        1
176
     1
 90
        0
176
     1
 40
0.6
176
     1
 40
30.0
176
     1
 62
     7
420
 16777215
176
     1
 90
        0
176
     1
 90
        4
176
     1
 62
     7
176
     1
 62
   257
176
     1
 90
        1
176
     1
 90
        1
176
     1
 40
1.0
176
     1
 90
        8
176
     1
 62
     7
176
     1
 40
1.0
176
     1
 90
        1
176
     1
 90
        6
176
     1
 90
        2
176
     1
 62
     7
176
     1
 90
        5
176
     1
 90
        0
176
     1
 90
        0
176
     1
290
     0
176
     1
 90
        1
176
     1
 40
0.0
176
     1
 90
        0
176
     1
290
     0
176
     1
290
     1
176
     1
290
     1
176
     1
290
     0
176
     1
290
     0
176
     1
290
     0
176
     1
290
     0
176
     1
290
     0
176
     1
290
     0
176
     1
 90
       50
176
     1
 40
0.0
176
     1
 40
1.0
176
     1
 90
        0
176
     1
 62
    18
420
        0
176
     1
 90
       50
176
     1
 90
        3
176
     1
 62
     5
420
      255
176
     1
290
     0
176
     1
 90
       50
176
     1
 90
       50
176
     1
 90
       50
176
     1
290
     0
176
     1
 90
       50
176
     1
 62
   256
176
     0
 40
1.0
176
     0
 90
        2
176
     1
  1
strokes_ogs.tif
176
     1
290
     0
176
     1
 40
1.0
176
     1
 40
1.0
176
     1
  0
VISUALSTYLE
  5
36
102
{ACAD_REACTORS
330
2A
102
}
330
2A
100
AcDbVisualStyle
  2
Brighten
 70
    12
177
     3
291
     1
 70
    58
 90
        2
176
     1
 90
        2
176
     1
 90
        0
176
     1
 90
        0
176
     1
 40
0.6
176
     1
 40
30.0
176
     1
 62
     7
420
 16777215
176
     1
 90
        1
176
     1
 90
        4
176
     1
 62
     7
176
     1
 62
   257
176
     1
 90
        1
176
     1
 90
        1
176
     1
 40
1.0
176
     1
 90
        8
176
     1
 62
     7
176
     1
 40
1.0
176
     1
 90
        1
176
     1
 90
        6
176
     1
 90
        2
176
     1
 62
     7
176
     1
 90
        5
176
     1
 90
        0
176
     1
 90
        0
176
     1
290
     0
176
     1
 90
        1
176
     1
 40
50.0
176
     1
 90
        0
176
     1
290
     0
176
     1
290
     1
176
     1
290
     1
176
     1
290
     0
176
     1
290
     0
176
     1
290
     0
176
     1
290
     0
176
     1
290
     0
176
     1
290
     0
176
     1
 90
       50
176
     1
 40
0.0
176
     1
 40
1.0
176
     1
 90
        0
176
     1
 62
    18
420
        0
176
     1
 90
       50
176
     1
 90
        3
176
     1
 62
     5
420
      255
176
     1
290
     0
176
     1
 90
       50
176
     1
 90
       50
176
     1
 90
       50
176
     1
290
     0
176
     1
 90
       50
176
     1
 62
   256
176
     0
 40
1.0
176
     0
 90
        2
176
     1
  1
strokes_ogs.tif
176
     1
290
     0
176
     1
 40
1.0
176
     1
 40
1.0
176
     1
  0
VISUALSTYLE
  5
3A
102
{ACAD_REACTORS
330
2A
102
}
330
2A
100
AcDbVisualStyle
  2
ColorChange
 70
    16
177
     3
291
     1
 70
    58
 90
        2
176
     1
 90
        2
176
     1
 90
        3
176
     1
 90
        0
176
     1
 40
0.6
176
     1
 40
30.0
176
     1
 62
     8
420
  8421504
176
     1
 90
        1
176
     1
 90
        4
176
     1
 62
     7
176
     1
 62
   257
176
     1
 90
        1
176
     1
 90
        1
176
     1
 40
1.0
176
     1
 90
        8
176
     1
 62
     8
420
  8421504
176
     1
 40
1.0
176
     1
 90
        1
176
     1
 90
        6
176
     1
 90
        2
176
     1
 62
     7
176
     1
 90
        5
176
     1
 90
        0
176
     1
 90
        0
176
     1
290
     0
176
     1
 90
        1
176
     1
 40
0.0
176
     1
 90
        0
176
     1
290
     0
176
     1
290
     1
176
     1
290
     1
176
     1
290
     0
176
     1
290
     0
176
     1
290
     0
176
     1
290
     0
176
     1
290
     0
176
     1
290
     0
176
     1
 90
       50
176
     1
 40
0.0
176
     1
 40
1.0
176
     1
 90
        0
176
     1
 62
    18
420
        0
176
     1
 90
       50
176
     1
 90
        3
176
     1
 62
     5
420
      255
176
     1
290
     0
176
     1
 90
       50
176
     1
 90
       50
176
     1
 90
       50
176
     1
290
     0
176
     1
 90
       50
176
     1
 62
   256
176
     0
 40
1.0
176
     0
 90
        2
176
     1
  1
strokes_ogs.tif
176
     1
290
     0
176
     1
 40
1.0
176
     1
 40
1.0
176
     1
  0
VISUALSTYLE
  5
34
102
{ACAD_REACTORS
330
2A
102
}
330
2A
100
AcDbVisualStyle
  2
Conceptual
 70
     9
177
     3
291
     0
 70
    58
 90
        3
176
     1
 90
        2
176
     1
 90
        0
176
     1
 90
        0
176
     1
 40
0.6
176
     1
 40
30.0
176
     1
 62
     7
420
 16777215
176
     1
 90
        2
176
     1
 90
        2
176
     1
 62
     7
176
     1
 62
   257
176
     1
 90
        1
176
     1
 90
        1
176
     1
 40
179.0
176
     1
 90
        8
176
     1
 62
     7
176
     1
 40
1.0
176
     1
 90
        1
176
     1
 90
        6
176
     1
 90
        2
176
     1
 62
     7
176
     1
 90
        3
176
     1
 90
        0
176
     1
 90
        0
176
     1
290
     0
176
     1
 90
        1
176
     1
 40
0.0
176
     1
 90
        0
176
     1
290
     0
176
     1
290
     1
176
     1
290
     1
176
     1
290
     0
176
     1
290
     0
176
     1
290
     0
176
     1
290
     0
176
     1
290
     0
176
     1
290
     0
176
     1
 90
       50
176
     1
 40
0.0
176
     1
 40
1.0
176
     1
 90
        0
176
     1
 62
    18
420
        0
176
     1
 90
       50
176
     1
 90
        3
176
     1
 62
     5
420
      255
176
     1
290
     0
176
     1
 90
       50
176
     1
 90
       50
176
     1
 90
       50
176
     1
290
     0
176
     1
 90
       50
176
     1
 62
   256
176
     0
 40
1.0
176
     0
 90
        2
176
     1
  1
strokes_ogs.tif
176
     1
290
     0
176
     1
 40
1.0
176
     1
 40
1.0
176
     1
  0
VISUALSTYLE
  5
35
102
{ACAD_REACTORS
330
2A
102
}
330
2A
100
AcDbVisualStyle
  2
Dim
 70
    11
177
     3
291
     1
 70
    58
 90
        2
176
     1
 90
        2
176
     1
 90
        0
176
     1
 90
        0
176
     1
 40
0.6
176
     1
 40
30.0
176
     1
 62
     7
420
 16777215
176
     1
 90
        1
176
     1
 90
        4
176
     1
 62
     7
176
     1
 62
   257
176
     1
 90
        1
176
     1
 90
        1
176
     1
 40
1.0
176
     1
 90
        8
176
     1
 62
     7
176
     1
 40
1.0
176
     1
 90
        1
176
     1
 90
        6
176
     1
 90
        2
176
     1
 62
     7
176
     1
 90
        5
176
     1
 90
        0
176
     1
 90
        0
176
     1
290
     0
176
     1
 90
        1
176
     1
 40
-50.0
176
     1
 90
        0
176
     1
290
     0
176
     1
290
     1
176
     1
290
     1
176
     1
290
     0
176
     1
290
     0
176
     1
290
     0
176
     1
290
     0
176
     1
290
     0
176
     1
290
     0
176
     1
 90
       50
176
     1
 40
0.0
176
     1
 40
1.0
176
     1
 90
        0
176
     1
 62
    18
420
        0
176
     1
 90
       50
176
     1
 90
        3
176
     1
 62
     5
420
      255
176
     1
290
     0
176
     1
 90
       50
176
     1
 90
       50
176
     1
 90
       50
176
     1
290
     0
176
     1
 90
       50
176
     1
 62
   256
176
     0
 40
1.0
176
     0
 90
        2
176
     1
  1
strokes_ogs.tif
176
     1
290
     0
176
     1
 40
1.0
176
     1
 40
1.0
176
     1
  0
VISUALSTYLE
  5
3D
102
{ACAD_REACTORS
330
2A
102
}
330
2A
100
AcDbVisualStyle
  2
EdgeColorOff
 70
    22
177
     3
291
     1
 70
    58
 90
        2
176
     0
 90
        2
176
     0
 90
        0
176
     0
 90
        0
176
     0
 40
0.6
176
     0
 40
30.0
176
     0
 62
     7
420
 16777215
176
     0
 90
        1
176
     0
 90
        4
176
     0
 62
     7
176
     0
 62
   257
176
     0
 90
        1
176
     0
 90
        1
176
     0
 40
1.0
176
     0
 90
        8
176
     2
 62
     7
176
     0
 40
1.0
176
     0
 90
        1
176
     0
 90
        6
176
     0
 90
        2
176
     0
 62
     7
176
     0
 90
        5
176
     0
 90
        0
176
     0
 90
        0
176
     0
290
     0
176
     0
 90
        1
176
     0
 40
0.0
176
     0
 90
        0
176
     0
290
     0
176
     0
290
     1
176
     0
290
     1
176
     0
290
     0
176
     0
290
     0
176
     0
290
     0
176
     0
290
     0
176
     0
290
     0
176
     0
290
     0
176
     0
 90
       50
176
     0
 40
0.0
176
     0
 40
1.0
176
     0
 90
        0
176
     0
 62
    18
420
        0
176
     0
 90
       50
176
     0
 90
        3
176
     0
 62
     5
420
      255
176
     0
290
     0
176
     0
 90
       50
176
     0
 90
       50
176
     0
 90
       50
176
     0
290
     0
176
     0
 90
       50
176
     0
 62
   256
176
     0
 40
1.0
176
     0
 90
        2
176
     0
  1
strokes_ogs.tif
176
     0
290
     0
176
     0
 40
1.0
176
     0
 40
1.0
176
     0
  0
VISUALSTYLE
  5
39
102
{ACAD_REACTORS
330
2A
102
}
330
2A
100
AcDbVisualStyle
  2
Facepattern
 70
    15
177
     3
291
     1
 70
    58
 90
        2
176
     1
 90
        2
176
     1
 90
        0
176
     1
 90
        0
176
     1
 40
0.6
176
     1
 40
30.0
176
     1
 62
     7
420
 16777215
176
     1
 90
        1
176
     1
 90
        4
176
     1
 62
     7
176
     1
 62
   257
176
     1
 90
        1
176
     1
 90
        1
176
     1
 40
1.0
176
     1
 90
        8
176
     1
 62
     7
176
     1
 40
1.0
176
     1
 90
        1
176
     1
 90
        6
176
     1
 90
        2
176
     1
 62
     7
176
     1
 90
        5
176
     1
 90
        0
176
     1
 90
        0
176
     1
290
     0
176
     1
 90
        1
176
     1
 40
0.0
176
     1
 90
        0
176
     1
290
     0
176
     1
290
     1
176
     1
290
     1
176
     1
290
     0
176
     1
290
     0
176
     1
290
     0
176
     1
290
     0
176
     1
290
     0
176
     1
290
     0
176
     1
 90
       50
176
     1
 40
0.0
176
     1
 40
1.0
176
     1
 90
        0
176
     1
 62
    18
420
        0
176
     1
 90
       50
176
     1
 90
        3
176
     1
 62
     5
420
      255
176
     1
290
     0
176
     1
 90
       50
176
     1
 90
       50
176
     1
 90
       50
176
     1
290
     0
176
     1
 90
       50
176
     1
 62
   256
176
     0
 40
1.0
176
     0
 90
        2
176
     1
  1
strokes_ogs.tif
176
     1
290
     0
176
     1
 40
1.0
176
     1
 40
1.0
176
     1
  0
VISUALSTYLE
  5
2B
102
{ACAD_REACTORS
330
2A
102
}
330
2A
100
AcDbVisualStyle
  2
Flat
 70
     0
177
     3
291
     1
 70
    58
 90
        2
176
     1
 90
        1
176
     1
 90
        1
176
     1
 90
        2
176
     1
 40
0.6
176
     1
 40
30.0
176
     1
 62
     7
420
 16777215
176
     1
 90
        0
176
     1
 90
        0
176
     1
 62
     7
176
     1
 62
   257
176
     1
 90
        1
176
     1
 90
        1
176
     1
 40
1.0
176
     1
 90
        8
176
     1
 62
     7
176
     1
 40
1.0
176
     1
 90
        1
176
     1
 90
        6
176
     1
 90
        2
176
     1
 62
     7
176
     1
 90
        5
176
     1
 90
        0
176
     1
 90
        0
176
     1
290
     0
176
     1
 90
       13
176
     1
 40
0.0
176
     1
 90
        0
176
     1
290
     0
176
     1
290
     1
176
     1
290
     1
176
     1
290
     0
176
     1
290
     0
176
     1
290
     0
176
     1
290
     0
176
     1
290
     0
176
     1
290
     0
176
     1
 90
       50
176
     1
 40
0.0
176
     1
 40
1.0
176
     1
 90
        0
176
     1
 62
    18
420
        0
176
     1
 90
       50
176
     1
 90
        3
176
     1
 62
     5
420
      255
176
     1
290
     0
176
     1
 90
       50
176
     1
 90
       50
176
     1
 90
       50
176
     1
290
     0
176
     1
 90
       50
176
     1
 62
   256
176
     0
 40
1.0
176
     0
 90
        2
176
     1
  1
strokes_ogs.tif
176
     1
290
     0
176
     1
 40
1.0
176
     1
 40
1.0
176
     1
  0
VISUALSTYLE
  5
2C
102
{ACAD_REACTORS
330
2A
102
}
330
2A
100
AcDbVisualStyle
  2
FlatWithEdges
 70
     1
177
     3
291
     1
 70
    58
 90
        2
176
     1
 90
        1
176
     1
 90
        1
176
     1
 90
        2
176
     1
 40
0.6
176
     1
 40
30.0
176
     1
 62
     7
420
 16777215
176
     1
 90
        1
176
     1
 90
        0
176
     1
 62
     7
176
     1
 62
   257
176
     1
 90
        1
176
     1
 90
        1
176
     1
 40
1.0
176
     1
 90
        0
176
     1
 62
   257
176
     1
 40
1.0
176
     1
 90
        1
176
     1
 90
        6
176
     1
 90
        2
176
     1
 62
     7
176
     1
 90
        5
176
     1
 90
        0
176
     1
 90
        0
176
     1
290
     0
176
     1
 90
       13
176
     1
 40
0.0
176
     1
 90
        0
176
     1
290
     0
176
     1
290
     1
176
     1
290
     1
176
     1
290
     0
176
     1
290
     0
176
     1
290
     0
176
     1
290
     0
176
     1
290
     0
176
     1
290
     0
176
     1
 90
       50
176
     1
 40
0.0
176
     1
 40
1.0
176
     1
 90
        0
176
     1
 62
    18
420
        0
176
     1
 90
       50
176
     1
 90
        3
176
     1
 62
     5
420
      255
176
     1
290
     0
176
     1
 90
       50
176
     1
 90
       50
176
     1
 90
       50
176
     1
290
     0
176
     1
 90
       50
176
     1
 62
   256
176
     0
 40
1.0
176
     0
 90
        2
176
     1
  1
strokes_ogs.tif
176
     1
290
     0
176
     1
 40
1.0
176
     1
 40
1.0
176
     1
  0
VISUALSTYLE
  5
2D
102
{ACAD_REACTORS
330
2A
102
}
330
2A
100
AcDbVisualStyle
  2
Gouraud
 70
     2
177
     3
291
     1
 70
    58
 90
        2
176
     1
 90
        2
176
     1
 90
        1
176
     1
 90
        2
176
     1
 40
0.6
176
     1
 40
30.0
176
     1
 62
     7
420
 16777215
176
     1
 90
        0
176
     1
 90
        0
176
     1
 62
     7
176
     1
 62
   257
176
     1
 90
        1
176
     1
 90
        1
176
     1
 40
1.0
176
     1
 90
        0
176
     1
 62
     7
176
     1
 40
1.0
176
     1
 90
        1
176
     1
 90
        6
176
     1
 90
        2
176
     1
 62
     7
176
     1
 90
        5
176
     1
 90
        0
176
     1
 90
        0
176
     1
290
     0
176
     1
 90
       13
176
     1
 40
0.0
176
     1
 90
        0
176
     1
290
     0
176
     1
290
     1
176
     1
290
     1
176
     1
290
     0
176
     1
290
     0
176
     1
290
     0
176
     1
290
     0
176
     1
290
     0
176
     1
290
     0
176
     1
 90
       50
176
     1
 40
0.0
176
     1
 40
1.0
176
     1
 90
        0
176
     1
 62
    18
420
        0
176
     1
 90
       50
176
     1
 90
        3
176
     1
 62
     5
420
      255
176
     1
290
     0
176
     1
 90
       50
176
     1
 90
       50
176
     1
 90
       50
176
     1
290
     0
176
     1
 90
       50
176
     1
 62
   256
176
     0
 40
1.0
176
     0
 90
        2
176
     1
  1
strokes_ogs.tif
176
     1
290
     0
176
     1
 40
1.0
176
     1
 40
1.0
176
     1
  0
VISUALSTYLE
  5
2E
102
{ACAD_REACTORS
330
2A
102
}
330
2A
100
AcDbVisualStyle
  2
GouraudWithEdges
 70
     3
177
     3
291
     1
 70
    58
 90
        2
176
     1
 90
        2
176
     1
 90
        1
176
     1
 90
        2
176
     1
 40
0.6
176
     1
 40
30.0
176
     1
 62
     7
420
 16777215
176
     1
 90
        1
176
     1
 90
        0
176
     1
 62
     7
176
     1
 62
   257
176
     1
 90
        1
176
     1
 90
        1
176
     1
 40
1.0
176
     1
 90
        0
176
     1
 62
   257
176
     1
 40
1.0
176
     1
 90
        1
176
     1
 90
        6
176
     1
 90
        2
176
     1
 62
     7
176
     1
 90
        5
176
     1
 90
        0
176
     1
 90
        0
176
     1
290
     0
176
     1
 90
       13
176
     1
 40
0.0
176
     1
 90
        0
176
     1
290
     0
176
     1
290
     1
176
     1
290
     1
176
     1
290
     0
176
     1
290
     0
176
     1
290
     0
176
     1
290
     0
176
     1
290
     0
176
     1
290
     0
176
     1
 90
       50
176
     1
 40
0.0
176
     1
 40
1.0
176
     1
 90
        0
176
     1
 62
    18
420
        0
176
     1
 90
       50
176
     1
 90
        3
176
     1
 62
     5
420
      255
176
     1
290
     0
176
     1
 90
       50
176
     1
 90
       50
176
     1
 90
       50
176
     1
290
     0
176
     1
 90
       50
176
     1
 62
   256
176
     0
 40
1.0
176
     0
 90
        2
176
     1
  1
strokes_ogs.tif
176
     1
290
     0
176
     1
 40
1.0
176
     1
 40
1.0
176
     1
  0
VISUALSTYLE
  5
31
102
{ACAD_REACTORS
330
2A
102
}
330
2A
100
AcDbVisualStyle
  2
Hidden
 70
     6
177
     3
291
     0
 70
    58
 90
        1
176
     1
 90
        2
176
     1
 90
        2
176
     1
 90
        0
176
     1
 40
0.6
176
     1
 40
30.0
176
     1
 62
     7
420
 16777215
176
     1
 90
        2
176
     1
 90
        2
176
     1
 62
     7
176
     1
 62
   257
176
     1
 90
        2
176
     1
 90
        1
176
     1
 40
40.0
176
     1
 90
        0
176
     1
 62
   257
176
     1
 40
1.0
176
     1
 90
        1
176
     1
 90
        6
176
     1
 90
        2
176
     1
 62
     7
176
     1
 90
        3
176
     1
 90
        0
176
     1
 90
        0
176
     1
290
     0
176
     1
 90
        1
176
     1
 40
0.0
176
     1
 90
        0
176
     1
290
     0
176
     1
290
     1
176
     1
290
     1
176
     1
290
     0
176
     1
290
     0
176
     1
290
     0
176
     1
290
     0
176
     1
290
     0
176
     1
290
     0
176
     1
 90
       50
176
     1
 40
0.0
176
     1
 40
1.0
176
     1
 90
        0
176
     1
 62
    18
420
        0
176
     1
 90
       50
176
     1
 90
        3
176
     1
 62
     5
420
      255
176
     1
290
     0
176
     1
 90
       50
176
     1
 90
       50
176
     1
 90
       50
176
     1
290
     0
176
     1
 90
       50
176
     1
 62
   256
176
     0
 40
1.0
176
     0
 90
        2
176
     1
  1
strokes_ogs.tif
176
     1
290
     0
176
     1
 40
1.0
176
     1
 40
1.0
176
     1
  0
VISUALSTYLE
  5
3B
102
{ACAD_REACTORS
330
2A
102
}
330
2A
100
AcDbVisualStyle
  2
JitterOff
 70
    20
177
     3
291
     1
 70
    58
 90
        2
176
     0
 90
        2
176
     0
 90
        0
176
     0
 90
        0
176
     0
 40
0.6
176
     0
 40
30.0
176
     0
 62
     7
420
 16777215
176
     0
 90
        1
176
     0
 90
        4
176
     0
 62
     7
176
     0
 62
   257
176
     0
 90
        1
176
     0
 90
        1
176
     0
 40
1.0
176
     0
 90
       10
176
     2
 62
     7
176
     0
 40
1.0
176
     0
 90
        1
176
     0
 90
        6
176
     0
 90
        2
176
     0
 62
     7
176
     0
 90
        5
176
     0
 90
        0
176
     0
 90
        0
176
     0
290
     0
176
     0
 90
        1
176
     0
 40
0.0
176
     0
 90
        0
176
     0
290
     0
176
     0
290
     1
176
     0
290
     1
176
     0
290
     0
176
     0
290
     0
176
     0
290
     0
176
     0
290
     0
176
     0
290
     0
176
     0
290
     0
176
     0
 90
       50
176
     0
 40
0.0
176
     0
 40
1.0
176
     0
 90
        0
176
     0
 62
    18
420
        0
176
     0
 90
       50
176
     0
 90
        3
176
     0
 62
     5
420
      255
176
     0
290
     0
176
     0
 90
       50
176
     0
 90
       50
176
     0
 90
       50
176
     0
290
     0
176
     0
 90
       50
176
     0
 62
   256
176
     0
 40
1.0
176
     0
 90
        2
176
     0
  1
strokes_ogs.tif
176
     0
290
     0
176
     0
 40
1.0
176
     0
 40
1.0
176
     0
  0
VISUALSTYLE
  5
38
102
{ACAD_REACTORS
330
2A
102
}
330
2A
100
AcDbVisualStyle
  2
Linepattern
 70
    14
177
     3
291
     1
 70
    58
 90
        2
176
     1
 90
        2
176
     1
 90
        0
176
     1
 90
        0
176
     1
 40
0.6
176
     1
 40
30.0
176
     1
 62
     7
420
 16777215
176
     1
 90
        1
176
     1
 90
        4
176
     1
 62
     7
176
     1
 62
   257
176
     1
 90
        7
176
     1
 90
        7
176
     1
 40
1.0
176
     1
 90
        8
176
     1
 62
     7
176
     1
 40
1.0
176
     1
 90
        1
176
     1
 90
        6
176
     1
 90
        2
176
     1
 62
     7
176
     1
 90
        5
176
     1
 90
        0
176
     1
 90
        0
176
     1
290
     0
176
     1
 90
        1
176
     1
 40
0.0
176
     1
 90
        0
176
     1
290
     0
176
     1
290
     1
176
     1
290
     1
176
     1
290
     0
176
     1
290
     0
176
     1
290
     0
176
     1
290
     0
176
     1
290
     0
176
     1
290
     0
176
     1
 90
       50
176
     1
 40
0.0
176
     1
 40
1.0
176
     1
 90
        0
176
     1
 62
    18
420
        0
176
     1
 90
       50
176
     1
 90
        3
176
     1
 62
     5
420
      255
176
     1
290
     0
176
     1
 90
       50
176
     1
 90
       50
176
     1
 90
       50
176
     1
290
     0
176
     1
 90
       50
176
     1
 62
   256
176
     0
 40
1.0
176
     0
 90
        2
176
     1
  1
strokes_ogs.tif
176
     1
290
     0
176
     1
 40
1.0
176
     1
 40
1.0
176
     1
  0
VISUALSTYLE
  5
3C
102
{ACAD_REACTORS
330
2A
102
}
330
2A
100
AcDbVisualStyle
  2
OverhangOff
 70
    21
177
     3
291
     1
 70
    58
 90
        2
176
     0
 90
        2
176
     0
 90
        0
176
     0
 90
        0
176
     0
 40
0.6
176
     0
 40
30.0
176
     0
 62
     7
420
 16777215
176
     0
 90
        1
176
     0
 90
        4
176
     0
 62
     7
176
     0
 62
   257
176
     0
 90
        1
176
     0
 90
        1
176
     0
 40
1.0
176
     0
 90
        9
176
     2
 62
     7
176
     0
 40
1.0
176
     0
 90
        1
176
     0
 90
        6
176
     0
 90
        2
176
     0
 62
     7
176
     0
 90
        5
176
     0
 90
        0
176
     0
 90
        0
176
     0
290
     0
176
     0
 90
        1
176
     0
 40
0.0
176
     0
 90
        0
176
     0
290
     0
176
     0
290
     1
176
     0
290
     1
176
     0
290
     0
176
     0
290
     0
176
     0
290
     0
176
     0
290
     0
176
     0
290
     0
176
     0
290
     0
176
     0
 90
       50
176
     0
 40
0.0
176
     0
 40
1.0
176
     0
 90
        0
176
     0
 62
    18
420
        0
176
     0
 90
       50
176
     0
 90
        3
176
     0
 62
     5
420
      255
176
     0
290
     0
176
     0
 90
       50
176
     0
 90
       50
176
     0
 90
       50
176
     0
290
     0
176
     0
 90
       50
176
     0
 62
   256
176
     0
 40
1.0
176
     0
 90
        2
176
     0
  1
strokes_ogs.tif
176
     0
290
     0
176
     0
 40
1.0
176
     0
 40
1.0
176
     0
  0
VISUALSTYLE
  5
33
102
{ACAD_REACTORS
330
2A
102
}
330
2A
100
AcDbVisualStyle
  2
Realistic
 70
     8
177
     3
291
     0
 70
    58
 90
        2
176
     1
 90
        3
176
     1
 90
        0
176
     1
 90
        2
176
     1
 40
0.6
176
     1
 40
30.0
176
     1
 62
     7
420
 16777215
176
     1
 90
        0
176
     1
 90
        0
176
     1
 62
     7
176
     1
 62
   257
176
     1
 90
        1
176
     1
 90
        1
176
     1
 40
1.0
176
     1
 90
        8
176
     1
 62
   257
176
     1
 40
1.0
176
     1
 90
        1
176
     1
 90
        6
176
     1
 90
        2
176
     1
 62
     7
176
     1
 90
        3
176
     1
 90
        0
176
     1
 90
        0
176
     1
290
     0
176
     1
 90
       13
176
     1
 40
0.0
176
     1
 90
        0
176
     1
290
     0
176
     1
290
     1
176
     1
290
     1
176
     1
290
     0
176
     1
290
     0
176
     1
290
     0
176
     1
290
     0
176
     1
290
     0
176
     1
290
     0
176
     1
 90
       50
176
     1
 40
0.0
176
     1
 40
1.0
176
     1
 90
        0
176
     1
 62
    18
420
        0
176
     1
 90
       50
176
     1
 90
        3
176
     1
 62
     5
420
      255
176
     1
290
     0
176
     1
 90
       50
176
     1
 90
       50
176
     1
 90
       50
176
     1
290
     0
176
     1
 90
       50
176
     1
 62
   256
176
     0
 40
1.0
176
     0
 90
        2
176
     1
  1
strokes_ogs.tif
176
     1
290
     0
176
     1
 40
1.0
176
     1
 40
1.0
176
     1
  0
VISUALSTYLE
  5
42
102
{ACAD_REACTORS
330
2A
102
}
330
2A
100
AcDbVisualStyle
  2
Shaded
 70
    27
177
     3
291
     0
 70
    58
 90
        2
176
     1
 90
        2
176
     1
 90
        1
176
     1
 90
        2
176
     1
 40
0.6
176
     1
 40
30.0
176
     1
 62
     7
420
 16777215
176
     1
 90
        0
176
     1
 90
        4
176
     1
 62
     7
176
     1
 62
   257
176
     1
 90
        1
176
     1
 90
        1
176
     1
 40
1.0
176
     1
 90
        8
176
     1
 62
   257
176
     1
 40
1.0
176
     1
 90
        1
176
     1
 90
        6
176
     1
 90
        2
176
     1
 62
     8
420
  7895160
176
     1
 90
        3
176
     1
 90
        0
176
     1
 90
        0
176
     1
290
     0
176
     1
 90
        5
176
     1
 40
0.0
176
     1
 90
        0
176
     1
290
     0
176
     1
290
     1
176
     1
290
     1
176
     1
290
     0
176
     1
290
     0
176
     1
290
     0
176
     1
290
     0
176
     1
290
     0
176
     1
290
     0
176
     1
 90
       50
176
     1
 40
0.0
176
     1
 40
1.0
176
     1
 90
        0
176
     1
 62
    18
420
        0
176
     1
 90
       50
176
     1
 90
        3
176
     1
 62
     5
420
      255
176
     1
290
     0
176
     1
 90
       50
176
     1
 90
       50
176
     1
 90
       50
176
     1
290
     0
176
     1
 90
       50
176
     1
 62
   256
176
     0
 40
1.0
176
     0
 90
        2
176
     1
  1
strokes_ogs.tif
176
     1
290
     0
176
     1
 40
1.0
176
     1
 40
1.0
176
     1
  0
VISUALSTYLE
  5
41
102
{ACAD_REACTORS
330
2A
102
}
330
2A
100
AcDbVisualStyle
  2
Shaded with edges
 70
    26
177
     3
291
     0
 70
    58
 90
        2
176
     1
 90
        2
176
     1
 90
        1
176
     1
 90
        2
176
     1
 40
0.6
176
     1
 40
30.0
176
     1
 62
     7
420
 16777215
176
     1
 90
        1
176
     1
 90
       10
176
     1
 62
     7
176
     1
 62
   257
176
     1
 90
        2
176
     1
 90
        1
176
     1
 40
1.0
176
     1
 90
        8
176
     1
 62
   257
176
     1
 40
1.0
176
     1
 90
        1
176
     1
 90
        6
176
     1
 90
        2
176
     1
 62
     7
176
     1
 90
        3
176
     1
 90
        0
176
     1
 90
        0
176
     1
290
     0
176
     1
 90
        5
176
     1
 40
0.0
176
     1
 90
        0
176
     1
290
     0
176
     1
290
     1
176
     1
290
     1
176
     1
290
     0
176
     1
290
     0
176
     1
290
     0
176
     1
290
     0
176
     1
290
     0
176
     1
290
     0
176
     1
 90
       50
176
     1
 40
0.0
176
     1
 40
1.0
176
     1
 90
        0
176
     1
 62
    18
420
        0
176
     1
 90
       50
176
     1
 90
        3
176
     1
 62
     5
420
      255
176
     1
290
     0
176
     1
 90
       50
176
     1
 90
       50
176
     1
 90
       50
176
     1
290
     0
176
     1
 90
       50
176
     1
 62
   256
176
     0
 40
1.0
176
     0
 90
        2
176
     1
  1
strokes_ogs.tif
176
     1
290
     0
176
     1
 40
1.0
176
     1
 40
1.0
176
     1
  0
VISUALSTYLE
  5
3E
102
{ACAD_REACTORS
330
2A
102
}
330
2A
100
AcDbVisualStyle
  2
Shades of Gray
 70
    23
177
     3
291
     0
 70
    58
 90
        2
176
     1
 90
        2
176
     1
 90
        3
176
     1
 90
        0
176
     1
 40
0.6
176
     1
 40
30.0
176
     1
 62
     7
420
 16777215
176
     1
 90
        2
176
     1
 90
        2
176
     1
 62
     7
176
     1
 62
     7
176
     1
 90
        1
176
     1
 90
        1
176
     1
 40
40.0
176
     1
 90
        8
176
     1
 62
     7
176
     1
 40
1.0
176
     1
 90
        1
176
     1
 90
        6
176
     1
 90
        2
176
     1
 62
     7
176
     1
 90
        3
176
     1
 90
        0
176
     1
 90
        0
176
     1
290
     0
176
     1
 90
        1
176
     1
 40
0.0
176
     1
 90
        0
176
     1
290
     0
176
     1
290
     1
176
     1
290
     1
176
     1
290
     0
176
     1
290
     0
176
     1
290
     0
176
     1
290
     0
176
     1
290
     0
176
     1
290
     0
176
     1
 90
       50
176
     1
 40
0.0
176
     1
 40
1.0
176
     1
 90
        0
176
     1
 62
    18
420
        0
176
     1
 90
       50
176
     1
 90
        3
176
     1
 62
     5
420
      255
176
     1
290
     0
176
     1
 90
       50
176
     1
 90
       50
176
     1
 90
       50
176
     1
290
     0
176
     1
 90
       50
176
     1
 62
   256
176
     0
 40
1.0
176
     0
 90
        2
176
     1
  1
strokes_ogs.tif
176
     1
290
     0
176
     1
 40
1.0
176
     1
 40
1.0
176
     1
  0
VISUALSTYLE
  5
3F
102
{ACAD_REACTORS
330
2A
102
}
330
2A
100
AcDbVisualStyle
  2
Sketchy
 70
    24
177
     3
291
     0
 70
    58
 90
        1
176
     1
 90
        2
176
     1
 90
        2
176
     1
 90
        0
176
     1
 40
0.6
176
     1
 40
30.0
176
     1
 62
     7
420
 16777215
176
     1
 90
        2
176
     1
 90
        2
176
     1
 62
     7
176
     1
 62
     7
176
     1
 90
        1
176
     1
 90
        1
176
     1
 40
40.0
176
     1
 90
       11
176
     1
 62
     7
176
     1
 40
1.0
176
     1
 90
        1
176
     1
 90
        6
176
     1
 90
        2
176
     1
 62
     7
176
     1
 90
        6
176
     1
 90
        0
176
     1
 90
        0
176
     1
290
     0
176
     1
 90
        1
176
     1
 40
0.0
176
     1
 90
        0
176
     1
290
     0
176
     1
290
     1
176
     1
290
     1
176
     1
290
     0
176
     1
290
     0
176
     1
290
     0
176
     1
290
     0
176
     1
290
     0
176
     1
290
     0
176
     1
 90
       50
176
     1
 40
0.0
176
     1
 40
1.0
176
     1
 90
        0
176
     1
 62
    18
420
        0
176
     1
 90
       50
176
     1
 90
        3
176
     1
 62
     5
420
      255
176
     1
290
     0
176
     1
 90
       50
176
     1
 90
       50
176
     1
 90
       50
176
     1
290
     0
176
     1
 90
       50
176
     1
 62
   256
176
     0
 40
1.0
176
     0
 90
        2
176
     1
  1
strokes_ogs.tif
176
     1
290
     0
176
     1
 40
1.0
176
     1
 40
1.0
176
     1
  0
VISUALSTYLE
  5
37
102
{ACAD_REACTORS
330
2A
102
}
330
2A
100
AcDbVisualStyle
  2
Thicken
 70
    13
177
     3
291
     1
 70
    58
 90
        2
176
     1
 90
        2
176
     1
 90
        0
176
     1
 90
        0
176
     1
 40
0.6
176
     1
 40
30.0
176
     1
 62
     7
420
 16777215
176
     1
 90
        1
176
     1
 90
        4
176
     1
 62
     7
176
     1
 62
   257
176
     1
 90
        1
176
     1
 90
        1
176
     1
 40
1.0
176
     1
 90
       12
176
     1
 62
     7
176
     1
 40
1.0
176
     1
 90
        1
176
     1
 90
        6
176
     1
 90
        2
176
     1
 62
     7
176
     1
 90
        5
176
     1
 90
        0
176
     1
 90
        0
176
     1
290
     0
176
     1
 90
        1
176
     1
 40
0.0
176
     1
 90
        0
176
     1
290
     0
176
     1
290
     1
176
     1
290
     1
176
     1
290
     0
176
     1
290
     0
176
     1
290
     0
176
     1
290
     0
176
     1
290
     0
176
     1
290
     0
176
     1
 90
       50
176
     1
 40
0.0
176
     1
 40
1.0
176
     1
 90
        0
176
     1
 62
    18
420
        0
176
     1
 90
       50
176
     1
 90
        3
176
     1
 62
     5
420
      255
176
     1
290
     0
176
     1
 90
       50
176
     1
 90
       50
176
     1
 90
       50
176
     1
290
     0
176
     1
 90
       50
176
     1
 62
   256
176
     0
 40
1.0
176
     0
 90
        2
176
     1
  1
strokes_ogs.tif
176
     1
290
     0
176
     1
 40
1.0
176
     1
 40
1.0
176
     1
  0
VISUALSTYLE
  5
30
102
{ACAD_REACTORS
330
2A
102
}
330
2A
100
AcDbVisualStyle
  2
Wireframe
 70
     5
177
     3
291
     0
 70
    58
 90
        0
176
     1
 90
        2
176
     1
 90
        0
176
     1
 90
        0
176
     1
 40
0.6
176
     1
 40
30.0
176
     1
 62
     7
420
 16777215
176
     1
 90
        1
176
     1
 90
        4
176
     1
 62
     7
176
     1
 62
   257
176
     1
 90
        1
176
     1
 90
        1
176
     1
 40
1.0
176
     1
 90
        0
176
     1
 62
   257
176
     1
 40
1.0
176
     1
 90
        1
176
     1
 90
        6
176
     1
 90
        2
176
     1
 62
     7
176
     1
 90
        3
176
     1
 90
        0
176
     1
 90
        0
176
     1
290
     0
176
     1
 90
        1
176
     1
 40
0.0
176
     1
 90
        0
176
     1
290
     0
176
     1
290
     1
176
     1
290
     1
176
     1
290
     0
176
     1
290
     0
176
     1
290
     0
176
     1
290
     0
176
     1
290
     0
176
     1
290
     0
176
     1
 90
       50
176
     1
 40
0.0
176
     1
 40
1.0
176
     1
 90
        0
176
     1
 62
    18
420
        0
176
     1
 90
       50
176
     1
 90
        3
176
     1
 62
     5
420
      255
176
     1
290
     0
176
     1
 90
       50
176
     1
 90
       50
176
     1
 90
       50
176
     1
290
     0
176
     1
 90
       50
176
     1
 62
   256
176
     0
 40
1.0
176
     0
 90
        2
176
     1
  1
strokes_ogs.tif
176
     1
290
     0
176
     1
 40
1.0
176
     1
 40
1.0
176
     1
  0
VISUALSTYLE
  5
40
102
{ACAD_REACTORS
330
2A
102
}
330
2A
100
AcDbVisualStyle
  2
X-Ray
 70
    25
177
     3
291
     0
 70
    58
 90
        2
176
     1
 90
        2
176
     1
 90
        1
176
     1
 90
        1
176
     1
 40
0.5
176
     1
 40
30.0
176
     1
 62
     7
420
 16777215
176
     1
 90
        1
176
     1
 90
        0
176
     1
 62
     7
176
     1
 62
   257
176
     1
 90
        1
176
     1
 90
        1
176
     1
 40
1.0
176
     1
 90
        8
176
     1
 62
     7
176
     1
 40
1.0
176
     1
 90
        1
176
     1
 90
        6
176
     1
 90
        2
176
     1
 62
     7
176
     1
 90
        3
176
     1
 90
        0
176
     1
 90
        0
176
     1
290
     0
176
     1
 90
       13
176
     1
 40
0.0
176
     1
 90
        0
176
     1
290
     0
176
     1
290
     1
176
     1
290
     1
176
     1
290
     0
176
     1
290
     0
176
     1
290
     0
176
     1
290
     0
176
     1
290
     0
176
     1
290
     0
176
     1
 90
       50
176
     1
 40
0.0
176
     1
 40
1.0
176
     1
 90
        0
176
     1
 62
    18
420
        0
176
     1
 90
       50
176
     1
 90
        3
176
     1
 62
     5
420
      255
176
     1
290
     0
176
     1
 90
       50
176
     1
 90
       50
176
     1
 90
       50
176
     1
290
     0
176
     1
 90
       50
176
     1
 62
   256
176
     0
 40
1.0
176
     0
 90
        2
176
     1
  1
strokes_ogs.tif
176
     1
290
     0
176
     1
 40
1.0
176
     1
 40
1.0
176
     1
  0
DICTIONARYVAR
  5
1EC
102
{ACAD_REACTORS
330
1EB
102
}
330
1EB
100
DictionaryVariables
280
     0
  1
1:1
  0
DICTIONARYVAR
  5
1F1
102
{ACAD_REACTORS
330
1EB
102
}
330
1EB
100
DictionaryVariables
280
     0
  1
Standard
  0
DICTIONARYVAR
  5
1F0
102
{ACAD_REACTORS
330
1EB
102
}
330
1EB
100
DictionaryVariables
280
     0
  1
Standard
  0
DICTIONARY
  5
1ED
330
6A
100
AcDbDictionary
280
     1
281
     1
  3
ACAD_ROUNDTRIP_2008_TABLESTYLE_CELLSTYLEMAP
360
1EE
  0
CELLSTYLEMAP
  5
1EE
102
{ACAD_REACTORS
330
1ED
102
}
330
1ED
100
AcDbCellStyleMap
 90
        3
300
CELLSTYLE
  1
TABLEFORMAT_BEGIN
 90
        5
170
     1
 91
        0
 92
    32768
 62
   257
 93
        1
300
CONTENTFORMAT
  1
CONTENTFORMAT_BEGIN
 90
        0
 91
        0
 92
        4
 93
        0
300

 40
0.0
140
1.0
 94
        5
 62
     0
340
11
144
0.25
309
CONTENTFORMAT_END
171
     1
301
MARGIN
  1
CELLMARGIN_BEGIN
 40
0.06
 40
0.06
 40
0.06
 40
0.06
 40
0.06
 40
0.06
309
CELLMARGIN_END
 94
        6
 95
        1
302
GRIDFORMAT
  1
GRIDFORMAT_BEGIN
 90
        0
 91
        1
 62
     0
 92
       -2
340
14
 93
        0
 40
0.045
309
GRIDFORMAT_END
 95
        2
302
GRIDFORMAT
  1
GRIDFORMAT_BEGIN
 90
        0
 91
        1
 62
     0
 92
       -2
340
14
 93
        0
 40
0.045
309
GRIDFORMAT_END
 95
        4
302
GRIDFORMAT
  1
GRIDFORMAT_BEGIN
 90
        0
 91
        1
 62
     0
 92
       -2
340
14
 93
        0
 40
0.045
309
GRIDFORMAT_END
 95
        8
302
GRIDFORMAT
  1
GRIDFORMAT_BEGIN
 90
        0
 91
        1
 62
     0
 92
       -2
340
14
 93
        0
 40
0.045
309
GRIDFORMAT_END
 95
       16
302
GRIDFORMAT
  1
GRIDFORMAT_BEGIN
 90
        0
 91
        1
 62
     0
 92
       -2
340
14
 93
        0
 40
0.045
309
GRIDFORMAT_END
 95
       32
302
GRIDFORMAT
  1
GRIDFORMAT_BEGIN
 90
        0
 91
        1
 62
     0
 92
       -2
340
14
 93
        0
 40
0.045
309
GRIDFORMAT_END
309
TABLEFORMAT_END
  1
CELLSTYLE_BEGIN
 90
        1
 91
        1
300
_TITLE
309
CELLSTYLE_END
300
CELLSTYLE
  1
TABLEFORMAT_BEGIN
 90
        5
170
     1
 91
        0
 92
        0
 62
   257
 93
        1
300
CONTENTFORMAT
  1
CONTENTFORMAT_BEGIN
 90
        0
 91
        0
 92
        4
 93
        0
300

 40
0.0
140
1.0
 94
        5
 62
     0
340
11
144
0.18
309
CONTENTFORMAT_END
171
     1
301
MARGIN
  1
CELLMARGIN_BEGIN
 40
0.06
 40
0.06
 40
0.06
 40
0.06
 40
0.06
 40
0.06
309
CELLMARGIN_END
 94
        6
 95
        1
302
GRIDFORMAT
  1
GRIDFORMAT_BEGIN
 90
        0
 91
        1
 62
     0
 92
       -2
340
14
 93
        0
 40
0.045
309
GRIDFORMAT_END
 95
        2
302
GRIDFORMAT
  1
GRIDFORMAT_BEGIN
 90
        0
 91
        1
 62
     0
 92
       -2
340
14
 93
        0
 40
0.045
309
GRIDFORMAT_END
 95
        4
302
GRIDFORMAT
  1
GRIDFORMAT_BEGIN
 90
        0
 91
        1
 62
     0
 92
       -2
340
14
 93
        0
 40
0.045
309
GRIDFORMAT_END
 95
        8
302
GRIDFORMAT
  1
GRIDFORMAT_BEGIN
 90
        0
 91
        1
 62
     0
 92
       -2
340
14
 93
        0
 40
0.045
309
GRIDFORMAT_END
 95
       16
302
GRIDFORMAT
  1
GRIDFORMAT_BEGIN
 90
        0
 91
        1
 62
     0
 92
       -2
340
14
 93
        0
 40
0.045
309
GRIDFORMAT_END
 95
       32
302
GRIDFORMAT
  1
GRIDFORMAT_BEGIN
 90
        0
 91
        1
 62
     0
 92
       -2
340
14
 93
        0
 40
0.045
309
GRIDFORMAT_END
309
TABLEFORMAT_END
  1
CELLSTYLE_BEGIN
 90
        2
 91
        1
300
_HEADER
309
CELLSTYLE_END
300
CELLSTYLE
  1
TABLEFORMAT_BEGIN
 90
        5
170
     1
 91
        0
 92
        0
 62
   257
 93
        1
300
CONTENTFORMAT
  1
CONTENTFORMAT_BEGIN
 90
        0
 91
        0
 92
        4
 93
        0
300

 40
0.0
140
1.0
 94
        2
 62
     0
340
11
144
0.18
309
CONTENTFORMAT_END
171
     1
301
MARGIN
  1
CELLMARGIN_BEGIN
 40
0.06
 40
0.06
 40
0.06
 40
0.06
 40
0.06
 40
0.06
309
CELLMARGIN_END
 94
        6
 95
        1
302
GRIDFORMAT
  1
GRIDFORMAT_BEGIN
 90
        0
 91
        1
 62
     0
 92
       -2
340
14
 93
        0
 40
0.045
309
GRIDFORMAT_END
 95
        2
302
GRIDFORMAT
  1
GRIDFORMAT_BEGIN
 90
        0
 91
        1
 62
     0
 92
       -2
340
14
 93
        0
 40
0.045
309
GRIDFORMAT_END
 95
        4
302
GRIDFORMAT
  1
GRIDFORMAT_BEGIN
 90
        0
 91
        1
 62
     0
 92
       -2
340
14
 93
        0
 40
0.045
309
GRIDFORMAT_END
 95
        8
302
GRIDFORMAT
  1
GRIDFORMAT_BEGIN
 90
        0
 91
        1
 62
     0
 92
       -2
340
14
 93
        0
 40
0.045
309
GRIDFORMAT_END
 95
       16
302
GRIDFORMAT
  1
GRIDFORMAT_BEGIN
 90
        0
 91
        1
 62
     0
 92
       -2
340
14
 93
        0
 40
0.045
309
GRIDFORMAT_END
 95
       32
302
GRIDFORMAT
  1
GRIDFORMAT_BEGIN
 90
        0
 91
        1
 62
     0
 92
       -2
340
14
 93
        0
 40
0.045
309
GRIDFORMAT_END
309
TABLEFORMAT_END
  1
CELLSTYLE_BEGIN
 90
        3
 91
        2
300
_DATA
309
CELLSTYLE_END
  0
ENDSEC
  0
EOF