0
SECTION
  2
HEADER
  9
$ACADVER
  1
AC1027
  9
$ACADMAINTVER
 70
     8
  9
$DWGCODEPAGE
  3
ANSI_1252
  9
$REQUIREDVERSIONS
160
                 0
  9
$COMMENTS
  1
File was created by Cadenas
  9
$CUSTOMPROPERTYTAG
  1
NN
  9
$CUSTOMPROPERTY
  1
S-2000 Pillow Block 2-Bolt Inch Bore (Labyrinth Seal)
  9
$CUSTOMPROPERTYTAG
  1
NT
  9
$CUSTOMPROPERTY
  1
S-2000 Pillow Block Bearing -Inch (2-Bolt Base)
  9
$CUSTOMPROPERTYTAG
  1
NB
  9
$CUSTOMPROPERTY
  1
070331
  9
$CUSTOMPROPERTYTAG
  1
NBSYN
  9
$CUSTOMPROPERTY
  1
$PN.
  9
$CUSTOMPROPERTYTAG
  1
LINA
  9
$CUSTOMPROPERTY
  1
070331
  9
$CUSTOMPROPERTYTAG
  1
SS
  9
$CUSTOMPROPERTY
  1
2-15/16
  9
$CUSTOMPROPERTYTAG
  1
PN
  9
$CUSTOMPROPERTY
  1
070331
  9
$CUSTOMPROPERTYTAG
  1
DESCRIPTION
  9
$CUSTOMPROPERTY
  1
P2B-S2-215L
  9
$CUSTOMPROPERTYTAG
  1
EF
  9
$CUSTOMPROPERTY
  1
Non-Expansion Type
  9
$CUSTOMPROPERTYTAG
  1
ST
  9
$CUSTOMPROPERTY
  1
Labyrinth Type
  9
$CUSTOMPROPERTYTAG
  1
A
  9
$CUSTOMPROPERTY
  1
3-19/32
  9
$CUSTOMPROPERTYTAG
  1
B
  9
$CUSTOMPROPERTY
  1
10-7/16
  9
$CUSTOMPROPERTYTAG
  1
C
  9
$CUSTOMPROPERTY
  1
3-5/64
  9
$CUSTOMPROPERTYTAG
  1
DMIN
  9
$CUSTOMPROPERTY
  1
7-15/16
  9
$CUSTOMPROPERTYTAG
  1
DMAX
  9
$CUSTOMPROPERTY
  1
8-5/16
  9
$CUSTOMPROPERTYTAG
  1
F
  9
$CUSTOMPROPERTY
  1
3/4
  9
$CUSTOMPROPERTYTAG
  1
G
  9
$CUSTOMPROPERTY
  1
1-1/16
  9
$CUSTOMPROPERTYTAG
  1
H
  9
$CUSTOMPROPERTY
  1
1-7/8
  9
$CUSTOMPROPERTYTAG
  1
J
  9
$CUSTOMPROPERTY
  1
6-3/8
  9
$CUSTOMPROPERTYTAG
  1
L
  9
$CUSTOMPROPERTY
  1
4-45/64
  9
$CUSTOMPROPERTYTAG
  1
M
  9
$CUSTOMPROPERTY
  1
3-1/4
  9
$CUSTOMPROPERTYTAG
  1
R
  9
$CUSTOMPROPERTY
  1
1-15/64
  9
$CUSTOMPROPERTYTAG
  1
S
  9
$CUSTOMPROPERTY
  1
2-23/64
  9
$CUSTOMPROPERTYTAG
  1
X
  9
$CUSTOMPROPERTY
  1
1/4
  9
$CUSTOMPROPERTYTAG
  1
Y
  9
$CUSTOMPROPERTY
  1
0.025
  9
$CUSTOMPROPERTYTAG
  1
Z
  9
$CUSTOMPROPERTY
  1
3-15/32
  9
$CUSTOMPROPERTYTAG
  1
COMPANY
  9
$CUSTOMPROPERTY
  1
baldor
  9
$INSBASE
 10
0.0
 20
0.0
 30
0.0
  9
$EXTMIN
 10
1.000000000000000E+20
 20
1.000000000000000E+20
 30
1.000000000000000E+20
  9
$EXTMAX
 10
-1.000000000000000E+20
 20
-1.000000000000000E+20
 30
-1.000000000000000E+20
  9
$LIMMIN
 10
0.0
 20
0.0
  9
$LIMMAX
 10
12.0
 20
9.0
  9
$ORTHOMODE
 70
     0
  9
$REGENMODE
 70
     1
  9
$FILLMODE
 70
     1
  9
$QTEXTMODE
 70
     0
  9
$MIRRTEXT
 70
     1
  9
$LTSCALE
 40
1.0
  9
$ATTMODE
 70
     1
  9
$TEXTSIZE
 40
0.2
  9
$TRACEWID
 40
0.05
  9
$TEXTSTYLE
  7
Standard
  9
$CLAYER
  8
0
  9
$CELTYPE
  6
ByLayer
  9
$CECOLOR
 62
   256
  9
$CELTSCALE
 40
1.0
  9
$DISPSILH
 70
     0
  9
$DIMSCALE
 40
1.0
  9
$DIMASZ
 40
0.18
  9
$DIMEXO
 40
0.0625
  9
$DIMDLI
 40
0.38
  9
$DIMRND
 40
0.0
  9
$DIMDLE
 40
0.0
  9
$DIMEXE
 40
0.18
  9
$DIMTP
 40
0.0
  9
$DIMTM
 40
0.0
  9
$DIMTXT
 40
0.18
  9
$DIMCEN
 40
0.09
  9
$DIMTSZ
 40
0.0
  9
$DIMTOL
 70
     0
  9
$DIMLIM
 70
     0
  9
$DIMTIH
 70
     1
  9
$DIMTOH
 70
     1
  9
$DIMSE1
 70
     0
  9
$DIMSE2
 70
     0
  9
$DIMTAD
 70
     0
  9
$DIMZIN
 70
     0
  9
$DIMBLK
  1

  9
$DIMASO
 70
     1
  9
$DIMSHO
 70
     1
  9
$DIMPOST
  1

  9
$DIMAPOST
  1

  9
$DIMALT
 70
     0
  9
$DIMALTD
 70
     2
  9
$DIMALTF
 40
25.4
  9
$DIMLFAC
 40
1.0
  9
$DIMTOFL
 70
     0
  9
$DIMTVP
 40
0.0
  9
$DIMTIX
 70
     0
  9
$DIMSOXD
 70
     0
  9
$DIMSAH
 70
     0
  9
$DIMBLK1
  1

  9
$DIMBLK2
  1

  9
$DIMSTYLE
  2
Standard
  9
$DIMCLRD
 70
     0
  9
$DIMCLRE
 70
     0
  9
$DIMCLRT
 70
     0
  9
$DIMTFAC
 40
1.0
  9
$DIMGAP
 40
0.09
  9
$DIMJUST
 70
     0
  9
$DIMSD1
 70
     0
  9
$DIMSD2
 70
     0
  9
$DIMTOLJ
 70
     1
  9
$DIMTZIN
 70
     0
  9
$DIMALTZ
 70
     0
  9
$DIMALTTZ
 70
     0
  9
$DIMUPT
 70
     0
  9
$DIMDEC
 70
     4
  9
$DIMTDEC
 70
     4
  9
$DIMALTU
 70
     2
  9
$DIMALTTD
 70
     2
  9
$DIMTXSTY
  7
Standard
  9
$DIMAUNIT
 70
     0
  9
$DIMADEC
 70
     0
  9
$DIMALTRND
 40
0.0
  9
$DIMAZIN
 70
     0
  9
$DIMDSEP
 70
    46
  9
$DIMATFIT
 70
     3
  9
$DIMFRAC
 70
     0
  9
$DIMLDRBLK
  1

  9
$DIMLUNIT
 70
     2
  9
$DIMLWD
 70
    -2
  9
$DIMLWE
 70
    -2
  9
$DIMTMOVE
 70
     0
  9
$DIMFXL
 40
1.0
  9
$DIMFXLON
 70
     0
  9
$DIMJOGANG
 40
0.7853981633974483
  9
$DIMTFILL
 70
     0
  9
$DIMTFILLCLR
 70
     0
  9
$DIMARCSYM
 70
     0
  9
$DIMLTYPE
  6

  9
$DIMLTEX1
  6

  9
$DIMLTEX2
  6

  9
$DIMTXTDIRECTION
 70
     0
  9
$LUNITS
 70
     2
  9
$LUPREC
 70
     4
  9
$SKETCHINC
 40
0.1
  9
$FILLETRAD
 40
0.5
  9
$AUNITS
 70
     0
  9
$AUPREC
 70
     0
  9
$MENU
  1
.
  9
$ELEVATION
 40
0.0
  9
$PELEVATION
 40
0.0
  9
$THICKNESS
 40
0.0
  9
$LIMCHECK
 70
     0
  9
$CHAMFERA
 40
0.0
  9
$CHAMFERB
 40
0.0
  9
$CHAMFERC
 40
0.0
  9
$CHAMFERD
 40
0.0
  9
$SKPOLY
 70
     0
  9
$TDCREATE
 40
2458168.976384375
  9
$TDUCREATE
 40
2458168.934717708
  9
$TDUPDATE
 40
2458168.976384548
  9
$TDUUPDATE
 40
2458168.934717882
  9
$TDINDWG
 40
0.0000000116
  9
$TDUSRTIMER
 40
0.0000000116
  9
$USRTIMER
 70
     1
  9
$ANGBASE
 50
0.0
  9
$ANGDIR
 70
     0
  9
$PDMODE
 70
     0
  9
$PDSIZE
 40
0.0
  9
$PLINEWID
 40
0.0
  9
$SPLFRAME
 70
     0
  9
$SPLINETYPE
 70
     6
  9
$SPLINESEGS
 70
     8
  9
$HANDSEED
  5
216
  9
$SURFTAB1
 70
     6
  9
$SURFTAB2
 70
     6
  9
$SURFTYPE
 70
     6
  9
$SURFU
 70
     6
  9
$SURFV
 70
     6
  9
$UCSBASE
  2

  9
$UCSNAME
  2

  9
$UCSORG
 10
0.0
 20
0.0
 30
0.0
  9
$UCSXDIR
 10
1.0
 20
0.0
 30
0.0
  9
$UCSYDIR
 10
0.0
 20
1.0
 30
0.0
  9
$UCSORTHOREF
  2

  9
$UCSORTHOVIEW
 70
     0
  9
$UCSORGTOP
 10
0.0
 20
0.0
 30
0.0
  9
$UCSORGBOTTOM
 10
0.0
 20
0.0
 30
0.0
  9
$UCSORGLEFT
 10
0.0
 20
0.0
 30
0.0
  9
$UCSORGRIGHT
 10
0.0
 20
0.0
 30
0.0
  9
$UCSORGFRONT
 10
0.0
 20
0.0
 30
0.0
  9
$UCSORGBACK
 10
0.0
 20
0.0
 30
0.0
  9
$PUCSBASE
  2

  9
$PUCSNAME
  2

  9
$PUCSORG
 10
0.0
 20
0.0
 30
0.0
  9
$PUCSXDIR
 10
1.0
 20
0.0
 30
0.0
  9
$PUCSYDIR
 10
0.0
 20
1.0
 30
0.0
  9
$PUCSORTHOREF
  2

  9
$PUCSORTHOVIEW
 70
     0
  9
$PUCSORGTOP
 10
0.0
 20
0.0
 30
0.0
  9
$PUCSORGBOTTOM
 10
0.0
 20
0.0
 30
0.0
  9
$PUCSORGLEFT
 10
0.0
 20
0.0
 30
0.0
  9
$PUCSORGRIGHT
 10
0.0
 20
0.0
 30
0.0
  9
$PUCSORGFRONT
 10
0.0
 20
0.0
 30
0.0
  9
$PUCSORGBACK
 10
0.0
 20
0.0
 30
0.0
  9
$USERI1
 70
     0
  9
$USERI2
 70
     0
  9
$USERI3
 70
     0
  9
$USERI4
 70
     0
  9
$USERI5
 70
     0
  9
$USERR1
 40
0.0
  9
$USERR2
 40
0.0
  9
$USERR3
 40
0.0
  9
$USERR4
 40
0.0
  9
$USERR5
 40
0.0
  9
$WORLDVIEW
 70
     1
  9
$SHADEDGE
 70
     3
  9
$SHADEDIF
 70
    70
  9
$TILEMODE
 70
     1
  9
$MAXACTVP
 70
    64
  9
$PINSBASE
 10
0.0
 20
0.0
 30
0.0
  9
$PLIMCHECK
 70
     0
  9
$PEXTMIN
 10
1.000000000000000E+20
 20
1.000000000000000E+20
 30
1.000000000000000E+20
  9
$PEXTMAX
 10
-1.000000000000000E+20
 20
-1.000000000000000E+20
 30
-1.000000000000000E+20
  9
$PLIMMIN
 10
0.0
 20
0.0
  9
$PLIMMAX
 10
12.0
 20
9.0
  9
$UNITMODE
 70
     0
  9
$VISRETAIN
 70
     1
  9
$PLINEGEN
 70
     0
  9
$PSLTSCALE
 70
     1
  9
$TREEDEPTH
 70
  3020
  9
$CMLSTYLE
  2
Standard
  9
$CMLJUST
 70
     0
  9
$CMLSCALE
 40
1.0
  9
$PROXYGRAPHICS
 70
     1
  9
$MEASUREMENT
 70
     0
  9
$CELWEIGHT
370
    -1
  9
$ENDCAPS
280
     0
  9
$JOINSTYLE
280
     0
  9
$LWDISPLAY
290
     0
  9
$INSUNITS
 70
     1
  9
$HYPERLINKBASE
  1

  9
$STYLESHEET
  1

  9
$XEDIT
290
     1
  9
$CEPSNTYPE
380
     0
  9
$PSTYLEMODE
290
     1
  9
$FINGERPRINTGUID
  2
{5E1D5FBD-FBCD-4733-AE99-8BCA2992DE75}
  9
$VERSIONGUID
  2
{FAEB1C32-E019-11D5-929B-00C0DF256EC4}
  9
$EXTNAMES
290
     1
  9
$PSVPSCALE
 40
0.0
  9
$OLESTARTUP
290
     0
  9
$SORTENTS
280
   127
  9
$INDEXCTL
280
     0
  9
$HIDETEXT
280
     1
  9
$XCLIPFRAME
280
     2
  9
$HALOGAP
280
     0
  9
$OBSCOLOR
 70
   257
  9
$OBSLTYPE
280
     0
  9
$INTERSECTIONDISPLAY
280
     0
  9
$INTERSECTIONCOLOR
 70
   257
  9
$DIMASSOC
280
     2
  9
$PROJECTNAME
  1

  9
$CAMERADISPLAY
290
     0
  9
$LENSLENGTH
 40
50.0
  9
$CAMERAHEIGHT
 40
0.0
  9
$STEPSPERSEC
 40
2.0
  9
$STEPSIZE
 40
6.0
  9
$3DDWFPREC
 40
2.0
  9
$PSOLWIDTH
 40
0.25
  9
$PSOLHEIGHT
 40
4.0
  9
$LOFTANG1
 40
1.570796326794897
  9
$LOFTANG2
 40
1.570796326794897
  9
$LOFTMAG1
 40
0.0
  9
$LOFTMAG2
 40
0.0
  9
$LOFTPARAM
 70
     7
  9
$LOFTNORMALS
280
     1
  9
$LATITUDE
 40
37.795
  9
$LONGITUDE
 40
-122.394
  9
$NORTHDIRECTION
 40
0.0
  9
$TIMEZONE
 70
 -8000
  9
$LIGHTGLYPHDISPLAY
280
     1
  9
$TILEMODELIGHTSYNCH
280
     1
  9
$CMATERIAL
347
44
  9
$SOLIDHIST
280
     0
  9
$SHOWHIST
280
     1
  9
$DWFFRAME
280
     2
  9
$DGNFRAME
280
     2
  9
$REALWORLDSCALE
290
     1
  9
$INTERFERECOLOR
 62
   256
  9
$CSHADOW
280
     0
  9
$SHADOWPLANELOCATION
 40
0.0
  0
ENDSEC
  0
SECTION
  2
CLASSES
  0
CLASS
  1
ACDBDICTIONARYWDFLT
  2
AcDbDictionaryWithDefault
  3
ObjectDBX Classes
 90
        0
 91
        4
280
     0
281
     0
  0
CLASS
  1
VISUALSTYLE
  2
AcDbVisualStyle
  3
ObjectDBX Classes
 90
     4095
 91
        4
280
     0
281
     0
  0
CLASS
  1
MATERIAL
  2
AcDbMaterial
  3
ObjectDBX Classes
 90
     1153
 91
        4
280
     0
281
     0
  0
CLASS
  1
SCALE
  2
AcDbScale
  3
ObjectDBX Classes
 90
     1153
 91
        4
280
     0
281
     0
  0
CLASS
  1
TABLESTYLE
  2
AcDbTableStyle
  3
ObjectDBX Classes
 90
     4095
 91
        4
280
     0
281
     0
  0
CLASS
  1
MLEADERSTYLE
  2
AcDbMLeaderStyle
  3
ACDB_MLEADERSTYLE_CLASS
 90
     4095
 91
        4
280
     0
281
     0
  0
CLASS
  1
SUN
  2
AcDbSun
  3
SCENEOE
 90
     1153
 91
        4
280
     0
281
     0
  0
CLASS
  1
DICTIONARYVAR
  2
AcDbDictionaryVar
  3
ObjectDBX Classes
 90
        0
 91
        4
280
     0
281
     0
  0
CLASS
  1
CELLSTYLEMAP
  2
AcDbCellStyleMap
  3
ObjectDBX Classes
 90
     1152
 91
        4
280
     0
281
     0
  0
ENDSEC
  0
SECTION
  2
TABLES
  0
TABLE
  2
VPORT
  5
8
330
0
100
AcDbSymbolTable
 70
     1
  0
VPORT
  5
29
330
8
100
AcDbSymbolTableRecord
100
AcDbViewportTableRecord
  2
*Active
 70
     0
 10
0.0
 20
0.0
 11
1.0
 21
1.0
 12
-0.0744687500000012
 22
-0.040484797704714
 13
0.0
 23
0.0
 14
0.5
 24
0.5
 15
0.5
 25
0.5
 16
0.0
 26
0.0
 36
1.0
 17
0.0
 27
0.0
 37
0.0
 40
6.547411012682383
 41
0.76790218916472
 42
50.0
 43
0.0
 44
0.0
 50
0.0
 51
0.0
 71
     0
 72
   100
 73
     1
 74
     3
 75
     0
 76
     0
 77
     0
 78
     0
281
     0
 65
     1
110
0.0
120
0.0
130
0.0
111
1.0
121
0.0
131
0.0
112
0.0
122
1.0
132
0.0
 79
     0
146
0.0
348
2F
 60
     3
 61
     5
292
     1
282
     1
141
0.0
142
0.0
 63
   250
361
6D
  0
ENDTAB
  0
TABLE
  2
LTYPE
  5
5
330
0
100
AcDbSymbolTable
 70
     3
  0
LTYPE
  5
14
330
5
100
AcDbSymbolTableRecord
100
AcDbLinetypeTableRecord
  2
ByBlock
 70
     0
  3

 72
    65
 73
     0
 40
0.0
  0
LTYPE
  5
15
330
5
100
AcDbSymbolTableRecord
100
AcDbLinetypeTableRecord
  2
ByLayer
 70
     0
  3

 72
    65
 73
     0
 40
0.0
  0
LTYPE
  5
16
330
5
100
AcDbSymbolTableRecord
100
AcDbLinetypeTableRecord
  2
Continuous
 70
     0
  3
Solid line
 72
    65
 73
     0
 40
0.0
  0
LTYPE
  5
A7
330
5
100
AcDbSymbolTableRecord
100
AcDbLinetypeTableRecord
  2
Dashed
 70
     0
  3

 72
    65
 73
     2
 40
2.0
 49
1.0
 74
     0
 49
-1.0
 74
     0
  0
LTYPE
  5
D7
330
5
100
AcDbSymbolTableRecord
100
AcDbLinetypeTableRecord
  2
Center
 70
     0
  3

 72
    65
 73
     4
 40
1.5
 49
0.45
 74
     0
 49
-0.5
 74
     0
 49
0.05
 74
     0
 49
-0.5
 74
     0
  0
ENDTAB
  0
TABLE
  2
LAYER
  5
2
330
0
100
AcDbSymbolTable
 70
     7
  0
LAYER
  5
10
330
2
100
AcDbSymbolTableRecord
100
AcDbLayerTableRecord
  2
0
 70
     0
 62
     7
  6
Continuous
370
    -3
390
F
347
46
348
0
  0
LAYER
  5
72
330
2
100
AcDbSymbolTableRecord
100
AcDbLayerTableRecord
  2
AM_6
 70
     0
 62
    -2
  6
Continuous
370
    35
390
F
347
46
348
0
  0
LAYER
  5
A8
330
2
100
AcDbSymbolTableRecord
100
AcDbLayerTableRecord
  2
AM_9
 70
     0
 62
     6
  6
Dashed
370
    25
390
F
347
46
348
0
  0
LAYER
  5
D2
330
2
100
AcDbSymbolTableRecord
100
AcDbLayerTableRecord
  2
AM_5
 70
     0
 62
     3
  6
Continuous
370
    25
390
F
347
46
348
0
  0
LAYER
  5
D8
330
2
100
AcDbSymbolTableRecord
100
AcDbLayerTableRecord
  2
AM_7
 70
     0
 62
     7
  6
Center
370
    25
390
F
347
46
348
0
  0
LAYER
  5
DA
330
2
100
AcDbSymbolTableRecord
100
AcDbLayerTableRecord
  2
AM_4
 70
     0
 62
     7
  6
Continuous
370
    50
390
F
347
46
348
0
  0
LAYER
  5
205
330
2
100
AcDbSymbolTableRecord
100
AcDbLayerTableRecord
  2
ConnectionPoints
 70
     0
 62
     7
  6
Continuous
370
    50
390
F
347
46
348
0
  0
ENDTAB
  0
TABLE
  2
STYLE
  5
3
330
0
100
AcDbSymbolTable
 70
     1
  0
STYLE
  5
11
330
3
100
AcDbSymbolTableRecord
100
AcDbTextStyleTableRecord
  2
Standard
 70
     0
 40
0.0
 41
1.0
 50
0.0
 71
     0
 42
0.2
  3
txt
  4

  0
ENDTAB
  0
TABLE
  2
VIEW
  5
6
330
0
100
AcDbSymbolTable
 70
     0
  0
ENDTAB
  0
TABLE
  2
UCS
  5
7
330
0
100
AcDbSymbolTable
 70
     0
  0
ENDTAB
  0
TABLE
  2
APPID
  5
9
330
0
100
AcDbSymbolTable
 70
     1
  0
APPID
  5
12
330
9
100
AcDbSymbolTableRecord
100
AcDbRegAppTableRecord
  2
ACAD
 70
     0
  0
ENDTAB
  0
TABLE
  2
DIMSTYLE
  5
A
330
0
100
AcDbSymbolTable
 70
     1
100
AcDbDimStyleTable
  0
DIMSTYLE
105
27
330
A
100
AcDbSymbolTableRecord
100
AcDbDimStyleTableRecord
  2
Standard
 70
     0
178
     0
340
11
  0
ENDTAB
  0
TABLE
  2
BLOCK_RECORD
  5
1
330
0
100
AcDbSymbolTable
 70
     6
  0
BLOCK_RECORD
  5
1F
330
1
100
AcDbSymbolTableRecord
100
AcDbBlockTableRecord
  2
*Model_Space
340
22
 70
     0
280
     1
281
     0
  0
BLOCK_RECORD
  5
1B
330
1
100
AcDbSymbolTableRecord
100
AcDbBlockTableRecord
  2
*Paper_Space
340
1E
 70
     0
280
     1
281
     0
  0
BLOCK_RECORD
  5
23
330
1
100
AcDbSymbolTableRecord
100
AcDbBlockTableRecord
  2
*Paper_Space0
340
26
 70
     0
280
     1
281
     0
  0
BLOCK_RECORD
  5
6E
330
1
100
AcDbSymbolTableRecord
100
AcDbBlockTableRecord
  2
1_070331_2
340
0
102
{BLKREFS
331
6F
102
}
 70
     0
280
     1
281
     0
  0
BLOCK_RECORD
  5
8E
330
1
100
AcDbSymbolTableRecord
100
AcDbBlockTableRecord
  2
2_2_15_16CS2i_0_in_070331_2
340
0
102
{BLKREFS
331
8F
102
}
 70
     0
280
     1
281
     0
  0
BLOCK_RECORD
  5
F1
330
1
100
AcDbSymbolTableRecord
100
AcDbBlockTableRecord
  2
3_070026i_0_in_070331_2
340
0
102
{BLKREFS
331
F2
102
}
 70
     0
280
     1
281
     0
  0
BLOCK_RECORD
  5
14C
330
1
100
AcDbSymbolTableRecord
100
AcDbBlockTableRecord
  2
4_405015E_Inch_0_in_070331_2
340
0
102
{BLKREFS
331
14D
102
}
 70
     0
280
     1
281
     0
  0
BLOCK_RECORD
  5
1AB
330
1
100
AcDbSymbolTableRecord
100
AcDbBlockTableRecord
  2
5_070331H_0_in_070331_2
340
0
102
{BLKREFS
331
1AC
102
}
 70
     0
280
     1
281
     0
  0
ENDTAB
  0
ENDSEC
  0
SECTION
  2
BLOCKS
  0
BLOCK
  5
20
330
1F
100
AcDbEntity
  8
0
100
AcDbBlockBegin
  2
*Model_Space
 70
     0
 10
0.0
 20
0.0
 30
0.0
  3
*Model_Space
  1

  0
ENDBLK
  5
21
330
1F
100
AcDbEntity
  8
0
100
AcDbBlockEnd
  0
BLOCK
  5
1C
330
1B
100
AcDbEntity
 67
     1
  8
0
100
AcDbBlockBegin
  2
*Paper_Space
 70
     0
 10
0.0
 20
0.0
 30
0.0
  3
*Paper_Space
  1

  0
ENDBLK
  5
1D
330
1B
100
AcDbEntity
 67
     1
  8
0
100
AcDbBlockEnd
  0
BLOCK
  5
24
330
23
100
AcDbEntity
  8
0
100
AcDbBlockBegin
  2
*Paper_Space0
 70
     0
 10
0.0
 20
0.0
 30
0.0
  3
*Paper_Space0
  1

  0
ENDBLK
  5
25
330
23
100
AcDbEntity
  8
0
100
AcDbBlockEnd
  0
BLOCK
  5
70
330
6E
100
AcDbEntity
  8
0
100
AcDbBlockBegin
  2
1_070331_2
 70
     2
 10
0.0
 20
0.0
 30
0.0
  3
1_070331_2
  1

  0
ATTDEF
  5
73
330
6E
100
AcDbEntity
  8
AM_6
100
AcDbText
 10
6.736378205128205
 20
3.169012561372174
 30
0.0
 40
0.5
  1
S-2000 Pillow Block 2-Bolt Inch Bore (Labyrinth Seal)
100
AcDbAttributeDefinition
  3

  2
NN
 70
     8
280
     0
  0
ATTDEF
  5
74
330
6E
100
AcDbEntity
  8
AM_6
100
AcDbText
 10
6.736378205128205
 20
2.669012561372174
 30
0.0
 40
0.5
  1
S-2000 Pillow Block Bearing -Inch (2-Bolt Base)
100
AcDbAttributeDefinition
  3

  2
NT
 70
     8
280
     0
  0
ATTDEF
  5
75
330
6E
100
AcDbEntity
  8
AM_6
100
AcDbText
 10
6.736378205128205
 20
2.169012561372174
 30
0.0
 40
0.5
  1
070331
100
AcDbAttributeDefinition
  3

  2
NB
 70
     8
280
     0
  0
ATTDEF
  5
76
330
6E
100
AcDbEntity
  8
AM_6
100
AcDbText
 10
6.736378205128205
 20
1.669012561372174
 30
0.0
 40
0.5
  1
$PN.
100
AcDbAttributeDefinition
  3

  2
NBSYN
 70
     8
280
     0
  0
ATTDEF
  5
77
330
6E
100
AcDbEntity
  8
AM_6
100
AcDbText
 10
6.736378205128205
 20
1.169012561372174
 30
0.0
 40
0.5
  1
070331
100
AcDbAttributeDefinition
  3

  2
LINA
 70
     8
280
     0
  0
ATTDEF
  5
78
330
6E
100
AcDbEntity
  8
AM_6
100
AcDbText
 10
6.736378205128205
 20
0.6690125613721745
 30
0.0
 40
0.5
  1
2-15/16
100
AcDbAttributeDefinition
  3

  2
SS
 70
     8
280
     0
  0
ATTDEF
  5
79
330
6E
100
AcDbEntity
  8
AM_6
100
AcDbText
 10
6.736378205128205
 20
0.1690125613721745
 30
0.0
 40
0.5
  1
070331
100
AcDbAttributeDefinition
  3

  2
PN
 70
     8
280
     0
  0
ATTDEF
  5
7A
330
6E
100
AcDbEntity
  8
AM_6
100
AcDbText
 10
6.736378205128205
 20
-0.3309874386278255
 30
0.0
 40
0.5
  1
P2B-S2-215L
100
AcDbAttributeDefinition
  3

  2
DESCRIPTION
 70
     8
280
     0
  0
ATTDEF
  5
7B
330
6E
100
AcDbEntity
  8
AM_6
100
AcDbText
 10
6.736378205128205
 20
-0.8309874386278255
 30
0.0
 40
0.5
  1
Non-Expansion Type
100
AcDbAttributeDefinition
  3

  2
EF
 70
     8
280
     0
  0
ATTDEF
  5
7C
330
6E
100
AcDbEntity
  8
AM_6
100
AcDbText
 10
6.736378205128205
 20
-1.330987438627826
 30
0.0
 40
0.5
  1
Labyrinth Type
100
AcDbAttributeDefinition
  3

  2
ST
 70
     8
280
     0
  0
ATTDEF
  5
7D
330
6E
100
AcDbEntity
  8
AM_6
100
AcDbText
 10
6.736378205128205
 20
-1.830987438627826
 30
0.0
 40
0.5
  1
3-19/32
100
AcDbAttributeDefinition
  3

  2
A
 70
     8
280
     0
  0
ATTDEF
  5
7E
330
6E
100
AcDbEntity
  8
AM_6
100
AcDbText
 10
6.736378205128205
 20
-2.330987438627826
 30
0.0
 40
0.5
  1
10-7/16
100
AcDbAttributeDefinition
  3

  2
B
 70
     8
280
     0
  0
ATTDEF
  5
7F
330
6E
100
AcDbEntity
  8
AM_6
100
AcDbText
 10
6.736378205128205
 20
-2.830987438627826
 30
0.0
 40
0.5
  1
3-5/64
100
AcDbAttributeDefinition
  3

  2
C
 70
     8
280
     0
  0
ATTDEF
  5
80
330
6E
100
AcDbEntity
  8
AM_6
100
AcDbText
 10
6.736378205128205
 20
-3.330987438627826
 30
0.0
 40
0.5
  1
7-15/16
100
AcDbAttributeDefinition
  3

  2
DMIN
 70
     8
280
     0
  0
ATTDEF
  5
81
330
6E
100
AcDbEntity
  8
AM_6
100
AcDbText
 10
6.736378205128205
 20
-3.830987438627826
 30
0.0
 40
0.5
  1
8-5/16
100
AcDbAttributeDefinition
  3

  2
DMAX
 70
     8
280
     0
  0
ATTDEF
  5
82
330
6E
100
AcDbEntity
  8
AM_6
100
AcDbText
 10
6.736378205128205
 20
-4.330987438627826
 30
0.0
 40
0.5
  1
3/4
100
AcDbAttributeDefinition
  3

  2
F
 70
     8
280
     0
  0
ATTDEF
  5
83
330
6E
100
AcDbEntity
  8
AM_6
100
AcDbText
 10
6.736378205128205
 20
-4.830987438627826
 30
0.0
 40
0.5
  1
1-1/16
100
AcDbAttributeDefinition
  3

  2
G
 70
     8
280
     0
  0
ATTDEF
  5
84
330
6E
100
AcDbEntity
  8
AM_6
100
AcDbText
 10
6.736378205128205
 20
-5.330987438627826
 30
0.0
 40
0.5
  1
1-7/8
100
AcDbAttributeDefinition
  3

  2
H
 70
     8
280
     0
  0
ATTDEF
  5
85
330
6E
100
AcDbEntity
  8
AM_6
100
AcDbText
 10
6.736378205128205
 20
-5.830987438627826
 30
0.0
 40
0.5
  1
6-3/8
100
AcDbAttributeDefinition
  3

  2
J
 70
     8
280
     0
  0
ATTDEF
  5
86
330
6E
100
AcDbEntity
  8
AM_6
100
AcDbText
 10
6.736378205128205
 20
-6.330987438627826
 30
0.0
 40
0.5
  1
4-45/64
100
AcDbAttributeDefinition
  3

  2
L
 70
     8
280
     0
  0
ATTDEF
  5
87
330
6E
100
AcDbEntity
  8
AM_6
100
AcDbText
 10
6.736378205128205
 20
-6.830987438627826
 30
0.0
 40
0.5
  1
3-1/4
100
AcDbAttributeDefinition
  3

  2
M
 70
     8
280
     0
  0
ATTDEF
  5
88
330
6E
100
AcDbEntity
  8
AM_6
100
AcDbText
 10
6.736378205128205
 20
-7.330987438627826
 30
0.0
 40
0.5
  1
1-15/64
100
AcDbAttributeDefinition
  3

  2
R
 70
     8
280
     0
  0
ATTDEF
  5
89
330
6E
100
AcDbEntity
  8
AM_6
100
AcDbText
 10
6.736378205128205
 20
-7.830987438627826
 30
0.0
 40
0.5
  1
2-23/64
100
AcDbAttributeDefinition
  3

  2
S
 70
     8
280
     0
  0
ATTDEF
  5
8A
330
6E
100
AcDbEntity
  8
AM_6
100
AcDbText
 10
6.736378205128205
 20
-8.330987438627826
 30
0.0
 40
0.5
  1
1/4
100
AcDbAttributeDefinition
  3

  2
X
 70
     8
280
     0
  0
ATTDEF
  5
8B
330
6E
100
AcDbEntity
  8
AM_6
100
AcDbText
 10
6.736378205128205
 20
-8.830987438627826
 30
0.0
 40
0.5
  1
0.025
100
AcDbAttributeDefinition
  3

  2
Y
 70
     8
280
     0
  0
ATTDEF
  5
8C
330
6E
100
AcDbEntity
  8
AM_6
100
AcDbText
 10
6.736378205128205
 20
-9.330987438627826
 30
0.0
 40
0.5
  1
3-15/32
100
AcDbAttributeDefinition
  3

  2
Z
 70
     8
280
     0
  0
ATTDEF
  5
8D
330
6E
100
AcDbEntity
  8
AM_6
100
AcDbText
 10
6.736378205128205
 20
-9.830987438627826
 30
0.0
 40
0.5
  1
baldor
100
AcDbAttributeDefinition
  3

  2
COMPANY
 70
     8
280
     0
  0
INSERT
  5
8F
330
6E
100
AcDbEntity
  8
0
100
AcDbBlockReference
  2
2_2_15_16CS2i_0_in_070331_2
 10
0.0
 20
0.0
 30
0.0
  0
INSERT
  5
F2
330
6E
100
AcDbEntity
  8
0
100
AcDbBlockReference
  2
3_070026i_0_in_070331_2
 10
0.0
 20
0.0
 30
0.0
  0
INSERT
  5
14D
330
6E
100
AcDbEntity
  8
0
100
AcDbBlockReference
  2
4_405015E_Inch_0_in_070331_2
 10
0.0
 20
0.0
 30
0.0
  0
INSERT
  5
1AC
330
6E
100
AcDbEntity
  8
0
100
AcDbBlockReference
  2
5_070331H_0_in_070331_2
 10
0.0
 20
0.0
 30
0.0
  0
ENDBLK
  5
71
330
6E
100
AcDbEntity
  8
0
100
AcDbBlockEnd
  0
BLOCK
  5
90
330
8E
100
AcDbEntity
  8
0
100
AcDbBlockBegin
  2
2_2_15_16CS2i_0_in_070331_2
 70
     2
 10
0.0
 20
0.0
 30
0.0
  3
2_2_15_16CS2i_0_in_070331_2
  1

  0
ATTDEF
  5
92
330
8E
100
AcDbEntity
  8
AM_6
100
AcDbText
 10
3.524625
 20
2.384059916666667
 30
0.0
 40
0.5
  1
S-2000 Collar -Inch
100
AcDbAttributeDefinition
  3

  2
NN
 70
     8
280
     0
  0
ATTDEF
  5
93
330
8E
100
AcDbEntity
  8
AM_6
100
AcDbText
 10
3.524625
 20
1.884059916666667
 30
0.0
 40
0.5
  1
S-2000 Bearings
100
AcDbAttributeDefinition
  3

  2
NT
 70
     8
280
     0
  0
ATTDEF
  5
94
330
8E
100
AcDbEntity
  8
AM_6
100
AcDbText
 10
3.524625
 20
1.384059916666667
 30
0.0
 40
0.5
  1
2-15/16CS2i
100
AcDbAttributeDefinition
  3

  2
NB
 70
     8
280
     0
  0
ATTDEF
  5
95
330
8E
100
AcDbEntity
  8
AM_6
100
AcDbText
 10
3.524625
 20
0.8840599166666667
 30
0.0
 40
0.5
  1
$BORE.CS2i
100
AcDbAttributeDefinition
  3

  2
NBSYN
 70
     8
280
     0
  0
ATTDEF
  5
96
330
8E
100
AcDbEntity
  8
AM_6
100
AcDbText
 10
3.524625
 20
0.3840599166666667
 30
0.0
 40
0.5
  1
2-15/16CS2i
100
AcDbAttributeDefinition
  3

  2
LINA
 70
     8
280
     0
  0
ATTDEF
  5
97
330
8E
100
AcDbEntity
  8
AM_6
100
AcDbText
 10
3.524625
 20
-0.1159400833333333
 30
0.0
 40
0.5
  1
2-15/16
100
AcDbAttributeDefinition
  3

  2
BORE
 70
     8
280
     0
  0
ATTDEF
  5
98
330
8E
100
AcDbEntity
  8
AM_6
100
AcDbText
 10
3.524625
 20
-0.6159400833333333
 30
0.0
 40
0.5
  1
2.937500
100
AcDbAttributeDefinition
  3

  2
BORE1
 70
     8
280
     0
  0
ATTDEF
  5
99
330
8E
100
AcDbEntity
  8
AM_6
100
AcDbText
 10
3.524625
 20
-1.115940083333333
 30
0.0
 40
0.5
  1
4-45/64
100
AcDbAttributeDefinition
  3

  2
L1
 70
     8
280
     0
  0
ATTDEF
  5
9A
330
8E
100
AcDbEntity
  8
AM_6
100
AcDbText
 10
3.524625
 20
-1.615940083333333
 30
0.0
 40
0.5
  1
4.70313
100
AcDbAttributeDefinition
  3

  2
L
 70
     8
280
     0
  0
ATTDEF
  5
9B
330
8E
100
AcDbEntity
  8
AM_6
100
AcDbText
 10
3.524625
 20
-2.115940083333333
 30
0.0
 40
0.5
  1
4.62500
100
AcDbAttributeDefinition
  3

  2
L2
 70
     8
280
     0
  0
ATTDEF
  5
9C
330
8E
100
AcDbEntity
  8
AM_6
100
AcDbText
 10
3.524625
 20
-2.615940083333333
 30
0.0
 40
0.5
  1
4.50
100
AcDbAttributeDefinition
  3

  2
A
 70
     8
280
     0
  0
ATTDEF
  5
9D
330
8E
100
AcDbEntity
  8
AM_6
100
AcDbText
 10
3.524625
 20
-3.115940083333333
 30
0.0
 40
0.5
  1
1.94
100
AcDbAttributeDefinition
  3

  2
B
 70
     8
280
     0
  0
ATTDEF
  5
9E
330
8E
100
AcDbEntity
  8
AM_6
100
AcDbText
 10
3.524625
 20
-3.615940083333333
 30
0.0
 40
0.5
  1
3.47
100
AcDbAttributeDefinition
  3

  2
C
 70
     8
280
     0
  0
ATTDEF
  5
9F
330
8E
100
AcDbEntity
  8
AM_6
100
AcDbText
 10
3.524625
 20
-4.115940083333333
 30
0.0
 40
0.5
  1
4.78
100
AcDbAttributeDefinition
  3

  2
D
 70
     8
280
     0
  0
ATTDEF
  5
A0
330
8E
100
AcDbEntity
  8
AM_6
100
AcDbText
 10
3.524625
 20
-4.615940083333333
 30
0.0
 40
0.5
  1
0.54
100
AcDbAttributeDefinition
  3

  2
E
 70
     8
280
     0
  0
ATTDEF
  5
A1
330
8E
100
AcDbEntity
  8
AM_6
100
AcDbText
 10
3.524625
 20
-5.115940083333333
 30
0.0
 40
0.5
  1
0.442
100
AcDbAttributeDefinition
  3

  2
F
 70
     8
280
     0
  0
ATTDEF
  5
A2
330
8E
100
AcDbEntity
  8
AM_6
100
AcDbText
 10
3.524625
 20
-5.615940083333333
 30
0.0
 40
0.5
  1
1/2-13
100
AcDbAttributeDefinition
  3

  2
CS
 70
     8
280
     0
  0
ATTDEF
  5
A3
330
8E
100
AcDbEntity
  8
AM_6
100
AcDbText
 10
3.524625
 20
-6.115940083333333
 30
0.0
 40
0.5
  1
0.5000
100
AcDbAttributeDefinition
  3

  2
NDM
 70
     8
280
     0
  0
ATTDEF
  5
A4
330
8E
100
AcDbEntity
  8
AM_6
100
AcDbText
 10
3.524625
 20
-6.615940083333333
 30
0.0
 40
0.5
  1
0.4170
100
AcDbAttributeDefinition
  3

  2
KDM
 70
     8
280
     0
  0
ATTDEF
  5
A5
330
8E
100
AcDbEntity
  8
AM_6
100
AcDbText
 10
3.524625
 20
-7.115940083333333
 30
0.0
 40
0.5
  1
2
100
AcDbAttributeDefinition
  3

  2
DD
 70
     8
280
     0
  0
ATTDEF
  5
A6
330
8E
100
AcDbEntity
  8
AM_6
100
AcDbText
 10
3.524625
 20
-7.615940083333333
 30
0.0
 40
0.5
  1
baldor
100
AcDbAttributeDefinition
  3

  2
COMPANY
 70
     8
280
     0
  0
ELLIPSE
  5
A9
330
8E
100
AcDbEntity
  8
AM_9
100
AcDbEllipse
 10
-1.917374999999997
 20
0.9762122620687649
 30
0.0
 11
0.2083500000000034
 21
0.0
 31
0.0
210
0.0
220
0.0
230
1.0
 40
0.9063077870366449
 41
3.141592653589793
 42
3.693898799130388
  0
ELLIPSE
  5
AA
330
8E
100
AcDbEntity
  8
AM_9
100
AcDbEllipse
 10
-1.917374999999994
 20
0.9762122620687691
 30
0.0
 11
0.208349999999994
 21
0.0
 31
0.0
210
0.0
220
0.0
230
1.0
 40
0.9063077870366504
 41
0.0
 42
0.5523061455406221
  0
LINE
  5
AB
330
8E
100
AcDbEntity
  8
AM_9
100
AcDbLine
 10
-1.709025
 20
0.7367574593302598
 30
0.0
 11
-1.709025
 21
0.9762122620687677
 31
0.0
  0
LINE
  5
AC
330
8E
100
AcDbEntity
  8
AM_9
100
AcDbLine
 10
-2.125725
 20
0.9762122620687677
 30
0.0
 11
-2.125725
 21
0.7367574593302598
 31
0.0
  0
ELLIPSE
  5
AD
330
8E
100
AcDbEntity
  8
AM_9
100
AcDbEllipse
 10
-1.917374999999995
 20
0.9762122620687662
 30
0.0
 11
0.2083500000000051
 21
0.0
 31
0.0
210
0.0
220
0.0
230
1.0
 40
0.9063077870366506
 41
2.589286508049186
 42
3.141592653589793
  0
ELLIPSE
  5
AE
330
8E
100
AcDbEntity
  8
AM_9
100
AcDbEllipse
 10
-1.917374999999993
 20
0.9762122620687667
 30
0.0
 11
0.2083499999999934
 21
0.0
 31
0.0
210
0.0
220
0.0
230
1.0
 40
0.906307787036651
 41
5.730879161638962
 42
6.283185307179586
  0
ELLIPSE
  5
AF
330
8E
100
AcDbEntity
  8
AM_9
100
AcDbEllipse
 10
-1.917375
 20
0.7367574593302597
 30
0.0
 11
0.20835
 21
0.0
 31
0.0
210
0.0
220
0.0
230
1.0
 40
0.9063077870366492
 41
3.141592653589793
 42
6.283185307179586
  0
ELLIPSE
  5
B0
330
8E
100
AcDbEntity
  8
AM_9
100
AcDbEllipse
 10
-1.917374999999984
 20
0.7367574593302648
 30
0.0
 11
0.2083500000000158
 21
0.0
 31
0.0
210
0.0
220
0.0
230
1.0
 40
0.9063077870366457
 41
0.0
 42
3.141592653589793
  0
LINE
  5
B1
330
8E
100
AcDbEntity
  8
AM_9
100
AcDbLine
 10
-2.128016693183507
 20
2.312206693183506
 30
0.0
 11
-2.125725
 21
2.309914999999999
 31
0.0
  0
LINE
  5
B2
330
8E
100
AcDbEntity
  8
AM_9
100
AcDbLine
 10
-1.709025
 20
2.309914999999999
 30
0.0
 11
-1.706812434401406
 21
2.312127565598594
 31
0.0
  0
LINE
  5
B3
330
8E
100
AcDbEntity
  8
AM_9
100
AcDbLine
 10
-2.125725
 20
1.743316666666673
 30
0.0
 11
-2.133767039489155
 21
1.735274627177517
 31
0.0
  0
LINE
  5
B4
330
8E
100
AcDbEntity
  8
AM_9
100
AcDbLine
 10
-1.70105098626988
 20
1.735342652936553
 30
0.0
 11
-1.709025
 21
1.743316666666673
 31
0.0
  0
LINE
  5
B5
330
8E
100
AcDbEntity
  8
AM_9
100
AcDbLine
 10
-1.740003131528695
 20
2.309915
 30
0.0
 11
-1.709025
 21
2.309914999999999
 31
0.0
  0
LINE
  5
B6
330
8E
100
AcDbEntity
  8
AM_9
100
AcDbLine
 10
-1.709025
 20
1.743316666666673
 30
0.0
 11
-1.709025
 21
2.309914999999999
 31
0.0
  0
LINE
  5
B7
330
8E
100
AcDbEntity
  8
AM_9
100
AcDbLine
 10
-2.125725
 20
2.309914999999999
 30
0.0
 11
-2.125725
 21
1.743316666666673
 31
0.0
  0
LINE
  5
B8
330
8E
100
AcDbEntity
  8
AM_9
100
AcDbLine
 10
-2.125725
 20
2.309914999999999
 30
0.0
 11
-2.094746868471293
 21
2.309915
 31
0.0
  0
LINE
  5
B9
330
8E
100
AcDbEntity
  8
AM_9
100
AcDbLine
 10
-2.125725
 20
1.743316666666673
 30
0.0
 11
-1.709025
 21
1.743316666666673
 31
0.0
  0
LWPOLYLINE
  5
BA
330
8E
100
AcDbEntity
  8
AM_9
100
AcDbPolyline
 90
        7
 70
     0
 43
0.0
 10
-1.703331360218933
 20
0.7656515200516514
 10
-1.701191936389018
 20
0.7469288381848167
 10
-1.702008464860002
 20
0.7102025407410482
 10
-1.709668413337417
 20
0.6730330401012035
 10
-1.723977020644804
 20
0.6372212244336588
 10
-1.740825829338541
 20
0.6092600484887905
 10
-1.761835767138974
 20
0.5837216828189327
  0
LWPOLYLINE
  5
BB
330
8E
100
AcDbEntity
  8
AM_9
100
AcDbPolyline
 90
       19
 70
     0
 43
0.0
 10
-2.131213340665334
 20
0.7668818452994773
 10
-2.128442220647533
 20
0.7803295335151371
 10
-2.116315397374203
 20
0.8153520087241182
 10
-2.097715734915684
 20
0.8476777130326751
 10
-2.073408201754606
 20
0.8758884313653849
 10
-2.043785334238765
 20
0.8997111918724543
 10
-2.011356558696062
 20
0.9174466556074875
 10
-1.9757214517832
 20
0.9298273669908864
 10
-1.940830824186438
 20
0.9359746278357093
 10
-1.905206398016386
 20
0.9368513382657431
 10
-1.871805674503638
 20
0.9327050906879301
 10
-1.839670213212396
 20
0.9239419010702593
 10
-1.809438311232025
 20
0.9106818119171267
 10
-1.782029236130348
 20
0.8934395013134138
 10
-1.756753252981917
 20
0.8713264716424713
 10
-1.735763550425186
 20
0.845866930767976
 10
-1.71852459460791
 20
0.8155625929816775
 10
-1.706948200158213
 20
0.7828936477108841
 10
-1.703331360218933
 20
0.7656515200516514
  0
LWPOLYLINE
  5
BC
330
8E
100
AcDbEntity
  8
AM_9
100
AcDbPolyline
 90
       17
 70
     0
 43
0.0
 10
-1.761835767138974
 20
0.5837216828189327
 10
-1.785875600041266
 20
0.5619712385014126
 10
-1.81307939886035
 20
0.5437817440865171
 10
-1.846716380916969
 20
0.5284305734937502
 10
-1.882683884043454
 20
0.519021094223763
 10
-1.917359006785266
 20
0.5161451997791954
 10
-1.952034609339307
 20
0.5190157922953391
 10
-1.984525857330246
 20
0.5272024593353244
 10
-2.015206273095762
 20
0.5402710588245722
 10
-2.04405272883809
 20
0.5583131122466408
 10
-2.069589827786419
 20
0.5803142753877916
 10
-2.092594243732122
 20
0.6074042647678344
 10
-2.110833188147679
 20
0.6373402601943351
 10
-2.124604310285721
 20
0.6714538678501264
 10
-2.132335235219271
 20
0.7068459548476059
 10
-2.133738104263085
 20
0.7439344253843438
 10
-2.131213340665334
 20
0.7668818452994773
  0
LWPOLYLINE
  5
BD
330
8E
100
AcDbEntity
  8
AM_9
100
AcDbPolyline
 90
        6
 70
     0
 43
0.0
 10
-1.75693066875648
 20
1.727985576745294
 10
-1.737602006086454
 20
1.730168119900859
 10
-1.721865675361797
 20
1.732122797471105
 10
-1.708896173555301
 20
1.733852802801918
 10
-1.701836797028241
 20
1.734839370216903
 10
-1.700708333333432
 20
1.734999999999985
  0
LINE
  5
BE
330
8E
100
AcDbEntity
  8
AM_9
100
AcDbLine
 10
-2.359375
 20
-1.735
 30
0.0
 11
-1.475375
 21
-1.735
 31
0.0
  0
LINE
  5
BF
330
8E
100
AcDbEntity
  8
AM_9
100
AcDbLine
 10
-1.475375
 20
1.735
 30
0.0
 11
-1.701507545206636
 21
1.735
 31
0.0
  0
LINE
  5
C0
330
8E
100
AcDbEntity
  8
AM_9
100
AcDbLine
 10
-2.133400636138404
 20
1.735
 30
0.0
 11
-2.359375
 21
1.735
 31
0.0
  0
LINE
  5
C1
330
8E
100
AcDbEntity
  8
AM_9
100
AcDbLine
 10
-2.127528040578505
 20
1.734083922378769
 30
0.0
 11
-2.134041666666078
 21
1.734999999999916
 31
0.0
  0
LINE
  5
C2
330
8E
100
AcDbEntity
  8
AM_9
100
AcDbLine
 10
-1.743663296073752
 20
1.729457698382683
 30
0.0
 11
-1.761241575835455
 21
1.727531829158773
 31
0.0
  0
LWPOLYLINE
  5
C3
330
8E
100
AcDbEntity
  8
AM_9
100
AcDbPolyline
 90
       16
 70
     0
 43
0.0
 10
-2.134041666666078
 20
1.734999999999916
 10
-2.132113766420177
 20
1.734726062549647
 10
-2.123736504589611
 20
1.733563061431551
 10
-2.108347840272986
 20
1.731543011990766
 10
-2.087383268912055
 20
1.729035305784808
 10
-2.059900984542453
 20
1.726179009465643
 10
-2.02965050332375
 20
1.723606494043756
 10
-1.994427376945248
 20
1.721373634022713
 10
-1.960272116551629
 20
1.719998561531868
 10
-1.923571659427123
 20
1.719393018126413
 10
-1.890046394591279
 20
1.71963117676416
 10
-1.856338263442653
 20
1.720631659835441
 10
-1.825519946884768
 20
1.722211575879936
 10
-1.796367724445744
 20
1.724287196924194
 10
-1.775683555747471
 20
1.72609997809554
 10
-1.75693066875648
 20
1.727985576745294
  0
LINE
  5
C4
330
8E
100
AcDbEntity
  8
AM_9
100
AcDbLine
 10
-1.530325058072009
 20
-2.202380952380952
 30
0.0
 11
-1.475375
 21
-2.202380952380952
 31
0.0
  0
LINE
  5
C5
330
8E
100
AcDbEntity
  8
AM_9
100
AcDbLine
 10
-1.475375
 20
-1.303367564271675
 30
0.0
 11
-1.475375
 21
-2.202380952380952
 31
0.0
  0
LINE
  5
C6
330
8E
100
AcDbEntity
  8
AM_9
100
AcDbLine
 10
-1.5390625
 20
-2.211118394308944
 30
0.0
 11
-1.530325058072009
 21
-2.202380952380952
 31
0.0
  0
LINE
  5
C7
330
8E
100
AcDbEntity
  8
AM_9
100
AcDbLine
 10
-1.530325058072009
 20
-1.357450491263344
 30
0.0
 11
-1.530325058072009
 21
-2.202380952380952
 31
0.0
  0
LINE
  5
C8
330
8E
100
AcDbEntity
  8
AM_9
100
AcDbLine
 10
-1.75603817929573
 20
0.8562332866497949
 30
0.0
 11
-1.740003131528707
 21
0.8771426523500774
 31
0.0
  0
LWPOLYLINE
  5
C9
330
8E
100
AcDbEntity
  8
AM_9
100
AcDbPolyline
 90
        3
 70
     0
 43
0.0
 10
-1.787632916383443
 20
0.827123593172748
 10
-1.761899596145593
 20
0.8498760425596206
 10
-1.75603817929573
 20
0.8562332866497949
  0
LWPOLYLINE
  5
CA
330
8E
100
AcDbEntity
  8
AM_9
100
AcDbPolyline
 90
       10
 70
     0
 43
0.0
 10
-2.046302639253627
 20
0.8265198489489108
 10
-2.019453279645965
 20
0.809694976526775
 10
-1.987486449603252
 20
0.7959640854058428
 10
-1.9535407383811
 20
0.7875084133639727
 10
-1.918568130248525
 20
0.784504000196556
 10
-1.883686570671275
 20
0.7871104261757474
 10
-1.849754831874524
 20
0.7951418651509048
 10
-1.817760863942797
 20
0.8084135115991802
 10
-1.7885607962869
 20
0.8264362431262525
 10
-1.787632916383443
 20
0.827123593172748
  0
LWPOLYLINE
  5
CB
330
8E
100
AcDbEntity
  8
AM_9
100
AcDbPolyline
 90
        4
 70
     0
 43
0.0
 10
-2.078143645900469
 20
0.85558911351118
 10
-2.073845370977226
 20
0.850917681052084
 10
-2.048528830449368
 20
0.8281847138923912
 10
-2.046302639253627
 20
0.8265198489489108
  0
LINE
  5
CC
330
8E
100
AcDbEntity
  8
AM_9
100
AcDbLine
 10
-2.094746868471293
 20
0.8771426523500774
 30
0.0
 11
-2.078143645900469
 21
0.85558911351118
 31
0.0
  0
LWPOLYLINE
  5
CD
330
8E
100
AcDbEntity
  8
AM_9
100
AcDbPolyline
 90
        6
 70
     0
 43
0.0
 10
-1.708780847866451
 20
0.950033327580327
 10
-1.708382884804361
 20
0.9526059346074708
 10
-1.706542381257892
 20
0.9830023330607003
 10
-1.710363828939947
 20
1.012207868636484
 10
-1.719498559860639
 20
1.040254850346653
 10
-1.740003131528707
 20
1.075281871787458
  0
LWPOLYLINE
  5
CE
330
8E
100
AcDbEntity
  8
AM_9
100
AcDbPolyline
 90
        4
 70
     0
 43
0.0
 10
-1.740003131528707
 20
0.8771426523500774
 10
-1.726242744783675
 20
0.8992301428059172
 10
-1.715911660306018
 20
0.9227496977514958
 10
-1.708780847866451
 20
0.950033327580327
  0
LWPOLYLINE
  5
CF
330
8E
100
AcDbEntity
  8
AM_9
100
AcDbPolyline
 90
       13
 70
     0
 43
0.0
 10
-1.740003131528707
 20
1.075281871787458
 10
-1.760904629022775
 20
1.10023025087243
 10
-1.786221169550632
 20
1.121629178826944
 10
-1.815296720354036
 20
1.138878178815547
 10
-1.847263550396748
 20
1.151597723428326
 10
-1.8812092616189
 20
1.159394657011978
 10
-1.916181869751475
 20
1.1621562626194
 10
-1.951063429328725
 20
1.159760869531432
 10
-1.984995168125476
 20
1.152357007742298
 10
-2.016989136057203
 20
1.140068546584002
 10
-2.0461892037131
 20
1.123266216986364
 10
-2.072850403854407
 20
1.1012151909573
 10
-2.094746868471293
 20
1.075281871787458
  0
LWPOLYLINE
  5
D0
330
8E
100
AcDbEntity
  8
AM_9
100
AcDbPolyline
 90
        4
 70
     0
 43
0.0
 10
-2.126357264249461
 20
0.9523915487313157
 10
-2.124386171060054
 20
0.9421258471149488
 10
-2.115251440139361
 20
0.9134601590570072
 10
-2.094746868471293
 20
0.8771426523500774
  0
LWPOLYLINE
  5
D1
330
8E
100
AcDbEntity
  8
AM_9
100
AcDbPolyline
 90
        6
 70
     0
 43
0.0
 10
-2.094746868471293
 20
1.075281871787458
 10
-2.108507255216325
 20
1.054044794424332
 10
-2.118838339693982
 20
1.031205379174265
 10
-2.12636711519564
 20
1.001865602922164
 10
-2.128207618742108
 20
0.9715998956084837
 10
-2.126357264249461
 20
0.9523915487313157
  0
LINE
  5
D3
330
8E
100
AcDbEntity
  8
AM_5
100
AcDbLine
 10
-2.167375
 20
2.3125
 30
0.0
 11
-2.167375
 21
1.735
 31
0.0
  0
LINE
  5
D4
330
8E
100
AcDbEntity
  8
AM_5
100
AcDbLine
 10
-2.042375
 20
1.701666666666667
 30
0.0
 11
-2.167375
 21
1.701666666666667
 31
0.0
  0
LINE
  5
D5
330
8E
100
AcDbEntity
  8
AM_5
100
AcDbLine
 10
-1.667375
 20
2.256097560975609
 30
0.0
 11
-1.667375
 21
1.735
 31
0.0
  0
LINE
  5
D6
330
8E
100
AcDbEntity
  8
AM_5
100
AcDbLine
 10
-1.792375
 20
1.701666666666667
 30
0.0
 11
-1.667375
 21
1.701666666666667
 31
0.0
  0
LINE
  5
D9
330
8E
100
AcDbEntity
  8
AM_7
100
AcDbLine
 10
-1.917375
 20
2.384059916666667
 30
0.0
 11
-1.917375
 21
-0.088974358974359
 31
0.0
  0
LINE
  5
DB
330
8E
100
AcDbEntity
  8
AM_4
100
AcDbLine
 10
-1.475375
 20
2.202380952380952
 30
0.0
 11
-1.530325058072009
 21
2.202380952380952
 31
0.0
  0
LINE
  5
DC
330
8E
100
AcDbEntity
  8
AM_4
100
AcDbLine
 10
-1.475375
 20
2.202380952380952
 30
0.0
 11
-1.475375
 21
-1.303367564271675
 31
0.0
  0
LINE
  5
DD
330
8E
100
AcDbEntity
  8
AM_4
100
AcDbLine
 10
-1.530325058072009
 20
2.202380952380952
 30
0.0
 11
-1.584041666666667
 21
2.25609756097561
 31
0.0
  0
LINE
  5
DE
330
8E
100
AcDbEntity
  8
AM_4
100
AcDbLine
 10
-1.584041666666667
 20
-2.25609756097561
 30
0.0
 11
-1.5390625
 21
-2.211118394308944
 31
0.0
  0
LINE
  5
DF
330
8E
100
AcDbEntity
  8
AM_4
100
AcDbLine
 10
-1.530325058072009
 20
2.202380952380952
 30
0.0
 11
-1.530325058072009
 21
-1.357450491263344
 31
0.0
  0
LINE
  5
E0
330
8E
100
AcDbEntity
  8
AM_4
100
AcDbLine
 10
-1.667375
 20
-2.25609756097561
 30
0.0
 11
-1.584041666666667
 21
-2.25609756097561
 31
0.0
  0
LINE
  5
E1
330
8E
100
AcDbEntity
  8
AM_4
100
AcDbLine
 10
-1.584041666666667
 20
2.25609756097561
 30
0.0
 11
-1.667375
 21
2.25609756097561
 31
0.0
  0
LINE
  5
E2
330
8E
100
AcDbEntity
  8
AM_4
100
AcDbLine
 10
-1.584041666666667
 20
2.25609756097561
 30
0.0
 11
-1.584041666666667
 21
-2.25609756097561
 31
0.0
  0
LINE
  5
E3
330
8E
100
AcDbEntity
  8
AM_4
100
AcDbLine
 10
-1.667375
 20
2.25609756097561
 30
0.0
 11
-1.699938963353683
 21
2.3125
 31
0.0
  0
LINE
  5
E4
330
8E
100
AcDbEntity
  8
AM_4
100
AcDbLine
 10
-1.699938963353683
 20
-2.3125
 30
0.0
 11
-1.667375
 21
-2.25609756097561
 31
0.0
  0
LINE
  5
E5
330
8E
100
AcDbEntity
  8
AM_4
100
AcDbLine
 10
-1.667375
 20
2.25609756097561
 30
0.0
 11
-1.667375
 21
-2.25609756097561
 31
0.0
  0
LWPOLYLINE
  5
E6
330
8E
100
AcDbEntity
  8
AM_4
100
AcDbPolyline
 90
       13
 70
     0
 43
0.0
 10
-1.740003131528707
 20
2.309915
 10
-1.760904629022774
 20
2.308404662742254
 10
-1.786221169550632
 20
2.306826359902613
 10
-1.815296720354035
 20
2.305358442529732
 10
-1.847263550396747
 20
2.304161917675377
 10
-1.8812092616189
 20
2.303382563684018
 10
-1.916181869751475
 20
2.303095297867587
 10
-1.951063429328725
 20
2.303344971048241
 10
-1.984995168125475
 20
2.304087458113801
 10
-2.016989136057203
 20
2.305250665408642
 10
-2.046189203713099
 20
2.306694523897397
 10
-2.072850403854406
 20
2.30833758281135
 10
-2.094746868471293
 20
2.309915
  0
LINE
  5
E7
330
8E
100
AcDbEntity
  8
AM_4
100
AcDbLine
 10
-2.094746868471293
 20
2.309915
 30
0.0
 11
-2.128309999999947
 21
2.312499999999996
 31
0.0
  0
LINE
  5
E8
330
8E
100
AcDbEntity
  8
AM_4
100
AcDbLine
 10
-2.212041666666666
 20
-2.3125
 30
0.0
 11
-1.699938963353683
 21
-2.3125
 31
0.0
  0
LINE
  5
E9
330
8E
100
AcDbEntity
  8
AM_4
100
AcDbLine
 10
-1.699938963353683
 20
2.3125
 30
0.0
 11
-1.707127674727214
 21
2.3125
 31
0.0
  0
LINE
  5
EA
330
8E
100
AcDbEntity
  8
AM_4
100
AcDbLine
 10
-2.127768204560852
 20
2.3125
 30
0.0
 11
-2.212041666666666
 21
2.3125
 31
0.0
  0
LINE
  5
EB
330
8E
100
AcDbEntity
  8
AM_4
100
AcDbLine
 10
-1.699938963353683
 20
2.3125
 30
0.0
 11
-1.699938963353683
 21
-2.3125
 31
0.0
  0
LINE
  5
EC
330
8E
100
AcDbEntity
  8
AM_4
100
AcDbLine
 10
-1.706440000000032
 20
2.312499999999997
 30
0.0
 11
-1.740003131528712
 21
2.309914999999999
 31
0.0
  0
LINE
  5
ED
330
8E
100
AcDbEntity
  8
AM_4
100
AcDbLine
 10
-2.359375
 20
2.165166666666666
 30
0.0
 11
-2.359375
 21
-2.165166666666666
 31
0.0
  0
ARC
  5
EE
330
8E
100
AcDbEntity
  8
AM_4
100
AcDbCircle
 10
-2.212041666666666
 20
-2.165166666666666
 30
0.0
 40
0.1473333333333335
100
AcDbArc
 50
180.0
 51
270.0
  0
ARC
  5
EF
330
8E
100
AcDbEntity
  8
AM_4
100
AcDbCircle
 10
-2.212041666666666
 20
2.165166666666666
 30
0.0
 40
0.1473333333333335
100
AcDbArc
 50
90.0
 51
180.0
  0
LINE
  5
F0
330
8E
100
AcDbEntity
  8
AM_4
100
AcDbLine
 10
-2.212041666666666
 20
2.3125
 30
0.0
 11
-2.212041666666666
 21
-2.3125
 31
0.0
  0
ENDBLK
  5
91
330
8E
100
AcDbEntity
  8
0
100
AcDbBlockEnd
  0
BLOCK
  5
F3
330
F1
100
AcDbEntity
  8
0
100
AcDbBlockBegin
  2
3_070026i_0_in_070331_2
 70
     2
 10
0.0
 20
0.0
 30
0.0
  3
3_070026i_0_in_070331_2
  1

  0
ATTDEF
  5
F5
330
F1
100
AcDbEntity
  8
AM_6
100
AcDbText
 10
6.234375
 20
2.55905
 30
0.0
 40
0.5
  1
S-2000 Insert -Inch
100
AcDbAttributeDefinition
  3

  2
NN
 70
     8
280
     0
  0
ATTDEF
  5
F6
330
F1
100
AcDbEntity
  8
AM_6
100
AcDbText
 10
6.234375
 20
2.05905
 30
0.0
 40
0.5
  1
S-2000 Bearings
100
AcDbAttributeDefinition
  3

  2
NT
 70
     8
280
     0
  0
ATTDEF
  5
F7
330
F1
100
AcDbEntity
  8
AM_6
100
AcDbText
 10
6.234375
 20
1.55905
 30
0.0
 40
0.5
  1
070026i
100
AcDbAttributeDefinition
  3

  2
NB
 70
     8
280
     0
  0
ATTDEF
  5
F8
330
F1
100
AcDbEntity
  8
AM_6
100
AcDbText
 10
6.234375
 20
1.05905
 30
0.0
 40
0.5
  1
$PN.i
100
AcDbAttributeDefinition
  3

  2
NBSYN
 70
     8
280
     0
  0
ATTDEF
  5
F9
330
F1
100
AcDbEntity
  8
AM_6
100
AcDbText
 10
6.234375
 20
0.55905
 30
0.0
 40
0.5
  1
070026i
100
AcDbAttributeDefinition
  3

  2
LINA
 70
     8
280
     0
  0
ATTDEF
  5
FA
330
F1
100
AcDbEntity
  8
AM_6
100
AcDbText
 10
6.234375
 20
0.05905
 30
0.0
 40
0.5
  1
2-15/16
100
AcDbAttributeDefinition
  3

  2
SS
 70
     8
280
     0
  0
ATTDEF
  5
FB
330
F1
100
AcDbEntity
  8
AM_6
100
AcDbText
 10
6.234375
 20
-0.44095
 30
0.0
 40
0.5
  1
3.47
100
AcDbAttributeDefinition
  3

  2
CC
 70
     8
280
     0
  0
ATTDEF
  5
FC
330
F1
100
AcDbEntity
  8
AM_6
100
AcDbText
 10
6.234375
 20
-0.94095
 30
0.0
 40
0.5
  1
2.937500
100
AcDbAttributeDefinition
  3

  2
SS1
 70
     8
280
     0
  0
ATTDEF
  5
FD
330
F1
100
AcDbEntity
  8
AM_6
100
AcDbText
 10
6.234375
 20
-1.44095
 30
0.0
 40
0.5
  1
070026
100
AcDbAttributeDefinition
  3

  2
PN
 70
     8
280
     0
  0
ATTDEF
  5
FE
330
F1
100
AcDbEntity
  8
AM_6
100
AcDbText
 10
6.234375
 20
-1.94095
 30
0.0
 40
0.5
  1
INS-S2-215L
100
AcDbAttributeDefinition
  3

  2
DESCRIPTION
 70
     8
280
     0
  0
ATTDEF
  5
FF
330
F1
100
AcDbEntity
  8
AM_6
100
AcDbText
 10
6.234375
 20
-2.44095
 30
0.0
 40
0.5
  1
Labyrinth Seal
100
AcDbAttributeDefinition
  3

  2
ST
 70
     8
280
     0
  0
ATTDEF
  5
100
330
F1
100
AcDbEntity
  8
AM_6
100
AcDbText
 10
6.234375
 20
-2.94095
 30
0.0
 40
0.5
  1
2
100
AcDbAttributeDefinition
  3

  2
ST1
 70
     8
280
     0
  0
ATTDEF
  5
101
330
F1
100
AcDbEntity
  8
AM_6
100
AcDbText
 10
6.234375
 20
-3.44095
 30
0.0
 40
0.5
  1
5.1181
100
AcDbAttributeDefinition
  3

  2
A
 70
     8
280
     0
  0
ATTDEF
  5
102
330
F1
100
AcDbEntity
  8
AM_6
100
AcDbText
 10
6.234375
 20
-3.94095
 30
0.0
 40
0.5
  1
1-9/32
100
AcDbAttributeDefinition
  3

  2
B
 70
     8
280
     0
  0
ATTDEF
  5
103
330
F1
100
AcDbEntity
  8
AM_6
100
AcDbText
 10
6.234375
 20
-4.44095
 30
0.0
 40
0.5
  1
3-19/32
100
AcDbAttributeDefinition
  3

  2
C
 70
     8
280
     0
  0
ATTDEF
  5
104
330
F1
100
AcDbEntity
  8
AM_6
100
AcDbText
 10
6.234375
 20
-4.94095
 30
0.0
 40
0.5
  1
1.219
100
AcDbAttributeDefinition
  3

  2
D
 70
     8
280
     0
  0
ATTDEF
  5
105
330
F1
100
AcDbEntity
  8
AM_6
100
AcDbText
 10
6.234375
 20
-5.44095
 30
0.0
 40
0.5
  1
4-5/8
100
AcDbAttributeDefinition
  3

  2
E
 70
     8
280
     0
  0
ATTDEF
  5
106
330
F1
100
AcDbEntity
  8
AM_6
100
AcDbText
 10
6.234375
 20
-5.94095
 30
0.0
 40
0.5
  1
0.53125
100
AcDbAttributeDefinition
  3

  2
F
 70
     8
280
     0
  0
ATTDEF
  5
107
330
F1
100
AcDbEntity
  8
AM_6
100
AcDbText
 10
6.234375
 20
-6.44095
 30
0.0
 40
0.5
  1
2
100
AcDbAttributeDefinition
  3

  2
DD
 70
     8
280
     0
  0
ATTDEF
  5
108
330
F1
100
AcDbEntity
  8
AM_6
100
AcDbText
 10
6.234375
 20
-6.94095
 30
0.0
 40
0.5
  1
baldor
100
AcDbAttributeDefinition
  3

  2
COMPANY
 70
     8
280
     0
  0
LINE
  5
109
330
F1
100
AcDbEntity
  8
AM_9
100
AcDbLine
 10
-2.187375
 20
0.7331837551069111
 30
0.0
 11
-2.187375
 21
0.6206955618835622
 31
0.0
  0
LINE
  5
10A
330
F1
100
AcDbEntity
  8
AM_9
100
AcDbLine
 10
-1.647375
 20
0.6206499805553665
 30
0.0
 11
-1.647375
 21
0.733231005674801
 31
0.0
  0
LWPOLYLINE
  5
10B
330
F1
100
AcDbEntity
  8
AM_9
100
AcDbPolyline
 90
       21
 70
     0
 43
0.0
 10
-1.647375000806485
 20
0.620739485316233
 10
-1.648946172234286
 20
0.5942384652990501
 10
-1.657465870866986
 20
0.5537637929732177
 10
-1.673057606252527
 20
0.5146549001252677
 10
-1.695499295413498
 20
0.4779056373679363
 10
-1.724007860483893
 20
0.4448071962208214
 10
-1.758423757767031
 20
0.4160557690036288
 10
-1.79735679319986
 20
0.3930485434822679
 10
-1.839859272470211
 20
0.37665043380682
 10
-1.884620332013574
 20
0.3674035359155821
 10
-1.929692268018811
 20
0.3657458977637212
 10
-1.974412348670711
 20
0.3714375963189231
 10
-2.017152733958428
 20
0.3842446889603333
 10
-2.057128617367225
 20
0.4036216489379055
 10
-2.093599439305803
 20
0.4293073962069998
 10
-2.125179968285833
 20
0.460195145270786
 10
-2.151235887924327
 20
0.4958458292266175
 10
-2.170666555927731
 20
0.5347160913211636
 10
-2.182751944257455
 20
0.5754152451356825
 10
-2.187341692613923
 20
0.6168744615420734
 10
-2.187374999106085
 20
0.6207006595885283
  0
LWPOLYLINE
  5
10C
330
F1
100
AcDbEntity
  8
AM_9
100
AcDbPolyline
 90
       11
 70
     0
 43
0.0
 10
-2.187374999106085
 20
0.6207006595885283
 10
-2.184281943755326
 20
0.6572493265931886
 10
-2.173898380846527
 20
0.6960428836190908
 10
-2.156438744830584
 20
0.7321363875353128
 10
-2.132488218906887
 20
0.7647653412907126
 10
-2.102172800393847
 20
0.7934961922160152
 10
-2.066687625699886
 20
0.8172771728725324
 10
-2.026576056325797
 20
0.835656663728262
 10
-1.983296522030644
 20
0.8480755618015013
 10
-1.950594978188489
 20
0.8531413868087402
 10
-1.917375
 20
0.8548454111396356
  0
LWPOLYLINE
  5
10D
330
F1
100
AcDbEntity
  8
AM_9
100
AcDbPolyline
 90
        4
 70
     0
 43
0.0
 10
-1.654347987387622
 20
0.6775363730738252
 10
-1.651628418495136
 20
0.6898451008822204
 10
-1.647384176900261
 20
0.7312245649614673
 10
-1.647375000337887
 20
0.7332304419296061
  0
LWPOLYLINE
  5
10E
330
F1
100
AcDbEntity
  8
AM_9
100
AcDbPolyline
 90
       18
 70
     0
 43
0.0
 10
-2.179976877398338
 20
0.6758723884465502
 10
-2.177061191475499
 20
0.6656760509708041
 10
-2.161249925706517
 20
0.6265951842282542
 10
-2.138560563952598
 20
0.590019755107444
 10
-2.109769707038779
 20
0.5571759590203642
 10
-2.075201430692859
 20
0.5288625129938059
 10
-2.036156192761772
 20
0.506295908375424
 10
-1.993626049515455
 20
0.4903139345042478
 10
-1.948895148649331
 20
0.481402205714283
 10
-1.903713706378366
 20
0.4799717700862892
 10
-1.858920868557394
 20
0.4858312307011138
 10
-1.816039073453575
 20
0.498788371175763
 10
-1.775978240050793
 20
0.5183059791630641
 10
-1.739602649049556
 20
0.5440508430748552
 10
-1.708183406601096
 20
0.5749774044417181
 10
-1.682454103600344
 20
0.6105139554012956
 10
-1.663371897166227
 20
0.6492435274687914
 10
-1.654347987387622
 20
0.6775363730738252
  0
LWPOLYLINE
  5
10F
330
F1
100
AcDbEntity
  8
AM_9
100
AcDbPolyline
 90
        3
 70
     0
 43
0.0
 10
-2.187374999060577
 20
0.7332630968872687
 10
-2.185736689251915
 20
0.7062192301036738
 10
-2.179976877398338
 20
0.6758723884465502
  0
LWPOLYLINE
  5
110
330
F1
100
AcDbEntity
  8
AM_9
100
AcDbPolyline
 90
       11
 70
     0
 43
0.0
 10
-1.647375000337887
 20
0.7332304419296061
 10
-1.650802194553021
 20
0.7717267926801303
 10
-1.661587070566499
 20
0.8106767367509481
 10
-1.679501624235076
 20
0.8469703838685858
 10
-1.703944579887676
 20
0.8797811018221683
 10
-1.734656807824553
 20
0.9085405041072084
 10
-1.770496540818258
 20
0.9322922846077885
 10
-1.810781783534719
 20
0.9505108006401444
 10
-1.854135450401828
 20
0.9626988618758441
 10
-1.885528786116404
 20
0.9674242732439081
 10
-1.917375
 20
0.9690127339343693
  0
LINE
  5
111
330
F1
100
AcDbEntity
  8
AM_9
100
AcDbLine
 10
-2.187375
 20
1.735
 30
0.0
 11
-2.187375
 21
1.46875
 31
0.0
  0
LINE
  5
112
330
F1
100
AcDbEntity
  8
AM_9
100
AcDbLine
 10
-1.647375
 20
1.46875
 30
0.0
 11
-1.647375
 21
1.735
 31
0.0
  0
LWPOLYLINE
  5
113
330
F1
100
AcDbEntity
  8
AM_9
100
AcDbPolyline
 90
       11
 70
     0
 43
0.0
 10
-1.917375
 20
1.443719696651673
 10
-1.873118999489902
 20
1.444397852421953
 10
-1.828862998979805
 20
1.446430412022853
 10
-1.788340620936412
 20
1.449474537023788
 10
-1.750343102920861
 20
1.453349998156623
 10
-1.717639153931264
 20
1.457470744373551
 10
-1.68970891800072
 20
1.461560264714699
 10
-1.668741911657267
 20
1.464972687499274
 10
-1.654376963355146
 20
1.467478970813227
 10
-1.647904647551703
 20
1.468652727280554
 10
-1.647375000000899
 20
1.468749999999835
  0
LWPOLYLINE
  5
114
330
F1
100
AcDbEntity
  8
AM_9
100
AcDbPolyline
 90
       11
 70
     0
 43
0.0
 10
-1.917375
 20
0.8548454111396356
 10
-1.87248101048721
 20
0.8517127305680757
 10
-1.828862998979805
 20
0.8424685757147893
 10
-1.787800230356317
 20
0.8272539144749497
 10
-1.750343102920861
 20
0.8064699022870238
 10
-1.71722740350302
 20
0.7801854342493053
 10
-1.68970891800072
 20
0.7492314867968826
 10
-1.668506336383516
 20
0.7139747816593518
 10
-1.654376963355146
 20
0.6755500854848517
 10
-1.647892190391
 20
0.6353936910580957
 10
-1.647375000806485
 20
0.620739485316233
  0
LINE
  5
115
330
F1
100
AcDbEntity
  8
AM_9
100
AcDbLine
 10
1.234375
 20
1.46875
 30
0.0
 11
-1.647375
 21
1.46875
 31
0.0
  0
LINE
  5
116
330
F1
100
AcDbEntity
  8
AM_9
100
AcDbLine
 10
-2.187375
 20
1.46875
 30
0.0
 11
-2.359375
 21
1.46875
 31
0.0
  0
LINE
  5
117
330
F1
100
AcDbEntity
  8
AM_9
100
AcDbLine
 10
-2.359375
 20
-1.46875
 30
0.0
 11
1.234375
 21
-1.46875
 31
0.0
  0
LINE
  5
118
330
F1
100
AcDbEntity
  8
AM_9
100
AcDbLine
 10
-2.184757625802656
 20
1.468271102719495
 30
0.0
 11
-2.187374999999089
 21
1.468749999999833
 31
0.0
  0
LINE
  5
119
330
F1
100
AcDbEntity
  8
AM_9
100
AcDbLine
 10
-1.900826545814931
 20
1.443814535816802
 30
0.0
 11
-1.924383918549207
 21
1.443736709874494
 31
0.0
  0
LWPOLYLINE
  5
11A
330
F1
100
AcDbEntity
  8
AM_9
100
AcDbPolyline
 90
       11
 70
     0
 43
0.0
 10
-2.187374999999089
 20
1.468749999999833
 10
-2.184405128095985
 20
1.468206951288189
 10
-2.173898380846527
 20
1.466332434143408
 10
-2.156749771366886
 20
1.4634298219139
 10
-2.132488218906887
 20
1.459657582944878
 10
-2.102655272999292
 20
1.455560147181384
 10
-2.066687625699886
 20
1.451420277760165
 10
-2.027200944241546
 20
1.447890983647784
 10
-1.983296522030644
 20
1.445223930595822
 10
-1.950856311854058
 20
1.444107877114265
 10
-1.917375
 20
1.443719696651673
  0
LINE
  5
11B
330
F1
100
AcDbEntity
  8
AM_9
100
AcDbLine
 10
1.231250000000001
 20
1.735
 30
0.0
 11
0.9748749999999997
 21
1.735
 31
0.0
  0
LINE
  5
11C
330
F1
100
AcDbEntity
  8
AM_9
100
AcDbLine
 10
0.9748749999999997
 20
-1.735
 30
0.0
 11
1.234375
 21
-1.735
 31
0.0
  0
LINE
  5
11D
330
F1
100
AcDbEntity
  8
AM_9
100
AcDbLine
 10
1.234375
 20
-1.735
 30
0.0
 11
1.234375
 21
-0.4047733645120308
 31
0.0
  0
LWPOLYLINE
  5
11E
330
F1
100
AcDbEntity
  8
AM_9
100
AcDbPolyline
 90
       11
 70
     0
 43
0.0
 10
-1.917375
 20
1.713862596592854
 10
-1.961753210185819
 20
1.714437057911225
 10
-2.006131420371638
 20
1.716159288107368
 10
-2.046771105547303
 20
1.718740338774537
 10
-2.084872412273244
 20
1.72202798557928
 10
-2.117538761151045
 20
1.725511672310023
 10
-2.145407979761296
 20
1.728966176609252
 10
-2.166249938649829
 20
1.731838253154133
 10
-2.180492799535108
 20
1.733942322118068
 10
-2.186881065422807
 20
1.734923202709469
 10
-2.187374999999459
 20
1.734999999999916
  0
LWPOLYLINE
  5
11F
330
F1
100
AcDbEntity
  8
AM_9
100
AcDbPolyline
 90
       11
 70
     0
 43
0.0
 10
-1.917375
 20
0.9690127339343693
 10
-1.962391402455499
 20
0.9658156537625587
 10
-2.006131420371638
 20
0.95638393892102
 10
-2.047316422842958
 20
0.9408645784788014
 10
-2.084872412273244
 20
0.9196851739790676
 10
-2.117951240282542
 20
0.8930299250944533
 10
-2.145407979761296
 20
0.8617190865714432
 10
-2.166482090367962
 20
0.8262393862674882
 10
-2.180492799535108
 20
0.7876929872279017
 10
-2.186892223934403
 20
0.7474031802326289
 10
-2.187374999060577
 20
0.7332630968872687
  0
LINE
  5
120
330
F1
100
AcDbEntity
  8
AM_9
100
AcDbLine
 10
-1.475375
 20
1.735
 30
0.0
 11
-1.647375
 21
1.735
 31
0.0
  0
LINE
  5
121
330
F1
100
AcDbEntity
  8
AM_9
100
AcDbLine
 10
-0.9441250000000003
 20
1.735
 30
0.0
 11
-1.23125
 21
1.735
 31
0.0
  0
LINE
  5
122
330
F1
100
AcDbEntity
  8
AM_9
100
AcDbLine
 10
-2.187375
 20
1.735
 30
0.0
 11
-2.359375
 21
1.735
 31
0.0
  0
LINE
  5
123
330
F1
100
AcDbEntity
  8
AM_9
100
AcDbLine
 10
-2.359375
 20
-1.735
 30
0.0
 11
-0.9441250000000003
 21
-1.735
 31
0.0
  0
LINE
  5
124
330
F1
100
AcDbEntity
  8
AM_9
100
AcDbLine
 10
-1.661971174768899
 20
1.732788536995406
 30
0.0
 11
-1.647375000000179
 21
1.734999999999972
 31
0.0
  0
LINE
  5
125
330
F1
100
AcDbEntity
  8
AM_9
100
AcDbLine
 10
-1.933279569536405
 20
1.713936391857096
 30
0.0
 11
-1.909258402334617
 21
1.713881815983139
 31
0.0
  0
LWPOLYLINE
  5
126
330
F1
100
AcDbEntity
  8
AM_9
100
AcDbPolyline
 90
       11
 70
     0
 43
0.0
 10
-1.647375000000179
 20
1.734999999999972
 10
-1.650673762514923
 20
1.734489708841212
 10
-1.661587070566499
 20
1.732845193559966
 10
-1.679181273893857
 20
1.730335589172323
 10
-1.703944579887676
 20
1.727100907367408
 10
-1.734166180495765
 20
1.723627126597901
 10
-1.770496540818258
 20
1.720144843253499
 10
-1.810158910902559
 20
1.717212942462684
 10
-1.854135450401829
 20
1.71502893288521
 10
-1.885300684637121
 20
1.714162699893449
 10
-1.917375
 20
1.713862596592854
  0
LINE
  5
127
330
F1
100
AcDbEntity
  8
AM_9
100
AcDbLine
 10
0.9748749999999997
 20
-1.919115
 30
0.0
 11
0.9748749999999997
 21
1.919115
 31
0.0
  0
ARC
  5
128
330
F1
100
AcDbEntity
  8
AM_9
100
AcDbCircle
 10
0.8467499999999994
 20
1.919115
 30
0.0
 40
0.128125
100
AcDbArc
 50
0.0
 51
90.0
  0
ARC
  5
129
330
F1
100
AcDbEntity
  8
AM_9
100
AcDbCircle
 10
0.8467499999999993
 20
-1.919115
 30
0.0
 40
0.128125
100
AcDbArc
 50
270.0
 51
0.0
  0
LINE
  5
12A
330
F1
100
AcDbEntity
  8
AM_9
100
AcDbLine
 10
0.8467499999999996
 20
2.04724
 30
0.0
 11
0.6559999999999999
 21
2.04724
 31
0.0
  0
LINE
  5
12B
330
F1
100
AcDbEntity
  8
AM_9
100
AcDbLine
 10
0.6559999999999999
 20
-2.04724
 30
0.0
 11
0.8467499999999996
 21
-2.04724
 31
0.0
  0
LINE
  5
12C
330
F1
100
AcDbEntity
  8
AM_9
100
AcDbLine
 10
0.8467499999999996
 20
-2.04724
 30
0.0
 11
0.8467499999999996
 21
2.04724
 31
0.0
  0
LINE
  5
12D
330
F1
100
AcDbEntity
  8
AM_9
100
AcDbLine
 10
-0.9441250000000003
 20
-1.919115
 30
0.0
 11
-0.9441250000000003
 21
1.919115
 31
0.0
  0
ARC
  5
12E
330
F1
100
AcDbEntity
  8
AM_9
100
AcDbCircle
 10
-0.8159999999999996
 20
1.919115
 30
0.0
 40
0.1281250000000007
100
AcDbArc
 50
90.0
 51
180.0
  0
ARC
  5
12F
330
F1
100
AcDbEntity
  8
AM_9
100
AcDbCircle
 10
-0.8159999999999996
 20
-1.919115
 30
0.0
 40
0.1281250000000007
100
AcDbArc
 50
180.0
 51
270.0
  0
LINE
  5
130
330
F1
100
AcDbEntity
  8
AM_9
100
AcDbLine
 10
-0.6252500000000002
 20
2.04724
 30
0.0
 11
-0.8160000000000004
 21
2.04724
 31
0.0
  0
LINE
  5
131
330
F1
100
AcDbEntity
  8
AM_9
100
AcDbLine
 10
-0.8160000000000004
 20
-2.04724
 30
0.0
 11
-0.6252500000000002
 21
-2.04724
 31
0.0
  0
LINE
  5
132
330
F1
100
AcDbEntity
  8
AM_9
100
AcDbLine
 10
-0.8160000000000004
 20
-2.04724
 30
0.0
 11
-0.8160000000000004
 21
2.04724
 31
0.0
  0
LINE
  5
133
330
F1
100
AcDbEntity
  8
AM_9
100
AcDbLine
 10
0.0794374999999959
 20
2.456688
 30
0.0
 11
-0.0486874999999966
 21
2.456688
 31
0.0
  0
LINE
  5
134
330
F1
100
AcDbEntity
  8
AM_9
100
AcDbLine
 10
-0.0486874999999966
 20
-2.456688
 30
0.0
 11
0.0794374999999959
 21
-2.456688
 31
0.0
  0
LINE
  5
135
330
F1
100
AcDbEntity
  8
AM_9
100
AcDbLine
 10
-0.62525
 20
-2.430925
 30
0.0
 11
-0.62525
 21
2.430925
 31
0.0
  0
ARC
  5
136
330
F1
100
AcDbEntity
  8
AM_9
100
AcDbCircle
 10
-0.4971250000000011
 20
2.430925000000001
 30
0.0
 40
0.1281249999999989
100
AcDbArc
 50
90.0
 51
180.0
  0
ARC
  5
137
330
F1
100
AcDbEntity
  8
AM_9
100
AcDbCircle
 10
-0.4971250000000011
 20
-2.430925000000001
 30
0.0
 40
0.1281249999999989
100
AcDbArc
 50
180.0
 51
270.0
  0
LINE
  5
138
330
F1
100
AcDbEntity
  8
AM_9
100
AcDbLine
 10
0.0794374999999959
 20
-2.456688
 30
0.0
 11
0.138536228254784
 21
-2.55905
 31
0.0
  0
LINE
  5
139
330
F1
100
AcDbEntity
  8
AM_9
100
AcDbLine
 10
0.138536228254784
 20
2.55905
 30
0.0
 11
0.0794374999999959
 21
2.456688
 31
0.0
  0
LINE
  5
13A
330
F1
100
AcDbEntity
  8
AM_9
100
AcDbLine
 10
0.0794374999999959
 20
-2.456688
 30
0.0
 11
0.0794374999999959
 21
2.456688
 31
0.0
  0
LINE
  5
13B
330
F1
100
AcDbEntity
  8
AM_9
100
AcDbLine
 10
-0.0486874999999966
 20
2.456688
 30
0.0
 11
-0.1077862282547846
 21
2.55905
 31
0.0
  0
LINE
  5
13C
330
F1
100
AcDbEntity
  8
AM_9
100
AcDbLine
 10
-0.1077862282547846
 20
-2.55905
 30
0.0
 11
-0.0486874999999966
 21
-2.456688
 31
0.0
  0
LINE
  5
13D
330
F1
100
AcDbEntity
  8
AM_9
100
AcDbLine
 10
-0.0486874999999966
 20
-2.456688
 30
0.0
 11
-0.0486874999999966
 21
2.456688
 31
0.0
  0
LINE
  5
13E
330
F1
100
AcDbEntity
  8
AM_9
100
AcDbLine
 10
-0.1077862282547846
 20
2.55905
 30
0.0
 11
-0.4971250000000009
 21
2.55905
 31
0.0
  0
LINE
  5
13F
330
F1
100
AcDbEntity
  8
AM_9
100
AcDbLine
 10
-0.4971250000000009
 20
-2.55905
 30
0.0
 11
-0.1077862282547846
 21
-2.55905
 31
0.0
  0
LINE
  5
140
330
F1
100
AcDbEntity
  8
AM_9
100
AcDbLine
 10
-0.1077862282547846
 20
-2.55905
 30
0.0
 11
-0.1077862282547846
 21
2.55905
 31
0.0
  0
LINE
  5
141
330
F1
100
AcDbEntity
  8
AM_9
100
AcDbLine
 10
-0.4971250000000009
 20
-2.55905
 30
0.0
 11
-0.4971250000000009
 21
2.55905
 31
0.0
  0
LINE
  5
142
330
F1
100
AcDbEntity
  8
AM_9
100
AcDbLine
 10
0.6559999999999994
 20
-2.430925000000001
 30
0.0
 11
0.6559999999999994
 21
2.430925000000001
 31
0.0
  0
ARC
  5
143
330
F1
100
AcDbEntity
  8
AM_9
100
AcDbCircle
 10
0.5278749999999998
 20
2.430925
 30
0.0
 40
0.1281249999999996
100
AcDbArc
 50
0.0
 51
90.0
  0
ARC
  5
144
330
F1
100
AcDbEntity
  8
AM_9
100
AcDbCircle
 10
0.5278749999999998
 20
-2.430925000000001
 30
0.0
 40
0.1281249999999994
100
AcDbArc
 50
270.0
 51
0.0
  0
LINE
  5
145
330
F1
100
AcDbEntity
  8
AM_9
100
AcDbLine
 10
0.5278749999999998
 20
2.55905
 30
0.0
 11
0.138536228254784
 21
2.55905
 31
0.0
  0
LINE
  5
146
330
F1
100
AcDbEntity
  8
AM_9
100
AcDbLine
 10
0.138536228254784
 20
-2.55905
 30
0.0
 11
0.5278749999999998
 21
-2.55905
 31
0.0
  0
LINE
  5
147
330
F1
100
AcDbEntity
  8
AM_9
100
AcDbLine
 10
0.5278749999999998
 20
-2.55905
 30
0.0
 11
0.5278749999999998
 21
2.55905
 31
0.0
  0
LINE
  5
148
330
F1
100
AcDbEntity
  8
AM_9
100
AcDbLine
 10
0.138536228254784
 20
-2.55905
 30
0.0
 11
0.138536228254784
 21
2.55905
 31
0.0
  0
LINE
  5
149
330
F1
100
AcDbEntity
  8
AM_4
100
AcDbLine
 10
1.234375
 20
-0.4047733645120308
 30
0.0
 11
1.234375
 21
1.735
 31
0.0
  0
LINE
  5
14A
330
F1
100
AcDbEntity
  8
AM_4
100
AcDbLine
 10
1.234375
 20
1.735
 30
0.0
 11
1.231250000000001
 21
1.735
 31
0.0
  0
LINE
  5
14B
330
F1
100
AcDbEntity
  8
AM_4
100
AcDbLine
 10
-1.23125
 20
1.735
 30
0.0
 11
-1.475375
 21
1.735
 31
0.0
  0
ENDBLK
  5
F4
330
F1
100
AcDbEntity
  8
0
100
AcDbBlockEnd
  0
BLOCK
  5
14E
330
14C
100
AcDbEntity
  8
0
100
AcDbBlockBegin
  2
4_405015E_Inch_0_in_070331_2
 70
     2
 10
0.0
 20
0.0
 30
0.0
  3
4_405015E_Inch_0_in_070331_2
  1

  0
ATTDEF
  5
150
330
14C
100
AcDbEntity
  8
AM_6
100
AcDbText
 10
5.21875
 20
3.169012561372174
 30
0.0
 40
0.5
  1
405015E -Inch
100
AcDbAttributeDefinition
  3

  2
NN
 70
     8
280
     0
  0
ATTDEF
  5
151
330
14C
100
AcDbEntity
  8
AM_6
100
AcDbText
 10
5.21875
 20
2.669012561372174
 30
0.0
 40
0.5
  1
Grease Fitting
100
AcDbAttributeDefinition
  3

  2
NT
 70
     8
280
     0
  0
ATTDEF
  5
152
330
14C
100
AcDbEntity
  8
AM_6
100
AcDbText
 10
5.21875
 20
2.169012561372174
 30
0.0
 40
0.5
  1
405015E-Inch
100
AcDbAttributeDefinition
  3

  2
NB
 70
     8
280
     0
  0
ATTDEF
  5
153
330
14C
100
AcDbEntity
  8
AM_6
100
AcDbText
 10
5.21875
 20
1.669012561372174
 30
0.0
 40
0.5
  1
$MN.-Inch
100
AcDbAttributeDefinition
  3

  2
NBSYN
 70
     8
280
     0
  0
ATTDEF
  5
154
330
14C
100
AcDbEntity
  8
AM_6
100
AcDbText
 10
5.21875
 20
1.169012561372174
 30
0.0
 40
0.5
  1
405015E
100
AcDbAttributeDefinition
  3

  2
LINA
 70
     8
280
     0
  0
ATTDEF
  5
155
330
14C
100
AcDbEntity
  8
AM_6
100
AcDbText
 10
5.21875
 20
0.6690125613721745
 30
0.0
 40
0.5
  1
405015E
100
AcDbAttributeDefinition
  3

  2
MN
 70
     8
280
     0
  0
ATTDEF
  5
156
330
14C
100
AcDbEntity
  8
AM_6
100
AcDbText
 10
5.21875
 20
0.1690125613721745
 30
0.0
 40
0.5
  1
1/8 x 27PTF
100
AcDbAttributeDefinition
  3

  2
T
 70
     8
280
     0
  0
ATTDEF
  5
157
330
14C
100
AcDbEntity
  8
AM_6
100
AcDbText
 10
5.21875
 20
-0.3309874386278255
 30
0.0
 40
0.5
  1
baldor
100
AcDbAttributeDefinition
  3

  2
COMPANY
 70
     8
280
     0
  0
ELLIPSE
  5
158
330
14C
100
AcDbEntity
  8
AM_9
100
AcDbEllipse
 10
0.0000000000000001
 20
2.792931927204812
 30
0.0
 11
0.2187499999999998
 21
0.0
 31
0.0
210
0.0
220
0.0
230
1.0
 40
0.5000000000000105
 41
1.047197551196598
 42
2.094395102393196
  0
LWPOLYLINE
  5
159
330
14C
100
AcDbEntity
  8
AM_9
100
AcDbPolyline
 90
        3
 70
     0
 43
0.0
 10
0.0000000000000001
 20
2.927080070278661
 10
0.0544416102741497
 20
2.905602399361039
 10
0.1093750000000001
 20
2.887653455743737
  0
LWPOLYLINE
  5
15A
330
14C
100
AcDbEntity
  8
AM_9
100
AcDbPolyline
 90
        3
 70
     0
 43
0.0
 10
-0.1093749999999999
 20
2.887653455743737
 10
-0.0546874999999999
 20
2.90551310572766
 10
0.0000000000000001
 20
2.927080070278661
  0
LWPOLYLINE
  5
15B
330
14C
100
AcDbEntity
  8
AM_9
100
AcDbPolyline
 90
        3
 70
     0
 43
0.0
 10
0.0982429668196542
 20
2.977381974762712
 10
0.0546875
 20
2.987970188984566
 10
0.0000000000000001
 20
2.997977067279873
  0
LINE
  5
15C
330
14C
100
AcDbEntity
  8
AM_9
100
AcDbLine
 10
0.1060021578712499
 20
2.975221607234631
 30
0.0
 11
0.0982429668196542
 21
2.977381974762712
 31
0.0
  0
LINE
  5
15D
330
14C
100
AcDbEntity
  8
AM_9
100
AcDbLine
 10
-0.098244118157507
 20
2.977381660496001
 30
0.0
 11
-0.106002478662244
 21
2.975221516160287
 31
0.0
  0
LWPOLYLINE
  5
15E
330
14C
100
AcDbEntity
  8
AM_9
100
AcDbPolyline
 90
        3
 70
     0
 43
0.0
 10
0.0000000000000001
 20
2.997977067279873
 10
-0.0544416102741495
 20
2.988022859850598
 10
-0.098244118157507
 20
2.977381660496001
  0
LWPOLYLINE
  5
15F
330
14C
100
AcDbEntity
  8
AM_9
100
AcDbPolyline
 90
        3
 70
     0
 43
0.0
 10
-0.2187499999999999
 20
2.863932384586046
 10
-0.1643083897258503
 20
2.87388659201532
 10
-0.1093749999999999
 20
2.887653455743737
  0
LINE
  5
160
330
14C
100
AcDbEntity
  8
AM_9
100
AcDbLine
 10
0.0000000000000001
 20
2.997977067279873
 30
0.0
 11
0.0000000000000001
 21
2.927080070278661
 31
0.0
  0
LWPOLYLINE
  5
161
330
14C
100
AcDbEntity
  8
AM_9
100
AcDbPolyline
 90
        3
 70
     0
 43
0.0
 10
0.1093750000000001
 20
2.887653455743737
 10
0.1640625000000001
 20
2.873939262881353
 10
0.2187500000000001
 20
2.863932384586046
  0
ELLIPSE
  5
162
330
14C
100
AcDbEntity
  8
AM_9
100
AcDbEllipse
 10
0.0000000000000007
 20
2.792931927204815
 30
0.0
 11
0.2187500000000006
 21
0.0
 31
0.0
210
0.0
220
0.0
230
1.0
 40
0.4999999999999966
 41
2.094395102393201
 42
3.141592653589793
  0
ELLIPSE
  5
163
330
14C
100
AcDbEntity
  8
AM_9
100
AcDbEllipse
 10
0.0000000000000005
 20
2.563435195201939
 30
0.0
 11
0.1619028724722683
 21
0.0
 31
0.0
210
0.0
220
0.0
230
1.0
 40
0.5000000000000081
 41
4.71238898038469
 42
10.04025766943976
  0
LINE
  5
164
330
14C
100
AcDbEntity
  8
AM_9
100
AcDbLine
 10
0.1321931418159854
 20
2.516697861699719
 30
0.0
 11
0.1621706131788417
 21
2.53789513498322
 31
0.0
  0
LINE
  5
165
330
14C
100
AcDbEntity
  8
AM_9
100
AcDbLine
 10
-0.1621706131788415
 20
2.53789513498322
 30
0.0
 11
-0.1321931418159852
 21
2.516697861699719
 31
0.0
  0
ELLIPSE
  5
166
330
14C
100
AcDbEntity
  8
AM_9
100
AcDbEllipse
 10
0.0000000000000015
 20
2.595231105127193
 30
0.0
 11
0.198617626781214
 21
0.0
 31
0.0
210
0.0
220
0.0
230
1.0
 40
0.5000000000000092
 41
4.71238898038469
 42
9.442822037473858
  0
ELLIPSE
  5
167
330
14C
100
AcDbEntity
  8
AM_9
100
AcDbEllipse
 10
-0.0000000000000006
 20
2.595231105127191
 30
0.0
 11
0.1986176267812141
 21
0.0
 31
0.0
210
0.0
220
0.0
230
1.0
 40
0.5000000000000112
 41
3.15963673029426
 42
4.71238898038469
  0
ELLIPSE
  5
168
330
14C
100
AcDbEntity
  8
AM_9
100
AcDbEllipse
 10
0.0000000000000002
 20
2.56343519520194
 30
0.0
 11
0.1619028724722689
 21
0.0
 31
0.0
210
0.0
220
0.0
230
1.0
 40
0.500000000000009
 41
3.757072362260189
 42
4.71238898038469
  0
ELLIPSE
  5
169
330
14C
100
AcDbEntity
  8
AM_9
100
AcDbEllipse
 10
0.0000000000000007
 20
2.792931927204815
 30
0.0
 11
0.2187500000000006
 21
0.0
 31
0.0
210
0.0
220
0.0
230
1.0
 40
0.4999999999999986
 41
3.141592653589793
 42
4.18879020478639
  0
ELLIPSE
  5
16A
330
14C
100
AcDbEntity
  8
AM_9
100
AcDbEllipse
 10
0.0000000000000005
 20
2.792931927204815
 30
0.0
 11
0.2057518972230692
 21
0.0
 31
0.0
210
0.0
220
0.0
230
1.0
 40
0.5000000000000006
 41
4.71238898038469
 42
9.442822037473828
  0
LINE
  5
16B
330
14C
100
AcDbEntity
  8
AM_9
100
AcDbLine
 10
0.1985852938306409
 20
2.59343926651837
 30
0.0
 11
0.2057184028850728
 21
2.791075726427185
 31
0.0
  0
LINE
  5
16C
330
14C
100
AcDbEntity
  8
AM_9
100
AcDbLine
 10
-0.2057184028850726
 20
2.791075726427185
 30
0.0
 11
-0.1985852938306407
 21
2.59343926651837
 31
0.0
  0
ELLIPSE
  5
16D
330
14C
100
AcDbEntity
  8
AM_9
100
AcDbEllipse
 10
-0.0000000000000004
 20
2.792931927204815
 30
0.0
 11
0.2057518972230694
 21
0.0
 31
0.0
210
0.0
220
0.0
230
1.0
 40
0.5000000000000001
 41
3.159636730294242
 42
4.71238898038469
  0
ELLIPSE
  5
16E
330
14C
100
AcDbEntity
  8
AM_9
100
AcDbEllipse
 10
0.0000000000000001
 20
2.792931927204816
 30
0.0
 11
0.2187499999999996
 21
3.259629011154169E-9
 31
0.0
210
0.0
220
0.0
230
1.0
 40
0.500000000000009
 41
4.188790191747874
 42
7.330382845337652
  0
LINE
  5
16F
330
14C
100
AcDbEntity
  8
AM_9
100
AcDbLine
 10
-0.1017810272422099
 20
2.983367301369102
 30
0.0
 11
-0.1049999999999999
 21
2.977064906729574
 31
0.0
  0
LINE
  5
170
330
14C
100
AcDbEntity
  8
AM_9
100
AcDbLine
 10
0.1050000000000001
 20
2.977064906729574
 30
0.0
 11
0.1017810272422101
 21
2.983367301369102
 31
0.0
  0
ELLIPSE
  5
171
330
14C
100
AcDbEntity
  8
AM_9
100
AcDbEllipse
 10
0.0000000000000001
 20
2.970467134980624
 30
0.0
 11
0.1050000000000002
 21
0.0
 31
0.0
210
0.0
220
0.0
230
1.0
 40
0.4999999999999925
 41
0.2500328930988038
 42
3.141592653589793
  0
ELLIPSE
  5
172
330
14C
100
AcDbEntity
  8
AM_9
100
AcDbEllipse
 10
-0.0000000000000025
 20
2.942540519109566
 30
0.0
 11
0.1188200907349002
 21
0.0
 31
0.0
210
0.0
220
0.0
230
1.0
 40
0.4999999999999917
 41
0.2500328930987088
 42
2.535447513394757
  0
LINE
  5
173
330
14C
100
AcDbEntity
  8
AM_9
100
AcDbLine
 10
0.1050000000000001
 20
2.988705363793084
 30
0.0
 11
0.1050000000000001
 21
2.996447897094157
 31
0.0
  0
LINE
  5
174
330
14C
100
AcDbEntity
  8
AM_9
100
AcDbLine
 10
-0.1049999999999999
 20
2.996447897094157
 30
0.0
 11
-0.1049999999999999
 21
2.988705363793084
 31
0.0
  0
ELLIPSE
  5
175
330
14C
100
AcDbEntity
  8
AM_9
100
AcDbEllipse
 10
0.0000000000000001
 20
2.996447897094157
 30
0.0
 11
0.1050000000000001
 21
0.0
 31
0.0
210
0.0
220
0.0
230
1.0
 40
0.5000000000000017
 41
0.0
 42
3.43443542531837
  0
ELLIPSE
  5
176
330
14C
100
AcDbEntity
  8
AM_9
100
AcDbEllipse
 10
0.0000000000000029
 20
2.970467134980623
 30
0.0
 11
0.1049999999999972
 21
0.0
 31
0.0
210
0.0
220
0.0
230
1.0
 40
0.4999999999999943
 41
0.0
 42
0.2500328930988347
  0
LINE
  5
177
330
14C
100
AcDbEntity
  8
AM_9
100
AcDbLine
 10
-0.0976523208201057
 20
2.976386634842007
 30
0.0
 11
-0.1098343496897821
 21
2.967599781715157
 31
0.0
  0
LINE
  5
178
330
14C
100
AcDbEntity
  8
AM_9
100
AcDbLine
 10
0.1098343496897824
 20
2.967599781715157
 30
0.0
 11
0.0976523208201059
 21
2.976386634842007
 31
0.0
  0
ELLIPSE
  5
179
330
14C
100
AcDbEntity
  8
AM_9
100
AcDbEllipse
 10
0.0000000000000031
 20
2.942540519109566
 30
0.0
 11
0.1188200907349006
 21
0.0
 31
0.0
210
0.0
220
0.0
230
1.0
 40
0.4999999999999937
 41
2.535447513394788
 42
2.891559760491087
  0
ELLIPSE
  5
17A
330
14C
100
AcDbEntity
  8
AM_9
100
AcDbEllipse
 10
0.0000000000000001
 20
2.895398492871228
 30
0.0
 11
0.1725340532830157
 21
0.0
 31
0.0
210
0.0
220
0.0
230
1.0
 40
0.500000000000006
 41
0.6061451401950873
 42
2.535447513394707
  0
ELLIPSE
  5
17B
330
14C
100
AcDbEntity
  8
AM_9
100
AcDbEllipse
 10
0.0000000000000001
 20
2.879534467583257
 30
0.0
 11
0.2187499999999982
 21
0.0
 31
0.0
210
0.0
220
0.0
230
1.0
 40
0.5000000000000082
 41
1.065244638251229
 42
2.076348015338565
  0
ELLIPSE
  5
17C
330
14C
100
AcDbEntity
  8
AM_9
100
AcDbEllipse
 10
-0.0000000000013874
 20
2.879534467584161
 30
0.0
 11
0.2137499999972027
 21
3.185123205143254E-9
 31
0.0
210
0.0
220
0.0
230
1.0
 40
0.5000000000012685
 41
-4.21735631909139
 42
-4.184564790878012
  0
ELLIPSE
  5
17D
330
14C
100
AcDbEntity
  8
AM_9
100
AcDbEllipse
 10
0.0000000000000001
 20
2.879534467583255
 30
0.0
 11
0.2137499999999989
 21
0.0
 31
0.0
210
0.0
220
0.0
230
1.0
 40
0.5000000000000153
 41
1.057297229363656
 42
2.065829000583808
  0
ELLIPSE
  5
17E
330
14C
100
AcDbEntity
  8
AM_9
100
AcDbEllipse
 10
0.0000000000012575
 20
2.879534467584049
 30
0.0
 11
0.2137499999974626
 21
0.0
 31
0.0
210
0.0
220
0.0
230
1.0
 40
0.5000000000012714
 41
1.042972124167714
 42
1.057297229364059
  0
ELLIPSE
  5
17F
330
14C
100
AcDbEntity
  8
AM_9
100
AcDbEllipse
 10
-0.0000000000000049
 20
2.996447897094147
 30
0.0
 11
0.105000000000005
 21
0.0
 31
0.0
210
0.0
220
0.0
230
1.0
 40
0.4999999999999866
 41
5.9903425354512
 42
6.283185307179586
  0
ELLIPSE
  5
180
330
14C
100
AcDbEntity
  8
AM_9
100
AcDbEllipse
 10
0.0000000000000001
 20
3.048409421321224
 30
0.0
 11
0.135
 21
0.0
 31
0.0
210
0.0
220
0.0
230
1.0
 40
0.4999999999999959
 41
0.2354336045415613
 42
2.906159049048232
  0
LINE
  5
181
330
14C
100
AcDbEntity
  8
AM_4
100
AcDbLine
 10
0.109375
 20
2.974255996122181
 30
0.0
 11
0.1060021578712499
 21
2.975221607234631
 31
0.0
  0
LINE
  5
182
330
14C
100
AcDbEntity
  8
AM_4
100
AcDbLine
 10
-0.106002478662244
 20
2.975221516160287
 30
0.0
 11
-0.1093749999999999
 21
2.974255996122181
 31
0.0
  0
LWPOLYLINE
  5
183
330
14C
100
AcDbEntity
  8
AM_4
100
AcDbPolyline
 90
        3
 70
     0
 43
0.0
 10
0.2187500000000001
 20
2.934829381587257
 10
0.1643083897258505
 20
2.95630705250488
 10
0.109375
 20
2.974255996122181
  0
LWPOLYLINE
  5
184
330
14C
100
AcDbEntity
  8
AM_4
100
AcDbPolyline
 90
        3
 70
     0
 43
0.0
 10
-0.1093749999999999
 20
2.974255996122181
 10
-0.1640624999999999
 20
2.956396346138258
 10
-0.2187499999999999
 20
2.934829381587257
  0
LINE
  5
185
330
14C
100
AcDbEntity
  8
AM_4
100
AcDbLine
 10
-0.1049999999999999
 20
2.977064906729574
 30
0.0
 11
-0.1151252948555657
 21
2.957240692974759
 31
0.0
  0
LINE
  5
186
330
14C
100
AcDbEntity
  8
AM_4
100
AcDbLine
 10
0.1151252948555659
 20
2.957240692974759
 30
0.0
 11
0.1050000000000001
 21
2.977064906729574
 31
0.0
  0
ELLIPSE
  5
187
330
14C
100
AcDbEntity
  8
AM_4
100
AcDbEllipse
 10
-0.0000000000000003
 20
2.942540519109561
 30
0.0
 11
0.1188200907348972
 21
0.0
 31
0.0
210
0.0
220
0.0
230
1.0
 40
0.5000000000000003
 41
2.891559760490996
 42
4.71238898038469
  0
ELLIPSE
  5
188
330
14C
100
AcDbEntity
  8
AM_4
100
AcDbEllipse
 10
0.0000000000000004
 20
2.970467134980625
 30
0.0
 11
0.1049999999999997
 21
0.0
 31
0.0
210
0.0
220
0.0
230
1.0
 40
0.5000000000000034
 41
4.71238898038469
 42
6.283185307179586
  0
LINE
  5
189
330
14C
100
AcDbEntity
  8
AM_4
100
AcDbLine
 10
0.1050000000000001
 20
2.970467134980624
 30
0.0
 11
0.1050000000000001
 21
2.988705363793084
 31
0.0
  0
LINE
  5
18A
330
14C
100
AcDbEntity
  8
AM_4
100
AcDbLine
 10
-0.1049999999999999
 20
2.988705363793084
 30
0.0
 11
-0.1049999999999999
 21
2.970467134980624
 31
0.0
  0
ELLIPSE
  5
18B
330
14C
100
AcDbEntity
  8
AM_4
100
AcDbEllipse
 10
-0.0000000000000002
 20
2.970467134980625
 30
0.0
 11
0.1049999999999998
 21
0.0
 31
0.0
210
0.0
220
0.0
230
1.0
 40
0.5000000000000028
 41
3.141592653589793
 42
4.71238898038469
  0
ELLIPSE
  5
18C
330
14C
100
AcDbEntity
  8
AM_4
100
AcDbEllipse
 10
0.0000000000000005
 20
2.942540519109561
 30
0.0
 11
0.1188200907348972
 21
0.0
 31
0.0
210
0.0
220
0.0
230
1.0
 40
0.5000000000000003
 41
4.71238898038469
 42
6.533218200278384
  0
LINE
  5
18D
330
14C
100
AcDbEntity
  8
AM_4
100
AcDbLine
 10
-0.1098343496897821
 20
2.967599781715157
 30
0.0
 11
-0.1417971541629017
 21
2.9445451270733
 31
0.0
  0
LINE
  5
18E
330
14C
100
AcDbEntity
  8
AM_4
100
AcDbLine
 10
0.1417971541629019
 20
2.9445451270733
 30
0.0
 11
0.1098343496897824
 21
2.967599781715157
 31
0.0
  0
ELLIPSE
  5
18F
330
14C
100
AcDbEntity
  8
AM_4
100
AcDbEllipse
 10
0.0000000000000001
 20
2.895398492871229
 30
0.0
 11
0.1725340532830156
 21
0.0
 31
0.0
210
0.0
220
0.0
230
1.0
 40
0.4999999999999986
 41
2.535447513394708
 42
4.71238898038469
  0
ELLIPSE
  5
190
330
14C
100
AcDbEntity
  8
AM_4
100
AcDbEllipse
 10
0.0
 20
2.879534467583259
 30
0.0
 11
0.2187499999999999
 21
0.0
 31
0.0
210
0.0
220
0.0
230
1.0
 40
0.4999999999999982
 41
2.094395102393196
 42
4.188790204786395
  0
ELLIPSE
  5
191
330
14C
100
AcDbEntity
  8
AM_4
100
AcDbEllipse
 10
0.0000000000000017
 20
2.879534467583257
 30
0.0
 11
0.2187499999999983
 21
0.0
 31
0.0
210
0.0
220
0.0
230
1.0
 40
0.4999999999999999
 41
4.188790204786383
 42
7.348429945430829
  0
ELLIPSE
  5
192
330
14C
100
AcDbEntity
  8
AM_4
100
AcDbEllipse
 10
0.0000000000001747
 20
2.879534467580232
 30
0.0
 11
0.2187500000003743
 21
0.0
 31
0.0
210
0.0
220
0.0
230
1.0
 40
0.5000000000113922
 41
-4.206837291844073
 42
-4.188790204789667
  0
ELLIPSE
  5
193
330
14C
100
AcDbEntity
  8
AM_4
100
AcDbEllipse
 10
0.0000000000000002
 20
2.895398492871229
 30
0.0
 11
0.1725340532830155
 21
0.0
 31
0.0
210
0.0
220
0.0
230
1.0
 40
0.4999999999999986
 41
4.71238898038469
 42
6.889330447374671
  0
ELLIPSE
  5
194
330
14C
100
AcDbEntity
  8
AM_4
100
AcDbEllipse
 10
0.0
 20
2.879534467583257
 30
0.0
 11
0.2137499999999999
 21
3.185123205184936E-9
 31
0.0
210
0.0
220
0.0
230
1.0
 40
0.5000000000000004
 41
2.098620516301819
 42
4.71238898038469
  0
ELLIPSE
  5
195
330
14C
100
AcDbEntity
  8
AM_4
100
AcDbEllipse
 10
0.0000000000000002
 20
2.879534467583258
 30
0.0
 11
0.21375
 21
3.185123205184937E-9
 31
0.0
210
0.0
220
0.0
230
1.0
 40
0.5000000000000003
 41
4.71238898038469
 42
7.326157418226543
  0
ELLIPSE
  5
196
330
14C
100
AcDbEntity
  8
AM_4
100
AcDbEllipse
 10
-0.000000000000001
 20
2.996447897094157
 30
0.0
 11
0.1050000000000014
 21
0.0
 31
0.0
210
0.0
220
0.0
230
1.0
 40
0.4999999999999869
 41
4.71238898038469
 42
5.99034253545102
  0
LINE
  5
197
330
14C
100
AcDbEntity
  8
AM_4
100
AcDbLine
 10
0.1005298463144156
 20
2.98129245252793
 30
0.0
 11
0.1292526595471058
 21
3.028923849736074
 31
0.0
  0
LINE
  5
198
330
14C
100
AcDbEntity
  8
AM_4
100
AcDbLine
 10
-0.1292526595471055
 20
3.028923849736074
 30
0.0
 11
-0.1005298463144154
 21
2.98129245252793
 31
0.0
  0
ELLIPSE
  5
199
330
14C
100
AcDbEntity
  8
AM_4
100
AcDbEllipse
 10
0.0000000000000009
 20
3.048409421321225
 30
0.0
 11
0.1350000000000008
 21
0.0
 31
0.0
210
0.0
220
0.0
230
1.0
 40
0.5000000000000063
 41
3.434435425318382
 42
6.518618911721127
  0
ELLIPSE
  5
19A
330
14C
100
AcDbEntity
  8
AM_4
100
AcDbEllipse
 10
0.0000000000000012
 20
2.996447897094157
 30
0.0
 11
0.1050000000000014
 21
0.0
 31
0.0
210
0.0
220
0.0
230
1.0
 40
0.4999999999999868
 41
3.434435425318359
 42
4.71238898038469
  0
LWPOLYLINE
  5
19B
330
14C
100
AcDbEntity
  8
AM_4
100
AcDbPolyline
 90
        3
 70
     0
 43
0.0
 10
-0.2187499999999999
 20
2.808534010202027
 10
-0.1643083897258503
 20
2.798579802772752
 10
-0.1093749999999999
 20
2.784812939044335
  0
LINE
  5
19C
330
14C
100
AcDbEntity
  8
AM_4
100
AcDbLine
 10
-0.2187499999999999
 20
2.934829381587257
 30
0.0
 11
-0.2187499999999999
 21
2.737637013200815
 31
0.0
  0
LWPOLYLINE
  5
19D
330
14C
100
AcDbEntity
  8
AM_4
100
AcDbPolyline
 90
        3
 70
     0
 43
0.0
 10
-0.1093749999999999
 20
2.698210398665891
 10
-0.1640624999999999
 20
2.716070048649815
 10
-0.2187499999999999
 20
2.737637013200815
  0
LWPOLYLINE
  5
19E
330
14C
100
AcDbEntity
  8
AM_4
100
AcDbPolyline
 90
        3
 70
     0
 43
0.0
 10
0.0000000000000001
 20
2.6744893275082
 10
-0.0544416102741495
 20
2.684443534937475
 10
-0.1093749999999999
 20
2.698210398665891
  0
LWPOLYLINE
  5
19F
330
14C
100
AcDbEntity
  8
AM_4
100
AcDbPolyline
 90
        3
 70
     0
 43
0.0
 10
-0.1093749999999999
 20
2.784812939044335
 10
-0.0546874999999999
 20
2.766953289060412
 10
0.0000000000000001
 20
2.745386324509411
  0
LINE
  5
1A0
330
14C
100
AcDbEntity
  8
AM_4
100
AcDbLine
 10
0.2187500000000001
 20
2.934829381587257
 30
0.0
 11
0.2187500000000001
 21
2.737637013200815
 31
0.0
  0
LWPOLYLINE
  5
1A1
330
14C
100
AcDbEntity
  8
AM_4
100
AcDbPolyline
 90
        3
 70
     0
 43
0.0
 10
0.109375
 20
2.784812939044335
 10
0.1640625000000001
 20
2.798527131906719
 10
0.2187500000000001
 20
2.808534010202027
  0
LWPOLYLINE
  5
1A2
330
14C
100
AcDbEntity
  8
AM_4
100
AcDbPolyline
 90
        3
 70
     0
 43
0.0
 10
0.0000000000000001
 20
2.745386324509411
 10
0.0544416102741497
 20
2.766863995427034
 10
0.109375
 20
2.784812939044335
  0
LINE
  5
1A3
330
14C
100
AcDbEntity
  8
AM_4
100
AcDbLine
 10
0.0000000000000001
 20
2.745386324509411
 30
0.0
 11
0.0000000000000001
 21
2.6744893275082
 31
0.0
  0
LWPOLYLINE
  5
1A4
330
14C
100
AcDbEntity
  8
AM_4
100
AcDbPolyline
 90
        3
 70
     0
 43
0.0
 10
0.1093750000000001
 20
2.698210398665891
 10
0.0546875000000001
 20
2.684496205803507
 10
0.0000000000000001
 20
2.6744893275082
  0
LWPOLYLINE
  5
1A5
330
14C
100
AcDbEntity
  8
AM_4
100
AcDbPolyline
 90
        3
 70
     0
 43
0.0
 10
0.2187500000000001
 20
2.737637013200815
 10
0.1643083897258505
 20
2.716159342283193
 10
0.1093750000000001
 20
2.698210398665891
  0
ELLIPSE
  5
1A6
330
14C
100
AcDbEntity
  8
AM_4
100
AcDbEllipse
 10
0.0000000000000004
 20
3.117691453623979
 30
0.0
 11
0.1026779019331872
 21
0.0
 31
0.0
210
0.0
220
0.0
230
1.0
 40
0.4999999999999977
 41
4.71238898038469
 42
6.518618911721146
  0
LINE
  5
1A7
330
14C
100
AcDbEntity
  8
AM_4
100
AcDbLine
 10
-0.0998453562378796
 20
3.129667016065177
 30
0.0
 11
-0.1312757938985218
 21
3.064154785212801
 31
0.0
  0
LINE
  5
1A8
330
14C
100
AcDbEntity
  8
AM_4
100
AcDbLine
 10
0.131275793898522
 20
3.064154785212801
 30
0.0
 11
0.0998453562378799
 21
3.129667016065177
 31
0.0
  0
ELLIPSE
  5
1A9
330
14C
100
AcDbEntity
  8
AM_4
100
AcDbEllipse
 10
0.0000000000000001
 20
3.117691453623979
 30
0.0
 11
0.1026779019331876
 21
0.0
 31
0.0
210
0.0
220
0.0
230
1.0
 40
0.4999999999999915
 41
0.2354336045415613
 42
4.71238898038469
  0
ELLIPSE
  5
1AA
330
14C
100
AcDbEntity
  8
AM_4
100
AcDbEllipse
 10
0.0
 20
3.048409421321218
 30
0.0
 11
0.1349999999999999
 21
0.0
 31
0.0
210
0.0
220
0.0
230
1.0
 40
0.4999999999999963
 41
2.906159049048149
 42
3.434435425318289
  0
ENDBLK
  5
14F
330
14C
100
AcDbEntity
  8
0
100
AcDbBlockEnd
  0
BLOCK
  5
1AD
330
1AB
100
AcDbEntity
  8
0
100
AcDbBlockBegin
  2
5_070331H_0_in_070331_2
 70
     2
 10
0.0
 20
0.0
 30
0.0
  3
5_070331H_0_in_070331_2
  1

  0
ATTDEF
  5
1AF
330
1AB
100
AcDbEntity
  8
AM_6
100
AcDbText
 10
6.736378205128205
 20
3.125
 30
0.0
 40
0.5
  1
P2B-S2-(Labyrinth Seal)-Housing
100
AcDbAttributeDefinition
  3

  2
NN
 70
     8
280
     0
  0
ATTDEF
  5
1B0
330
1AB
100
AcDbEntity
  8
AM_6
100
AcDbText
 10
6.736378205128205
 20
2.625
 30
0.0
 40
0.5
  1
S-2000 Pillow Block Bearing -Inch (2-Bolt Base)
100
AcDbAttributeDefinition
  3

  2
NT
 70
     8
280
     0
  0
ATTDEF
  5
1B1
330
1AB
100
AcDbEntity
  8
AM_6
100
AcDbText
 10
6.736378205128205
 20
2.125
 30
0.0
 40
0.5
  1
070331H
100
AcDbAttributeDefinition
  3

  2
NB
 70
     8
280
     0
  0
ATTDEF
  5
1B2
330
1AB
100
AcDbEntity
  8
AM_6
100
AcDbText
 10
6.736378205128205
 20
1.625
 30
0.0
 40
0.5
  1
$PN.H
100
AcDbAttributeDefinition
  3

  2
NBSYN
 70
     8
280
     0
  0
ATTDEF
  5
1B3
330
1AB
100
AcDbEntity
  8
AM_6
100
AcDbText
 10
6.736378205128205
 20
1.125
 30
0.0
 40
0.5
  1
070331
100
AcDbAttributeDefinition
  3

  2
LINA
 70
     8
280
     0
  0
ATTDEF
  5
1B4
330
1AB
100
AcDbEntity
  8
AM_6
100
AcDbText
 10
6.736378205128205
 20
0.625
 30
0.0
 40
0.5
  1
2-15/16
100
AcDbAttributeDefinition
  3

  2
SS
 70
     8
280
     0
  0
ATTDEF
  5
1B5
330
1AB
100
AcDbEntity
  8
AM_6
100
AcDbText
 10
6.736378205128205
 20
0.125
 30
0.0
 40
0.5
  1
070331
100
AcDbAttributeDefinition
  3

  2
PN
 70
     8
280
     0
  0
ATTDEF
  5
1B6
330
1AB
100
AcDbEntity
  8
AM_6
100
AcDbText
 10
6.736378205128205
 20
-0.375
 30
0.0
 40
0.5
  1
P2B-S2-215L
100
AcDbAttributeDefinition
  3

  2
DESCRIPTION
 70
     8
280
     0
  0
ATTDEF
  5
1B7
330
1AB
100
AcDbEntity
  8
AM_6
100
AcDbText
 10
6.736378205128205
 20
-0.875
 30
0.0
 40
0.5
  1
Non-Expansion Type
100
AcDbAttributeDefinition
  3

  2
EF
 70
     8
280
     0
  0
ATTDEF
  5
1B8
330
1AB
100
AcDbEntity
  8
AM_6
100
AcDbText
 10
6.736378205128205
 20
-1.375
 30
0.0
 40
0.5
  1
1
100
AcDbAttributeDefinition
  3

  2
EF1
 70
     8
280
     0
  0
ATTDEF
  5
1B9
330
1AB
100
AcDbEntity
  8
AM_6
100
AcDbText
 10
6.736378205128205
 20
-1.875
 30
0.0
 40
0.5
  1
3-19/32
100
AcDbAttributeDefinition
  3

  2
A
 70
     8
280
     0
  0
ATTDEF
  5
1BA
330
1AB
100
AcDbEntity
  8
AM_6
100
AcDbText
 10
6.736378205128205
 20
-2.375
 30
0.0
 40
0.5
  1
10-7/16
100
AcDbAttributeDefinition
  3

  2
B
 70
     8
280
     0
  0
ATTDEF
  5
1BB
330
1AB
100
AcDbEntity
  8
AM_6
100
AcDbText
 10
6.736378205128205
 20
-2.875
 30
0.0
 40
0.5
  1
3-5/64
100
AcDbAttributeDefinition
  3

  2
C
 70
     8
280
     0
  0
ATTDEF
  5
1BC
330
1AB
100
AcDbEntity
  8
AM_6
100
AcDbText
 10
6.736378205128205
 20
-3.375
 30
0.0
 40
0.5
  1
7-15/16
100
AcDbAttributeDefinition
  3

  2
DMIN
 70
     8
280
     0
  0
ATTDEF
  5
1BD
330
1AB
100
AcDbEntity
  8
AM_6
100
AcDbText
 10
6.736378205128205
 20
-3.875
 30
0.0
 40
0.5
  1
8-5/16
100
AcDbAttributeDefinition
  3

  2
DMAX
 70
     8
280
     0
  0
ATTDEF
  5
1BE
330
1AB
100
AcDbEntity
  8
AM_6
100
AcDbText
 10
6.736378205128205
 20
-4.375
 30
0.0
 40
0.5
  1
3/4
100
AcDbAttributeDefinition
  3

  2
F
 70
     8
280
     0
  0
ATTDEF
  5
1BF
330
1AB
100
AcDbEntity
  8
AM_6
100
AcDbText
 10
6.736378205128205
 20
-4.875
 30
0.0
 40
0.5
  1
1-1/16
100
AcDbAttributeDefinition
  3

  2
G
 70
     8
280
     0
  0
ATTDEF
  5
1C0
330
1AB
100
AcDbEntity
  8
AM_6
100
AcDbText
 10
6.736378205128205
 20
-5.375
 30
0.0
 40
0.5
  1
1-7/8
100
AcDbAttributeDefinition
  3

  2
H
 70
     8
280
     0
  0
ATTDEF
  5
1C1
330
1AB
100
AcDbEntity
  8
AM_6
100
AcDbText
 10
6.736378205128205
 20
-5.875
 30
0.0
 40
0.5
  1
6-3/8
100
AcDbAttributeDefinition
  3

  2
J
 70
     8
280
     0
  0
ATTDEF
  5
1C2
330
1AB
100
AcDbEntity
  8
AM_6
100
AcDbText
 10
6.736378205128205
 20
-6.375
 30
0.0
 40
0.5
  1
4-45/64
100
AcDbAttributeDefinition
  3

  2
L
 70
     8
280
     0
  0
ATTDEF
  5
1C3
330
1AB
100
AcDbEntity
  8
AM_6
100
AcDbText
 10
6.736378205128205
 20
-6.875
 30
0.0
 40
0.5
  1
3-1/4
100
AcDbAttributeDefinition
  3

  2
M
 70
     8
280
     0
  0
ATTDEF
  5
1C4
330
1AB
100
AcDbEntity
  8
AM_6
100
AcDbText
 10
6.736378205128205
 20
-7.375
 30
0.0
 40
0.5
  1
1-15/64
100
AcDbAttributeDefinition
  3

  2
R
 70
     8
280
     0
  0
ATTDEF
  5
1C5
330
1AB
100
AcDbEntity
  8
AM_6
100
AcDbText
 10
6.736378205128205
 20
-7.875
 30
0.0
 40
0.5
  1
2-23/64
100
AcDbAttributeDefinition
  3

  2
S
 70
     8
280
     0
  0
ATTDEF
  5
1C6
330
1AB
100
AcDbEntity
  8
AM_6
100
AcDbText
 10
6.736378205128205
 20
-8.375
 30
0.0
 40
0.5
  1
1/4
100
AcDbAttributeDefinition
  3

  2
X
 70
     8
280
     0
  0
ATTDEF
  5
1C7
330
1AB
100
AcDbEntity
  8
AM_6
100
AcDbText
 10
6.736378205128205
 20
-8.875
 30
0.0
 40
0.5
  1
0.025
100
AcDbAttributeDefinition
  3

  2
Y
 70
     8
280
     0
  0
ATTDEF
  5
1C8
330
1AB
100
AcDbEntity
  8
AM_6
100
AcDbText
 10
6.736378205128205
 20
-9.375
 30
0.0
 40
0.5
  1
3-15/32
100
AcDbAttributeDefinition
  3

  2
Z
 70
     8
280
     0
  0
ATTDEF
  5
1C9
330
1AB
100
AcDbEntity
  8
AM_6
100
AcDbText
 10
6.736378205128205
 20
-9.875
 30
0.0
 40
0.5
  1
2
100
AcDbAttributeDefinition
  3

  2
ST1
 70
     8
280
     0
  0
ATTDEF
  5
1CA
330
1AB
100
AcDbEntity
  8
AM_6
100
AcDbText
 10
6.736378205128205
 20
-10.375
 30
0.0
 40
0.5
  1
baldor
100
AcDbAttributeDefinition
  3

  2
COMPANY
 70
     8
280
     0
  0
LINE
  5
1CB
330
1AB
100
AcDbEntity
  8
AM_9
100
AcDbLine
 10
-0.1020844245093951
 20
3.125
 30
0.0
 11
0.1020844245093951
 21
3.125
 31
0.0
  0
LWPOLYLINE
  5
1CC
330
1AB
100
AcDbEntity
  8
AM_9
100
AcDbPolyline
 90
       16
 70
     0
 43
0.0
 10
-0.0297370248563221
 20
2.921145374332261
 10
-0.0528372728196013
 20
2.920446540797152
 10
-0.1078678597611226
 20
2.917209533324966
 10
-0.1612053745037862
 20
2.911747463520819
 10
-0.2126983089682016
 20
2.904045701174426
 10
-0.2614058022108832
 20
2.894150760626963
 10
-0.3072218898900552
 20
2.881900295495586
 10
-0.3493494148341899
 20
2.867372164581833
 10
-0.3870225551566885
 20
2.850690195716783
 10
-0.4201235770586674
 20
2.831639042935997
 10
-0.4480234645252891
 20
2.81043642195182
 10
-0.4701877986450962
 20
2.78735312113793
 10
-0.4862563204909798
 20
2.762569126196691
 10
-0.4962531591494459
 20
2.736185395174899
 10
-0.4999782650308073
 20
2.708657388759963
 10
-0.4999999998718208
 20
2.706335047613146
  0
LWPOLYLINE
  5
1CD
330
1AB
100
AcDbEntity
  8
AM_9
100
AcDbPolyline
 90
        3
 70
     0
 43
0.0
 10
0.0325482871782065
 20
2.921082231503705
 10
0.0030398471027181
 20
2.921451317107016
 10
-0.0297370248563221
 20
2.921145374332261
  0
LWPOLYLINE
  5
1CE
330
1AB
100
AcDbEntity
  8
AM_9
100
AcDbPolyline
 90
       15
 70
     0
 43
0.0
 10
0.4999999999721599
 20
2.706326748644409
 10
0.4969842422567379
 20
2.733329262383004
 10
0.487816767640632
 20
2.759420548334482
 10
0.472637784393698
 20
2.784144180409365
 10
0.4517394866893876
 20
2.807115542099262
 10
0.4251245092994816
 20
2.828273621775276
 10
0.3931981886887111
 20
2.847478994413857
 10
0.356547726959861
 20
2.864516347745011
 10
0.3149608117458861
 20
2.879497310374124
 10
0.2692621449580866
 20
2.89225649447107
 10
0.2202960202325792
 20
2.902694304992802
 10
0.1684218728704575
 20
2.910820717131719
 10
0.114211803113074
 20
2.916673571982945
 10
0.0587013661848504
 20
2.920218539522598
 10
0.0325482871782065
 20
2.921082231503705
  0
ELLIPSE
  5
1CF
330
1AB
100
AcDbEntity
  8
AM_9
100
AcDbEllipse
 10
0.0000000000000001
 20
2.792931927204812
 30
0.0
 11
-0.450000000000003
 21
5.510910596163125E-17
 31
0.0
210
0.0
220
0.0
230
1.0
 40
0.5000000000000029
 41
4.447327559919911
 42
4.977450400849469
  0
LWPOLYLINE
  5
1D0
330
1AB
100
AcDbEntity
  8
AM_9
100
AcDbPolyline
 90
        9
 70
     0
 43
0.0
 10
0.1218509446243558
 20
3.016688682326016
 10
0.1067342713844025
 20
3.018560301243203
 10
0.0699719654216263
 20
3.022040209747961
 10
0.0328474552183512
 20
3.024062132239659
 10
-0.0044447287324109
 20
3.024620259105646
 10
-0.0417091232682035
 20
3.02371334988563
 10
-0.0787471096439364
 20
3.02134509619238
 10
-0.1153630907527159
 20
3.017524072802165
 10
-0.1218618052489798
 20
3.016687243071802
  0
ELLIPSE
  5
1D1
330
1AB
100
AcDbEntity
  8
AM_9
100
AcDbEllipse
 10
0.0000000000000006
 20
2.749630657015593
 30
0.0
 11
-0.4999999999999994
 21
6.123233995736759E-17
 31
0.0
210
0.0
220
0.0
230
1.0
 40
0.500000000000021
 41
3.141592653589793
 42
6.283238982771448
  0
LINE
  5
1D2
330
1AB
100
AcDbEntity
  8
AM_9
100
AcDbLine
 10
-1.23125
 20
-2.55905
 30
0.0
 11
1.23125
 21
-2.55905
 31
0.0
  0
LINE
  5
1D3
330
1AB
100
AcDbEntity
  8
AM_9
100
AcDbLine
 10
1.23125
 20
2.55905
 30
0.0
 11
-1.23125
 21
2.55905
 31
0.0
  0
LINE
  5
1D4
330
1AB
100
AcDbEntity
  8
AM_9
100
AcDbLine
 10
-0.1229778209744738
 20
3.018518207153339
 30
0.0
 11
0.1229778209744737
 21
3.018518207153339
 31
0.0
  0
LINE
  5
1D5
330
1AB
100
AcDbEntity
  8
AM_9
100
AcDbLine
 10
1.377827380952381
 20
-1.264497869841964
 30
0.0
 11
1.377827380952381
 21
-3.25
 31
0.0
  0
LINE
  5
1D6
330
1AB
100
AcDbEntity
  8
AM_9
100
AcDbLine
 10
1.23125
 20
-0.1539901216133093
 30
0.0
 11
1.23125
 21
-1.481249999999999
 31
0.0
  0
LINE
  5
1D7
330
1AB
100
AcDbEntity
  8
AM_9
100
AcDbLine
 10
-1.23125
 20
-0.1539901216133197
 30
0.0
 11
-1.23125
 21
-1.481249999999999
 31
0.0
  0
LINE
  5
1D8
330
1AB
100
AcDbEntity
  8
AM_9
100
AcDbLine
 10
-1.377827380952381
 20
-1.264497869841967
 30
0.0
 11
-1.377827380952381
 21
-3.25
 31
0.0
  0
LINE
  5
1D9
330
1AB
100
AcDbEntity
  8
AM_9
100
AcDbLine
 10
1.392485119047619
 20
-1.264497869841966
 30
0.0
 11
1.392485119047619
 21
-3.25
 31
0.0
  0
LINE
  5
1DA
330
1AB
100
AcDbEntity
  8
AM_9
100
AcDbLine
 10
-1.392485119047618
 20
-1.264497869841964
 30
0.0
 11
-1.392485119047618
 21
-3.25
 31
0.0
  0
LINE
  5
1DB
330
1AB
100
AcDbEntity
  8
AM_9
100
AcDbLine
 10
0.4375000000000001
 20
-1.375
 30
0.0
 11
0.4375000000000001
 21
-3.25
 31
0.0
  0
LINE
  5
1DC
330
1AB
100
AcDbEntity
  8
AM_9
100
AcDbLine
 10
-0.4374999999999997
 20
-1.375
 30
0.0
 11
-0.4374999999999997
 21
-3.25
 31
0.0
  0
LINE
  5
1DD
330
1AB
100
AcDbEntity
  8
AM_7
100
AcDbLine
 10
1.736378205128205
 20
0.0
 30
0.0
 11
-2.5390625
 21
0.0
 31
0.0
  0
LINE
  5
1DE
330
1AB
100
AcDbEntity
  8
AM_4
100
AcDbLine
 10
0.1020844245093951
 20
3.125
 30
0.0
 11
1.23125
 21
3.125
 31
0.0
  0
LINE
  5
1DF
330
1AB
100
AcDbEntity
  8
AM_4
100
AcDbLine
 10
-1.23125
 20
3.125
 30
0.0
 11
-0.1020844245093951
 21
3.125
 31
0.0
  0
LINE
  5
1E0
330
1AB
100
AcDbEntity
  8
AM_4
100
AcDbLine
 10
-0.4999999999999997
 20
2.749630657015594
 30
0.0
 11
-0.4999999999999997
 21
2.706295737958554
 31
0.0
  0
LINE
  5
1E1
330
1AB
100
AcDbEntity
  8
AM_4
100
AcDbLine
 10
0.4999999999999998
 20
2.706310563145342
 30
0.0
 11
0.4999999999999998
 21
2.749630657015594
 31
0.0
  0
LWPOLYLINE
  5
1E2
330
1AB
100
AcDbEntity
  8
AM_4
100
AcDbPolyline
 90
       15
 70
     0
 43
0.0
 10
-0.4999999998718208
 20
2.706335047613146
 10
-0.4973658433712164
 20
2.680526956279986
 10
-0.488609561261362
 20
2.651799473903685
 10
-0.4738811287933647
 20
2.623058081928662
 10
-0.4532695089039598
 20
2.594661683481954
 10
-0.4270449526032058
 20
2.566944647733243
 10
-0.3956957706948057
 20
2.540525548636015
 10
-0.3590320242874026
 20
2.51553335191033
 10
-0.3177646825454772
 20
2.492608971585141
 10
-0.2726500497556065
 20
2.472318275452784
 10
-0.2237436081583579
 20
2.454940282902088
 10
-0.1718090088395827
 20
2.440857001821774
 10
-0.1178279975171208
 20
2.430452792402405
 10
-0.0593417405227412
 20
2.423735125071867
 10
0.0000000000000001
 20
2.421463784145315
  0
ELLIPSE
  5
1E3
330
1AB
100
AcDbEntity
  8
AM_4
100
AcDbEllipse
 10
0.0000000000000001
 20
2.792931927204815
 30
0.0
 11
-0.45
 21
5.510910596163090E-17
 31
0.0
210
0.0
220
0.0
230
1.0
 40
0.4999999999999992
 41
4.977450400849469
 42
10.7305128670995
  0
ELLIPSE
  5
1E4
330
1AB
100
AcDbEntity
  8
AM_4
100
AcDbEllipse
 10
0.0000000000000008
 20
2.749630657015593
 30
0.0
 11
-0.4999999999999996
 21
6.123233995736761E-17
 31
0.0
210
0.0
220
0.0
230
1.0
 40
0.4999999999999994
 41
0.0000536755918619
 42
3.137169594489944
  0
LWPOLYLINE
  5
1E5
330
1AB
100
AcDbEntity
  8
AM_4
100
AcDbPolyline
 90
       19
 70
     0
 43
0.0
 10
-0.1218618052489798
 20
3.016687243071802
 10
-0.1513665319677166
 20
3.012262977346523
 10
-0.1865709679887526
 20
3.005578030395163
 10
-0.220794959394049
 20
2.99748811209125
 10
-0.2538627071409859
 20
2.988013655416177
 10
-0.2856041106705989
 20
2.97717535571956
 10
-0.3158539560495831
 20
2.964992868268076
 10
-0.3444497999608866
 20
2.951483897459105
 10
-0.3712280372806336
 20
2.936664517057911
 10
-0.3960178056893991
 20
2.920552270476141
 10
-0.4186298637588871
 20
2.903177304674092
 10
-0.4388346334183428
 20
2.884616997149063
 10
-0.4564068807546661
 20
2.864990413335549
 10
-0.4711351294297217
 20
2.844482118047933
 10
-0.4828628344424585
 20
2.823332168817481
 10
-0.4915209665407142
 20
2.801799227964179
 10
-0.4971278835225763
 20
2.780118183748728
 10
-0.4997591502934374
 20
2.758476462585824
 10
-0.4999999997889635
 20
2.749622375315719
  0
LWPOLYLINE
  5
1E6
330
1AB
100
AcDbEntity
  8
AM_4
100
AcDbPolyline
 90
       19
 70
     0
 43
0.0
 10
0.4999999989561383
 20
2.749649075885706
 10
0.4985949684952146
 20
2.770977511181027
 10
0.4944300536502859
 20
2.79200331765404
 10
0.4875709215587887
 20
2.812611169396096
 10
0.4780396649991361
 20
2.832772540694938
 10
0.4658239057419883
 20
2.852452359249781
 10
0.4509024566472992
 20
2.871587015162536
 10
0.433282412024863
 20
2.890071601732367
 10
0.4130318162102908
 20
2.907765473226799
 10
0.3902890641154977
 20
2.924515704176443
 10
0.3652447969111717
 20
2.94018466889632
 10
0.3381141598689558
 20
2.954664941118936
 10
0.3091282194287541
 20
2.967874568168841
 10
0.2784805823502973
 20
2.979769710215702
 10
0.2463566304475486
 20
2.990317857878238
 10
0.2129377772840689
 20
2.999492543281696
 10
0.1784051388540304
 20
3.007270824412354
 10
0.1429418705584341
 20
3.013632514981337
 10
0.1218509446243558
 20
3.016688682326016
  0
LINE
  5
1E7
330
1AB
100
AcDbEntity
  8
AM_4
100
AcDbLine
 10
0.4999936814652625
 20
2.748197651574067
 30
0.0
 11
0.4999999989561383
 21
2.749649075885706
 31
0.0
  0
LINE
  5
1E8
330
1AB
100
AcDbEntity
  8
AM_4
100
AcDbLine
 10
0.1229778209744737
 20
3.018518207153339
 30
0.0
 11
1.23125
 21
3.018518207153339
 31
0.0
  0
LINE
  5
1E9
330
1AB
100
AcDbEntity
  8
AM_4
100
AcDbLine
 10
-1.23125
 20
3.018518207153339
 30
0.0
 11
-0.1229778209744738
 21
3.018518207153339
 31
0.0
  0
LWPOLYLINE
  5
1EA
330
1AB
100
AcDbEntity
  8
AM_4
100
AcDbPolyline
 90
       16
 70
     0
 43
0.0
 10
0.0000000000000001
 20
2.421463784145315
 10
0.0556432743052307
 20
2.423482122012591
 10
0.110756139668272
 20
2.429426897098502
 10
0.1642984711205212
 20
2.439132751629172
 10
0.2157199758664133
 20
2.452480417825198
 10
0.2646027368593395
 20
2.469179305865426
 10
0.3100561284680117
 20
2.488796279837401
 10
0.3519413443903825
 20
2.511243926254098
 10
0.3895489252096658
 20
2.535986995422794
 10
0.4221855673740847
 20
2.562428110973081
 10
0.4496083395394401
 20
2.590358371076567
 10
0.4714298852590719
 20
2.619241465687724
 10
0.487223329299273
 20
2.648426296328281
 10
0.4966821469390723
 20
2.677293113659594
 10
0.4999576385637124
 20
2.705781446089897
 10
0.4999999999721599
 20
2.706326748644409
  0
LINE
  5
1EB
330
1AB
100
AcDbEntity
  8
AM_4
100
AcDbLine
 10
-0.9234374999999998
 20
-1.281249998603017
 30
0.0
 11
0.9234375000000001
 21
-1.281249998603017
 31
0.0
  0
LINE
  5
1EC
330
1AB
100
AcDbEntity
  8
AM_4
100
AcDbLine
 10
-0.9234374999999997
 20
-1.375
 30
0.0
 11
-0.9234374999999998
 21
0.1869009611850291
 31
0.0
  0
LINE
  5
1ED
330
1AB
100
AcDbEntity
  8
AM_4
100
AcDbLine
 10
0.9234375000000002
 20
-1.375
 30
0.0
 11
0.9234375000000002
 21
0.1869009611850291
 31
0.0
  0
LINE
  5
1EE
330
1AB
100
AcDbEntity
  8
AM_4
100
AcDbLine
 10
0.9234375000000002
 20
0.1869009611850291
 30
0.0
 11
-0.9234374999999998
 21
0.1869009611850291
 31
0.0
  0
LINE
  5
1EF
330
1AB
100
AcDbEntity
  8
AM_4
100
AcDbLine
 10
1.23125
 20
-0.1539901216133093
 30
0.0
 11
1.23125
 21
3.125
 31
0.0
  0
LINE
  5
1F0
330
1AB
100
AcDbEntity
  8
AM_4
100
AcDbLine
 10
-1.23125
 20
0.3724695861247769
 30
0.0
 11
1.23125
 21
0.3724695861247769
 31
0.0
  0
LINE
  5
1F1
330
1AB
100
AcDbEntity
  8
AM_4
100
AcDbLine
 10
-1.23125
 20
3.125
 30
0.0
 11
-1.23125
 21
-0.1539901216133197
 31
0.0
  0
LWPOLYLINE
  5
1F2
330
1AB
100
AcDbEntity
  8
AM_4
100
AcDbPolyline
 90
       13
 70
     0
 43
0.0
 10
1.23125
 20
-0.1539901216133091
 10
1.231807771187445
 20
-0.2604081444663283
 10
1.233476839774252
 20
-0.366016261908477
 10
1.236244503140665
 20
-0.4700107323980958
 10
1.240089697697303
 20
-0.5716000952211803
 10
1.2449831591918
 20
-0.6700111939853125
 10
1.25088764542743
 20
-0.7644950608066513
 10
1.257758219698712
 20
-0.8543326164077678
 10
1.265542592786876
 20
-0.9388401427451382
 10
1.274181520912388
 20
-1.017374486516296
 10
1.283609256615887
 20
-1.089337953944808
 10
1.293754049136045
 20
-1.154182859590815
 10
1.301080176647766
 20
-1.194250502822193
  0
LWPOLYLINE
  5
1F3
330
1AB
100
AcDbEntity
  8
AM_4
100
AcDbPolyline
 90
       13
 70
     0
 43
0.0
 10
-1.301080176647765
 20
-1.194250502822194
 10
-1.290488290254928
 20
-1.13457203843133
 10
-1.280561107079082
 20
-1.067430753561931
 10
-1.271374178978394
 20
-0.9933376339328692
 10
-1.262997424022929
 20
-0.9128565729231715
 10
-1.255494594375921
 20
-0.8266000800029142
 10
-1.248922791101315
 20
-0.735224619166315
 10
-1.243332029590196
 20
-0.6394256128443525
 10
-1.238764858913457
 20
-0.5399321493201582
 10
-1.23525603799768
 20
-0.437501433926947
 10
-1.23283227108872
 20
-0.3329130262582182
 10
-1.231512004516262
 20
-0.226962907248538
 10
-1.23125
 20
-0.1539901216133197
  0
LINE
  5
1F4
330
1AB
100
AcDbEntity
  8
AM_4
100
AcDbLine
 10
1.5390625
 20
-1.371911308573121
 30
0.0
 11
1.5390625
 21
-3.25
 31
0.0
  0
LINE
  5
1F5
330
1AB
100
AcDbEntity
  8
AM_4
100
AcDbLine
 10
0.9234374999999992
 20
-1.194250502822194
 30
0.0
 11
1.301080176647764
 21
-1.194250502822194
 31
0.0
  0
LWPOLYLINE
  5
1F6
330
1AB
100
AcDbEntity
  8
AM_4
100
AcDbPolyline
 90
       11
 70
     0
 43
0.0
 10
1.392485119047619
 20
-1.264497869841966
 10
1.418732500918677
 20
-1.268919156876493
 10
1.435863908174467
 20
-1.276159767106892
 10
1.451583894728166
 20
-1.28531037434562
 10
1.476154251531887
 20
-1.303260572509296
 10
1.49736962038677
 20
-1.321793326781955
 10
1.51567657914332
 20
-1.339806133067875
 10
1.529510723864902
 20
-1.355402074767744
 10
1.535481069747778
 20
-1.36352608419597
 10
1.538651549472446
 20
-1.369676532753258
 10
1.5390625
 20
-1.371911308573121
  0
LINE
  5
1F7
330
1AB
100
AcDbEntity
  8
AM_4
100
AcDbLine
 10
1.377827380952381
 20
-1.264497869841964
 30
0.0
 11
1.392485119047619
 21
-1.264497869841966
 31
0.0
  0
LWPOLYLINE
  5
1F8
330
1AB
100
AcDbEntity
  8
AM_4
100
AcDbPolyline
 90
        6
 70
     0
 43
0.0
 10
1.377827380952381
 20
-1.264497869841966
 10
1.352454338598422
 20
-1.260117226191126
 10
1.330591005944337
 20
-1.24764378441985
 10
1.314925716929926
 20
-1.229826745511352
 10
1.303721722470916
 20
-1.205030347505065
 10
1.301080176647766
 20
-1.194250502822193
  0
LINE
  5
1F9
330
1AB
100
AcDbEntity
  8
AM_4
100
AcDbLine
 10
-1.5390625
 20
-1.371911308573121
 30
0.0
 11
-1.5390625
 21
-3.25
 31
0.0
  0
LINE
  5
1FA
330
1AB
100
AcDbEntity
  8
AM_4
100
AcDbLine
 10
-1.301080176647765
 20
-1.194250502822194
 30
0.0
 11
-0.9234374999999998
 21
-1.194250502822194
 31
0.0
  0
LWPOLYLINE
  5
1FB
330
1AB
100
AcDbEntity
  8
AM_4
100
AcDbPolyline
 90
        6
 70
     0
 43
0.0
 10
-1.301080176647766
 20
-1.194250502822194
 10
-1.310532860819875
 20
-1.222181934308971
 10
-1.328037536116143
 20
-1.245422626342384
 10
-1.339427133999339
 20
-1.253909543905494
 10
-1.352376247712274
 20
-1.260089178007405
 10
-1.377827380952368
 20
-1.264497869842002
  0
LINE
  5
1FC
330
1AB
100
AcDbEntity
  8
AM_4
100
AcDbLine
 10
-1.392485119047618
 20
-1.264497869841964
 30
0.0
 11
-1.377827380952381
 21
-1.264497869841967
 31
0.0
  0
LWPOLYLINE
  5
1FD
330
1AB
100
AcDbEntity
  8
AM_4
100
AcDbPolyline
 90
       11
 70
     0
 43
0.0
 10
-1.5390625
 20
-1.371911308573122
 10
-1.537293177489406
 20
-1.36659543903699
 10
-1.532287953090615
 20
-1.358967791218559
 10
-1.524517915539646
 20
-1.349468971580069
 10
-1.514417640774657
 20
-1.338505047998152
 10
-1.496732311319364
 20
-1.321202362147171
 10
-1.475082144838966
 20
-1.302455295476495
 10
-1.456343533756375
 20
-1.28843442131355
 10
-1.435385224679149
 20
-1.275928423147977
 10
-1.40904520054744
 20
-1.266280401875904
 10
-1.392485119047619
 20
-1.264497869841964
  0
LINE
  5
1FE
330
1AB
100
AcDbEntity
  8
AM_4
100
AcDbLine
 10
-1.5390625
 20
-3.25
 30
0.0
 11
1.5390625
 21
-3.25
 31
0.0
  0
LINE
  5
1FF
330
1AB
100
AcDbEntity
  8
AM_4
100
AcDbLine
 10
-1.5390625
 20
-1.375
 30
0.0
 11
1.5390625
 21
-1.375
 31
0.0
  0
LWPOLYLINE
  5
200
330
1AB
100
AcDbEntity
  8
AM_4
100
AcDbPolyline
 90
       19
 70
     0
 43
0.0
 10
1.23125
 20
-1.481249998416751
 10
1.231654313465741
 20
-1.471989700755837
 10
1.232864176517381
 20
-1.462799879563693
 10
1.234870381366561
 20
-1.453750474928556
 10
1.237657659583
 20
-1.44491035828388
 10
1.241204798296466
 20
-1.43634680825514
 10
1.245484801639527
 20
-1.428124998628866
 10
1.250465096202409
 20
-1.42030750234078
 10
1.256107778936301
 20
-1.412953815257967
 10
1.262369905618455
 20
-1.406119903379404
 10
1.269203817683644
 20
-1.399857776900916
 10
1.276557504934622
 20
-1.394215094386181
 10
1.284375001371133
 20
-1.389234800056279
 10
1.292596811124961
 20
-1.384954796958246
 10
1.301160361259414
 20
-1.381407658499995
 10
1.310000477987157
 20
-1.378620380547012
 10
1.319049882682083
 20
-1.376614175967525
 10
1.328239703910284
 20
-1.375404313189763
 10
1.337499999999999
 20
-1.375
  0
LWPOLYLINE
  5
201
330
1AB
100
AcDbEntity
  8
AM_4
100
AcDbPolyline
 90
       19
 70
     0
 43
0.0
 10
-1.337499999999999
 20
-1.375
 10
-1.328239702333061
 20
-1.375404313327752
 10
-1.319049881122888
 20
-1.376614176242453
 10
-1.310000476457856
 20
-1.378620380956787
 10
-1.301160359771647
 20
-1.381407659041497
 10
-1.29259680969005
 20
-1.384954797627356
 10
-1.284375
 20
-1.389234800847903
 10
-1.276557503637701
 20
-1.394215095294294
 10
-1.269203816470805
 20
-1.399857777918608
 10
-1.262369904498929
 20
-1.406119904498929
 10
-1.256107777918608
 20
-1.412953816470805
 10
-1.250465095294294
 20
-1.420307503637701
 10
-1.245484800847903
 20
-1.428124999999999
 10
-1.241204797627356
 20
-1.43634680969005
 10
-1.237657659041497
 20
-1.444910359771647
 10
-1.234870380956786
 20
-1.453750476457856
 10
-1.232864176242453
 20
-1.462799881122888
 10
-1.231654313327752
 20
-1.47198970233306
 10
-1.23125
 20
-1.481249999999999
  0
LINE
  5
202
330
1AB
100
AcDbEntity
  8
AM_4
100
AcDbLine
 10
1.23125
 20
-1.481249999999999
 30
0.0
 11
1.23125
 21
-3.25
 31
0.0
  0
LINE
  5
203
330
1AB
100
AcDbEntity
  8
AM_4
100
AcDbLine
 10
-1.23125
 20
-1.481249999999999
 30
0.0
 11
1.23125
 21
-1.481249999999999
 31
0.0
  0
LINE
  5
204
330
1AB
100
AcDbEntity
  8
AM_4
100
AcDbLine
 10
-1.23125
 20
-1.481249999999999
 30
0.0
 11
-1.23125
 21
-3.25
 31
0.0
  0
ENDBLK
  5
1AE
330
1AB
100
AcDbEntity
  8
0
100
AcDbBlockEnd
  0
ENDSEC
  0
SECTION
  2
ENTITIES
  0
INSERT
  5
6F
330
1F
100
AcDbEntity
  8
0
100
AcDbBlockReference
  2
1_070331_2
 10
0.0
 20
0.0
 30
0.0
  0
POINT
  5
206
330
1F
100
AcDbEntity
  8
ConnectionPoints
100
AcDbPoint
 10
-2.359375
 20
0.0
 30
0.0000000000000001
  0
POINT
  5
207
330
1F
100
AcDbEntity
  8
ConnectionPoints
100
AcDbPoint
 10
2.390124999999999
 20
0.0
 30
-0.0000000000000001
  0
POINT
  5
208
330
1F
100
AcDbEntity
  8
ConnectionPoints
100
AcDbPoint
 10
-2.359375
 20
0.0
 30
0.0000000000000001
  0
POINT
  5
209
330
1F
100
AcDbEntity
  8
ConnectionPoints
100
AcDbPoint
 10
0.0000000000000001
 20
2.792931927204815
 30
1.6125
  0
POINT
  5
20A
330
1F
100
AcDbEntity
  8
ConnectionPoints
100
AcDbPoint
 10
-2.109375
 20
0.0
 30
0.0000000000000001
  0
POINT
  5
20B
330
1F
100
AcDbEntity
  8
ConnectionPoints
100
AcDbPoint
 10
-2.359375
 20
0.0
 30
0.0000000000000001
  0
POINT
  5
20C
330
1F
100
AcDbEntity
  8
ConnectionPoints
100
AcDbPoint
 10
0.0000000000000001
 20
2.792931927204815
 30
1.6125
  0
ENDSEC
  0
SECTION
  2
OBJECTS
  0
DICTIONARY
  5
C
330
0
100
AcDbDictionary
281
     1
  3
ACAD_DETAILVIEWSTYLE
350
214
  3
ACAD_GROUP
350
D
  3
ACAD_LAYOUT
350
1A
  3
ACAD_MATERIAL
350
43
  3
ACAD_MLEADERSTYLE
350
6B
  3
ACAD_MLINESTYLE
350
17
  3
ACAD_PLOTSETTINGS
350
19
  3
ACAD_PLOTSTYLENAME
350
E
  3
ACAD_SCALELIST
350
47
  3
ACAD_SECTIONVIEWSTYLE
350
215
  3
ACAD_TABLESTYLE
350
69
  3
ACAD_VISUALSTYLE
350
2A
  3
ACDB_RECOMPOSE_DATA
350
211
  3
AcDbVariableDictionary
350
20D
  0
SUN
  5
6D
330
29
100
AcDbSun
 90
        1
290
     0
 63
     7
421
 16777215
 40
1.0
291
     1
 91
  2455826
 92
 54000000
292
     0
 70
     2
 71
   256
280
     1
  0
DICTIONARY
  5
214
102
{ACAD_REACTORS
330
C
102
}
330
C
100
AcDbDictionary
281
     1
  0
DICTIONARY
  5
D
102
{ACAD_REACTORS
330
C
102
}
330
C
100
AcDbDictionary
281
     1
  0
DICTIONARY
  5
1A
102
{ACAD_REACTORS
330
C
102
}
330
C
100
AcDbDictionary
281
     1
  3
Layout1
350
1E
  3
Layout2
350
26
  3
Model
350
22
  0
DICTIONARY
  5
43
102
{ACAD_REACTORS
330
C
102
}
330
C
100
AcDbDictionary
281
     1
  3
ByBlock
350
45
  3
ByLayer
350
44
  3
Global
350
46
  0
DICTIONARY
  5
6B
102
{ACAD_REACTORS
330
C
102
}
330
C
100
AcDbDictionary
281
     1
  3
Standard
350
6C
  0
DICTIONARY
  5
17
102
{ACAD_REACTORS
330
C
102
}
330
C
100
AcDbDictionary
281
     1
  3
Standard
350
18
  0
DICTIONARY
  5
19
102
{ACAD_REACTORS
330
C
102
}
330
C
100
AcDbDictionary
281
     1
  0
ACDBDICTIONARYWDFLT
  5
E
102
{ACAD_REACTORS
330
C
102
}
330
C
100
AcDbDictionary
281
     1
  3
Normal
350
F
100
AcDbDictionaryWithDefault
340
F
  0
DICTIONARY
  5
47
102
{ACAD_REACTORS
330
C
102
}
330
C
100
AcDbDictionary
281
     1
  3
A0
350
48
  3
A1
350
49
  3
A2
350
4A
  3
A3
350
4B
  3
A4
350
4C
  3
A5
350
4D
  3
A6
350
4E
  3
A7
350
4F
  3
A8
350
50
  3
A9
350
51
  3
B0
350
52
  3
B1
350
53
  3
B2
350
54
  3
B3
350
55
  3
B4
350
56
  3
B5
350
57
  3
B6
350
58
  3
B7
350
59
  3
B8
350
5A
  3
B9
350
5B
  3
C0
350
5C
  3
C1
350
5D
  3
C2
350
5E
  3
C3
350
5F
  3
C4
350
60
  3
C5
350
61
  3
C6
350
62
  3
C7
350
63
  3
C8
350
64
  3
C9
350
65
  3
D0
350
66
  3
D1
350
67
  3
D2
350
68
  0
DICTIONARY
  5
215
102
{ACAD_REACTORS
330
C
102
}
330
C
100
AcDbDictionary
281
     1
  0
DICTIONARY
  5
69
102
{ACAD_REACTORS
330
C
102
}
330
C
100
AcDbDictionary
281
     1
  3
Standard
350
6A
  0
DICTIONARY
  5
2A
102
{ACAD_REACTORS
330
C
102
}
330
C
100
AcDbDictionary
281
     1
  3
2dWireframe
350
2F
  3
Basic
350
32
  3
Brighten
350
36
  3
ColorChange
350
3A
  3
Conceptual
350
34
  3
Dim
350
35
  3
EdgeColorOff
350
3D
  3
Facepattern
350
39
  3
Flat
350
2B
  3
FlatWithEdges
350
2C
  3
Gouraud
350
2D
  3
GouraudWithEdges
350
2E
  3
Hidden
350
31
  3
JitterOff
350
3B
  3
Linepattern
350
38
  3
OverhangOff
350
3C
  3
Realistic
350
33
  3
Shaded
350
42
  3
Shaded with edges
350
41
  3
Shades of Gray
350
3E
  3
Sketchy
350
3F
  3
Thicken
350
37
  3
Wireframe
350
30
  3
X-Ray
350
40
  0
XRECORD
  5
211
102
{ACAD_REACTORS
330
C
102
}
330
C
100
AcDbXrecord
280
     1
 90
        1
330
6A
  0
DICTIONARY
  5
20D
102
{ACAD_REACTORS
330
C
102
}
330
C
100
AcDbDictionary
281
     1
  3
CANNOSCALE
350
20E
  3
CMLEADERSTYLE
350
213
  3
CTABLESTYLE
350
212
  0
LAYOUT
  5
1E
102
{ACAD_REACTORS
330
1A
102
}
330
1A
100
AcDbPlotSettings
  1

  2
none_device
  4

  6

 40
0.0
 41
0.0
 42
0.0
 43
0.0
 44
0.0
 45
0.0
 46
0.0
 47
0.0
 48
0.0
 49
0.0
140
0.0
141
0.0
142
1.0
143
1.0
 70
   688
 72
     0
 73
     0
 74
     5
  7

 75
    16
 76
     0
 77
     2
 78
   300
147
1.0
148
0.0
149
0.0
100
AcDbLayout
  1
Layout1
 70
     1
 71
     1
 10
0.0
 20
0.0
 11
12.0
 21
9.0
 12
0.0
 22
0.0
 32
0.0
 14
1.000000000000000E+20
 24
1.000000000000000E+20
 34
1.000000000000000E+20
 15
-1.000000000000000E+20
 25
-1.000000000000000E+20
 35
-1.000000000000000E+20
146
0.0
 13
0.0
 23
0.0
 33
0.0
 16
1.0
 26
0.0
 36
0.0
 17
0.0
 27
1.0
 37
0.0
 76
     0
330
1B
  0
LAYOUT
  5
26
102
{ACAD_REACTORS
330
1A
102
}
330
1A
100
AcDbPlotSettings
  1

  2
none_device
  4

  6

 40
0.0
 41
0.0
 42
0.0
 43
0.0
 44
0.0
 45
0.0
 46
0.0
 47
0.0
 48
0.0
 49
0.0
140
0.0
141
0.0
142
1.0
143
1.0
 70
   688
 72
     0
 73
     0
 74
     5
  7

 75
    16
 76
     0
 77
     2
 78
   300
147
1.0
148
0.0
149
0.0
100
AcDbLayout
  1
Layout2
 70
     1
 71
     2
 10
0.0
 20
0.0
 11
0.0
 21
0.0
 12
0.0
 22
0.0
 32
0.0
 14
0.0
 24
0.0
 34
0.0
 15
0.0
 25
0.0
 35
0.0
146
0.0
 13
0.0
 23
0.0
 33
0.0
 16
1.0
 26
0.0
 36
0.0
 17
0.0
 27
1.0
 37
0.0
 76
     0
330
23
  0
LAYOUT
  5
22
102
{ACAD_REACTORS
330
1A
102
}
330
1A
100
AcDbPlotSettings
  1

  2
none_device
  4
Letter_(8.50_x_11.00_Inches)
  6

 40
6.35
 41
6.35
 42
6.35000508
 43
6.35000508
 44
215.9
 45
279.4
 46
0.0
 47
0.0
 48
0.0
 49
0.0
140
0.0
141
0.0
142
1.0
143
1.0
 70
  1712
 72
     0
 73
     0
 74
     0
  7

 75
     0
 76
     0
 77
     2
 78
   300
147
1.0
148
0.0
149
0.0
100
AcDbLayout
  1
Model
 70
     1
 71
     0
 10
0.0
 20
0.0
 11
12.0
 21
9.0
 12
0.0
 22
0.0
 32
0.0
 14
1.000000000000000E+20
 24
1.000000000000000E+20
 34
1.000000000000000E+20
 15
-1.000000000000000E+20
 25
-1.000000000000000E+20
 35
-1.000000000000000E+20
146
0.0
 13
0.0
 23
0.0
 33
0.0
 16
1.0
 26
0.0
 36
0.0
 17
0.0
 27
1.0
 37
0.0
 76
     0
330
1F
331
29
  0
MATERIAL
  5
45
102
{ACAD_REACTORS
330
43
102
}
330
43
100
AcDbMaterial
  1
ByBlock
 72
     1
 94
      127
  0
MATERIAL
  5
44
102
{ACAD_REACTORS
330
43
102
}
330
43
100
AcDbMaterial
  1
ByLayer
 72
     1
 94
      127
  0
MATERIAL
  5
46
102
{ACAD_REACTORS
330
43
102
}
330
43
100
AcDbMaterial
  1
Global
 72
     1
 94
      127
  0
MLEADERSTYLE
  5
6C
102
{ACAD_REACTORS
330
6B
102
}
330
6B
100
AcDbMLeaderStyle
179
     2
170
     2
171
     1
172
     0
 90
        2
 40
0.0
 41
0.0
173
     1
 91
-1056964608
340
14
 92
       -2
290
     1
 42
0.09
291
     1
 43
0.36
  3
Standard
341
0
 44
0.18
300

342
11
174
     1
178
     6
175
     1
176
     0
 93
-1056964608
 45
0.18
292
     0
297
     0
 46
0.18
343
0
 94
-1056964608
 47
1.0
 49
1.0
140
1.0
293
     1
141
0.0
294
     1
177
     0
142
1.0
295
     0
296
     0
143
0.125
271
     0
272
     9
273
     9
298
     0
  0
MLINESTYLE
  5
18
102
{ACAD_REACTORS
330
17
102
}
330
17
100
AcDbMlineStyle
  2
Standard
 70
     0
  3

 62
   256
 51
90.0
 52
90.0
 71
     2
 49
0.5
 62
   256
  6
BYLAYER
 49
-0.5
 62
   256
  6
BYLAYER
  0
ACDBPLACEHOLDER
  5
F
102
{ACAD_REACTORS
330
E
102
}
330
E
  0
SCALE
  5
48
102
{ACAD_REACTORS
330
47
102
}
330
47
100
AcDbScale
 70
     0
300
1:1
140
1.0
141
1.0
290
     1
  0
SCALE
  5
49
102
{ACAD_REACTORS
330
47
102
}
330
47
100
AcDbScale
 70
     0
300
1:2
140
1.0
141
2.0
290
     0
  0
SCALE
  5
4A
102
{ACAD_REACTORS
330
47
102
}
330
47
100
AcDbScale
 70
     0
300
1:4
140
1.0
141
4.0
290
     0
  0
SCALE
  5
4B
102
{ACAD_REACTORS
330
47
102
}
330
47
100
AcDbScale
 70
     0
300
1:5
140
1.0
141
5.0
290
     0
  0
SCALE
  5
4C
102
{ACAD_REACTORS
330
47
102
}
330
47
100
AcDbScale
 70
     0
300
1:8
140
1.0
141
8.0
290
     0
  0
SCALE
  5
4D
102
{ACAD_REACTORS
330
47
102
}
330
47
100
AcDbScale
 70
     0
300
1:10
140
1.0
141
10.0
290
     0
  0
SCALE
  5
4E
102
{ACAD_REACTORS
330
47
102
}
330
47
100
AcDbScale
 70
     0
300
1:16
140
1.0
141
16.0
290
     0
  0
SCALE
  5
4F
102
{ACAD_REACTORS
330
47
102
}
330
47
100
AcDbScale
 70
     0
300
1:20
140
1.0
141
20.0
290
     0
  0
SCALE
  5
50
102
{ACAD_REACTORS
330
47
102
}
330
47
100
AcDbScale
 70
     0
300
1:30
140
1.0
141
30.0
290
     0
  0
SCALE
  5
51
102
{ACAD_REACTORS
330
47
102
}
330
47
100
AcDbScale
 70
     0
300
1:40
140
1.0
141
40.0
290
     0
  0
SCALE
  5
52
102
{ACAD_REACTORS
330
47
102
}
330
47
100
AcDbScale
 70
     0
300
1:50
140
1.0
141
50.0
290
     0
  0
SCALE
  5
53
102
{ACAD_REACTORS
330
47
102
}
330
47
100
AcDbScale
 70
     0
300
1:100
140
1.0
141
100.0
290
     0
  0
SCALE
  5
54
102
{ACAD_REACTORS
330
47
102
}
330
47
100
AcDbScale
 70
     0
300
2:1
140
2.0
141
1.0
290
     0
  0
SCALE
  5
55
102
{ACAD_REACTORS
330
47
102
}
330
47
100
AcDbScale
 70
     0
300
4:1
140
4.0
141
1.0
290
     0
  0
SCALE
  5
56
102
{ACAD_REACTORS
330
47
102
}
330
47
100
AcDbScale
 70
     0
300
8:1
140
8.0
141
1.0
290
     0
  0
SCALE
  5
57
102
{ACAD_REACTORS
330
47
102
}
330
47
100
AcDbScale
 70
     0
300
10:1
140
10.0
141
1.0
290
     0
  0
SCALE
  5
58
102
{ACAD_REACTORS
330
47
102
}
330
47
100
AcDbScale
 70
     0
300
100:1
140
100.0
141
1.0
290
     0
  0
SCALE
  5
59
102
{ACAD_REACTORS
330
47
102
}
330
47
100
AcDbScale
 70
     0
300
1/128" = 1'-0"
140
0.0078125
141
12.0
290
     0
  0
SCALE
  5
5A
102
{ACAD_REACTORS
330
47
102
}
330
47
100
AcDbScale
 70
     0
300
1/64" = 1'-0"
140
0.015625
141
12.0
290
     0
  0
SCALE
  5
5B
102
{ACAD_REACTORS
330
47
102
}
330
47
100
AcDbScale
 70
     0
300
1/32" = 1'-0"
140
0.03125
141
12.0
290
     0
  0
SCALE
  5
5C
102
{ACAD_REACTORS
330
47
102
}
330
47
100
AcDbScale
 70
     0
300
1/16" = 1'-0"
140
0.0625
141
12.0
290
     0
  0
SCALE
  5
5D
102
{ACAD_REACTORS
330
47
102
}
330
47
100
AcDbScale
 70
     0
300
3/32" = 1'-0"
140
0.09375
141
12.0
290
     0
  0
SCALE
  5
5E
102
{ACAD_REACTORS
330
47
102
}
330
47
100
AcDbScale
 70
     0
300
1/8" = 1'-0"
140
0.125
141
12.0
290
     0
  0
SCALE
  5
5F
102
{ACAD_REACTORS
330
47
102
}
330
47
100
AcDbScale
 70
     0
300
3/16" = 1'-0"
140
0.1875
141
12.0
290
     0
  0
SCALE
  5
60
102
{ACAD_REACTORS
330
47
102
}
330
47
100
AcDbScale
 70
     0
300
1/4" = 1'-0"
140
0.25
141
12.0
290
     0
  0
SCALE
  5
61
102
{ACAD_REACTORS
330
47
102
}
330
47
100
AcDbScale
 70
     0
300
3/8" = 1'-0"
140
0.375
141
12.0
290
     0
  0
SCALE
  5
62
102
{ACAD_REACTORS
330
47
102
}
330
47
100
AcDbScale
 70
     0
300
1/2" = 1'-0"
140
0.5
141
12.0
290
     0
  0
SCALE
  5
63
102
{ACAD_REACTORS
330
47
102
}
330
47
100
AcDbScale
 70
     0
300
3/4" = 1'-0"
140
0.75
141
12.0
290
     0
  0
SCALE
  5
64
102
{ACAD_REACTORS
330
47
102
}
330
47
100
AcDbScale
 70
     0
300
1" = 1'-0"
140
1.0
141
12.0
290
     0
  0
SCALE
  5
65
102
{ACAD_REACTORS
330
47
102
}
330
47
100
AcDbScale
 70
     0
300
1-1/2" = 1'-0"
140
1.5
141
12.0
290
     0
  0
SCALE
  5
66
102
{ACAD_REACTORS
330
47
102
}
330
47
100
AcDbScale
 70
     0
300
3" = 1'-0"
140
3.0
141
12.0
290
     0
  0
SCALE
  5
67
102
{ACAD_REACTORS
330
47
102
}
330
47
100
AcDbScale
 70
     0
300
6" = 1'-0"
140
6.0
141
12.0
290
     0
  0
SCALE
  5
68
102
{ACAD_REACTORS
330
47
102
}
330
47
100
AcDbScale
 70
     0
300
1'-0" = 1'-0"
140
12.0
141
12.0
290
     0
  0
TABLESTYLE
  5
6A
102
{ACAD_REACTORS
330
69
102
}
102
{ACAD_XDICTIONARY
360
20F
102
}
330
69
100
AcDbTableStyle
  3
Standard
 70
     0
 71
     0
 40
0.06
 41
0.06
280
     0
281
     0
  7
Standard
140
0.18
170
     2
 62
     0
 63
   257
283
     0
 90
        4
 91
        0
  1

274
    -2
284
     1
 64
     0
275
    -2
285
     1
 65
     0
276
    -2
286
     1
 66
     0
277
    -2
287
     1
 67
     0
278
    -2
288
     1
 68
     0
279
    -2
289
     1
 69
     0
  7
Standard
140
0.25
170
     5
 62
     0
 63
   257
283
     0
 90
        4
 91
        0
  1

274
    -2
284
     1
 64
     0
275
    -2
285
     1
 65
     0
276
    -2
286
     1
 66
     0
277
    -2
287
     1
 67
     0
278
    -2
288
     1
 68
     0
279
    -2
289
     1
 69
     0
  7
Standard
140
0.18
170
     5
 62
     0
 63
   257
283
     0
 90
        4
 91
        0
  1

274
    -2
284
     1
 64
     0
275
    -2
285
     1
 65
     0
276
    -2
286
     1
 66
     0
277
    -2
287
     1
 67
     0
278
    -2
288
     1
 68
     0
279
    -2
289
     1
 69
     0
  0
VISUALSTYLE
  5
2F
102
{ACAD_REACTORS
330
2A
102
}
330
2A
100
AcDbVisualStyle
  2
2dWireframe
 70
     4
177
     3
291
     0
 70
    58
 90
        0
176
     1
 90
        2
176
     1
 90
        0
176
     1
 90
        0
176
     1
 40
0.6
176
     1
 40
30.0
176
     1
 62
     7
420
 16777215
176
     1
 90
        1
176
     1
 90
        4
176
     1
 62
     7
176
     1
 62
   257
176
     1
 90
        1
176
     1
 90
        1
176
     1
 40
1.0
176
     1
 90
        0
176
     1
 62
   257
176
     1
 40
1.0
176
     1
 90
        1
176
     1
 90
        6
176
     1
 90
        2
176
     1
 62
     7
176
     1
 90
        5
176
     1
 90
        0
176
     1
 90
        0
176
     1
290
     0
176
     1
 90
        1
176
     1
 40
0.0
176
     1
 90
        0
176
     1
290
     1
176
     1
290
     1
176
     1
290
     0
176
     1
290
     0
176
     1
290
     0
176
     1
290
     0
176
     1
290
     0
176
     1
290
     0
176
     1
290
     0
176
     1
 90
       50
176
     1
 40
0.0
176
     1
 40
1.0
176
     1
 90
        0
176
     1
 62
    18
420
        0
176
     1
 90
       50
176
     1
 90
        3
176
     1
 62
     5
420
      255
176
     1
290
     0
176
     1
 90
       50
176
     1
 90
       50
176
     1
 90
       50
176
     1
290
     0
176
     1
 90
       50
176
     1
 62
   256
176
     0
 40
1.0
176
     0
 90
        2
176
     1
  1
strokes_ogs.tif
176
     1
290
     0
176
     1
 40
1.0
176
     1
 40
1.0
176
     1
  0
VISUALSTYLE
  5
32
102
{ACAD_REACTORS
330
2A
102
}
330
2A
100
AcDbVisualStyle
  2
Basic
 70
     7
177
     3
291
     1
 70
    58
 90
        1
176
     1
 90
        0
176
     1
 90
        1
176
     1
 90
        0
176
     1
 40
0.6
176
     1
 40
30.0
176
     1
 62
     7
420
 16777215
176
     1
 90
        0
176
     1
 90
        4
176
     1
 62
     7
176
     1
 62
   257
176
     1
 90
        1
176
     1
 90
        1
176
     1
 40
1.0
176
     1
 90
        8
176
     1
 62
     7
176
     1
 40
1.0
176
     1
 90
        1
176
     1
 90
        6
176
     1
 90
        2
176
     1
 62
     7
176
     1
 90
        5
176
     1
 90
        0
176
     1
 90
        0
176
     1
290
     0
176
     1
 90
        1
176
     1
 40
0.0
176
     1
 90
        0
176
     1
290
     0
176
     1
290
     1
176
     1
290
     1
176
     1
290
     0
176
     1
290
     0
176
     1
290
     0
176
     1
290
     0
176
     1
290
     0
176
     1
290
     0
176
     1
 90
       50
176
     1
 40
0.0
176
     1
 40
1.0
176
     1
 90
        0
176
     1
 62
    18
420
        0
176
     1
 90
       50
176
     1
 90
        3
176
     1
 62
     5
420
      255
176
     1
290
     0
176
     1
 90
       50
176
     1
 90
       50
176
     1
 90
       50
176
     1
290
     0
176
     1
 90
       50
176
     1
 62
   256
176
     0
 40
1.0
176
     0
 90
        2
176
     1
  1
strokes_ogs.tif
176
     1
290
     0
176
     1
 40
1.0
176
     1
 40
1.0
176
     1
  0
VISUALSTYLE
  5
36
102
{ACAD_REACTORS
330
2A
102
}
330
2A
100
AcDbVisualStyle
  2
Brighten
 70
    12
177
     3
291
     1
 70
    58
 90
        2
176
     1
 90
        2
176
     1
 90
        0
176
     1
 90
        0
176
     1
 40
0.6
176
     1
 40
30.0
176
     1
 62
     7
420
 16777215
176
     1
 90
        1
176
     1
 90
        4
176
     1
 62
     7
176
     1
 62
   257
176
     1
 90
        1
176
     1
 90
        1
176
     1
 40
1.0
176
     1
 90
        8
176
     1
 62
     7
176
     1
 40
1.0
176
     1
 90
        1
176
     1
 90
        6
176
     1
 90
        2
176
     1
 62
     7
176
     1
 90
        5
176
     1
 90
        0
176
     1
 90
        0
176
     1
290
     0
176
     1
 90
        1
176
     1
 40
50.0
176
     1
 90
        0
176
     1
290
     0
176
     1
290
     1
176
     1
290
     1
176
     1
290
     0
176
     1
290
     0
176
     1
290
     0
176
     1
290
     0
176
     1
290
     0
176
     1
290
     0
176
     1
 90
       50
176
     1
 40
0.0
176
     1
 40
1.0
176
     1
 90
        0
176
     1
 62
    18
420
        0
176
     1
 90
       50
176
     1
 90
        3
176
     1
 62
     5
420
      255
176
     1
290
     0
176
     1
 90
       50
176
     1
 90
       50
176
     1
 90
       50
176
     1
290
     0
176
     1
 90
       50
176
     1
 62
   256
176
     0
 40
1.0
176
     0
 90
        2
176
     1
  1
strokes_ogs.tif
176
     1
290
     0
176
     1
 40
1.0
176
     1
 40
1.0
176
     1
  0
VISUALSTYLE
  5
3A
102
{ACAD_REACTORS
330
2A
102
}
330
2A
100
AcDbVisualStyle
  2
ColorChange
 70
    16
177
     3
291
     1
 70
    58
 90
        2
176
     1
 90
        2
176
     1
 90
        3
176
     1
 90
        0
176
     1
 40
0.6
176
     1
 40
30.0
176
     1
 62
     8
420
  8421504
176
     1
 90
        1
176
     1
 90
        4
176
     1
 62
     7
176
     1
 62
   257
176
     1
 90
        1
176
     1
 90
        1
176
     1
 40
1.0
176
     1
 90
        8
176
     1
 62
     8
420
  8421504
176
     1
 40
1.0
176
     1
 90
        1
176
     1
 90
        6
176
     1
 90
        2
176
     1
 62
     7
176
     1
 90
        5
176
     1
 90
        0
176
     1
 90
        0
176
     1
290
     0
176
     1
 90
        1
176
     1
 40
0.0
176
     1
 90
        0
176
     1
290
     0
176
     1
290
     1
176
     1
290
     1
176
     1
290
     0
176
     1
290
     0
176
     1
290
     0
176
     1
290
     0
176
     1
290
     0
176
     1
290
     0
176
     1
 90
       50
176
     1
 40
0.0
176
     1
 40
1.0
176
     1
 90
        0
176
     1
 62
    18
420
        0
176
     1
 90
       50
176
     1
 90
        3
176
     1
 62
     5
420
      255
176
     1
290
     0
176
     1
 90
       50
176
     1
 90
       50
176
     1
 90
       50
176
     1
290
     0
176
     1
 90
       50
176
     1
 62
   256
176
     0
 40
1.0
176
     0
 90
        2
176
     1
  1
strokes_ogs.tif
176
     1
290
     0
176
     1
 40
1.0
176
     1
 40
1.0
176
     1
  0
VISUALSTYLE
  5
34
102
{ACAD_REACTORS
330
2A
102
}
330
2A
100
AcDbVisualStyle
  2
Conceptual
 70
     9
177
     3
291
     0
 70
    58
 90
        3
176
     1
 90
        2
176
     1
 90
        0
176
     1
 90
        0
176
     1
 40
0.6
176
     1
 40
30.0
176
     1
 62
     7
420
 16777215
176
     1
 90
        2
176
     1
 90
        2
176
     1
 62
     7
176
     1
 62
   257
176
     1
 90
        1
176
     1
 90
        1
176
     1
 40
179.0
176
     1
 90
        8
176
     1
 62
     7
176
     1
 40
1.0
176
     1
 90
        1
176
     1
 90
        6
176
     1
 90
        2
176
     1
 62
     7
176
     1
 90
        3
176
     1
 90
        0
176
     1
 90
        0
176
     1
290
     0
176
     1
 90
        1
176
     1
 40
0.0
176
     1
 90
        0
176
     1
290
     0
176
     1
290
     1
176
     1
290
     1
176
     1
290
     0
176
     1
290
     0
176
     1
290
     0
176
     1
290
     0
176
     1
290
     0
176
     1
290
     0
176
     1
 90
       50
176
     1
 40
0.0
176
     1
 40
1.0
176
     1
 90
        0
176
     1
 62
    18
420
        0
176
     1
 90
       50
176
     1
 90
        3
176
     1
 62
     5
420
      255
176
     1
290
     0
176
     1
 90
       50
176
     1
 90
       50
176
     1
 90
       50
176
     1
290
     0
176
     1
 90
       50
176
     1
 62
   256
176
     0
 40
1.0
176
     0
 90
        2
176
     1
  1
strokes_ogs.tif
176
     1
290
     0
176
     1
 40
1.0
176
     1
 40
1.0
176
     1
  0
VISUALSTYLE
  5
35
102
{ACAD_REACTORS
330
2A
102
}
330
2A
100
AcDbVisualStyle
  2
Dim
 70
    11
177
     3
291
     1
 70
    58
 90
        2
176
     1
 90
        2
176
     1
 90
        0
176
     1
 90
        0
176
     1
 40
0.6
176
     1
 40
30.0
176
     1
 62
     7
420
 16777215
176
     1
 90
        1
176
     1
 90
        4
176
     1
 62
     7
176
     1
 62
   257
176
     1
 90
        1
176
     1
 90
        1
176
     1
 40
1.0
176
     1
 90
        8
176
     1
 62
     7
176
     1
 40
1.0
176
     1
 90
        1
176
     1
 90
        6
176
     1
 90
        2
176
     1
 62
     7
176
     1
 90
        5
176
     1
 90
        0
176
     1
 90
        0
176
     1
290
     0
176
     1
 90
        1
176
     1
 40
-50.0
176
     1
 90
        0
176
     1
290
     0
176
     1
290
     1
176
     1
290
     1
176
     1
290
     0
176
     1
290
     0
176
     1
290
     0
176
     1
290
     0
176
     1
290
     0
176
     1
290
     0
176
     1
 90
       50
176
     1
 40
0.0
176
     1
 40
1.0
176
     1
 90
        0
176
     1
 62
    18
420
        0
176
     1
 90
       50
176
     1
 90
        3
176
     1
 62
     5
420
      255
176
     1
290
     0
176
     1
 90
       50
176
     1
 90
       50
176
     1
 90
       50
176
     1
290
     0
176
     1
 90
       50
176
     1
 62
   256
176
     0
 40
1.0
176
     0
 90
        2
176
     1
  1
strokes_ogs.tif
176
     1
290
     0
176
     1
 40
1.0
176
     1
 40
1.0
176
     1
  0
VISUALSTYLE
  5
3D
102
{ACAD_REACTORS
330
2A
102
}
330
2A
100
AcDbVisualStyle
  2
EdgeColorOff
 70
    22
177
     3
291
     1
 70
    58
 90
        2
176
     0
 90
        2
176
     0
 90
        0
176
     0
 90
        0
176
     0
 40
0.6
176
     0
 40
30.0
176
     0
 62
     7
420
 16777215
176
     0
 90
        1
176
     0
 90
        4
176
     0
 62
     7
176
     0
 62
   257
176
     0
 90
        1
176
     0
 90
        1
176
     0
 40
1.0
176
     0
 90
        8
176
     2
 62
     7
176
     0
 40
1.0
176
     0
 90
        1
176
     0
 90
        6
176
     0
 90
        2
176
     0
 62
     7
176
     0
 90
        5
176
     0
 90
        0
176
     0
 90
        0
176
     0
290
     0
176
     0
 90
        1
176
     0
 40
0.0
176
     0
 90
        0
176
     0
290
     0
176
     0
290
     1
176
     0
290
     1
176
     0
290
     0
176
     0
290
     0
176
     0
290
     0
176
     0
290
     0
176
     0
290
     0
176
     0
290
     0
176
     0
 90
       50
176
     0
 40
0.0
176
     0
 40
1.0
176
     0
 90
        0
176
     0
 62
    18
420
        0
176
     0
 90
       50
176
     0
 90
        3
176
     0
 62
     5
420
      255
176
     0
290
     0
176
     0
 90
       50
176
     0
 90
       50
176
     0
 90
       50
176
     0
290
     0
176
     0
 90
       50
176
     0
 62
   256
176
     0
 40
1.0
176
     0
 90
        2
176
     0
  1
strokes_ogs.tif
176
     0
290
     0
176
     0
 40
1.0
176
     0
 40
1.0
176
     0
  0
VISUALSTYLE
  5
39
102
{ACAD_REACTORS
330
2A
102
}
330
2A
100
AcDbVisualStyle
  2
Facepattern
 70
    15
177
     3
291
     1
 70
    58
 90
        2
176
     1
 90
        2
176
     1
 90
        0
176
     1
 90
        0
176
     1
 40
0.6
176
     1
 40
30.0
176
     1
 62
     7
420
 16777215
176
     1
 90
        1
176
     1
 90
        4
176
     1
 62
     7
176
     1
 62
   257
176
     1
 90
        1
176
     1
 90
        1
176
     1
 40
1.0
176
     1
 90
        8
176
     1
 62
     7
176
     1
 40
1.0
176
     1
 90
        1
176
     1
 90
        6
176
     1
 90
        2
176
     1
 62
     7
176
     1
 90
        5
176
     1
 90
        0
176
     1
 90
        0
176
     1
290
     0
176
     1
 90
        1
176
     1
 40
0.0
176
     1
 90
        0
176
     1
290
     0
176
     1
290
     1
176
     1
290
     1
176
     1
290
     0
176
     1
290
     0
176
     1
290
     0
176
     1
290
     0
176
     1
290
     0
176
     1
290
     0
176
     1
 90
       50
176
     1
 40
0.0
176
     1
 40
1.0
176
     1
 90
        0
176
     1
 62
    18
420
        0
176
     1
 90
       50
176
     1
 90
        3
176
     1
 62
     5
420
      255
176
     1
290
     0
176
     1
 90
       50
176
     1
 90
       50
176
     1
 90
       50
176
     1
290
     0
176
     1
 90
       50
176
     1
 62
   256
176
     0
 40
1.0
176
     0
 90
        2
176
     1
  1
strokes_ogs.tif
176
     1
290
     0
176
     1
 40
1.0
176
     1
 40
1.0
176
     1
  0
VISUALSTYLE
  5
2B
102
{ACAD_REACTORS
330
2A
102
}
330
2A
100
AcDbVisualStyle
  2
Flat
 70
     0
177
     3
291
     1
 70
    58
 90
        2
176
     1
 90
        1
176
     1
 90
        1
176
     1
 90
        2
176
     1
 40
0.6
176
     1
 40
30.0
176
     1
 62
     7
420
 16777215
176
     1
 90
        0
176
     1
 90
        0
176
     1
 62
     7
176
     1
 62
   257
176
     1
 90
        1
176
     1
 90
        1
176
     1
 40
1.0
176
     1
 90
        8
176
     1
 62
     7
176
     1
 40
1.0
176
     1
 90
        1
176
     1
 90
        6
176
     1
 90
        2
176
     1
 62
     7
176
     1
 90
        5
176
     1
 90
        0
176
     1
 90
        0
176
     1
290
     0
176
     1
 90
       13
176
     1
 40
0.0
176
     1
 90
        0
176
     1
290
     0
176
     1
290
     1
176
     1
290
     1
176
     1
290
     0
176
     1
290
     0
176
     1
290
     0
176
     1
290
     0
176
     1
290
     0
176
     1
290
     0
176
     1
 90
       50
176
     1
 40
0.0
176
     1
 40
1.0
176
     1
 90
        0
176
     1
 62
    18
420
        0
176
     1
 90
       50
176
     1
 90
        3
176
     1
 62
     5
420
      255
176
     1
290
     0
176
     1
 90
       50
176
     1
 90
       50
176
     1
 90
       50
176
     1
290
     0
176
     1
 90
       50
176
     1
 62
   256
176
     0
 40
1.0
176
     0
 90
        2
176
     1
  1
strokes_ogs.tif
176
     1
290
     0
176
     1
 40
1.0
176
     1
 40
1.0
176
     1
  0
VISUALSTYLE
  5
2C
102
{ACAD_REACTORS
330
2A
102
}
330
2A
100
AcDbVisualStyle
  2
FlatWithEdges
 70
     1
177
     3
291
     1
 70
    58
 90
        2
176
     1
 90
        1
176
     1
 90
        1
176
     1
 90
        2
176
     1
 40
0.6
176
     1
 40
30.0
176
     1
 62
     7
420
 16777215
176
     1
 90
        1
176
     1
 90
        0
176
     1
 62
     7
176
     1
 62
   257
176
     1
 90
        1
176
     1
 90
        1
176
     1
 40
1.0
176
     1
 90
        0
176
     1
 62
   257
176
     1
 40
1.0
176
     1
 90
        1
176
     1
 90
        6
176
     1
 90
        2
176
     1
 62
     7
176
     1
 90
        5
176
     1
 90
        0
176
     1
 90
        0
176
     1
290
     0
176
     1
 90
       13
176
     1
 40
0.0
176
     1
 90
        0
176
     1
290
     0
176
     1
290
     1
176
     1
290
     1
176
     1
290
     0
176
     1
290
     0
176
     1
290
     0
176
     1
290
     0
176
     1
290
     0
176
     1
290
     0
176
     1
 90
       50
176
     1
 40
0.0
176
     1
 40
1.0
176
     1
 90
        0
176
     1
 62
    18
420
        0
176
     1
 90
       50
176
     1
 90
        3
176
     1
 62
     5
420
      255
176
     1
290
     0
176
     1
 90
       50
176
     1
 90
       50
176
     1
 90
       50
176
     1
290
     0
176
     1
 90
       50
176
     1
 62
   256
176
     0
 40
1.0
176
     0
 90
        2
176
     1
  1
strokes_ogs.tif
176
     1
290
     0
176
     1
 40
1.0
176
     1
 40
1.0
176
     1
  0
VISUALSTYLE
  5
2D
102
{ACAD_REACTORS
330
2A
102
}
330
2A
100
AcDbVisualStyle
  2
Gouraud
 70
     2
177
     3
291
     1
 70
    58
 90
        2
176
     1
 90
        2
176
     1
 90
        1
176
     1
 90
        2
176
     1
 40
0.6
176
     1
 40
30.0
176
     1
 62
     7
420
 16777215
176
     1
 90
        0
176
     1
 90
        0
176
     1
 62
     7
176
     1
 62
   257
176
     1
 90
        1
176
     1
 90
        1
176
     1
 40
1.0
176
     1
 90
        0
176
     1
 62
     7
176
     1
 40
1.0
176
     1
 90
        1
176
     1
 90
        6
176
     1
 90
        2
176
     1
 62
     7
176
     1
 90
        5
176
     1
 90
        0
176
     1
 90
        0
176
     1
290
     0
176
     1
 90
       13
176
     1
 40
0.0
176
     1
 90
        0
176
     1
290
     0
176
     1
290
     1
176
     1
290
     1
176
     1
290
     0
176
     1
290
     0
176
     1
290
     0
176
     1
290
     0
176
     1
290
     0
176
     1
290
     0
176
     1
 90
       50
176
     1
 40
0.0
176
     1
 40
1.0
176
     1
 90
        0
176
     1
 62
    18
420
        0
176
     1
 90
       50
176
     1
 90
        3
176
     1
 62
     5
420
      255
176
     1
290
     0
176
     1
 90
       50
176
     1
 90
       50
176
     1
 90
       50
176
     1
290
     0
176
     1
 90
       50
176
     1
 62
   256
176
     0
 40
1.0
176
     0
 90
        2
176
     1
  1
strokes_ogs.tif
176
     1
290
     0
176
     1
 40
1.0
176
     1
 40
1.0
176
     1
  0
VISUALSTYLE
  5
2E
102
{ACAD_REACTORS
330
2A
102
}
330
2A
100
AcDbVisualStyle
  2
GouraudWithEdges
 70
     3
177
     3
291
     1
 70
    58
 90
        2
176
     1
 90
        2
176
     1
 90
        1
176
     1
 90
        2
176
     1
 40
0.6
176
     1
 40
30.0
176
     1
 62
     7
420
 16777215
176
     1
 90
        1
176
     1
 90
        0
176
     1
 62
     7
176
     1
 62
   257
176
     1
 90
        1
176
     1
 90
        1
176
     1
 40
1.0
176
     1
 90
        0
176
     1
 62
   257
176
     1
 40
1.0
176
     1
 90
        1
176
     1
 90
        6
176
     1
 90
        2
176
     1
 62
     7
176
     1
 90
        5
176
     1
 90
        0
176
     1
 90
        0
176
     1
290
     0
176
     1
 90
       13
176
     1
 40
0.0
176
     1
 90
        0
176
     1
290
     0
176
     1
290
     1
176
     1
290
     1
176
     1
290
     0
176
     1
290
     0
176
     1
290
     0
176
     1
290
     0
176
     1
290
     0
176
     1
290
     0
176
     1
 90
       50
176
     1
 40
0.0
176
     1
 40
1.0
176
     1
 90
        0
176
     1
 62
    18
420
        0
176
     1
 90
       50
176
     1
 90
        3
176
     1
 62
     5
420
      255
176
     1
290
     0
176
     1
 90
       50
176
     1
 90
       50
176
     1
 90
       50
176
     1
290
     0
176
     1
 90
       50
176
     1
 62
   256
176
     0
 40
1.0
176
     0
 90
        2
176
     1
  1
strokes_ogs.tif
176
     1
290
     0
176
     1
 40
1.0
176
     1
 40
1.0
176
     1
  0
VISUALSTYLE
  5
31
102
{ACAD_REACTORS
330
2A
102
}
330
2A
100
AcDbVisualStyle
  2
Hidden
 70
     6
177
     3
291
     0
 70
    58
 90
        1
176
     1
 90
        2
176
     1
 90
        2
176
     1
 90
        0
176
     1
 40
0.6
176
     1
 40
30.0
176
     1
 62
     7
420
 16777215
176
     1
 90
        2
176
     1
 90
        2
176
     1
 62
     7
176
     1
 62
   257
176
     1
 90
        2
176
     1
 90
        1
176
     1
 40
40.0
176
     1
 90
        0
176
     1
 62
   257
176
     1
 40
1.0
176
     1
 90
        1
176
     1
 90
        6
176
     1
 90
        2
176
     1
 62
     7
176
     1
 90
        3
176
     1
 90
        0
176
     1
 90
        0
176
     1
290
     0
176
     1
 90
        1
176
     1
 40
0.0
176
     1
 90
        0
176
     1
290
     0
176
     1
290
     1
176
     1
290
     1
176
     1
290
     0
176
     1
290
     0
176
     1
290
     0
176
     1
290
     0
176
     1
290
     0
176
     1
290
     0
176
     1
 90
       50
176
     1
 40
0.0
176
     1
 40
1.0
176
     1
 90
        0
176
     1
 62
    18
420
        0
176
     1
 90
       50
176
     1
 90
        3
176
     1
 62
     5
420
      255
176
     1
290
     0
176
     1
 90
       50
176
     1
 90
       50
176
     1
 90
       50
176
     1
290
     0
176
     1
 90
       50
176
     1
 62
   256
176
     0
 40
1.0
176
     0
 90
        2
176
     1
  1
strokes_ogs.tif
176
     1
290
     0
176
     1
 40
1.0
176
     1
 40
1.0
176
     1
  0
VISUALSTYLE
  5
3B
102
{ACAD_REACTORS
330
2A
102
}
330
2A
100
AcDbVisualStyle
  2
JitterOff
 70
    20
177
     3
291
     1
 70
    58
 90
        2
176
     0
 90
        2
176
     0
 90
        0
176
     0
 90
        0
176
     0
 40
0.6
176
     0
 40
30.0
176
     0
 62
     7
420
 16777215
176
     0
 90
        1
176
     0
 90
        4
176
     0
 62
     7
176
     0
 62
   257
176
     0
 90
        1
176
     0
 90
        1
176
     0
 40
1.0
176
     0
 90
       10
176
     2
 62
     7
176
     0
 40
1.0
176
     0
 90
        1
176
     0
 90
        6
176
     0
 90
        2
176
     0
 62
     7
176
     0
 90
        5
176
     0
 90
        0
176
     0
 90
        0
176
     0
290
     0
176
     0
 90
        1
176
     0
 40
0.0
176
     0
 90
        0
176
     0
290
     0
176
     0
290
     1
176
     0
290
     1
176
     0
290
     0
176
     0
290
     0
176
     0
290
     0
176
     0
290
     0
176
     0
290
     0
176
     0
290
     0
176
     0
 90
       50
176
     0
 40
0.0
176
     0
 40
1.0
176
     0
 90
        0
176
     0
 62
    18
420
        0
176
     0
 90
       50
176
     0
 90
        3
176
     0
 62
     5
420
      255
176
     0
290
     0
176
     0
 90
       50
176
     0
 90
       50
176
     0
 90
       50
176
     0
290
     0
176
     0
 90
       50
176
     0
 62
   256
176
     0
 40
1.0
176
     0
 90
        2
176
     0
  1
strokes_ogs.tif
176
     0
290
     0
176
     0
 40
1.0
176
     0
 40
1.0
176
     0
  0
VISUALSTYLE
  5
38
102
{ACAD_REACTORS
330
2A
102
}
330
2A
100
AcDbVisualStyle
  2
Linepattern
 70
    14
177
     3
291
     1
 70
    58
 90
        2
176
     1
 90
        2
176
     1
 90
        0
176
     1
 90
        0
176
     1
 40
0.6
176
     1
 40
30.0
176
     1
 62
     7
420
 16777215
176
     1
 90
        1
176
     1
 90
        4
176
     1
 62
     7
176
     1
 62
   257
176
     1
 90
        7
176
     1
 90
        7
176
     1
 40
1.0
176
     1
 90
        8
176
     1
 62
     7
176
     1
 40
1.0
176
     1
 90
        1
176
     1
 90
        6
176
     1
 90
        2
176
     1
 62
     7
176
     1
 90
        5
176
     1
 90
        0
176
     1
 90
        0
176
     1
290
     0
176
     1
 90
        1
176
     1
 40
0.0
176
     1
 90
        0
176
     1
290
     0
176
     1
290
     1
176
     1
290
     1
176
     1
290
     0
176
     1
290
     0
176
     1
290
     0
176
     1
290
     0
176
     1
290
     0
176
     1
290
     0
176
     1
 90
       50
176
     1
 40
0.0
176
     1
 40
1.0
176
     1
 90
        0
176
     1
 62
    18
420
        0
176
     1
 90
       50
176
     1
 90
        3
176
     1
 62
     5
420
      255
176
     1
290
     0
176
     1
 90
       50
176
     1
 90
       50
176
     1
 90
       50
176
     1
290
     0
176
     1
 90
       50
176
     1
 62
   256
176
     0
 40
1.0
176
     0
 90
        2
176
     1
  1
strokes_ogs.tif
176
     1
290
     0
176
     1
 40
1.0
176
     1
 40
1.0
176
     1
  0
VISUALSTYLE
  5
3C
102
{ACAD_REACTORS
330
2A
102
}
330
2A
100
AcDbVisualStyle
  2
OverhangOff
 70
    21
177
     3
291
     1
 70
    58
 90
        2
176
     0
 90
        2
176
     0
 90
        0
176
     0
 90
        0
176
     0
 40
0.6
176
     0
 40
30.0
176
     0
 62
     7
420
 16777215
176
     0
 90
        1
176
     0
 90
        4
176
     0
 62
     7
176
     0
 62
   257
176
     0
 90
        1
176
     0
 90
        1
176
     0
 40
1.0
176
     0
 90
        9
176
     2
 62
     7
176
     0
 40
1.0
176
     0
 90
        1
176
     0
 90
        6
176
     0
 90
        2
176
     0
 62
     7
176
     0
 90
        5
176
     0
 90
        0
176
     0
 90
        0
176
     0
290
     0
176
     0
 90
        1
176
     0
 40
0.0
176
     0
 90
        0
176
     0
290
     0
176
     0
290
     1
176
     0
290
     1
176
     0
290
     0
176
     0
290
     0
176
     0
290
     0
176
     0
290
     0
176
     0
290
     0
176
     0
290
     0
176
     0
 90
       50
176
     0
 40
0.0
176
     0
 40
1.0
176
     0
 90
        0
176
     0
 62
    18
420
        0
176
     0
 90
       50
176
     0
 90
        3
176
     0
 62
     5
420
      255
176
     0
290
     0
176
     0
 90
       50
176
     0
 90
       50
176
     0
 90
       50
176
     0
290
     0
176
     0
 90
       50
176
     0
 62
   256
176
     0
 40
1.0
176
     0
 90
        2
176
     0
  1
strokes_ogs.tif
176
     0
290
     0
176
     0
 40
1.0
176
     0
 40
1.0
176
     0
  0
VISUALSTYLE
  5
33
102
{ACAD_REACTORS
330
2A
102
}
330
2A
100
AcDbVisualStyle
  2
Realistic
 70
     8
177
     3
291
     0
 70
    58
 90
        2
176
     1
 90
        3
176
     1
 90
        0
176
     1
 90
        2
176
     1
 40
0.6
176
     1
 40
30.0
176
     1
 62
     7
420
 16777215
176
     1
 90
        0
176
     1
 90
        0
176
     1
 62
     7
176
     1
 62
   257
176
     1
 90
        1
176
     1
 90
        1
176
     1
 40
1.0
176
     1
 90
        8
176
     1
 62
   257
176
     1
 40
1.0
176
     1
 90
        1
176
     1
 90
        6
176
     1
 90
        2
176
     1
 62
     7
176
     1
 90
        3
176
     1
 90
        0
176
     1
 90
        0
176
     1
290
     0
176
     1
 90
       13
176
     1
 40
0.0
176
     1
 90
        0
176
     1
290
     0
176
     1
290
     1
176
     1
290
     1
176
     1
290
     0
176
     1
290
     0
176
     1
290
     0
176
     1
290
     0
176
     1
290
     0
176
     1
290
     0
176
     1
 90
       50
176
     1
 40
0.0
176
     1
 40
1.0
176
     1
 90
        0
176
     1
 62
    18
420
        0
176
     1
 90
       50
176
     1
 90
        3
176
     1
 62
     5
420
      255
176
     1
290
     0
176
     1
 90
       50
176
     1
 90
       50
176
     1
 90
       50
176
     1
290
     0
176
     1
 90
       50
176
     1
 62
   256
176
     0
 40
1.0
176
     0
 90
        2
176
     1
  1
strokes_ogs.tif
176
     1
290
     0
176
     1
 40
1.0
176
     1
 40
1.0
176
     1
  0
VISUALSTYLE
  5
42
102
{ACAD_REACTORS
330
2A
102
}
330
2A
100
AcDbVisualStyle
  2
Shaded
 70
    27
177
     3
291
     0
 70
    58
 90
        2
176
     1
 90
        2
176
     1
 90
        1
176
     1
 90
        2
176
     1
 40
0.6
176
     1
 40
30.0
176
     1
 62
     7
420
 16777215
176
     1
 90
        0
176
     1
 90
        4
176
     1
 62
     7
176
     1
 62
   257
176
     1
 90
        1
176
     1
 90
        1
176
     1
 40
1.0
176
     1
 90
        8
176
     1
 62
   257
176
     1
 40
1.0
176
     1
 90
        1
176
     1
 90
        6
176
     1
 90
        2
176
     1
 62
     8
420
  7895160
176
     1
 90
        3
176
     1
 90
        0
176
     1
 90
        0
176
     1
290
     0
176
     1
 90
        5
176
     1
 40
0.0
176
     1
 90
        0
176
     1
290
     0
176
     1
290
     1
176
     1
290
     1
176
     1
290
     0
176
     1
290
     0
176
     1
290
     0
176
     1
290
     0
176
     1
290
     0
176
     1
290
     0
176
     1
 90
       50
176
     1
 40
0.0
176
     1
 40
1.0
176
     1
 90
        0
176
     1
 62
    18
420
        0
176
     1
 90
       50
176
     1
 90
        3
176
     1
 62
     5
420
      255
176
     1
290
     0
176
     1
 90
       50
176
     1
 90
       50
176
     1
 90
       50
176
     1
290
     0
176
     1
 90
       50
176
     1
 62
   256
176
     0
 40
1.0
176
     0
 90
        2
176
     1
  1
strokes_ogs.tif
176
     1
290
     0
176
     1
 40
1.0
176
     1
 40
1.0
176
     1
  0
VISUALSTYLE
  5
41
102
{ACAD_REACTORS
330
2A
102
}
330
2A
100
AcDbVisualStyle
  2
Shaded with edges
 70
    26
177
     3
291
     0
 70
    58
 90
        2
176
     1
 90
        2
176
     1
 90
        1
176
     1
 90
        2
176
     1
 40
0.6
176
     1
 40
30.0
176
     1
 62
     7
420
 16777215
176
     1
 90
        1
176
     1
 90
       10
176
     1
 62
     7
176
     1
 62
   257
176
     1
 90
        2
176
     1
 90
        1
176
     1
 40
1.0
176
     1
 90
        8
176
     1
 62
   257
176
     1
 40
1.0
176
     1
 90
        1
176
     1
 90
        6
176
     1
 90
        2
176
     1
 62
     7
176
     1
 90
        3
176
     1
 90
        0
176
     1
 90
        0
176
     1
290
     0
176
     1
 90
        5
176
     1
 40
0.0
176
     1
 90
        0
176
     1
290
     0
176
     1
290
     1
176
     1
290
     1
176
     1
290
     0
176
     1
290
     0
176
     1
290
     0
176
     1
290
     0
176
     1
290
     0
176
     1
290
     0
176
     1
 90
       50
176
     1
 40
0.0
176
     1
 40
1.0
176
     1
 90
        0
176
     1
 62
    18
420
        0
176
     1
 90
       50
176
     1
 90
        3
176
     1
 62
     5
420
      255
176
     1
290
     0
176
     1
 90
       50
176
     1
 90
       50
176
     1
 90
       50
176
     1
290
     0
176
     1
 90
       50
176
     1
 62
   256
176
     0
 40
1.0
176
     0
 90
        2
176
     1
  1
strokes_ogs.tif
176
     1
290
     0
176
     1
 40
1.0
176
     1
 40
1.0
176
     1
  0
VISUALSTYLE
  5
3E
102
{ACAD_REACTORS
330
2A
102
}
330
2A
100
AcDbVisualStyle
  2
Shades of Gray
 70
    23
177
     3
291
     0
 70
    58
 90
        2
176
     1
 90
        2
176
     1
 90
        3
176
     1
 90
        0
176
     1
 40
0.6
176
     1
 40
30.0
176
     1
 62
     7
420
 16777215
176
     1
 90
        2
176
     1
 90
        2
176
     1
 62
     7
176
     1
 62
     7
176
     1
 90
        1
176
     1
 90
        1
176
     1
 40
40.0
176
     1
 90
        8
176
     1
 62
     7
176
     1
 40
1.0
176
     1
 90
        1
176
     1
 90
        6
176
     1
 90
        2
176
     1
 62
     7
176
     1
 90
        3
176
     1
 90
        0
176
     1
 90
        0
176
     1
290
     0
176
     1
 90
        1
176
     1
 40
0.0
176
     1
 90
        0
176
     1
290
     0
176
     1
290
     1
176
     1
290
     1
176
     1
290
     0
176
     1
290
     0
176
     1
290
     0
176
     1
290
     0
176
     1
290
     0
176
     1
290
     0
176
     1
 90
       50
176
     1
 40
0.0
176
     1
 40
1.0
176
     1
 90
        0
176
     1
 62
    18
420
        0
176
     1
 90
       50
176
     1
 90
        3
176
     1
 62
     5
420
      255
176
     1
290
     0
176
     1
 90
       50
176
     1
 90
       50
176
     1
 90
       50
176
     1
290
     0
176
     1
 90
       50
176
     1
 62
   256
176
     0
 40
1.0
176
     0
 90
        2
176
     1
  1
strokes_ogs.tif
176
     1
290
     0
176
     1
 40
1.0
176
     1
 40
1.0
176
     1
  0
VISUALSTYLE
  5
3F
102
{ACAD_REACTORS
330
2A
102
}
330
2A
100
AcDbVisualStyle
  2
Sketchy
 70
    24
177
     3
291
     0
 70
    58
 90
        1
176
     1
 90
        2
176
     1
 90
        2
176
     1
 90
        0
176
     1
 40
0.6
176
     1
 40
30.0
176
     1
 62
     7
420
 16777215
176
     1
 90
        2
176
     1
 90
        2
176
     1
 62
     7
176
     1
 62
     7
176
     1
 90
        1
176
     1
 90
        1
176
     1
 40
40.0
176
     1
 90
       11
176
     1
 62
     7
176
     1
 40
1.0
176
     1
 90
        1
176
     1
 90
        6
176
     1
 90
        2
176
     1
 62
     7
176
     1
 90
        6
176
     1
 90
        0
176
     1
 90
        0
176
     1
290
     0
176
     1
 90
        1
176
     1
 40
0.0
176
     1
 90
        0
176
     1
290
     0
176
     1
290
     1
176
     1
290
     1
176
     1
290
     0
176
     1
290
     0
176
     1
290
     0
176
     1
290
     0
176
     1
290
     0
176
     1
290
     0
176
     1
 90
       50
176
     1
 40
0.0
176
     1
 40
1.0
176
     1
 90
        0
176
     1
 62
    18
420
        0
176
     1
 90
       50
176
     1
 90
        3
176
     1
 62
     5
420
      255
176
     1
290
     0
176
     1
 90
       50
176
     1
 90
       50
176
     1
 90
       50
176
     1
290
     0
176
     1
 90
       50
176
     1
 62
   256
176
     0
 40
1.0
176
     0
 90
        2
176
     1
  1
strokes_ogs.tif
176
     1
290
     0
176
     1
 40
1.0
176
     1
 40
1.0
176
     1
  0
VISUALSTYLE
  5
37
102
{ACAD_REACTORS
330
2A
102
}
330
2A
100
AcDbVisualStyle
  2
Thicken
 70
    13
177
     3
291
     1
 70
    58
 90
        2
176
     1
 90
        2
176
     1
 90
        0
176
     1
 90
        0
176
     1
 40
0.6
176
     1
 40
30.0
176
     1
 62
     7
420
 16777215
176
     1
 90
        1
176
     1
 90
        4
176
     1
 62
     7
176
     1
 62
   257
176
     1
 90
        1
176
     1
 90
        1
176
     1
 40
1.0
176
     1
 90
       12
176
     1
 62
     7
176
     1
 40
1.0
176
     1
 90
        1
176
     1
 90
        6
176
     1
 90
        2
176
     1
 62
     7
176
     1
 90
        5
176
     1
 90
        0
176
     1
 90
        0
176
     1
290
     0
176
     1
 90
        1
176
     1
 40
0.0
176
     1
 90
        0
176
     1
290
     0
176
     1
290
     1
176
     1
290
     1
176
     1
290
     0
176
     1
290
     0
176
     1
290
     0
176
     1
290
     0
176
     1
290
     0
176
     1
290
     0
176
     1
 90
       50
176
     1
 40
0.0
176
     1
 40
1.0
176
     1
 90
        0
176
     1
 62
    18
420
        0
176
     1
 90
       50
176
     1
 90
        3
176
     1
 62
     5
420
      255
176
     1
290
     0
176
     1
 90
       50
176
     1
 90
       50
176
     1
 90
       50
176
     1
290
     0
176
     1
 90
       50
176
     1
 62
   256
176
     0
 40
1.0
176
     0
 90
        2
176
     1
  1
strokes_ogs.tif
176
     1
290
     0
176
     1
 40
1.0
176
     1
 40
1.0
176
     1
  0
VISUALSTYLE
  5
30
102
{ACAD_REACTORS
330
2A
102
}
330
2A
100
AcDbVisualStyle
  2
Wireframe
 70
     5
177
     3
291
     0
 70
    58
 90
        0
176
     1
 90
        2
176
     1
 90
        0
176
     1
 90
        0
176
     1
 40
0.6
176
     1
 40
30.0
176
     1
 62
     7
420
 16777215
176
     1
 90
        1
176
     1
 90
        4
176
     1
 62
     7
176
     1
 62
   257
176
     1
 90
        1
176
     1
 90
        1
176
     1
 40
1.0
176
     1
 90
        0
176
     1
 62
   257
176
     1
 40
1.0
176
     1
 90
        1
176
     1
 90
        6
176
     1
 90
        2
176
     1
 62
     7
176
     1
 90
        3
176
     1
 90
        0
176
     1
 90
        0
176
     1
290
     0
176
     1
 90
        1
176
     1
 40
0.0
176
     1
 90
        0
176
     1
290
     0
176
     1
290
     1
176
     1
290
     1
176
     1
290
     0
176
     1
290
     0
176
     1
290
     0
176
     1
290
     0
176
     1
290
     0
176
     1
290
     0
176
     1
 90
       50
176
     1
 40
0.0
176
     1
 40
1.0
176
     1
 90
        0
176
     1
 62
    18
420
        0
176
     1
 90
       50
176
     1
 90
        3
176
     1
 62
     5
420
      255
176
     1
290
     0
176
     1
 90
       50
176
     1
 90
       50
176
     1
 90
       50
176
     1
290
     0
176
     1
 90
       50
176
     1
 62
   256
176
     0
 40
1.0
176
     0
 90
        2
176
     1
  1
strokes_ogs.tif
176
     1
290
     0
176
     1
 40
1.0
176
     1
 40
1.0
176
     1
  0
VISUALSTYLE
  5
40
102
{ACAD_REACTORS
330
2A
102
}
330
2A
100
AcDbVisualStyle
  2
X-Ray
 70
    25
177
     3
291
     0
 70
    58
 90
        2
176
     1
 90
        2
176
     1
 90
        1
176
     1
 90
        1
176
     1
 40
0.5
176
     1
 40
30.0
176
     1
 62
     7
420
 16777215
176
     1
 90
        1
176
     1
 90
        0
176
     1
 62
     7
176
     1
 62
   257
176
     1
 90
        1
176
     1
 90
        1
176
     1
 40
1.0
176
     1
 90
        8
176
     1
 62
     7
176
     1
 40
1.0
176
     1
 90
        1
176
     1
 90
        6
176
     1
 90
        2
176
     1
 62
     7
176
     1
 90
        3
176
     1
 90
        0
176
     1
 90
        0
176
     1
290
     0
176
     1
 90
       13
176
     1
 40
0.0
176
     1
 90
        0
176
     1
290
     0
176
     1
290
     1
176
     1
290
     1
176
     1
290
     0
176
     1
290
     0
176
     1
290
     0
176
     1
290
     0
176
     1
290
     0
176
     1
290
     0
176
     1
 90
       50
176
     1
 40
0.0
176
     1
 40
1.0
176
     1
 90
        0
176
     1
 62
    18
420
        0
176
     1
 90
       50
176
     1
 90
        3
176
     1
 62
     5
420
      255
176
     1
290
     0
176
     1
 90
       50
176
     1
 90
       50
176
     1
 90
       50
176
     1
290
     0
176
     1
 90
       50
176
     1
 62
   256
176
     0
 40
1.0
176
     0
 90
        2
176
     1
  1
strokes_ogs.tif
176
     1
290
     0
176
     1
 40
1.0
176
     1
 40
1.0
176
     1
  0
DICTIONARYVAR
  5
20E
102
{ACAD_REACTORS
330
20D
102
}
330
20D
100
DictionaryVariables
280
     0
  1
1:1
  0
DICTIONARYVAR
  5
213
102
{ACAD_REACTORS
330
20D
102
}
330
20D
100
DictionaryVariables
280
     0
  1
Standard
  0
DICTIONARYVAR
  5
212
102
{ACAD_REACTORS
330
20D
102
}
330
20D
100
DictionaryVariables
280
     0
  1
Standard
  0
DICTIONARY
  5
20F
330
6A
100
AcDbDictionary
280
     1
281
     1
  3
ACAD_ROUNDTRIP_2008_TABLESTYLE_CELLSTYLEMAP
360
210
  0
CELLSTYLEMAP
  5
210
102
{ACAD_REACTORS
330
20F
102
}
330
20F
100
AcDbCellStyleMap
 90
        3
300
CELLSTYLE
  1
TABLEFORMAT_BEGIN
 90
        5
170
     1
 91
        0
 92
    32768
 62
   257
 93
        1
300
CONTENTFORMAT
  1
CONTENTFORMAT_BEGIN
 90
        0
 91
        0
 92
        4
 93
        0
300

 40
0.0
140
1.0
 94
        5
 62
     0
340
11
144
0.25
309
CONTENTFORMAT_END
171
     1
301
MARGIN
  1
CELLMARGIN_BEGIN
 40
0.06
 40
0.06
 40
0.06
 40
0.06
 40
0.06
 40
0.06
309
CELLMARGIN_END
 94
        6
 95
        1
302
GRIDFORMAT
  1
GRIDFORMAT_BEGIN
 90
        0
 91
        1
 62
     0
 92
       -2
340
14
 93
        0
 40
0.045
309
GRIDFORMAT_END
 95
        2
302
GRIDFORMAT
  1
GRIDFORMAT_BEGIN
 90
        0
 91
        1
 62
     0
 92
       -2
340
14
 93
        0
 40
0.045
309
GRIDFORMAT_END
 95
        4
302
GRIDFORMAT
  1
GRIDFORMAT_BEGIN
 90
        0
 91
        1
 62
     0
 92
       -2
340
14
 93
        0
 40
0.045
309
GRIDFORMAT_END
 95
        8
302
GRIDFORMAT
  1
GRIDFORMAT_BEGIN
 90
        0
 91
        1
 62
     0
 92
       -2
340
14
 93
        0
 40
0.045
309
GRIDFORMAT_END
 95
       16
302
GRIDFORMAT
  1
GRIDFORMAT_BEGIN
 90
        0
 91
        1
 62
     0
 92
       -2
340
14
 93
        0
 40
0.045
309
GRIDFORMAT_END
 95
       32
302
GRIDFORMAT
  1
GRIDFORMAT_BEGIN
 90
        0
 91
        1
 62
     0
 92
       -2
340
14
 93
        0
 40
0.045
309
GRIDFORMAT_END
309
TABLEFORMAT_END
  1
CELLSTYLE_BEGIN
 90
        1
 91
        1
300
_TITLE
309
CELLSTYLE_END
300
CELLSTYLE
  1
TABLEFORMAT_BEGIN
 90
        5
170
     1
 91
        0
 92
        0
 62
   257
 93
        1
300
CONTENTFORMAT
  1
CONTENTFORMAT_BEGIN
 90
        0
 91
        0
 92
        4
 93
        0
300

 40
0.0
140
1.0
 94
        5
 62
     0
340
11
144
0.18
309
CONTENTFORMAT_END
171
     1
301
MARGIN
  1
CELLMARGIN_BEGIN
 40
0.06
 40
0.06
 40
0.06
 40
0.06
 40
0.06
 40
0.06
309
CELLMARGIN_END
 94
        6
 95
        1
302
GRIDFORMAT
  1
GRIDFORMAT_BEGIN
 90
        0
 91
        1
 62
     0
 92
       -2
340
14
 93
        0
 40
0.045
309
GRIDFORMAT_END
 95
        2
302
GRIDFORMAT
  1
GRIDFORMAT_BEGIN
 90
        0
 91
        1
 62
     0
 92
       -2
340
14
 93
        0
 40
0.045
309
GRIDFORMAT_END
 95
        4
302
GRIDFORMAT
  1
GRIDFORMAT_BEGIN
 90
        0
 91
        1
 62
     0
 92
       -2
340
14
 93
        0
 40
0.045
309
GRIDFORMAT_END
 95
        8
302
GRIDFORMAT
  1
GRIDFORMAT_BEGIN
 90
        0
 91
        1
 62
     0
 92
       -2
340
14
 93
        0
 40
0.045
309
GRIDFORMAT_END
 95
       16
302
GRIDFORMAT
  1
GRIDFORMAT_BEGIN
 90
        0
 91
        1
 62
     0
 92
       -2
340
14
 93
        0
 40
0.045
309
GRIDFORMAT_END
 95
       32
302
GRIDFORMAT
  1
GRIDFORMAT_BEGIN
 90
        0
 91
        1
 62
     0
 92
       -2
340
14
 93
        0
 40
0.045
309
GRIDFORMAT_END
309
TABLEFORMAT_END
  1
CELLSTYLE_BEGIN
 90
        2
 91
        1
300
_HEADER
309
CELLSTYLE_END
300
CELLSTYLE
  1
TABLEFORMAT_BEGIN
 90
        5
170
     1
 91
        0
 92
        0
 62
   257
 93
        1
300
CONTENTFORMAT
  1
CONTENTFORMAT_BEGIN
 90
        0
 91
        0
 92
        4
 93
        0
300

 40
0.0
140
1.0
 94
        2
 62
     0
340
11
144
0.18
309
CONTENTFORMAT_END
171
     1
301
MARGIN
  1
CELLMARGIN_BEGIN
 40
0.06
 40
0.06
 40
0.06
 40
0.06
 40
0.06
 40
0.06
309
CELLMARGIN_END
 94
        6
 95
        1
302
GRIDFORMAT
  1
GRIDFORMAT_BEGIN
 90
        0
 91
        1
 62
     0
 92
       -2
340
14
 93
        0
 40
0.045
309
GRIDFORMAT_END
 95
        2
302
GRIDFORMAT
  1
GRIDFORMAT_BEGIN
 90
        0
 91
        1
 62
     0
 92
       -2
340
14
 93
        0
 40
0.045
309
GRIDFORMAT_END
 95
        4
302
GRIDFORMAT
  1
GRIDFORMAT_BEGIN
 90
        0
 91
        1
 62
     0
 92
       -2
340
14
 93
        0
 40
0.045
309
GRIDFORMAT_END
 95
        8
302
GRIDFORMAT
  1
GRIDFORMAT_BEGIN
 90
        0
 91
        1
 62
     0
 92
       -2
340
14
 93
        0
 40
0.045
309
GRIDFORMAT_END
 95
       16
302
GRIDFORMAT
  1
GRIDFORMAT_BEGIN
 90
        0
 91
        1
 62
     0
 92
       -2
340
14
 93
        0
 40
0.045
309
GRIDFORMAT_END
 95
       32
302
GRIDFORMAT
  1
GRIDFORMAT_BEGIN
 90
        0
 91
        1
 62
     0
 92
       -2
340
14
 93
        0
 40
0.045
309
GRIDFORMAT_END
309
TABLEFORMAT_END
  1
CELLSTYLE_BEGIN
 90
        3
 91
        2
300
_DATA
309
CELLSTYLE_END
  0
ENDSEC
  0
EOF