0
SECTION
  2
HEADER
  9
$ACADVER
  1
AC1027
  9
$ACADMAINTVER
 70
     8
  9
$DWGCODEPAGE
  3
ANSI_1252
  9
$REQUIREDVERSIONS
160
                 0
  9
$COMMENTS
  1
File was created by Cadenas
  9
$CUSTOMPROPERTYTAG
  1
NN
  9
$CUSTOMPROPERTY
  1
S-2000 Pillow Block 2-Bolt Inch Bore (Labyrinth Seal)
  9
$CUSTOMPROPERTYTAG
  1
NT
  9
$CUSTOMPROPERTY
  1
S-2000 Pillow Block Bearing -Inch (2-Bolt Base)
  9
$CUSTOMPROPERTYTAG
  1
NB
  9
$CUSTOMPROPERTY
  1
070322
  9
$CUSTOMPROPERTYTAG
  1
NBSYN
  9
$CUSTOMPROPERTY
  1
$PN.
  9
$CUSTOMPROPERTYTAG
  1
LINA
  9
$CUSTOMPROPERTY
  1
070322
  9
$CUSTOMPROPERTYTAG
  1
SS
  9
$CUSTOMPROPERTY
  1
1-11/16
  9
$CUSTOMPROPERTYTAG
  1
PN
  9
$CUSTOMPROPERTY
  1
070322
  9
$CUSTOMPROPERTYTAG
  1
DESCRIPTION
  9
$CUSTOMPROPERTY
  1
P2B-S2-111L
  9
$CUSTOMPROPERTYTAG
  1
EF
  9
$CUSTOMPROPERTY
  1
Non-Expansion Type
  9
$CUSTOMPROPERTYTAG
  1
ST
  9
$CUSTOMPROPERTY
  1
Labyrinth Type
  9
$CUSTOMPROPERTYTAG
  1
A
  9
$CUSTOMPROPERTY
  1
2-43/64
  9
$CUSTOMPROPERTYTAG
  1
B
  9
$CUSTOMPROPERTY
  1
7-3/8
  9
$CUSTOMPROPERTYTAG
  1
C
  9
$CUSTOMPROPERTY
  1
2-1/16
  9
$CUSTOMPROPERTYTAG
  1
DMIN
  9
$CUSTOMPROPERTY
  1
5-5/16
  9
$CUSTOMPROPERTYTAG
  1
DMAX
  9
$CUSTOMPROPERTY
  1
5-45/64
  9
$CUSTOMPROPERTYTAG
  1
F
  9
$CUSTOMPROPERTY
  1
1/2
  9
$CUSTOMPROPERTYTAG
  1
G
  9
$CUSTOMPROPERTY
  1
13/16
  9
$CUSTOMPROPERTYTAG
  1
H
  9
$CUSTOMPROPERTY
  1
1-1/4
  9
$CUSTOMPROPERTYTAG
  1
J
  9
$CUSTOMPROPERTY
  1
4-17/64
  9
$CUSTOMPROPERTYTAG
  1
L
  9
$CUSTOMPROPERTY
  1
3-3/16
  9
$CUSTOMPROPERTYTAG
  1
M
  9
$CUSTOMPROPERTY
  1
2-1/8
  9
$CUSTOMPROPERTYTAG
  1
R
  9
$CUSTOMPROPERTY
  1
13/16
  9
$CUSTOMPROPERTYTAG
  1
S
  9
$CUSTOMPROPERTY
  1
1-55/64
  9
$CUSTOMPROPERTYTAG
  1
X
  9
$CUSTOMPROPERTY
  1
1/4
  9
$CUSTOMPROPERTYTAG
  1
Y
  9
$CUSTOMPROPERTY
  1
0.020
  9
$CUSTOMPROPERTYTAG
  1
Z
  9
$CUSTOMPROPERTY
  1
2-5/64
  9
$CUSTOMPROPERTYTAG
  1
COMPANY
  9
$CUSTOMPROPERTY
  1
baldor
  9
$INSBASE
 10
0.0
 20
0.0
 30
0.0
  9
$EXTMIN
 10
1.000000000000000E+20
 20
1.000000000000000E+20
 30
1.000000000000000E+20
  9
$EXTMAX
 10
-1.000000000000000E+20
 20
-1.000000000000000E+20
 30
-1.000000000000000E+20
  9
$LIMMIN
 10
0.0
 20
0.0
  9
$LIMMAX
 10
12.0
 20
9.0
  9
$ORTHOMODE
 70
     0
  9
$REGENMODE
 70
     1
  9
$FILLMODE
 70
     1
  9
$QTEXTMODE
 70
     0
  9
$MIRRTEXT
 70
     1
  9
$LTSCALE
 40
1.0
  9
$ATTMODE
 70
     1
  9
$TEXTSIZE
 40
0.2
  9
$TRACEWID
 40
0.05
  9
$TEXTSTYLE
  7
Standard
  9
$CLAYER
  8
0
  9
$CELTYPE
  6
ByLayer
  9
$CECOLOR
 62
   256
  9
$CELTSCALE
 40
1.0
  9
$DISPSILH
 70
     0
  9
$DIMSCALE
 40
1.0
  9
$DIMASZ
 40
0.18
  9
$DIMEXO
 40
0.0625
  9
$DIMDLI
 40
0.38
  9
$DIMRND
 40
0.0
  9
$DIMDLE
 40
0.0
  9
$DIMEXE
 40
0.18
  9
$DIMTP
 40
0.0
  9
$DIMTM
 40
0.0
  9
$DIMTXT
 40
0.18
  9
$DIMCEN
 40
0.09
  9
$DIMTSZ
 40
0.0
  9
$DIMTOL
 70
     0
  9
$DIMLIM
 70
     0
  9
$DIMTIH
 70
     1
  9
$DIMTOH
 70
     1
  9
$DIMSE1
 70
     0
  9
$DIMSE2
 70
     0
  9
$DIMTAD
 70
     0
  9
$DIMZIN
 70
     0
  9
$DIMBLK
  1

  9
$DIMASO
 70
     1
  9
$DIMSHO
 70
     1
  9
$DIMPOST
  1

  9
$DIMAPOST
  1

  9
$DIMALT
 70
     0
  9
$DIMALTD
 70
     2
  9
$DIMALTF
 40
25.4
  9
$DIMLFAC
 40
1.0
  9
$DIMTOFL
 70
     0
  9
$DIMTVP
 40
0.0
  9
$DIMTIX
 70
     0
  9
$DIMSOXD
 70
     0
  9
$DIMSAH
 70
     0
  9
$DIMBLK1
  1

  9
$DIMBLK2
  1

  9
$DIMSTYLE
  2
Standard
  9
$DIMCLRD
 70
     0
  9
$DIMCLRE
 70
     0
  9
$DIMCLRT
 70
     0
  9
$DIMTFAC
 40
1.0
  9
$DIMGAP
 40
0.09
  9
$DIMJUST
 70
     0
  9
$DIMSD1
 70
     0
  9
$DIMSD2
 70
     0
  9
$DIMTOLJ
 70
     1
  9
$DIMTZIN
 70
     0
  9
$DIMALTZ
 70
     0
  9
$DIMALTTZ
 70
     0
  9
$DIMUPT
 70
     0
  9
$DIMDEC
 70
     4
  9
$DIMTDEC
 70
     4
  9
$DIMALTU
 70
     2
  9
$DIMALTTD
 70
     2
  9
$DIMTXSTY
  7
Standard
  9
$DIMAUNIT
 70
     0
  9
$DIMADEC
 70
     0
  9
$DIMALTRND
 40
0.0
  9
$DIMAZIN
 70
     0
  9
$DIMDSEP
 70
    46
  9
$DIMATFIT
 70
     3
  9
$DIMFRAC
 70
     0
  9
$DIMLDRBLK
  1

  9
$DIMLUNIT
 70
     2
  9
$DIMLWD
 70
    -2
  9
$DIMLWE
 70
    -2
  9
$DIMTMOVE
 70
     0
  9
$DIMFXL
 40
1.0
  9
$DIMFXLON
 70
     0
  9
$DIMJOGANG
 40
0.7853981633974483
  9
$DIMTFILL
 70
     0
  9
$DIMTFILLCLR
 70
     0
  9
$DIMARCSYM
 70
     0
  9
$DIMLTYPE
  6

  9
$DIMLTEX1
  6

  9
$DIMLTEX2
  6

  9
$DIMTXTDIRECTION
 70
     0
  9
$LUNITS
 70
     2
  9
$LUPREC
 70
     4
  9
$SKETCHINC
 40
0.1
  9
$FILLETRAD
 40
0.5
  9
$AUNITS
 70
     0
  9
$AUPREC
 70
     0
  9
$MENU
  1
.
  9
$ELEVATION
 40
0.0
  9
$PELEVATION
 40
0.0
  9
$THICKNESS
 40
0.0
  9
$LIMCHECK
 70
     0
  9
$CHAMFERA
 40
0.0
  9
$CHAMFERB
 40
0.0
  9
$CHAMFERC
 40
0.0
  9
$CHAMFERD
 40
0.0
  9
$SKPOLY
 70
     0
  9
$TDCREATE
 40
2458168.98508706
  9
$TDUCREATE
 40
2458168.943420393
  9
$TDUPDATE
 40
2458168.985087245
  9
$TDUUPDATE
 40
2458168.943420579
  9
$TDINDWG
 40
0.0000000116
  9
$TDUSRTIMER
 40
0.0000000116
  9
$USRTIMER
 70
     1
  9
$ANGBASE
 50
0.0
  9
$ANGDIR
 70
     0
  9
$PDMODE
 70
     0
  9
$PDSIZE
 40
0.0
  9
$PLINEWID
 40
0.0
  9
$SPLFRAME
 70
     0
  9
$SPLINETYPE
 70
     6
  9
$SPLINESEGS
 70
     8
  9
$HANDSEED
  5
1EA
  9
$SURFTAB1
 70
     6
  9
$SURFTAB2
 70
     6
  9
$SURFTYPE
 70
     6
  9
$SURFU
 70
     6
  9
$SURFV
 70
     6
  9
$UCSBASE
  2

  9
$UCSNAME
  2

  9
$UCSORG
 10
0.0
 20
0.0
 30
0.0
  9
$UCSXDIR
 10
1.0
 20
0.0
 30
0.0
  9
$UCSYDIR
 10
0.0
 20
1.0
 30
0.0
  9
$UCSORTHOREF
  2

  9
$UCSORTHOVIEW
 70
     0
  9
$UCSORGTOP
 10
0.0
 20
0.0
 30
0.0
  9
$UCSORGBOTTOM
 10
0.0
 20
0.0
 30
0.0
  9
$UCSORGLEFT
 10
0.0
 20
0.0
 30
0.0
  9
$UCSORGRIGHT
 10
0.0
 20
0.0
 30
0.0
  9
$UCSORGFRONT
 10
0.0
 20
0.0
 30
0.0
  9
$UCSORGBACK
 10
0.0
 20
0.0
 30
0.0
  9
$PUCSBASE
  2

  9
$PUCSNAME
  2

  9
$PUCSORG
 10
0.0
 20
0.0
 30
0.0
  9
$PUCSXDIR
 10
1.0
 20
0.0
 30
0.0
  9
$PUCSYDIR
 10
0.0
 20
1.0
 30
0.0
  9
$PUCSORTHOREF
  2

  9
$PUCSORTHOVIEW
 70
     0
  9
$PUCSORGTOP
 10
0.0
 20
0.0
 30
0.0
  9
$PUCSORGBOTTOM
 10
0.0
 20
0.0
 30
0.0
  9
$PUCSORGLEFT
 10
0.0
 20
0.0
 30
0.0
  9
$PUCSORGRIGHT
 10
0.0
 20
0.0
 30
0.0
  9
$PUCSORGFRONT
 10
0.0
 20
0.0
 30
0.0
  9
$PUCSORGBACK
 10
0.0
 20
0.0
 30
0.0
  9
$USERI1
 70
     0
  9
$USERI2
 70
     0
  9
$USERI3
 70
     0
  9
$USERI4
 70
     0
  9
$USERI5
 70
     0
  9
$USERR1
 40
0.0
  9
$USERR2
 40
0.0
  9
$USERR3
 40
0.0
  9
$USERR4
 40
0.0
  9
$USERR5
 40
0.0
  9
$WORLDVIEW
 70
     1
  9
$SHADEDGE
 70
     3
  9
$SHADEDIF
 70
    70
  9
$TILEMODE
 70
     1
  9
$MAXACTVP
 70
    64
  9
$PINSBASE
 10
0.0
 20
0.0
 30
0.0
  9
$PLIMCHECK
 70
     0
  9
$PEXTMIN
 10
1.000000000000000E+20
 20
1.000000000000000E+20
 30
1.000000000000000E+20
  9
$PEXTMAX
 10
-1.000000000000000E+20
 20
-1.000000000000000E+20
 30
-1.000000000000000E+20
  9
$PLIMMIN
 10
0.0
 20
0.0
  9
$PLIMMAX
 10
12.0
 20
9.0
  9
$UNITMODE
 70
     0
  9
$VISRETAIN
 70
     1
  9
$PLINEGEN
 70
     0
  9
$PSLTSCALE
 70
     1
  9
$TREEDEPTH
 70
  3020
  9
$CMLSTYLE
  2
Standard
  9
$CMLJUST
 70
     0
  9
$CMLSCALE
 40
1.0
  9
$PROXYGRAPHICS
 70
     1
  9
$MEASUREMENT
 70
     0
  9
$CELWEIGHT
370
    -1
  9
$ENDCAPS
280
     0
  9
$JOINSTYLE
280
     0
  9
$LWDISPLAY
290
     0
  9
$INSUNITS
 70
     1
  9
$HYPERLINKBASE
  1

  9
$STYLESHEET
  1

  9
$XEDIT
290
     1
  9
$CEPSNTYPE
380
     0
  9
$PSTYLEMODE
290
     1
  9
$FINGERPRINTGUID
  2
{61E587AC-8E36-42F2-B10E-525E723AD5C5}
  9
$VERSIONGUID
  2
{FAEB1C32-E019-11D5-929B-00C0DF256EC4}
  9
$EXTNAMES
290
     1
  9
$PSVPSCALE
 40
0.0
  9
$OLESTARTUP
290
     0
  9
$SORTENTS
280
   127
  9
$INDEXCTL
280
     0
  9
$HIDETEXT
280
     1
  9
$XCLIPFRAME
280
     2
  9
$HALOGAP
280
     0
  9
$OBSCOLOR
 70
   257
  9
$OBSLTYPE
280
     0
  9
$INTERSECTIONDISPLAY
280
     0
  9
$INTERSECTIONCOLOR
 70
   257
  9
$DIMASSOC
280
     2
  9
$PROJECTNAME
  1

  9
$CAMERADISPLAY
290
     0
  9
$LENSLENGTH
 40
50.0
  9
$CAMERAHEIGHT
 40
0.0
  9
$STEPSPERSEC
 40
2.0
  9
$STEPSIZE
 40
6.0
  9
$3DDWFPREC
 40
2.0
  9
$PSOLWIDTH
 40
0.25
  9
$PSOLHEIGHT
 40
4.0
  9
$LOFTANG1
 40
1.570796326794897
  9
$LOFTANG2
 40
1.570796326794897
  9
$LOFTMAG1
 40
0.0
  9
$LOFTMAG2
 40
0.0
  9
$LOFTPARAM
 70
     7
  9
$LOFTNORMALS
280
     1
  9
$LATITUDE
 40
37.795
  9
$LONGITUDE
 40
-122.394
  9
$NORTHDIRECTION
 40
0.0
  9
$TIMEZONE
 70
 -8000
  9
$LIGHTGLYPHDISPLAY
280
     1
  9
$TILEMODELIGHTSYNCH
280
     1
  9
$CMATERIAL
347
44
  9
$SOLIDHIST
280
     0
  9
$SHOWHIST
280
     1
  9
$DWFFRAME
280
     2
  9
$DGNFRAME
280
     2
  9
$REALWORLDSCALE
290
     1
  9
$INTERFERECOLOR
 62
   256
  9
$CSHADOW
280
     0
  9
$SHADOWPLANELOCATION
 40
0.0
  0
ENDSEC
  0
SECTION
  2
CLASSES
  0
CLASS
  1
ACDBDICTIONARYWDFLT
  2
AcDbDictionaryWithDefault
  3
ObjectDBX Classes
 90
        0
 91
        4
280
     0
281
     0
  0
CLASS
  1
VISUALSTYLE
  2
AcDbVisualStyle
  3
ObjectDBX Classes
 90
     4095
 91
        4
280
     0
281
     0
  0
CLASS
  1
MATERIAL
  2
AcDbMaterial
  3
ObjectDBX Classes
 90
     1153
 91
        4
280
     0
281
     0
  0
CLASS
  1
SCALE
  2
AcDbScale
  3
ObjectDBX Classes
 90
     1153
 91
        4
280
     0
281
     0
  0
CLASS
  1
TABLESTYLE
  2
AcDbTableStyle
  3
ObjectDBX Classes
 90
     4095
 91
        4
280
     0
281
     0
  0
CLASS
  1
MLEADERSTYLE
  2
AcDbMLeaderStyle
  3
ACDB_MLEADERSTYLE_CLASS
 90
     4095
 91
        4
280
     0
281
     0
  0
CLASS
  1
SUN
  2
AcDbSun
  3
SCENEOE
 90
     1153
 91
        4
280
     0
281
     0
  0
CLASS
  1
DICTIONARYVAR
  2
AcDbDictionaryVar
  3
ObjectDBX Classes
 90
        0
 91
        4
280
     0
281
     0
  0
CLASS
  1
CELLSTYLEMAP
  2
AcDbCellStyleMap
  3
ObjectDBX Classes
 90
     1152
 91
        4
280
     0
281
     0
  0
ENDSEC
  0
SECTION
  2
TABLES
  0
TABLE
  2
VPORT
  5
8
330
0
100
AcDbSymbolTable
 70
     1
  0
VPORT
  5
29
330
8
100
AcDbSymbolTableRecord
100
AcDbViewportTableRecord
  2
*Active
 70
     0
 10
0.0
 20
0.0
 11
1.0
 21
1.0
 12
0.0
 22
-0.2235312499999997
 13
0.0
 23
0.0
 14
0.5
 24
0.5
 15
0.5
 25
0.5
 16
0.0
 26
0.0
 36
1.0
 17
0.0
 27
0.0
 37
0.0
 40
3.608058750000001
 41
2.084916161634009
 42
50.0
 43
0.0
 44
0.0
 50
0.0
 51
0.0
 71
     0
 72
   100
 73
     1
 74
     3
 75
     0
 76
     0
 77
     0
 78
     0
281
     0
 65
     1
110
0.0
120
0.0
130
0.0
111
1.0
121
0.0
131
0.0
112
0.0
122
1.0
132
0.0
 79
     0
146
0.0
348
2F
 60
     3
 61
     5
292
     1
282
     1
141
0.0
142
0.0
 63
   250
361
6D
  0
ENDTAB
  0
TABLE
  2
LTYPE
  5
5
330
0
100
AcDbSymbolTable
 70
     3
  0
LTYPE
  5
14
330
5
100
AcDbSymbolTableRecord
100
AcDbLinetypeTableRecord
  2
ByBlock
 70
     0
  3

 72
    65
 73
     0
 40
0.0
  0
LTYPE
  5
15
330
5
100
AcDbSymbolTableRecord
100
AcDbLinetypeTableRecord
  2
ByLayer
 70
     0
  3

 72
    65
 73
     0
 40
0.0
  0
LTYPE
  5
16
330
5
100
AcDbSymbolTableRecord
100
AcDbLinetypeTableRecord
  2
Continuous
 70
     0
  3
Solid line
 72
    65
 73
     0
 40
0.0
  0
LTYPE
  5
A7
330
5
100
AcDbSymbolTableRecord
100
AcDbLinetypeTableRecord
  2
Dashed
 70
     0
  3

 72
    65
 73
     2
 40
2.0
 49
1.0
 74
     0
 49
-1.0
 74
     0
  0
LTYPE
  5
BD
330
5
100
AcDbSymbolTableRecord
100
AcDbLinetypeTableRecord
  2
Center
 70
     0
  3

 72
    65
 73
     4
 40
1.5
 49
0.45
 74
     0
 49
-0.5
 74
     0
 49
0.05
 74
     0
 49
-0.5
 74
     0
  0
ENDTAB
  0
TABLE
  2
LAYER
  5
2
330
0
100
AcDbSymbolTable
 70
     7
  0
LAYER
  5
10
330
2
100
AcDbSymbolTableRecord
100
AcDbLayerTableRecord
  2
0
 70
     0
 62
     7
  6
Continuous
370
    -3
390
F
347
46
348
0
  0
LAYER
  5
72
330
2
100
AcDbSymbolTableRecord
100
AcDbLayerTableRecord
  2
AM_6
 70
     0
 62
    -2
  6
Continuous
370
    35
390
F
347
46
348
0
  0
LAYER
  5
A8
330
2
100
AcDbSymbolTableRecord
100
AcDbLayerTableRecord
  2
AM_9
 70
     0
 62
     6
  6
Dashed
370
    25
390
F
347
46
348
0
  0
LAYER
  5
BA
330
2
100
AcDbSymbolTableRecord
100
AcDbLayerTableRecord
  2
AM_5
 70
     0
 62
     3
  6
Continuous
370
    25
390
F
347
46
348
0
  0
LAYER
  5
BE
330
2
100
AcDbSymbolTableRecord
100
AcDbLayerTableRecord
  2
AM_7
 70
     0
 62
     7
  6
Center
370
    25
390
F
347
46
348
0
  0
LAYER
  5
C0
330
2
100
AcDbSymbolTableRecord
100
AcDbLayerTableRecord
  2
AM_4
 70
     0
 62
     7
  6
Continuous
370
    50
390
F
347
46
348
0
  0
LAYER
  5
1D9
330
2
100
AcDbSymbolTableRecord
100
AcDbLayerTableRecord
  2
ConnectionPoints
 70
     0
 62
     7
  6
Continuous
370
    50
390
F
347
46
348
0
  0
ENDTAB
  0
TABLE
  2
STYLE
  5
3
330
0
100
AcDbSymbolTable
 70
     1
  0
STYLE
  5
11
330
3
100
AcDbSymbolTableRecord
100
AcDbTextStyleTableRecord
  2
Standard
 70
     0
 40
0.0
 41
1.0
 50
0.0
 71
     0
 42
0.2
  3
txt
  4

  0
ENDTAB
  0
TABLE
  2
VIEW
  5
6
330
0
100
AcDbSymbolTable
 70
     0
  0
ENDTAB
  0
TABLE
  2
UCS
  5
7
330
0
100
AcDbSymbolTable
 70
     0
  0
ENDTAB
  0
TABLE
  2
APPID
  5
9
330
0
100
AcDbSymbolTable
 70
     1
  0
APPID
  5
12
330
9
100
AcDbSymbolTableRecord
100
AcDbRegAppTableRecord
  2
ACAD
 70
     0
  0
ENDTAB
  0
TABLE
  2
DIMSTYLE
  5
A
330
0
100
AcDbSymbolTable
 70
     1
100
AcDbDimStyleTable
  0
DIMSTYLE
105
27
330
A
100
AcDbSymbolTableRecord
100
AcDbDimStyleTableRecord
  2
Standard
 70
     0
178
     0
340
11
  0
ENDTAB
  0
TABLE
  2
BLOCK_RECORD
  5
1
330
0
100
AcDbSymbolTable
 70
     6
  0
BLOCK_RECORD
  5
1F
330
1
100
AcDbSymbolTableRecord
100
AcDbBlockTableRecord
  2
*Model_Space
340
22
 70
     0
280
     1
281
     0
  0
BLOCK_RECORD
  5
1B
330
1
100
AcDbSymbolTableRecord
100
AcDbBlockTableRecord
  2
*Paper_Space
340
1E
 70
     0
280
     1
281
     0
  0
BLOCK_RECORD
  5
23
330
1
100
AcDbSymbolTableRecord
100
AcDbBlockTableRecord
  2
*Paper_Space0
340
26
 70
     0
280
     1
281
     0
  0
BLOCK_RECORD
  5
6E
330
1
100
AcDbSymbolTableRecord
100
AcDbBlockTableRecord
  2
1_070322_4
340
0
102
{BLKREFS
331
6F
102
}
 70
     0
280
     1
281
     0
  0
BLOCK_RECORD
  5
8E
330
1
100
AcDbSymbolTableRecord
100
AcDbBlockTableRecord
  2
2_1_11_16CS2i_0_in_070322_4
340
0
102
{BLKREFS
331
8F
102
}
 70
     0
280
     1
281
     0
  0
BLOCK_RECORD
  5
D6
330
1
100
AcDbSymbolTableRecord
100
AcDbBlockTableRecord
  2
3_070019i_0_in_070322_4
340
0
102
{BLKREFS
331
D7
102
}
 70
     0
280
     1
281
     0
  0
BLOCK_RECORD
  5
128
330
1
100
AcDbSymbolTableRecord
100
AcDbBlockTableRecord
  2
4_405015E_Inch_0_in_070322_4
340
0
102
{BLKREFS
331
129
102
}
 70
     0
280
     1
281
     0
  0
BLOCK_RECORD
  5
167
330
1
100
AcDbSymbolTableRecord
100
AcDbBlockTableRecord
  2
5_070322H_0_in_070322_4
340
0
102
{BLKREFS
331
168
102
}
 70
     0
280
     1
281
     0
  0
ENDTAB
  0
ENDSEC
  0
SECTION
  2
BLOCKS
  0
BLOCK
  5
20
330
1F
100
AcDbEntity
  8
0
100
AcDbBlockBegin
  2
*Model_Space
 70
     0
 10
0.0
 20
0.0
 30
0.0
  3
*Model_Space
  1

  0
ENDBLK
  5
21
330
1F
100
AcDbEntity
  8
0
100
AcDbBlockEnd
  0
BLOCK
  5
1C
330
1B
100
AcDbEntity
 67
     1
  8
0
100
AcDbBlockBegin
  2
*Paper_Space
 70
     0
 10
0.0
 20
0.0
 30
0.0
  3
*Paper_Space
  1

  0
ENDBLK
  5
1D
330
1B
100
AcDbEntity
 67
     1
  8
0
100
AcDbBlockEnd
  0
BLOCK
  5
24
330
23
100
AcDbEntity
  8
0
100
AcDbBlockBegin
  2
*Paper_Space0
 70
     0
 10
0.0
 20
0.0
 30
0.0
  3
*Paper_Space0
  1

  0
ENDBLK
  5
25
330
23
100
AcDbEntity
  8
0
100
AcDbBlockEnd
  0
BLOCK
  5
70
330
6E
100
AcDbEntity
  8
0
100
AcDbBlockBegin
  2
1_070322_4
 70
     2
 10
0.0
 20
0.0
 30
0.0
  3
1_070322_4
  1

  0
ATTDEF
  5
73
330
6E
100
AcDbEntity
  8
AM_6
100
AcDbText
 10
8.6875
 20
1.163461538461539
 30
0.0
 40
0.5
  1
S-2000 Pillow Block 2-Bolt Inch Bore (Labyrinth Seal)
100
AcDbAttributeDefinition
  3

  2
NN
 70
     8
280
     0
  0
ATTDEF
  5
74
330
6E
100
AcDbEntity
  8
AM_6
100
AcDbText
 10
8.6875
 20
0.6634615384615385
 30
0.0
 40
0.5
  1
S-2000 Pillow Block Bearing -Inch (2-Bolt Base)
100
AcDbAttributeDefinition
  3

  2
NT
 70
     8
280
     0
  0
ATTDEF
  5
75
330
6E
100
AcDbEntity
  8
AM_6
100
AcDbText
 10
8.6875
 20
0.1634615384615385
 30
0.0
 40
0.5
  1
070322
100
AcDbAttributeDefinition
  3

  2
NB
 70
     8
280
     0
  0
ATTDEF
  5
76
330
6E
100
AcDbEntity
  8
AM_6
100
AcDbText
 10
8.6875
 20
-0.3365384615384615
 30
0.0
 40
0.5
  1
$PN.
100
AcDbAttributeDefinition
  3

  2
NBSYN
 70
     8
280
     0
  0
ATTDEF
  5
77
330
6E
100
AcDbEntity
  8
AM_6
100
AcDbText
 10
8.6875
 20
-0.8365384615384615
 30
0.0
 40
0.5
  1
070322
100
AcDbAttributeDefinition
  3

  2
LINA
 70
     8
280
     0
  0
ATTDEF
  5
78
330
6E
100
AcDbEntity
  8
AM_6
100
AcDbText
 10
8.6875
 20
-1.336538461538461
 30
0.0
 40
0.5
  1
1-11/16
100
AcDbAttributeDefinition
  3

  2
SS
 70
     8
280
     0
  0
ATTDEF
  5
79
330
6E
100
AcDbEntity
  8
AM_6
100
AcDbText
 10
8.6875
 20
-1.836538461538461
 30
0.0
 40
0.5
  1
070322
100
AcDbAttributeDefinition
  3

  2
PN
 70
     8
280
     0
  0
ATTDEF
  5
7A
330
6E
100
AcDbEntity
  8
AM_6
100
AcDbText
 10
8.6875
 20
-2.336538461538462
 30
0.0
 40
0.5
  1
P2B-S2-111L
100
AcDbAttributeDefinition
  3

  2
DESCRIPTION
 70
     8
280
     0
  0
ATTDEF
  5
7B
330
6E
100
AcDbEntity
  8
AM_6
100
AcDbText
 10
8.6875
 20
-2.836538461538462
 30
0.0
 40
0.5
  1
Non-Expansion Type
100
AcDbAttributeDefinition
  3

  2
EF
 70
     8
280
     0
  0
ATTDEF
  5
7C
330
6E
100
AcDbEntity
  8
AM_6
100
AcDbText
 10
8.6875
 20
-3.336538461538462
 30
0.0
 40
0.5
  1
Labyrinth Type
100
AcDbAttributeDefinition
  3

  2
ST
 70
     8
280
     0
  0
ATTDEF
  5
7D
330
6E
100
AcDbEntity
  8
AM_6
100
AcDbText
 10
8.6875
 20
-3.836538461538462
 30
0.0
 40
0.5
  1
2-43/64
100
AcDbAttributeDefinition
  3

  2
A
 70
     8
280
     0
  0
ATTDEF
  5
7E
330
6E
100
AcDbEntity
  8
AM_6
100
AcDbText
 10
8.6875
 20
-4.336538461538462
 30
0.0
 40
0.5
  1
7-3/8
100
AcDbAttributeDefinition
  3

  2
B
 70
     8
280
     0
  0
ATTDEF
  5
7F
330
6E
100
AcDbEntity
  8
AM_6
100
AcDbText
 10
8.6875
 20
-4.836538461538462
 30
0.0
 40
0.5
  1
2-1/16
100
AcDbAttributeDefinition
  3

  2
C
 70
     8
280
     0
  0
ATTDEF
  5
80
330
6E
100
AcDbEntity
  8
AM_6
100
AcDbText
 10
8.6875
 20
-5.336538461538462
 30
0.0
 40
0.5
  1
5-5/16
100
AcDbAttributeDefinition
  3

  2
DMIN
 70
     8
280
     0
  0
ATTDEF
  5
81
330
6E
100
AcDbEntity
  8
AM_6
100
AcDbText
 10
8.6875
 20
-5.836538461538462
 30
0.0
 40
0.5
  1
5-45/64
100
AcDbAttributeDefinition
  3

  2
DMAX
 70
     8
280
     0
  0
ATTDEF
  5
82
330
6E
100
AcDbEntity
  8
AM_6
100
AcDbText
 10
8.6875
 20
-6.336538461538462
 30
0.0
 40
0.5
  1
1/2
100
AcDbAttributeDefinition
  3

  2
F
 70
     8
280
     0
  0
ATTDEF
  5
83
330
6E
100
AcDbEntity
  8
AM_6
100
AcDbText
 10
8.6875
 20
-6.836538461538462
 30
0.0
 40
0.5
  1
13/16
100
AcDbAttributeDefinition
  3

  2
G
 70
     8
280
     0
  0
ATTDEF
  5
84
330
6E
100
AcDbEntity
  8
AM_6
100
AcDbText
 10
8.6875
 20
-7.336538461538462
 30
0.0
 40
0.5
  1
1-1/4
100
AcDbAttributeDefinition
  3

  2
H
 70
     8
280
     0
  0
ATTDEF
  5
85
330
6E
100
AcDbEntity
  8
AM_6
100
AcDbText
 10
8.6875
 20
-7.836538461538462
 30
0.0
 40
0.5
  1
4-17/64
100
AcDbAttributeDefinition
  3

  2
J
 70
     8
280
     0
  0
ATTDEF
  5
86
330
6E
100
AcDbEntity
  8
AM_6
100
AcDbText
 10
8.6875
 20
-8.336538461538462
 30
0.0
 40
0.5
  1
3-3/16
100
AcDbAttributeDefinition
  3

  2
L
 70
     8
280
     0
  0
ATTDEF
  5
87
330
6E
100
AcDbEntity
  8
AM_6
100
AcDbText
 10
8.6875
 20
-8.836538461538462
 30
0.0
 40
0.5
  1
2-1/8
100
AcDbAttributeDefinition
  3

  2
M
 70
     8
280
     0
  0
ATTDEF
  5
88
330
6E
100
AcDbEntity
  8
AM_6
100
AcDbText
 10
8.6875
 20
-9.336538461538462
 30
0.0
 40
0.5
  1
13/16
100
AcDbAttributeDefinition
  3

  2
R
 70
     8
280
     0
  0
ATTDEF
  5
89
330
6E
100
AcDbEntity
  8
AM_6
100
AcDbText
 10
8.6875
 20
-9.836538461538462
 30
0.0
 40
0.5
  1
1-55/64
100
AcDbAttributeDefinition
  3

  2
S
 70
     8
280
     0
  0
ATTDEF
  5
8A
330
6E
100
AcDbEntity
  8
AM_6
100
AcDbText
 10
8.6875
 20
-10.33653846153846
 30
0.0
 40
0.5
  1
1/4
100
AcDbAttributeDefinition
  3

  2
X
 70
     8
280
     0
  0
ATTDEF
  5
8B
330
6E
100
AcDbEntity
  8
AM_6
100
AcDbText
 10
8.6875
 20
-10.83653846153846
 30
0.0
 40
0.5
  1
0.020
100
AcDbAttributeDefinition
  3

  2
Y
 70
     8
280
     0
  0
ATTDEF
  5
8C
330
6E
100
AcDbEntity
  8
AM_6
100
AcDbText
 10
8.6875
 20
-11.33653846153846
 30
0.0
 40
0.5
  1
2-5/64
100
AcDbAttributeDefinition
  3

  2
Z
 70
     8
280
     0
  0
ATTDEF
  5
8D
330
6E
100
AcDbEntity
  8
AM_6
100
AcDbText
 10
8.6875
 20
-11.83653846153846
 30
0.0
 40
0.5
  1
baldor
100
AcDbAttributeDefinition
  3

  2
COMPANY
 70
     8
280
     0
  0
INSERT
  5
8F
330
6E
100
AcDbEntity
  8
0
100
AcDbBlockReference
  2
2_1_11_16CS2i_0_in_070322_4
 10
0.0
 20
0.0
 30
0.0
  0
INSERT
  5
D7
330
6E
100
AcDbEntity
  8
0
100
AcDbBlockReference
  2
3_070019i_0_in_070322_4
 10
0.0
 20
0.0
 30
0.0
  0
INSERT
  5
129
330
6E
100
AcDbEntity
  8
0
100
AcDbBlockReference
  2
4_405015E_Inch_0_in_070322_4
 10
0.0
 20
0.0
 30
0.0
  0
INSERT
  5
168
330
6E
100
AcDbEntity
  8
0
100
AcDbBlockReference
  2
5_070322H_0_in_070322_4
 10
0.0
 20
0.0
 30
0.0
  0
ENDBLK
  5
71
330
6E
100
AcDbEntity
  8
0
100
AcDbBlockEnd
  0
BLOCK
  5
90
330
8E
100
AcDbEntity
  8
0
100
AcDbBlockBegin
  2
2_1_11_16CS2i_0_in_070322_4
 70
     2
 10
0.0
 20
0.0
 30
0.0
  3
2_1_11_16CS2i_0_in_070322_4
  1

  0
ATTDEF
  5
92
330
8E
100
AcDbEntity
  8
AM_6
100
AcDbText
 10
6.59375
 20
-1.287375
 30
0.0
 40
0.5
  1
S-2000 Collar -Inch
100
AcDbAttributeDefinition
  3

  2
NN
 70
     8
280
     0
  0
ATTDEF
  5
93
330
8E
100
AcDbEntity
  8
AM_6
100
AcDbText
 10
6.59375
 20
-1.787375
 30
0.0
 40
0.5
  1
S-2000 Bearings
100
AcDbAttributeDefinition
  3

  2
NT
 70
     8
280
     0
  0
ATTDEF
  5
94
330
8E
100
AcDbEntity
  8
AM_6
100
AcDbText
 10
6.59375
 20
-2.287375
 30
0.0
 40
0.5
  1
1-11/16CS2i
100
AcDbAttributeDefinition
  3

  2
NB
 70
     8
280
     0
  0
ATTDEF
  5
95
330
8E
100
AcDbEntity
  8
AM_6
100
AcDbText
 10
6.59375
 20
-2.787375
 30
0.0
 40
0.5
  1
$BORE.CS2i
100
AcDbAttributeDefinition
  3

  2
NBSYN
 70
     8
280
     0
  0
ATTDEF
  5
96
330
8E
100
AcDbEntity
  8
AM_6
100
AcDbText
 10
6.59375
 20
-3.287375
 30
0.0
 40
0.5
  1
1-11/16CS2i
100
AcDbAttributeDefinition
  3

  2
LINA
 70
     8
280
     0
  0
ATTDEF
  5
97
330
8E
100
AcDbEntity
  8
AM_6
100
AcDbText
 10
6.59375
 20
-3.787375
 30
0.0
 40
0.5
  1
1-11/16
100
AcDbAttributeDefinition
  3

  2
BORE
 70
     8
280
     0
  0
ATTDEF
  5
98
330
8E
100
AcDbEntity
  8
AM_6
100
AcDbText
 10
6.59375
 20
-4.287375
 30
0.0
 40
0.5
  1
1.687500
100
AcDbAttributeDefinition
  3

  2
BORE1
 70
     8
280
     0
  0
ATTDEF
  5
99
330
8E
100
AcDbEntity
  8
AM_6
100
AcDbText
 10
6.59375
 20
-4.787375
 30
0.0
 40
0.5
  1
3-3/16
100
AcDbAttributeDefinition
  3

  2
L1
 70
     8
280
     0
  0
ATTDEF
  5
9A
330
8E
100
AcDbEntity
  8
AM_6
100
AcDbText
 10
6.59375
 20
-5.287375
 30
0.0
 40
0.5
  1
3.18750
100
AcDbAttributeDefinition
  3

  2
L
 70
     8
280
     0
  0
ATTDEF
  5
9B
330
8E
100
AcDbEntity
  8
AM_6
100
AcDbText
 10
6.59375
 20
-5.787375
 30
0.0
 40
0.5
  1
3.09375
100
AcDbAttributeDefinition
  3

  2
L2
 70
     8
280
     0
  0
ATTDEF
  5
9C
330
8E
100
AcDbEntity
  8
AM_6
100
AcDbText
 10
6.59375
 20
-6.287375
 30
0.0
 40
0.5
  1
3.38
100
AcDbAttributeDefinition
  3

  2
A
 70
     8
280
     0
  0
ATTDEF
  5
9D
330
8E
100
AcDbEntity
  8
AM_6
100
AcDbText
 10
6.59375
 20
-6.787375
 30
0.0
 40
0.5
  1
1.50
100
AcDbAttributeDefinition
  3

  2
B
 70
     8
280
     0
  0
ATTDEF
  5
9E
330
8E
100
AcDbEntity
  8
AM_6
100
AcDbText
 10
6.59375
 20
-7.287375
 30
0.0
 40
0.5
  1
2.06
100
AcDbAttributeDefinition
  3

  2
C
 70
     8
280
     0
  0
ATTDEF
  5
9F
330
8E
100
AcDbEntity
  8
AM_6
100
AcDbText
 10
6.59375
 20
-7.787375
 30
0.0
 40
0.5
  1
3.25
100
AcDbAttributeDefinition
  3

  2
D
 70
     8
280
     0
  0
ATTDEF
  5
A0
330
8E
100
AcDbEntity
  8
AM_6
100
AcDbText
 10
6.59375
 20
-8.287375
 30
0.0
 40
0.5
  1
0.35
100
AcDbAttributeDefinition
  3

  2
E
 70
     8
280
     0
  0
ATTDEF
  5
A1
330
8E
100
AcDbEntity
  8
AM_6
100
AcDbText
 10
6.59375
 20
-8.787375
 30
0.0
 40
0.5
  1
0.286
100
AcDbAttributeDefinition
  3

  2
F
 70
     8
280
     0
  0
ATTDEF
  5
A2
330
8E
100
AcDbEntity
  8
AM_6
100
AcDbText
 10
6.59375
 20
-9.287375
 30
0.0
 40
0.5
  1
5/16-18
100
AcDbAttributeDefinition
  3

  2
CS
 70
     8
280
     0
  0
ATTDEF
  5
A3
330
8E
100
AcDbEntity
  8
AM_6
100
AcDbText
 10
6.59375
 20
-9.787375
 30
0.0
 40
0.5
  1
0.3125
100
AcDbAttributeDefinition
  3

  2
NDM
 70
     8
280
     0
  0
ATTDEF
  5
A4
330
8E
100
AcDbEntity
  8
AM_6
100
AcDbText
 10
6.59375
 20
-10.287375
 30
0.0
 40
0.5
  1
0.2520
100
AcDbAttributeDefinition
  3

  2
KDM
 70
     8
280
     0
  0
ATTDEF
  5
A5
330
8E
100
AcDbEntity
  8
AM_6
100
AcDbText
 10
6.59375
 20
-10.787375
 30
0.0
 40
0.5
  1
1
100
AcDbAttributeDefinition
  3

  2
DD
 70
     8
280
     0
  0
ATTDEF
  5
A6
330
8E
100
AcDbEntity
  8
AM_6
100
AcDbText
 10
6.59375
 20
-11.287375
 30
0.0
 40
0.5
  1
baldor
100
AcDbAttributeDefinition
  3

  2
COMPANY
 70
     8
280
     0
  0
LINE
  5
A9
330
8E
100
AcDbEntity
  8
AM_9
100
AcDbLine
 10
-0.9667204080673114
 20
-1.685014373797333
 30
0.0
 11
-0.9588256840742897
 21
-1.694861357131614
 31
0.0
  0
LINE
  5
AA
330
8E
100
AcDbEntity
  8
AM_9
100
AcDbLine
 10
-0.9587908417484171
 20
-1.451845184502711
 30
0.0
 11
-0.9667204080673114
 21
-1.461735626202667
 31
0.0
  0
LWPOLYLINE
  5
AB
330
8E
100
AcDbEntity
  8
AM_9
100
AcDbPolyline
 90
       25
 70
     0
 43
0.0
 10
-0.958768031348866
 20
-1.694933266587968
 10
-0.950940841452003
 20
-1.702651568786823
 10
-0.9413932364365547
 20
-1.707621449480163
 10
-0.9306836946013892
 20
-1.708638505888485
 10
-0.9194848227458944
 20
-1.70545042734938
 10
-0.9080143377320012
 20
-1.69796747134302
 10
-0.896819374152052
 20
-1.686408245786087
 10
-0.8865354514310837
 20
-1.671239352201265
 10
-0.8774732371763159
 20
-1.652703395851473
 10
-0.8704995849538117
 20
-1.632404547979323
 10
-0.8655035928933529
 20
-1.610063340667502
 10
-0.8629912970276622
 20
-1.588282753752646
 10
-0.8626064319130823
 20
-1.56603139529542
 10
-0.8642568082513056
 20
-1.545262084511286
 10
-0.8677277332777327
 20
-1.525273058575519
 10
-0.8729018752392405
 20
-1.506456134698121
 10
-0.8794753698877835
 20
-1.489380404729407
 10
-0.8876834016565311
 20
-1.473550271597756
 10
-0.8967931362996568
 20
-1.460374373010249
 10
-0.9072093058897522
 20
-1.449464562936056
 10
-0.9178914363753418
 20
-1.442085214943639
 10
-0.9290265326916547
 20
-1.438322152300884
 10
-0.9397288270277413
 20
-1.438679761947529
 10
-0.9498824134163739
 20
-1.443333060610178
 10
-0.9587686319779518
 20
-1.451817482553948
  0
LWPOLYLINE
  5
AC
330
8E
100
AcDbEntity
  8
AM_9
100
AcDbPolyline
 90
        3
 70
     0
 43
0.0
 10
-0.9617300697836367
 20
-1.455851471726783
 10
-0.9658520280598768
 20
-1.462764131689526
 10
-0.9717438702273605
 20
-1.476042359787586
  0
LWPOLYLINE
  5
AD
330
8E
100
AcDbEntity
  8
AM_9
100
AcDbPolyline
 90
        3
 70
     0
 43
0.0
 10
-0.9587686319779518
 20
-1.451817482553948
 10
-0.9590479468264463
 20
-1.452168764097209
 10
-0.9617300697836367
 20
-1.455851471726783
  0
LINE
  5
AE
330
8E
100
AcDbEntity
  8
AM_9
100
AcDbLine
 10
-0.9418501574182655
 20
-1.447175
 30
0.0
 11
-1.41719348658921
 21
-1.447175
 31
0.0
  0
LINE
  5
AF
330
8E
100
AcDbEntity
  8
AM_9
100
AcDbLine
 10
-1.40191480397609
 20
-1.699575
 30
0.0
 11
-0.9418501574182655
 21
-1.699575
 31
0.0
  0
ELLIPSE
  5
B0
330
8E
100
AcDbEntity
  8
AM_9
100
AcDbEllipse
 10
-1.417193486589209
 20
-1.573375
 30
0.0
 11
7.727521302619804E-18
 21
0.1262000000000001
 31
0.0
210
0.0
220
0.0
230
1.0
 40
0.4226182617406956
 41
4.71238898038469
 42
5.971973074457941
  0
LINE
  5
B1
330
8E
100
AcDbEntity
  8
AM_9
100
AcDbLine
 10
-1.392323235940168
 20
-1.461735626202662
 30
0.0
 11
-1.412352709807438
 21
-1.436753132129441
 31
0.0
  0
LWPOLYLINE
  5
B2
330
8E
100
AcDbEntity
  8
AM_9
100
AcDbPolyline
 90
        3
 70
     0
 43
0.0
 10
-0.963649261125667
 20
-1.68788901645526
 10
-0.959572147869788
 20
-1.693906134445209
 10
-0.958768031348866
 20
-1.694933266587968
  0
LWPOLYLINE
  5
B3
330
8E
100
AcDbEntity
  8
AM_9
100
AcDbPolyline
 90
        8
 70
     0
 43
0.0
 10
-0.9857109686543766
 20
-1.573375
 10
-0.9851670937811033
 20
-1.59481339526777
 10
-0.9836030710469875
 20
-1.615005841453938
 10
-0.9810428477835365
 20
-1.634078936932303
 10
-0.9773804757243453
 20
-1.652055380169652
 10
-0.9727220662516907
 20
-1.667986883531857
 10
-0.9666598348785526
 20
-1.682426223335744
 10
-0.963649261125667
 20
-1.68788901645526
  0
LWPOLYLINE
  5
B4
330
8E
100
AcDbEntity
  8
AM_9
100
AcDbPolyline
 90
        7
 70
     0
 43
0.0
 10
-0.9717438702273605
 20
-1.476042359787586
 10
-0.9764502996128496
 20
-1.491041203575781
 10
-0.9802289229709272
 20
-1.508029393636444
 10
-0.9833105981066866
 20
-1.529069651490752
 10
-0.9851491517460838
 20
-1.551589106283162
 10
-0.9857075304692929
 20
-1.573198589460798
 10
-0.9857109686543766
 20
-1.573375
  0
LWPOLYLINE
  5
B5
330
8E
100
AcDbEntity
  8
AM_9
100
AcDbPolyline
 90
       38
 70
     0
 43
0.0
 10
0.1005665254018344
 20
-1.475491833062571
 10
0.084256351247605
 20
-1.462987662612384
 10
0.0659694526793206
 20
-1.452698037174173
 10
0.0431389387484079
 20
-1.44406028357003
 10
0.0185524795690434
 20
-1.439066538561018
 10
-0.0067602172408787
 20
-1.438104966384472
 10
-0.0325960033688405
 20
-1.441408471004591
 10
-0.0570469422027116
 20
-1.448819766676186
 10
-0.0805419140967017
 20
-1.460615121137573
 10
-0.1006513059895486
 20
-1.475567072982739
 10
-0.1183260913052807
 20
-1.494444779287333
 10
-0.1311522773096782
 20
-1.51440266748674
 10
-0.140434876921443
 20
-1.537135572410201
 10
-0.1449047012791933
 20
-1.558555738605169
 10
-0.1455440181786154
 20
-1.581150263705619
 10
-0.142558905602152
 20
-1.601619394698166
 10
-0.1360603249944981
 20
-1.621865383472096
 10
-0.1265491247258338
 20
-1.640437555817961
 10
-0.1139216720995904
 20
-1.657701636269268
 10
-0.0981873280362615
 20
-1.673321539657774
 10
-0.0797491640515974
 20
-1.686621269160129
 10
-0.0584587545177413
 20
-1.697361548015317
 10
-0.0351154530061465
 20
-1.704779346588576
 10
-0.0102950121448068
 20
-1.708451362634253
 10
0.0154981606820779
 20
-1.708019252685196
 10
0.0406308731433967
 20
-1.703392601500376
 10
0.0653143833122674
 20
-1.694360224404417
 10
0.087248588959023
 20
-1.681734003920736
 10
0.1072252535345271
 20
-1.664957906120249
 10
0.1227279340665922
 20
-1.646290765502234
 10
0.1349825250177793
 20
-1.624386188780092
 10
0.1422097698111338
 20
-1.603090431587667
 10
0.1456061530746939
 20
-1.580079484274783
 10
0.1449733999886735
 20
-1.559143313913313
 10
0.1406937144262192
 20
-1.538007304702639
 10
0.1333111471507748
 20
-1.518719279951754
 10
0.1226840930862113
 20
-1.500395782964526
 10
0.1005665254018344
 20
-1.475491833062571
  0
LINE
  5
B6
330
8E
100
AcDbEntity
  8
AM_9
100
AcDbLine
 10
1.03
 20
-1.859375
 30
0.0
 11
1.03
 21
-1.287375
 31
0.0
  0
LINE
  5
B7
330
8E
100
AcDbEntity
  8
AM_9
100
AcDbLine
 10
-1.03
 20
-1.287375
 30
0.0
 11
-1.03
 21
-1.859375
 31
0.0
  0
LINE
  5
B8
330
8E
100
AcDbEntity
  8
AM_9
100
AcDbLine
 10
-1.375006425067282
 20
-1.573375
 30
0.0
 11
-1.45060587496844
 21
-1.573375
 31
0.0
  0
LINE
  5
B9
330
8E
100
AcDbEntity
  8
AM_9
100
AcDbLine
 10
0.1262
 20
-1.573375
 30
0.0
 11
-0.1262
 21
-1.573375
 31
0.0
  0
ARC
  5
BB
330
8E
100
AcDbEntity
  8
AM_5
100
AcDbCircle
 10
0.0000000000000048
 20
-1.573375000000003
 30
0.0
 40
0.1562499999999983
100
AcDbArc
 50
74.99999999999996
 51
14.99999999999997
  0
ELLIPSE
  5
BC
330
8E
100
AcDbEntity
  8
AM_9
100
AcDbEllipse
 10
-0.9418501574182655
 20
-1.573375
 30
0.0
 11
7.727521302619790E-18
 21
0.1261999999999999
 31
0.0
210
0.0
220
0.0
230
1.0
 40
0.4226182617406998
 41
0.0
 42
6.283185307179586
  0
LINE
  5
BF
330
8E
100
AcDbEntity
  8
AM_7
100
AcDbLine
 10
-0.1325100000000001
 20
-1.573375
 30
0.0
 11
0.1325100000000001
 21
-1.573375
 31
0.0
  0
LWPOLYLINE
  5
C1
330
8E
100
AcDbEntity
  8
AM_4
100
AcDbPolyline
 90
       11
 70
     0
 43
0.0
 10
-1.401939855894174
 20
-1.699574999444958
 10
-1.407974207741171
 20
-1.698749536368185
 10
-1.416450277527496
 20
-1.694557841066026
 10
-1.424290422917831
 20
-1.686974375050977
 10
-1.431312528330601
 20
-1.676154858318033
 10
-1.437381202918841
 20
-1.662455024252794
 10
-1.442389318285926
 20
-1.646171854187362
 10
-1.446256065552214
 20
-1.627832621368244
 10
-1.448914809839667
 20
-1.607927559300718
 10
-1.450347088728053
 20
-1.587042232792413
 10
-1.45060587496844
 20
-1.573375
  0
ELLIPSE
  5
C2
330
8E
100
AcDbEntity
  8
AM_4
100
AcDbEllipse
 10
-1.41719348658921
 20
-1.573375
 30
0.0
 11
7.727521302619804E-18
 21
0.1262000000000001
 31
0.0
210
0.0
220
0.0
230
1.0
 40
0.4226182617407008
 41
5.971973074457932
 42
7.853981633974483
  0
LWPOLYLINE
  5
C3
330
8E
100
AcDbEntity
  8
AM_4
100
AcDbPolyline
 90
        8
 70
     0
 43
0.0
 10
-1.4124702897821
 20
-1.436606477756857
 10
-1.410329473506941
 20
-1.439382997719587
 10
-1.40111594615602
 20
-1.454001607257703
 10
-1.392887893465629
 20
-1.471729415434583
 10
-1.385829692057334
 20
-1.492506632476385
 10
-1.380327631202125
 20
-1.515742471168241
 10
-1.376637172623119
 20
-1.541137034409511
 10
-1.375006425067283
 20
-1.573375
  0
LINE
  5
C4
330
8E
100
AcDbEntity
  8
AM_4
100
AcDbLine
 10
1.59375
 20
-1.573375
 30
0.0
 11
0.1262
 21
-1.573375
 31
0.0
  0
LINE
  5
C5
330
8E
100
AcDbEntity
  8
AM_4
100
AcDbLine
 10
-0.1262
 20
-1.573375
 30
0.0
 11
-1.375006425067282
 21
-1.573375
 31
0.0
  0
ARC
  5
C6
330
8E
100
AcDbEntity
  8
AM_4
100
AcDbCircle
 10
0.0
 20
-1.573375
 30
0.0
 40
0.1262
100
AcDbArc
 50
0.0
 51
180.0
  0
LWPOLYLINE
  5
C7
330
8E
100
AcDbEntity
  8
AM_4
100
AcDbPolyline
 90
       20
 70
     0
 43
0.0
 10
0.1262
 20
-1.573375
 10
0.1244662230619141
 20
-1.594222045754779
 10
0.1191135707347936
 20
-1.615069091509557
 10
0.1105942711623785
 20
-1.634164367376724
 10
0.0986654825119592
 20
-1.652061482706258
 10
0.084291975585004
 20
-1.66729679114549
 10
0.0670813894643619
 20
-1.680269935275394
 10
0.0484467990429593
 20
-1.689905458089253
 10
0.0278700190161527
 20
-1.696459125865358
 10
0.0071328170976538
 20
-1.699373265544615
 10
-0.0144106082613639
 20
-1.698749536368185
 10
-0.0348971357837975
 20
-1.694654140473897
 10
-0.0549692822222316
 20
-1.686974375050977
 10
-0.0729699954174485
 20
-1.676340138609034
 10
-0.0893934521042879
 20
-1.662455024252794
 10
-0.1029061849383112
 20
-1.646428111511024
 10
-0.113845542182876
 20
-1.627832621368244
 10
-0.1212923012408124
 20
-1.608226365248839
 10
-0.1254577488551345
 20
-1.587042232792413
 10
-0.1262
 20
-1.573375
  0
LWPOLYLINE
  5
C8
330
8E
100
AcDbEntity
  8
AM_4
100
AcDbPolyline
 90
       11
 70
     0
 43
0.0
 10
-1.343937025705087
 20
-1.573375
 10
-1.344829710929571
 20
-1.594520545403231
 10
-1.347442749989131
 20
-1.615069091509557
 10
-1.351694925095008
 20
-1.634423516313502
 10
-1.357392304290136
 20
-1.652061482706258
 10
-1.364348753022547
 20
-1.667490160833197
 10
-1.372276177180914
 20
-1.680269935275394
 10
-1.380911166039983
 20
-1.69001107669659
 10
-1.389938916802381
 20
-1.696459125865358
 10
-1.399044413502125
 20
-1.699377390805062
 10
-1.401939855894174
 20
-1.699574999444958
  0
LINE
  5
C9
330
8E
100
AcDbEntity
  8
AM_4
100
AcDbLine
 10
1.546875
 20
-1.764041666666667
 30
0.0
 11
1.546875
 21
-1.573375
 31
0.0
  0
LINE
  5
CA
330
8E
100
AcDbEntity
  8
AM_4
100
AcDbLine
 10
-1.546875
 20
-1.573375
 30
0.0
 11
-1.546875
 21
-1.764041666666667
 31
0.0
  0
LINE
  5
CB
330
8E
100
AcDbEntity
  8
AM_4
100
AcDbLine
 10
-1.451541666666667
 20
-1.859375
 30
0.0
 11
1.451541666666667
 21
-1.859375
 31
0.0
  0
ARC
  5
CC
330
8E
100
AcDbEntity
  8
AM_4
100
AcDbCircle
 10
1.451541666666667
 20
-1.764041666666667
 30
0.0
 40
0.095333333333333
100
AcDbArc
 50
270.0
 51
0.0000008537736463
  0
ARC
  5
CD
330
8E
100
AcDbEntity
  8
AM_4
100
AcDbCircle
 10
-1.451541666666667
 20
-1.764041666666667
 30
0.0
 40
0.095333333333333
100
AcDbArc
 50
179.9999991462263
 51
270.0
  0
LINE
  5
CE
330
8E
100
AcDbEntity
  8
AM_4
100
AcDbLine
 10
-1.546875
 20
-1.764041666666667
 30
0.0
 11
1.546875
 21
-1.764041666666667
 31
0.0
  0
LWPOLYLINE
  5
CF
330
8E
100
AcDbEntity
  8
AM_4
100
AcDbPolyline
 90
       14
 70
     0
 43
0.0
 10
-1.501155039651383
 20
-1.573375
 10
-1.500758298194113
 20
-1.553849900347037
 10
-1.49957158496362
 20
-1.534607564561306
 10
-1.496633891196731
 20
-1.509058548330239
 10
-1.492035615114911
 20
-1.484645570502155
 10
-1.486170422563427
 20
-1.463850127738357
 10
-1.478660664292923
 20
-1.445696060910985
 10
-1.470405976736825
 20
-1.432367230446697
 10
-1.460775078429964
 20
-1.422776517702169
 10
-1.451070748930934
 20
-1.418014459158595
 10
-1.440522511743239
 20
-1.417421680305927
 10
-1.430370371789508
 20
-1.420892996674122
 10
-1.420027372373201
 20
-1.428412704928751
 10
-1.4124702897821
 20
-1.436606477756857
  0
LWPOLYLINE
  5
D0
330
8E
100
AcDbEntity
  8
AM_4
100
AcDbPolyline
 90
       20
 70
     0
 43
0.0
 10
-0.1492465257706964
 20
-1.573375
 10
-0.1480915551664565
 20
-1.553991282280653
 10
-0.1445716942492128
 20
-1.534607564561306
 10
-0.135995312245827
 20
-1.509058548330239
 10
-0.1228116816392783
 20
-1.484645570502154
 10
-0.1063953261478703
 20
-1.463850127738357
 10
-0.0859783476052252
 20
-1.445696060910985
 10
-0.0642472407257993
 20
-1.432367230446697
 10
-0.039743247463898
 20
-1.422776517702168
 10
-0.015887829920793
 20
-1.418014459158595
 10
0.0091845032658689
 20
-1.417421680305927
 10
0.0325503573725986
 20
-1.420892996674122
 10
0.0556524977003318
 20
-1.428412704928751
 10
0.0767216146825557
 20
-1.439382997719587
 10
0.0962470835281896
 20
-1.454001607257703
 10
0.1133060201774791
 20
-1.471729415434583
 10
0.1276714277698222
 20
-1.492506632476385
 10
0.1387059129233943
 20
-1.515742471168241
 10
0.146029663322925
 20
-1.541137034409511
 10
0.1492465257706969
 20
-1.573375
  0
LINE
  5
D1
330
8E
100
AcDbEntity
  8
AM_4
100
AcDbLine
 10
1.59375
 20
-1.573375
 30
0.0
 11
1.59375
 21
-1.287375
 31
0.0
  0
LINE
  5
D2
330
8E
100
AcDbEntity
  8
AM_4
100
AcDbLine
 10
-1.59375
 20
-1.287375
 30
0.0
 11
-1.59375
 21
-1.573375
 31
0.0
  0
LINE
  5
D3
330
8E
100
AcDbEntity
  8
AM_4
100
AcDbLine
 10
-1.59375
 20
-1.573375
 30
0.0
 11
-1.45060587496844
 21
-1.573375
 31
0.0
  0
LINE
  5
D4
330
8E
100
AcDbEntity
  8
AM_4
100
AcDbLine
 10
-1.59375
 20
-1.287375
 30
0.0
 11
1.59375
 21
-1.287375
 31
0.0
  0
CIRCLE
  5
D5
330
8E
100
AcDbEntity
  8
AM_5
100
AcDbCircle
 10
0.0000000000000051
 20
-1.573375000000003
 30
0.0
 40
0.1562499999999982
  0
ENDBLK
  5
91
330
8E
100
AcDbEntity
  8
0
100
AcDbBlockEnd
  0
BLOCK
  5
D8
330
D6
100
AcDbEntity
  8
0
100
AcDbBlockBegin
  2
3_070019i_0_in_070322_4
 70
     2
 10
0.0
 20
0.0
 30
0.0
  3
3_070019i_0_in_070322_4
  1

  0
ATTDEF
  5
DA
330
D6
100
AcDbEntity
  8
AM_6
100
AcDbText
 10
6.673249999999999
 20
0.7968749999999997
 30
0.0
 40
0.5
  1
S-2000 Insert -Inch
100
AcDbAttributeDefinition
  3

  2
NN
 70
     8
280
     0
  0
ATTDEF
  5
DB
330
D6
100
AcDbEntity
  8
AM_6
100
AcDbText
 10
6.673249999999999
 20
0.2968749999999997
 30
0.0
 40
0.5
  1
S-2000 Bearings
100
AcDbAttributeDefinition
  3

  2
NT
 70
     8
280
     0
  0
ATTDEF
  5
DC
330
D6
100
AcDbEntity
  8
AM_6
100
AcDbText
 10
6.673249999999999
 20
-0.2031250000000003
 30
0.0
 40
0.5
  1
070019i
100
AcDbAttributeDefinition
  3

  2
NB
 70
     8
280
     0
  0
ATTDEF
  5
DD
330
D6
100
AcDbEntity
  8
AM_6
100
AcDbText
 10
6.673249999999999
 20
-0.7031250000000003
 30
0.0
 40
0.5
  1
$PN.i
100
AcDbAttributeDefinition
  3

  2
NBSYN
 70
     8
280
     0
  0
ATTDEF
  5
DE
330
D6
100
AcDbEntity
  8
AM_6
100
AcDbText
 10
6.673249999999999
 20
-1.203125
 30
0.0
 40
0.5
  1
070019i
100
AcDbAttributeDefinition
  3

  2
LINA
 70
     8
280
     0
  0
ATTDEF
  5
DF
330
D6
100
AcDbEntity
  8
AM_6
100
AcDbText
 10
6.673249999999999
 20
-1.703125
 30
0.0
 40
0.5
  1
1-11/16
100
AcDbAttributeDefinition
  3

  2
SS
 70
     8
280
     0
  0
ATTDEF
  5
E0
330
D6
100
AcDbEntity
  8
AM_6
100
AcDbText
 10
6.673249999999999
 20
-2.203125
 30
0.0
 40
0.5
  1
2.06
100
AcDbAttributeDefinition
  3

  2
CC
 70
     8
280
     0
  0
ATTDEF
  5
E1
330
D6
100
AcDbEntity
  8
AM_6
100
AcDbText
 10
6.673249999999999
 20
-2.703125
 30
0.0
 40
0.5
  1
1.687500
100
AcDbAttributeDefinition
  3

  2
SS1
 70
     8
280
     0
  0
ATTDEF
  5
E2
330
D6
100
AcDbEntity
  8
AM_6
100
AcDbText
 10
6.673249999999999
 20
-3.203125
 30
0.0
 40
0.5
  1
070019
100
AcDbAttributeDefinition
  3

  2
PN
 70
     8
280
     0
  0
ATTDEF
  5
E3
330
D6
100
AcDbEntity
  8
AM_6
100
AcDbText
 10
6.673249999999999
 20
-3.703125
 30
0.0
 40
0.5
  1
INS-S2-111L
100
AcDbAttributeDefinition
  3

  2
DESCRIPTION
 70
     8
280
     0
  0
ATTDEF
  5
E4
330
D6
100
AcDbEntity
  8
AM_6
100
AcDbText
 10
6.673249999999999
 20
-4.203125
 30
0.0
 40
0.5
  1
Labyrinth Seal
100
AcDbAttributeDefinition
  3

  2
ST
 70
     8
280
     0
  0
ATTDEF
  5
E5
330
D6
100
AcDbEntity
  8
AM_6
100
AcDbText
 10
6.673249999999999
 20
-4.703125
 30
0.0
 40
0.5
  1
2
100
AcDbAttributeDefinition
  3

  2
ST1
 70
     8
280
     0
  0
ATTDEF
  5
E6
330
D6
100
AcDbEntity
  8
AM_6
100
AcDbText
 10
6.673249999999999
 20
-5.203125
 30
0.0
 40
0.5
  1
3.3465
100
AcDbAttributeDefinition
  3

  2
A
 70
     8
280
     0
  0
ATTDEF
  5
E7
330
D6
100
AcDbEntity
  8
AM_6
100
AcDbText
 10
6.673249999999999
 20
-5.703125
 30
0.0
 40
0.5
  1
61/64
100
AcDbAttributeDefinition
  3

  2
B
 70
     8
280
     0
  0
ATTDEF
  5
E8
330
D6
100
AcDbEntity
  8
AM_6
100
AcDbText
 10
6.673249999999999
 20
-6.203125
 30
0.0
 40
0.5
  1
2-21/32
100
AcDbAttributeDefinition
  3

  2
C
 70
     8
280
     0
  0
ATTDEF
  5
E9
330
D6
100
AcDbEntity
  8
AM_6
100
AcDbText
 10
6.673249999999999
 20
-6.703125
 30
0.0
 40
0.5
  1
0.954
100
AcDbAttributeDefinition
  3

  2
D
 70
     8
280
     0
  0
ATTDEF
  5
EA
330
D6
100
AcDbEntity
  8
AM_6
100
AcDbText
 10
6.673249999999999
 20
-7.203125
 30
0.0
 40
0.5
  1
3-3/32
100
AcDbAttributeDefinition
  3

  2
E
 70
     8
280
     0
  0
ATTDEF
  5
EB
330
D6
100
AcDbEntity
  8
AM_6
100
AcDbText
 10
6.673249999999999
 20
-7.703125
 30
0.0
 40
0.5
  1
0.43750
100
AcDbAttributeDefinition
  3

  2
F
 70
     8
280
     0
  0
ATTDEF
  5
EC
330
D6
100
AcDbEntity
  8
AM_6
100
AcDbText
 10
6.673249999999999
 20
-8.203125
 30
0.0
 40
0.5
  1
1
100
AcDbAttributeDefinition
  3

  2
DD
 70
     8
280
     0
  0
ATTDEF
  5
ED
330
D6
100
AcDbEntity
  8
AM_6
100
AcDbText
 10
6.673249999999999
 20
-8.703125
 30
0.0
 40
0.5
  1
baldor
100
AcDbAttributeDefinition
  3

  2
COMPANY
 70
     8
280
     0
  0
LINE
  5
EE
330
D6
100
AcDbEntity
  8
AM_9
100
AcDbLine
 10
-0.9334069671020523
 20
-1.748375
 30
0.0
 11
-0.7646428863050215
 21
-1.748375
 31
0.0
  0
LINE
  5
EF
330
D6
100
AcDbEntity
  8
AM_9
100
AcDbLine
 10
-0.764585154649415
 20
-1.398375
 30
0.0
 11
-0.9334721012813638
 21
-1.398375
 31
0.0
  0
LWPOLYLINE
  5
F0
330
D6
100
AcDbEntity
  8
AM_9
100
AcDbPolyline
 90
       12
 70
     0
 43
0.0
 10
-0.822026785738045
 20
-1.573375
 10
-0.8219921769204594
 20
-1.58052558907853
 10
-0.8211515414140971
 20
-1.609468328071883
 10
-0.819174569905496
 20
-1.637079892449707
 10
-0.8159985195415564
 20
-1.662934189133867
 10
-0.8114535383616631
 20
-1.686626164998647
 10
-0.8054970643718722
 20
-1.70719000688338
 10
-0.7979029327403648
 20
-1.724280186583436
 10
-0.7887693643638005
 20
-1.737090821255898
 10
-0.7782076217884303
 20
-1.745138491100059
 10
-0.7663797720290995
 20
-1.748329241647471
 10
-0.7647046159994157
 20
-1.748374999119067
  0
LWPOLYLINE
  5
F1
330
D6
100
AcDbEntity
  8
AM_9
100
AcDbPolyline
 90
       11
 70
     0
 43
0.0
 10
-0.7646919358912082
 20
-1.398375000442484
 10
-0.7723200198643148
 20
-1.399352498004595
 10
-0.7833095762309457
 20
-1.40477878832049
 10
-0.7929943209903398
 20
-1.414749912098702
 10
-0.8012754798825602
 20
-1.429141902450915
 10
-0.8080803304443281
 20
-1.447443949011015
 10
-0.8135136529239738
 20
-1.46965294161401
 10
-0.8175362771735719
 20
-1.494813702106718
 10
-0.8202387206199755
 20
-1.522345397484139
 10
-0.8217057899734946
 20
-1.551377683002283
 10
-0.822026785738045
 20
-1.573375
  0
LWPOLYLINE
  5
F2
330
D6
100
AcDbEntity
  8
AM_9
100
AcDbPolyline
 90
       11
 70
     0
 43
0.0
 10
-0.7647046159994157
 20
-1.748374999119067
 10
-0.7538044609079274
 20
-1.746566867649614
 10
-0.7406776125113788
 20
-1.740082803208309
 10
-0.727484013352605
 20
-1.7290467459112
 10
-0.7147029793948659
 20
-1.713827774179592
 10
-0.702674123006636
 20
-1.694430884610496
 10
-0.6921610531642521
 20
-1.671659903394636
 10
-0.6836219957386331
 20
-1.645774213830468
 10
-0.6776115954410176
 20
-1.617773222510987
 10
-0.6749983900033859
 20
-1.595764551359212
 10
-0.6741103941288001
 20
-1.573375
  0
LWPOLYLINE
  5
F3
330
D6
100
AcDbEntity
  8
AM_9
100
AcDbPolyline
 90
       11
 70
     0
 43
0.0
 10
-0.993121967560416
 20
-1.541959507426668
 10
-0.9927961114683382
 20
-1.535935157994551
 10
-0.9904517072258184
 20
-1.508185598729266
 10
-0.9867642714688368
 20
-1.482246577916395
 10
-0.98162002188536
 20
-1.458639045698534
 10
-0.9750265875995046
 20
-1.438223210716401
 10
-0.9668591845306325
 20
-1.421443789970946
 10
-0.9572524572534334
 20
-1.408965922987896
 10
-0.9463564320451331
 20
-1.401246945740267
 10
-0.934373142290947
 20
-1.398387332757163
 10
-0.9335019628885978
 20
-1.398375000390745
  0
LWPOLYLINE
  5
F4
330
D6
100
AcDbEntity
  8
AM_9
100
AcDbPolyline
 90
       10
 70
     0
 43
0.0
 10
-0.933491068243392
 20
-1.748374999433229
 10
-0.9413906076619579
 20
-1.747334402438499
 10
-0.952609825953285
 20
-1.741760631169832
 10
-0.962645248501109
 20
-1.731582001435086
 10
-0.9713534966878504
 20
-1.716954018102754
 10
-0.978631852192408
 20
-1.698382179214583
 10
-0.9845091828598938
 20
-1.676024442412315
 10
-0.9889297821264613
 20
-1.650752185835339
 10
-0.9919268375105668
 20
-1.623195207691442
 10
-0.9930473793390555
 20
-1.606273202426388
  0
LWPOLYLINE
  5
F5
330
D6
100
AcDbEntity
  8
AM_9
100
AcDbPolyline
 90
       11
 70
     0
 43
0.0
 10
-0.9335019628885978
 20
-1.398375000390745
 10
-0.9217567412184019
 20
-1.400489570914647
 10
-0.9087646740804685
 20
-1.407352859537033
 10
-0.8958513629211473
 20
-1.418820503433349
 10
-0.8834879448759001
 20
-1.434507819781523
 10
-0.8720518146171042
 20
-1.454289599966389
 10
-0.8621811619000361
 20
-1.477408463828577
 10
-0.8543161687786203
 20
-1.503465125710379
 10
-0.8488916644731226
 20
-1.531541916774621
 10
-0.8467064918936082
 20
-1.552301628812851
 10
-0.8459665306186321
 20
-1.573375
  0
LWPOLYLINE
  5
F6
330
D6
100
AcDbEntity
  8
AM_9
100
AcDbPolyline
 90
       11
 70
     0
 43
0.0
 10
-0.6741103941288001
 20
-1.573375
 10
-0.675610815986866
 20
-1.544353669779035
 10
-0.679970072807486
 20
-1.516159139375298
 10
-0.6869835769096124
 20
-1.489620970663663
 10
-0.6962373706077556
 20
-1.465405297649272
 10
-0.7074594120226381
 20
-1.443918910057596
 10
-0.7199802974934861
 20
-1.426044703758914
 10
-0.7333784873965848
 20
-1.412221532766196
 10
-0.746969935108511
 20
-1.402988976152086
 10
-0.7600279294189478
 20
-1.398732436970345
 10
-0.7646919358912082
 20
-1.398375000442484
  0
LINE
  5
F7
330
D6
100
AcDbEntity
  8
AM_9
100
AcDbLine
 10
-0.84375
 20
0.7968749999999997
 30
0.0
 11
-0.84375
 21
-1.859375
 31
0.0
  0
LINE
  5
F8
330
D6
100
AcDbEntity
  8
AM_9
100
AcDbLine
 10
0.84375
 20
-1.859375
 30
0.0
 11
0.84375
 21
0.7968749999999997
 31
0.0
  0
LWPOLYLINE
  5
F9
330
D6
100
AcDbEntity
  8
AM_9
100
AcDbPolyline
 90
       21
 70
     0
 43
0.0
 10
-0.175
 20
-1.573375
 10
-0.1748167393483924
 20
-1.565368275101752
 10
-0.1709481156099915
 20
-1.535935157994551
 10
-0.1625538556677182
 20
-1.508557995999826
 10
-0.1494008389820899
 20
-1.482246577916395
 10
-0.1323981873899365
 20
-1.458938467477124
 10
-0.111171011749654
 20
-1.438223210716401
 10
-0.0871895983241894
 20
-1.421641767173218
 10
-0.0599554450907342
 20
-1.408965922987896
 10
-0.0319026251259537
 20
-1.401307505945856
 10
-0.0020775738037907
 20
-1.398387332757163
 10
0.0265972562462646
 20
-1.400407991700236
 10
0.0553321685468323
 20
-1.407352859537033
 10
0.0816982203405888
 20
-1.418615829696006
 10
0.1064936911660453
 20
-1.434507819781523
 10
0.1279391803991793
 20
-1.453974136859124
 10
0.1463400968130711
 20
-1.477408463828577
 10
0.1602526280677689
 20
-1.503060739729602
 10
0.1699264345175832
 20
-1.53154191677462
 10
0.1737073028630756
 20
-1.552143586197906
 10
0.175
 20
-1.573375
  0
LWPOLYLINE
  5
FA
330
D6
100
AcDbEntity
  8
AM_9
100
AcDbPolyline
 90
       20
 70
     0
 43
0.0
 10
0.175
 20
-1.573375
 10
0.1726263641033513
 20
-1.602100222652874
 10
0.1653010778372945
 20
-1.630825445305748
 10
0.1536562729286779
 20
-1.657129103121385
 10
0.1373710388837956
 20
-1.681791777649895
 10
0.1175946466448143
 20
-1.702976308174267
 10
0.0938853087878011
 20
-1.721058949005365
 10
0.0680387470719214
 20
-1.734606910293475
 10
0.0394227863205064
 20
-1.743876741688253
 10
0.0107628715723161
 20
-1.748043716705419
 10
-0.019055873195427
 20
-1.747334402438499
 10
-0.0472026499957345
 20
-1.741888826831451
 10
-0.0748033735664281
 20
-1.731582001435086
 10
-0.099696712880877
 20
-1.717199773390219
 10
-0.1224671594543335
 20
-1.698382179214583
 10
-0.1414768870885451
 20
-1.676376409794891
 10
-0.1569642351371912
 20
-1.650752185835339
 10
-0.1676323576327585
 20
-1.62361833462742
 10
-0.1737572501442957
 20
-1.594193694058289
 10
-0.175
 20
-1.573375
  0
LWPOLYLINE
  5
FB
330
D6
100
AcDbEntity
  8
AM_9
100
AcDbPolyline
 90
       11
 70
     0
 43
0.0
 10
-0.8459665306186321
 20
-1.573375
 10
-0.8473908198274073
 20
-1.602513799809129
 10
-0.8515378136575075
 20
-1.630825445305748
 10
-0.8582320347361312
 20
-1.657480996380489
 10
-0.8671019512214848
 20
-1.681791777649895
 10
-0.8778622311135075
 20
-1.703243429806787
 10
-0.889933322060835
 20
-1.721058949005365
 10
-0.9028958032730704
 20
-1.734758453474293
 10
-0.9161522215135174
 20
-1.743876741688253
 10
-0.9290782496963216
 20
-1.748051356212409
 10
-0.933491068243392
 20
-1.748374999433229
  0
LINE
  5
FC
330
D6
100
AcDbEntity
  8
AM_9
100
AcDbLine
 10
-1.03
 20
-1.287375
 30
0.0
 11
-1.03
 21
-1.859375
 31
0.0
  0
LINE
  5
FD
330
D6
100
AcDbEntity
  8
AM_9
100
AcDbLine
 10
1.03
 20
-1.859375
 30
0.0
 11
1.03
 21
-1.287375
 31
0.0
  0
LINE
  5
FE
330
D6
100
AcDbEntity
  8
AM_9
100
AcDbLine
 10
1.03
 20
0.7968749999999997
 30
0.0
 11
-1.03
 21
0.7968749999999997
 31
0.0
  0
LINE
  5
FF
330
D6
100
AcDbEntity
  8
AM_9
100
AcDbLine
 10
-1.03
 20
0.7968749999999997
 30
0.0
 11
-1.03
 21
0.5356249999999999
 31
0.0
  0
LINE
  5
100
330
D6
100
AcDbEntity
  8
AM_9
100
AcDbLine
 10
1.03
 20
0.5356249999999999
 30
0.0
 11
1.03
 21
0.7968749999999997
 31
0.0
  0
LINE
  5
101
330
D6
100
AcDbEntity
  8
AM_9
100
AcDbLine
 10
-1.3386
 20
0.4403125
 30
0.0
 11
-1.3386
 21
0.3194375000000002
 31
0.0
  0
LINE
  5
102
330
D6
100
AcDbEntity
  8
AM_9
100
AcDbLine
 10
1.3386
 20
0.3194375000000002
 30
0.0
 11
1.3386
 21
0.4403125
 31
0.0
  0
LINE
  5
103
330
D6
100
AcDbEntity
  8
AM_9
100
AcDbLine
 10
1.2432875
 20
0.5356249999999999
 30
0.0
 11
-1.243287499997249
 21
0.5356249999999999
 31
0.0
  0
LINE
  5
104
330
D6
100
AcDbEntity
  8
AM_9
100
AcDbLine
 10
1.3386
 20
0.4403125
 30
0.0
 11
-1.3386
 21
0.4403125
 31
0.0
  0
ARC
  5
105
330
D6
100
AcDbEntity
  8
AM_9
100
AcDbCircle
 10
-1.243287499999999
 20
0.4403124999999991
 30
0.0
 40
0.0953125000000008
100
AcDbArc
 50
90.0
 51
180.0
  0
ARC
  5
106
330
D6
100
AcDbEntity
  8
AM_9
100
AcDbCircle
 10
1.243287499999999
 20
0.4403124999999991
 30
0.0
 40
0.0953125000000008
100
AcDbArc
 50
0.0
 51
90.0
  0
LINE
  5
107
330
D6
100
AcDbEntity
  8
AM_9
100
AcDbLine
 10
-1.3386
 20
-0.6336874999999998
 30
0.0
 11
-1.3386
 21
-0.7545625
 31
0.0
  0
LINE
  5
108
330
D6
100
AcDbEntity
  8
AM_9
100
AcDbLine
 10
1.3386
 20
-0.7545625
 30
0.0
 11
1.3386
 21
-0.6336874999999998
 31
0.0
  0
LINE
  5
109
330
D6
100
AcDbEntity
  8
AM_9
100
AcDbLine
 10
1.3386
 20
-0.7545625
 30
0.0
 11
-1.3386
 21
-0.7545625
 31
0.0
  0
ARC
  5
10A
330
D6
100
AcDbEntity
  8
AM_9
100
AcDbCircle
 10
-1.2432875
 20
-0.7545624999999997
 30
0.0
 40
0.0953125000000006
100
AcDbArc
 50
180.0
 51
227.6476946574946
  0
ARC
  5
10B
330
D6
100
AcDbEntity
  8
AM_9
100
AcDbCircle
 10
1.2432875
 20
-0.7545624999999997
 30
0.0
 40
0.0953125000000005
100
AcDbArc
 50
312.3523053425054
 51
0.0
  0
LINE
  5
10C
330
D6
100
AcDbEntity
  8
AM_9
100
AcDbLine
 10
-1.60632
 20
-0.1094687499999981
 30
0.0
 11
-1.60632
 21
-0.2047812500000018
 31
0.0
  0
LINE
  5
10D
330
D6
100
AcDbEntity
  8
AM_9
100
AcDbLine
 10
1.60632
 20
-0.2047812500000018
 30
0.0
 11
1.60632
 21
-0.1094687499999981
 31
0.0
  0
LINE
  5
10E
330
D6
100
AcDbEntity
  8
AM_9
100
AcDbLine
 10
1.33519872701753
 20
-0.109468749999998
 30
0.0
 11
-1.60632
 21
-0.1094687499999981
 31
0.0
  0
LINE
  5
10F
330
D6
100
AcDbEntity
  8
AM_9
100
AcDbLine
 10
1.60632
 20
-0.1094687499999981
 30
0.0
 11
1.336231755915849
 21
-0.109468749999998
 31
0.0
  0
LINE
  5
110
330
D6
100
AcDbEntity
  8
AM_9
100
AcDbLine
 10
1.60632
 20
-0.1094687499999981
 30
0.0
 11
1.67325
 21
-0.0708266964831365
 31
0.0
  0
LINE
  5
111
330
D6
100
AcDbEntity
  8
AM_9
100
AcDbLine
 10
-1.67325
 20
-0.0708266964831365
 30
0.0
 11
-1.60632
 21
-0.1094687499999981
 31
0.0
  0
LINE
  5
112
330
D6
100
AcDbEntity
  8
AM_9
100
AcDbLine
 10
1.5779375
 20
0.3194375000000002
 30
0.0
 11
-1.577937499999193
 21
0.3194375000000002
 31
0.0
  0
ARC
  5
113
330
D6
100
AcDbEntity
  8
AM_9
100
AcDbCircle
 10
-1.577937499999999
 20
0.2241249999999995
 30
0.0
 40
0.0953125000000007
100
AcDbArc
 50
90.0
 51
180.0
  0
ARC
  5
114
330
D6
100
AcDbEntity
  8
AM_9
100
AcDbCircle
 10
1.577937499999999
 20
0.2241249999999994
 30
0.0
 40
0.0953125000000008
100
AcDbArc
 50
0.0
 51
90.0
  0
LINE
  5
115
330
D6
100
AcDbEntity
  8
AM_9
100
AcDbLine
 10
1.5779375
 20
-0.6336874999999998
 30
0.0
 11
-1.577937499999193
 21
-0.6336874999999998
 31
0.0
  0
ARC
  5
116
330
D6
100
AcDbEntity
  8
AM_9
100
AcDbCircle
 10
-1.5779375
 20
-0.5383749999999999
 30
0.0
 40
0.0953124999999999
100
AcDbArc
 50
180.0
 51
270.0
  0
ARC
  5
117
330
D6
100
AcDbEntity
  8
AM_9
100
AcDbCircle
 10
1.5779375
 20
-0.5383749999999999
 30
0.0
 40
0.0953124999999999
100
AcDbArc
 50
270.0
 51
0.0
  0
LINE
  5
118
330
D6
100
AcDbEntity
  8
AM_9
100
AcDbLine
 10
1.67325
 20
0.2241250000000002
 30
0.0
 11
-1.67325
 21
0.2241250000000002
 31
0.0
  0
LINE
  5
119
330
D6
100
AcDbEntity
  8
AM_9
100
AcDbLine
 10
1.67325
 20
-0.0708266964831365
 30
0.0
 11
-1.67325
 21
-0.0708266964831365
 31
0.0
  0
LINE
  5
11A
330
D6
100
AcDbEntity
  8
AM_9
100
AcDbLine
 10
-1.67325
 20
0.2241250000000002
 30
0.0
 11
-1.67325
 21
-0.0708266964831365
 31
0.0
  0
LINE
  5
11B
330
D6
100
AcDbEntity
  8
AM_9
100
AcDbLine
 10
1.67325
 20
-0.0708266964831365
 30
0.0
 11
1.67325
 21
0.2241250000000002
 31
0.0
  0
LINE
  5
11C
330
D6
100
AcDbEntity
  8
AM_9
100
AcDbLine
 10
1.67325
 20
-0.5383749999999999
 30
0.0
 11
-1.67325
 21
-0.5383749999999999
 31
0.0
  0
LINE
  5
11D
330
D6
100
AcDbEntity
  8
AM_9
100
AcDbLine
 10
-1.67325
 20
-0.2434233035168635
 30
0.0
 11
-1.67325
 21
-0.5383749999999999
 31
0.0
  0
LINE
  5
11E
330
D6
100
AcDbEntity
  8
AM_9
100
AcDbLine
 10
1.67325
 20
-0.5383749999999999
 30
0.0
 11
1.67325
 21
-0.2434233035168635
 31
0.0
  0
LINE
  5
11F
330
D6
100
AcDbEntity
  8
AM_9
100
AcDbLine
 10
1.60632
 20
-0.2047812500000018
 30
0.0
 11
-1.60632
 21
-0.2047812500000018
 31
0.0
  0
LINE
  5
120
330
D6
100
AcDbEntity
  8
AM_9
100
AcDbLine
 10
1.67325
 20
-0.2434233035168635
 30
0.0
 11
-1.67325
 21
-0.2434233035168635
 31
0.0
  0
LINE
  5
121
330
D6
100
AcDbEntity
  8
AM_9
100
AcDbLine
 10
-1.60632
 20
-0.2047812500000018
 30
0.0
 11
-1.67325
 21
-0.2434233035168635
 31
0.0
  0
LINE
  5
122
330
D6
100
AcDbEntity
  8
AM_9
100
AcDbLine
 10
1.67325
 20
-0.2434233035168635
 30
0.0
 11
1.60632
 21
-0.2047812500000018
 31
0.0
  0
LINE
  5
123
330
D6
100
AcDbEntity
  8
AM_4
100
AcDbLine
 10
-1.03
 20
-0.8498750000000002
 30
0.0
 11
-1.03
 21
-1.287375
 31
0.0
  0
LINE
  5
124
330
D6
100
AcDbEntity
  8
AM_4
100
AcDbLine
 10
1.03
 20
-1.287375
 30
0.0
 11
1.03
 21
-0.8498750000000002
 31
0.0
  0
LINE
  5
125
330
D6
100
AcDbEntity
  8
AM_4
100
AcDbLine
 10
1.2432875
 20
-0.8498749999999999
 30
0.0
 11
-1.243287499997249
 21
-0.8498749999999999
 31
0.0
  0
ARC
  5
126
330
D6
100
AcDbEntity
  8
AM_4
100
AcDbCircle
 10
-1.2432875
 20
-0.7545625000000005
 30
0.0
 40
0.0953124999999995
100
AcDbArc
 50
227.6476946574946
 51
270.0
  0
ARC
  5
127
330
D6
100
AcDbEntity
  8
AM_4
100
AcDbCircle
 10
1.2432875
 20
-0.7545625000000006
 30
0.0
 40
0.0953124999999994
100
AcDbArc
 50
270.0
 51
312.3523053425055
  0
ENDBLK
  5
D9
330
D6
100
AcDbEntity
  8
0
100
AcDbBlockEnd
  0
BLOCK
  5
12A
330
128
100
AcDbEntity
  8
0
100
AcDbBlockBegin
  2
4_405015E_Inch_0_in_070322_4
 70
     2
 10
0.0
 20
0.0
 30
0.0
  3
4_405015E_Inch_0_in_070322_4
  1

  0
ATTDEF
  5
12C
330
128
100
AcDbEntity
  8
AM_6
100
AcDbText
 10
6.396734171481428
 20
0.2187500000000001
 30
0.0
 40
0.5
  1
405015E -Inch
100
AcDbAttributeDefinition
  3

  2
NN
 70
     8
280
     0
  0
ATTDEF
  5
12D
330
128
100
AcDbEntity
  8
AM_6
100
AcDbText
 10
6.396734171481428
 20
-0.2812499999999999
 30
0.0
 40
0.5
  1
Grease Fitting
100
AcDbAttributeDefinition
  3

  2
NT
 70
     8
280
     0
  0
ATTDEF
  5
12E
330
128
100
AcDbEntity
  8
AM_6
100
AcDbText
 10
6.396734171481428
 20
-0.7812499999999999
 30
0.0
 40
0.5
  1
405015E-Inch
100
AcDbAttributeDefinition
  3

  2
NB
 70
     8
280
     0
  0
ATTDEF
  5
12F
330
128
100
AcDbEntity
  8
AM_6
100
AcDbText
 10
6.396734171481428
 20
-1.28125
 30
0.0
 40
0.5
  1
$MN.-Inch
100
AcDbAttributeDefinition
  3

  2
NBSYN
 70
     8
280
     0
  0
ATTDEF
  5
130
330
128
100
AcDbEntity
  8
AM_6
100
AcDbText
 10
6.396734171481428
 20
-1.78125
 30
0.0
 40
0.5
  1
405015E
100
AcDbAttributeDefinition
  3

  2
LINA
 70
     8
280
     0
  0
ATTDEF
  5
131
330
128
100
AcDbEntity
  8
AM_6
100
AcDbText
 10
6.396734171481428
 20
-2.28125
 30
0.0
 40
0.5
  1
405015E
100
AcDbAttributeDefinition
  3

  2
MN
 70
     8
280
     0
  0
ATTDEF
  5
132
330
128
100
AcDbEntity
  8
AM_6
100
AcDbText
 10
6.396734171481428
 20
-2.78125
 30
0.0
 40
0.5
  1
1/8 x 27PTF
100
AcDbAttributeDefinition
  3

  2
T
 70
     8
280
     0
  0
ATTDEF
  5
133
330
128
100
AcDbEntity
  8
AM_6
100
AcDbText
 10
6.396734171481428
 20
-3.28125
 30
0.0
 40
0.5
  1
baldor
100
AcDbAttributeDefinition
  3

  2
COMPANY
 70
     8
280
     0
  0
ELLIPSE
  5
134
330
128
100
AcDbEntity
  8
AM_9
100
AcDbEllipse
 10
0.9878125000000003
 20
0.0000000000000001
 30
0.0
 11
9.913691727296317E-18
 21
0.161902872472269
 31
0.0
210
0.0
220
0.0
230
1.0
 40
0.866025403784439
 41
0.0
 42
6.283185307179586
  0
LINE
  5
135
330
128
100
AcDbEntity
  8
AM_9
100
AcDbLine
 10
1.30553464140968
 20
-0.0684104087427983
 30
0.0
 11
1.284375
 21
-0.1093749999999999
 31
0.0
  0
LINE
  5
136
330
128
100
AcDbEntity
  8
AM_9
100
AcDbLine
 10
1.343596299848308
 20
0.0000000000000001
 30
0.0
 11
1.321590180850795
 21
-0.038872127408362
 31
0.0
  0
LINE
  5
137
330
128
100
AcDbEntity
  8
AM_9
100
AcDbLine
 10
1.320135011323008
 20
0.0415032072450218
 30
0.0
 11
1.343596299848308
 21
0.0000000000000001
 31
0.0
  0
LINE
  5
138
330
128
100
AcDbEntity
  8
AM_9
100
AcDbLine
 10
1.284375
 20
0.1093750000000001
 30
0.0
 11
1.306031830963937
 21
0.0674776855021826
 31
0.0
  0
LWPOLYLINE
  5
139
330
128
100
AcDbEntity
  8
AM_9
100
AcDbPolyline
 90
        3
 70
     0
 43
0.0
 10
1.334375000000001
 20
-0.1093749999999999
 10
1.360522059607483
 20
-0.0546874999999999
 10
1.384528700151693
 20
0.0000000000000001
  0
LWPOLYLINE
  5
13A
330
128
100
AcDbEntity
  8
AM_9
100
AcDbPolyline
 90
        3
 70
     0
 43
0.0
 10
1.384528700151693
 20
0.0000000000000001
 10
1.360634432388115
 20
0.0544416102741497
 10
1.334375000000001
 20
0.109375
  0
LWPOLYLINE
  5
13B
330
128
100
AcDbEntity
  8
AM_9
100
AcDbPolyline
 90
        3
 70
     0
 43
0.0
 10
1.234221299848308
 20
0.2187500000000001
 10
1.258115567611885
 20
0.1643083897258505
 10
1.284375
 20
0.1093750000000001
  0
LWPOLYLINE
  5
13C
330
128
100
AcDbEntity
  8
AM_9
100
AcDbPolyline
 90
        3
 70
     0
 43
0.0
 10
1.284375
 20
-0.1093749999999999
 10
1.258227940392518
 20
-0.1640624999999999
 10
1.234221299848308
 20
-0.2187499999999999
  0
LINE
  5
13D
330
128
100
AcDbEntity
  8
AM_9
100
AcDbLine
 10
1.384528700151693
 20
0.0000000000000001
 30
0.0
 11
1.343596299848308
 21
0.0000000000000001
 31
0.0
  0
LINE
  5
13E
330
128
100
AcDbEntity
  8
AM_9
100
AcDbLine
 10
0.9968592106261549
 20
-0.1983264404626879
 30
0.0
 11
1.110667397832291
 21
-0.2054502516015134
 31
0.0
  0
LINE
  5
13F
330
128
100
AcDbEntity
  8
AM_9
100
AcDbLine
 10
1.110667397832291
 20
0.2054502516015136
 30
0.0
 11
0.9968592106261549
 21
0.198326440462688
 31
0.0
  0
ELLIPSE
  5
140
330
128
100
AcDbEntity
  8
AM_9
100
AcDbEllipse
 10
1.170312499995668
 20
-0.0000000000025246
 30
0.0
 11
-4.018372309793547E-17
 21
-0.2187500000049699
 31
0.0
210
0.0
220
0.0
230
1.0
 40
0.8660254037868999
 41
1.032970329635392
 42
2.108622323974227
  0
ELLIPSE
  5
141
330
128
100
AcDbEntity
  8
AM_9
100
AcDbEllipse
 10
1.1703125
 20
0.0000000000000003
 30
0.0
 11
-3.926523799766211E-17
 21
-0.2137500000000006
 31
0.0
210
0.0
220
0.0
230
1.0
 40
0.8660254037844398
 41
0.9862868522353399
 42
2.155305801354452
  0
ELLIPSE
  5
142
330
128
100
AcDbEntity
  8
AM_9
100
AcDbEllipse
 10
1.179471599270441
 20
-0.0000000000000002
 30
0.0
 11
-3.169399141454445E-17
 21
-0.1725340532830148
 31
0.0
210
0.0
220
0.0
230
1.0
 40
0.8660254037844419
 41
0.6732704101474818
 42
2.468322243442314
  0
LINE
  5
143
330
128
100
AcDbEntity
  8
AM_9
100
AcDbLine
 10
1.2903125
 20
0.0703562363973517
 30
0.0
 11
1.283073404853149
 21
0.0796165180238022
 31
0.0
  0
LINE
  5
144
330
128
100
AcDbEntity
  8
AM_9
100
AcDbLine
 10
1.283073404853149
 20
-0.0796165180238018
 30
0.0
 11
1.2903125
 21
-0.0703562363973514
 31
0.0
  0
ELLIPSE
  5
145
330
128
100
AcDbEntity
  8
AM_9
100
AcDbEllipse
 10
1.206689060809287
 20
-0.000000000000002
 30
0.0
 11
-2.182689656893313E-17
 21
-0.1188200907348952
 31
0.0
210
0.0
220
0.0
230
1.0
 40
0.8660254037844417
 41
0.0521714424105859
 42
3.089421211179207
  0
LINE
  5
146
330
128
100
AcDbEntity
  8
AM_9
100
AcDbLine
 10
1.2228125
 20
-0.1049999999999999
 30
0.0
 11
1.2378125
 21
-0.1049999999999999
 31
0.0
  0
LINE
  5
147
330
128
100
AcDbEntity
  8
AM_9
100
AcDbLine
 10
1.2378125
 20
0.1050000000000001
 30
0.0
 11
1.2228125
 21
0.1050000000000001
 31
0.0
  0
ELLIPSE
  5
148
330
128
100
AcDbEntity
  8
AM_9
100
AcDbEllipse
 10
1.237812500000001
 20
-0.0000000000000001
 30
0.0
 11
-1.928818708657085E-17
 21
-0.1050000000000002
 31
0.0
210
0.0
220
0.0
230
1.0
 40
0.8660254037844431
 41
5.235987755982985
 42
10.47197551196598
  0
ELLIPSE
  5
149
330
128
100
AcDbEntity
  8
AM_9
100
AcDbEllipse
 10
1.222812500000005
 20
0.0000000000000025
 30
0.0
 11
-1.928818708657126E-17
 21
-0.1050000000000024
 31
0.0
210
0.0
220
0.0
230
1.0
 40
0.8660254037844481
 41
5.858105981271366
 42
9.84985728667762
  0
ELLIPSE
  5
14A
330
128
100
AcDbEntity
  8
AM_9
100
AcDbEllipse
 10
1.267812500000002
 20
0.0000000000000002
 30
0.0
 11
-2.479909768273378E-17
 21
-0.1349999999999993
 31
0.0
210
0.0
220
0.0
230
1.0
 40
0.8660254037844338
 41
0.7751090107151155
 42
2.366483642874676
  0
ELLIPSE
  5
14B
330
128
100
AcDbEntity
  8
AM_9
100
AcDbEllipse
 10
1.1203125
 20
0.0000000000000002
 30
0.0
 11
-3.779601035290908E-17
 21
-0.2057518972230695
 31
0.0
210
0.0
220
0.0
230
1.0
 40
0.8660254037844382
 41
0.0
 42
6.283185307179586
  0
ELLIPSE
  5
14C
330
128
100
AcDbEntity
  8
AM_9
100
AcDbEllipse
 10
1.006169877154473
 20
-0.0000000000000002
 30
0.0
 11
-3.648546613377894E-17
 21
-0.1986176267812159
 31
0.0
210
0.0
220
0.0
230
1.0
 40
0.8660254037844388
 41
0.0
 42
6.283185307179586
  0
ELLIPSE
  5
14D
330
128
100
AcDbEntity
  8
AM_9
100
AcDbEllipse
 10
1.120312499999998
 20
0.0000000000000001
 30
0.0
 11
-4.018372309702234E-17
 21
-0.218749999999999
 31
0.0
210
0.0
220
0.0
230
1.0
 40
0.8660254037844338
 41
0.0
 42
6.283185307179586
  0
LWPOLYLINE
  5
14E
330
128
100
AcDbEntity
  8
AM_4
100
AcDbPolyline
 90
        3
 70
     0
 43
0.0
 10
1.275153700151693
 20
-0.2187499999999999
 10
1.305701042662265
 20
-0.1643083897258503
 10
1.334375000000001
 20
-0.1093749999999999
  0
LWPOLYLINE
  5
14F
330
128
100
AcDbEntity
  8
AM_4
100
AcDbPolyline
 90
        3
 70
     0
 43
0.0
 10
1.334375000000001
 20
0.109375
 10
1.305834559607483
 20
0.1640625000000001
 10
1.275153700151693
 20
0.2187500000000001
  0
ELLIPSE
  5
150
330
128
100
AcDbEntity
  8
AM_4
100
AcDbEllipse
 10
1.170312499999999
 20
-0.0000000000000009
 30
0.0
 11
-4.018372309702272E-17
 21
-0.2187500000000011
 31
0.0
210
0.0
220
0.0
230
1.0
 40
0.8660254037844398
 41
2.108622323974782
 42
7.316155636794608
  0
ELLIPSE
  5
151
330
128
100
AcDbEntity
  8
AM_4
100
AcDbEllipse
 10
1.1703125
 20
0.0000000000000001
 30
0.0
 11
-3.926523799766200E-17
 21
-0.21375
 31
0.0
210
0.0
220
0.0
230
1.0
 40
0.866025403784439
 41
2.155305801354455
 42
7.269472159414924
  0
LWPOLYLINE
  5
152
330
128
100
AcDbEntity
  8
AM_4
100
AcDbPolyline
 90
        3
 70
     0
 43
0.0
 10
1.056403700151693
 20
0.2187500000000001
 10
1.032509432388116
 20
0.1643083897258505
 10
1.00625
 20
0.109375
  0
LINE
  5
153
330
128
100
AcDbEntity
  8
AM_4
100
AcDbLine
 10
1.275153700151693
 20
0.2187500000000001
 30
0.0
 11
1.015471299848308
 21
0.2187500000000001
 31
0.0
  0
LWPOLYLINE
  5
154
330
128
100
AcDbEntity
  8
AM_4
100
AcDbPolyline
 90
        3
 70
     0
 43
0.0
 10
0.9562500000000004
 20
0.1093750000000001
 10
0.9847904403925176
 20
0.1640625000000001
 10
1.015471299848308
 20
0.2187500000000001
  0
LWPOLYLINE
  5
155
330
128
100
AcDbEntity
  8
AM_4
100
AcDbPolyline
 90
        3
 70
     0
 43
0.0
 10
0.9060962998483076
 20
0.0000000000000001
 10
0.9299905676118851
 20
0.0544416102741497
 10
0.9562500000000004
 20
0.1093750000000001
  0
LINE
  5
156
330
128
100
AcDbEntity
  8
AM_4
100
AcDbLine
 10
1.275153700151693
 20
-0.2187499999999999
 30
0.0
 11
1.015471299848308
 21
-0.2187499999999999
 31
0.0
  0
LWPOLYLINE
  5
157
330
128
100
AcDbEntity
  8
AM_4
100
AcDbPolyline
 90
        3
 70
     0
 43
0.0
 10
1.00625
 20
-0.1093749999999999
 10
1.032397059607483
 20
-0.1640624999999999
 10
1.056403700151693
 20
-0.2187499999999999
  0
LINE
  5
158
330
128
100
AcDbEntity
  8
AM_4
100
AcDbLine
 10
0.9470287001516932
 20
0.0000000000000001
 30
0.0
 11
0.9060962998483076
 21
0.0000000000000001
 31
0.0
  0
LWPOLYLINE
  5
159
330
128
100
AcDbEntity
  8
AM_4
100
AcDbPolyline
 90
        3
 70
     0
 43
0.0
 10
0.9562500000000004
 20
-0.1093749999999999
 10
0.9301029403925177
 20
-0.0546874999999999
 10
0.9060962998483076
 20
0.0000000000000001
  0
LWPOLYLINE
  5
15A
330
128
100
AcDbEntity
  8
AM_4
100
AcDbPolyline
 90
        3
 70
     0
 43
0.0
 10
1.015471299848308
 20
-0.2187499999999999
 10
0.9849239573377355
 20
-0.1643083897258503
 10
0.9562500000000004
 20
-0.1093749999999999
  0
LWPOLYLINE
  5
15B
330
128
100
AcDbEntity
  8
AM_4
100
AcDbPolyline
 90
        3
 70
     0
 43
0.0
 10
1.00625
 20
0.109375
 10
0.977709559607483
 20
0.0546875000000001
 10
0.9470287001516932
 20
0.0000000000000001
  0
LWPOLYLINE
  5
15C
330
128
100
AcDbEntity
  8
AM_4
100
AcDbPolyline
 90
        3
 70
     0
 43
0.0
 10
0.9470287001516932
 20
0.0000000000000001
 10
0.977576042662265
 20
-0.0544416102741494
 10
1.00625
 20
-0.1093749999999999
  0
ELLIPSE
  5
15D
330
128
100
AcDbEntity
  8
AM_4
100
AcDbEllipse
 10
1.179471599270441
 20
0.0000000000000001
 30
0.0
 11
-3.169399141454455E-17
 21
-0.1725340532830154
 31
0.0
210
0.0
220
0.0
230
1.0
 40
0.8660254037844392
 41
2.468322243442313
 42
6.956455717327067
  0
ELLIPSE
  5
15E
330
128
100
AcDbEntity
  8
AM_4
100
AcDbEllipse
 10
1.206689060809286
 20
0.0000000000000001
 30
0.0
 11
-2.182689656893351E-17
 21
-0.1188200907348973
 31
0.0
210
0.0
220
0.0
230
1.0
 40
0.8660254037844324
 41
3.089421211179199
 42
6.335356749590181
  0
ELLIPSE
  5
15F
330
128
100
AcDbEntity
  8
AM_4
100
AcDbEllipse
 10
1.2228125
 20
0.0000000000000002
 30
0.0
 11
-1.928818708657084E-17
 21
-0.1050000000000001
 31
0.0
210
0.0
220
0.0
230
1.0
 40
0.8660254037844352
 41
3.566671979497983
 42
5.8581059812714
  0
LINE
  5
160
330
128
100
AcDbEntity
  8
AM_4
100
AcDbLine
 10
1.1590625
 20
-0.0524999999999999
 30
0.0
 11
1.1665625
 21
-0.0674999999999999
 31
0.0
  0
LINE
  5
161
330
128
100
AcDbEntity
  8
AM_4
100
AcDbLine
 10
1.1665625
 20
0.0675000000000002
 30
0.0
 11
1.1590625
 21
0.0525000000000002
 31
0.0
  0
ELLIPSE
  5
162
330
128
100
AcDbEntity
  8
AM_4
100
AcDbEllipse
 10
1.267812500000002
 20
0.0000000000000001
 30
0.0
 11
-2.479909768273421E-17
 21
-0.1350000000000017
 31
0.0
210
0.0
220
0.0
230
1.0
 40
0.866025403784437
 41
2.36648364287468
 42
7.058294317894701
  0
ELLIPSE
  5
163
330
128
100
AcDbEntity
  8
AM_4
100
AcDbEllipse
 10
1.237812499999999
 20
0.0000000000000001
 30
0.0
 11
-1.928818708657065E-17
 21
-0.1049999999999991
 31
0.0
210
0.0
220
0.0
230
1.0
 40
0.8660254037844375
 41
4.188790204786386
 42
5.235987755982995
  0
LINE
  5
164
330
128
100
AcDbEntity
  8
AM_4
100
AcDbLine
 10
1.370039347792108
 20
0.0733474205218688
 30
0.0
 11
1.34962781073162
 21
0.0964365416902992
 31
0.0
  0
LINE
  5
165
330
128
100
AcDbEntity
  8
AM_4
100
AcDbLine
 10
1.34962781073162
 20
-0.0964365416902989
 30
0.0
 11
1.370039347792108
 21
-0.0733474205218686
 31
0.0
  0
ELLIPSE
  5
166
330
128
100
AcDbEntity
  8
AM_4
100
AcDbEllipse
 10
1.307812500000002
 20
0.0000000000000013
 30
0.0
 11
-1.886162459184615E-17
 21
-0.1026779019331852
 31
0.0
210
0.0
220
0.0
230
1.0
 40
0.8660254037844445
 41
0.0
 42
6.283185307179586
  0
ENDBLK
  5
12B
330
128
100
AcDbEntity
  8
0
100
AcDbBlockEnd
  0
BLOCK
  5
169
330
167
100
AcDbEntity
  8
0
100
AcDbBlockBegin
  2
5_070322H_0_in_070322_4
 70
     2
 10
0.0
 20
0.0
 30
0.0
  3
5_070322H_0_in_070322_4
  1

  0
ATTDEF
  5
16B
330
167
100
AcDbEntity
  8
AM_6
100
AcDbText
 10
8.6875
 20
1.163461538461539
 30
0.0
 40
0.5
  1
P2B-S2-(Labyrinth Seal)-Housing
100
AcDbAttributeDefinition
  3

  2
NN
 70
     8
280
     0
  0
ATTDEF
  5
16C
330
167
100
AcDbEntity
  8
AM_6
100
AcDbText
 10
8.6875
 20
0.6634615384615385
 30
0.0
 40
0.5
  1
S-2000 Pillow Block Bearing -Inch (2-Bolt Base)
100
AcDbAttributeDefinition
  3

  2
NT
 70
     8
280
     0
  0
ATTDEF
  5
16D
330
167
100
AcDbEntity
  8
AM_6
100
AcDbText
 10
8.6875
 20
0.1634615384615385
 30
0.0
 40
0.5
  1
070322H
100
AcDbAttributeDefinition
  3

  2
NB
 70
     8
280
     0
  0
ATTDEF
  5
16E
330
167
100
AcDbEntity
  8
AM_6
100
AcDbText
 10
8.6875
 20
-0.3365384615384615
 30
0.0
 40
0.5
  1
$PN.H
100
AcDbAttributeDefinition
  3

  2
NBSYN
 70
     8
280
     0
  0
ATTDEF
  5
16F
330
167
100
AcDbEntity
  8
AM_6
100
AcDbText
 10
8.6875
 20
-0.8365384615384615
 30
0.0
 40
0.5
  1
070322
100
AcDbAttributeDefinition
  3

  2
LINA
 70
     8
280
     0
  0
ATTDEF
  5
170
330
167
100
AcDbEntity
  8
AM_6
100
AcDbText
 10
8.6875
 20
-1.336538461538461
 30
0.0
 40
0.5
  1
1-11/16
100
AcDbAttributeDefinition
  3

  2
SS
 70
     8
280
     0
  0
ATTDEF
  5
171
330
167
100
AcDbEntity
  8
AM_6
100
AcDbText
 10
8.6875
 20
-1.836538461538461
 30
0.0
 40
0.5
  1
070322
100
AcDbAttributeDefinition
  3

  2
PN
 70
     8
280
     0
  0
ATTDEF
  5
172
330
167
100
AcDbEntity
  8
AM_6
100
AcDbText
 10
8.6875
 20
-2.336538461538462
 30
0.0
 40
0.5
  1
P2B-S2-111L
100
AcDbAttributeDefinition
  3

  2
DESCRIPTION
 70
     8
280
     0
  0
ATTDEF
  5
173
330
167
100
AcDbEntity
  8
AM_6
100
AcDbText
 10
8.6875
 20
-2.836538461538462
 30
0.0
 40
0.5
  1
Non-Expansion Type
100
AcDbAttributeDefinition
  3

  2
EF
 70
     8
280
     0
  0
ATTDEF
  5
174
330
167
100
AcDbEntity
  8
AM_6
100
AcDbText
 10
8.6875
 20
-3.336538461538462
 30
0.0
 40
0.5
  1
1
100
AcDbAttributeDefinition
  3

  2
EF1
 70
     8
280
     0
  0
ATTDEF
  5
175
330
167
100
AcDbEntity
  8
AM_6
100
AcDbText
 10
8.6875
 20
-3.836538461538462
 30
0.0
 40
0.5
  1
2-43/64
100
AcDbAttributeDefinition
  3

  2
A
 70
     8
280
     0
  0
ATTDEF
  5
176
330
167
100
AcDbEntity
  8
AM_6
100
AcDbText
 10
8.6875
 20
-4.336538461538462
 30
0.0
 40
0.5
  1
7-3/8
100
AcDbAttributeDefinition
  3

  2
B
 70
     8
280
     0
  0
ATTDEF
  5
177
330
167
100
AcDbEntity
  8
AM_6
100
AcDbText
 10
8.6875
 20
-4.836538461538462
 30
0.0
 40
0.5
  1
2-1/16
100
AcDbAttributeDefinition
  3

  2
C
 70
     8
280
     0
  0
ATTDEF
  5
178
330
167
100
AcDbEntity
  8
AM_6
100
AcDbText
 10
8.6875
 20
-5.336538461538462
 30
0.0
 40
0.5
  1
5-5/16
100
AcDbAttributeDefinition
  3

  2
DMIN
 70
     8
280
     0
  0
ATTDEF
  5
179
330
167
100
AcDbEntity
  8
AM_6
100
AcDbText
 10
8.6875
 20
-5.836538461538462
 30
0.0
 40
0.5
  1
5-45/64
100
AcDbAttributeDefinition
  3

  2
DMAX
 70
     8
280
     0
  0
ATTDEF
  5
17A
330
167
100
AcDbEntity
  8
AM_6
100
AcDbText
 10
8.6875
 20
-6.336538461538462
 30
0.0
 40
0.5
  1
1/2
100
AcDbAttributeDefinition
  3

  2
F
 70
     8
280
     0
  0
ATTDEF
  5
17B
330
167
100
AcDbEntity
  8
AM_6
100
AcDbText
 10
8.6875
 20
-6.836538461538462
 30
0.0
 40
0.5
  1
13/16
100
AcDbAttributeDefinition
  3

  2
G
 70
     8
280
     0
  0
ATTDEF
  5
17C
330
167
100
AcDbEntity
  8
AM_6
100
AcDbText
 10
8.6875
 20
-7.336538461538462
 30
0.0
 40
0.5
  1
1-1/4
100
AcDbAttributeDefinition
  3

  2
H
 70
     8
280
     0
  0
ATTDEF
  5
17D
330
167
100
AcDbEntity
  8
AM_6
100
AcDbText
 10
8.6875
 20
-7.836538461538462
 30
0.0
 40
0.5
  1
4-17/64
100
AcDbAttributeDefinition
  3

  2
J
 70
     8
280
     0
  0
ATTDEF
  5
17E
330
167
100
AcDbEntity
  8
AM_6
100
AcDbText
 10
8.6875
 20
-8.336538461538462
 30
0.0
 40
0.5
  1
3-3/16
100
AcDbAttributeDefinition
  3

  2
L
 70
     8
280
     0
  0
ATTDEF
  5
17F
330
167
100
AcDbEntity
  8
AM_6
100
AcDbText
 10
8.6875
 20
-8.836538461538462
 30
0.0
 40
0.5
  1
2-1/8
100
AcDbAttributeDefinition
  3

  2
M
 70
     8
280
     0
  0
ATTDEF
  5
180
330
167
100
AcDbEntity
  8
AM_6
100
AcDbText
 10
8.6875
 20
-9.336538461538462
 30
0.0
 40
0.5
  1
13/16
100
AcDbAttributeDefinition
  3

  2
R
 70
     8
280
     0
  0
ATTDEF
  5
181
330
167
100
AcDbEntity
  8
AM_6
100
AcDbText
 10
8.6875
 20
-9.836538461538462
 30
0.0
 40
0.5
  1
1-55/64
100
AcDbAttributeDefinition
  3

  2
S
 70
     8
280
     0
  0
ATTDEF
  5
182
330
167
100
AcDbEntity
  8
AM_6
100
AcDbText
 10
8.6875
 20
-10.33653846153846
 30
0.0
 40
0.5
  1
1/4
100
AcDbAttributeDefinition
  3

  2
X
 70
     8
280
     0
  0
ATTDEF
  5
183
330
167
100
AcDbEntity
  8
AM_6
100
AcDbText
 10
8.6875
 20
-10.83653846153846
 30
0.0
 40
0.5
  1
0.020
100
AcDbAttributeDefinition
  3

  2
Y
 70
     8
280
     0
  0
ATTDEF
  5
184
330
167
100
AcDbEntity
  8
AM_6
100
AcDbText
 10
8.6875
 20
-11.33653846153846
 30
0.0
 40
0.5
  1
2-5/64
100
AcDbAttributeDefinition
  3

  2
Z
 70
     8
280
     0
  0
ATTDEF
  5
185
330
167
100
AcDbEntity
  8
AM_6
100
AcDbText
 10
8.6875
 20
-11.83653846153846
 30
0.0
 40
0.5
  1
2
100
AcDbAttributeDefinition
  3

  2
ST1
 70
     8
280
     0
  0
ATTDEF
  5
186
330
167
100
AcDbEntity
  8
AM_6
100
AcDbText
 10
8.6875
 20
-12.33653846153846
 30
0.0
 40
0.5
  1
baldor
100
AcDbAttributeDefinition
  3

  2
COMPANY
 70
     8
280
     0
  0
LINE
  5
187
330
167
100
AcDbEntity
  8
AM_9
100
AcDbLine
 10
1.67325
 20
-0.825
 30
0.0
 11
1.67325
 21
0.825
 31
0.0
  0
LINE
  5
188
330
167
100
AcDbEntity
  8
AM_9
100
AcDbLine
 10
-1.67325
 20
0.825
 30
0.0
 11
-1.67325
 21
-0.825
 31
0.0
  0
LWPOLYLINE
  5
189
330
167
100
AcDbEntity
  8
AM_9
100
AcDbPolyline
 90
       11
 70
     0
 43
0.0
 10
1.365247723181269
 20
0.3490864513845439
 10
1.349862852191402
 20
0.3681466951395029
 10
1.324197413563021
 20
0.3955482805391783
 10
1.296492308208604
 20
0.4201099298924796
 10
1.267384809698594
 20
0.4413127150069019
 10
1.236587468180975
 20
0.4594453031109152
 10
1.203267722555571
 20
0.4747584664882248
 10
1.168544677086454
 20
0.4865431846040419
 10
1.13434360168736
 20
0.4943867121076131
 10
1.099301313788926
 20
0.4988680181716179
 10
1.070306024607975
 20
0.4999999999440928
  0
LWPOLYLINE
  5
18A
330
167
100
AcDbEntity
  8
AM_9
100
AcDbPolyline
 90
       11
 70
     0
 43
0.0
 10
1.473718639059991
 20
0.0000000000000001
 10
1.472467946384016
 20
0.0408753406677592
 10
1.468729675068059
 20
0.0814626041766074
 10
1.462292499911073
 20
0.1226467745859772
 10
1.453268811546321
 20
0.1629252083532148
 10
1.442063407992542
 20
0.2008956143011649
 10
1.428507111353015
 20
0.2374925531269265
 10
1.412171593771323
 20
0.2734338176719301
 10
1.393481504652705
 20
0.3074379133745511
 10
1.372742581390839
 20
0.3389504615224663
 10
1.365247723181269
 20
0.3490864513845439
  0
LWPOLYLINE
  5
18B
330
167
100
AcDbEntity
  8
AM_9
100
AcDbPolyline
 90
       20
 70
     0
 43
0.0
 10
1.070309389449223
 20
-0.4999999999870994
 10
1.091770872797412
 20
-0.499378437636036
 10
1.126488801412194
 20
-0.495698511360147
 10
1.161417051460943
 20
-0.4884710699862224
 10
1.195295955406341
 20
-0.4778270413855685
 10
1.226885511111878
 20
-0.4643367522827397
 10
1.257110488575475
 20
-0.4478234028185918
 10
1.286582292407276
 20
-0.427812670588274
 10
1.314292223862753
 20
-0.4048758742056905
 10
1.339941863529668
 20
-0.3793347394663028
 10
1.363603748209424
 20
-0.3512307101231096
 10
1.38574559995165
 20
-0.3198462767710478
 10
1.405580846040325
 20
-0.2861566315695351
 10
1.422802049497405
 20
-0.2508639894297984
 10
1.437618660879843
 20
-0.2137800170131776
 10
1.450288831437016
 20
-0.1739701983001264
 10
1.460279168527237
 20
-0.1328154438603932
 10
1.470283514917812
 20
-0.0676791796687603
 10
1.472858218616674
 20
-0.0339219913326626
 10
1.473718639059991
 20
0.0000000000000001
  0
ELLIPSE
  5
18C
330
167
100
AcDbEntity
  8
AM_9
100
AcDbEllipse
 10
1.095312499999948
 20
0.000000000000426
 30
0.0
 11
3.061616997870994E-17
 21
0.5000000000004263
 31
0.0
210
0.0
220
0.0
230
1.0
 40
0.8660254037844451
 41
3.151865156319781
 42
3.212095934419165
  0
ELLIPSE
  5
18D
330
167
100
AcDbEntity
  8
AM_9
100
AcDbEllipse
 10
1.095312499999999
 20
0.0000000000000007
 30
0.0
 11
3.061616997868389E-17
 21
0.5000000000000009
 31
0.0
210
0.0
220
0.0
230
1.0
 40
0.866025403784439
 41
3.221590582389219
 42
6.231095992785377
  0
ELLIPSE
  5
18E
330
167
100
AcDbEntity
  8
AM_9
100
AcDbEllipse
 10
1.095312500000144
 20
-0.0000000000006434
 30
0.0
 11
3.061616997872326E-17
 21
0.5000000000006439
 31
0.0
210
0.0
220
0.0
230
1.0
 40
0.866025403784423
 41
6.235575092977887
 42
6.271566790085672
  0
LINE
  5
18F
330
167
100
AcDbEntity
  8
AM_7
100
AcDbLine
 10
0.0
 20
1.163461538461539
 30
0.0
 11
0.0
 21
-1.9921875
 31
0.0
  0
LINE
  5
190
330
167
100
AcDbEntity
  8
AM_7
100
AcDbLine
 10
-3.1755859375
 20
0.0000000000000004
 30
0.0
 11
-2.332226562499999
 21
0.0000000000000003
 31
0.0
  0
LINE
  5
191
330
167
100
AcDbEntity
  8
AM_7
100
AcDbLine
 10
-2.8515625
 20
-0.3240234374999992
 30
0.0
 11
-2.8515625
 21
0.3240234375
 31
0.0
  0
LINE
  5
192
330
167
100
AcDbEntity
  8
AM_7
100
AcDbLine
 10
2.3322265625
 20
-0.0000000000000001
 30
0.0
 11
3.1755859375
 21
-0.0000000000000001
 31
0.0
  0
LINE
  5
193
330
167
100
AcDbEntity
  8
AM_7
100
AcDbLine
 10
2.8515625
 20
-0.3240234374999997
 30
0.0
 11
2.8515625
 21
0.3240234374999995
 31
0.0
  0
LINE
  5
194
330
167
100
AcDbEntity
  8
AM_7
100
AcDbLine
 10
2.65625
 20
-0.3240234375000001
 30
0.0
 11
2.65625
 21
0.3240234375
 31
0.0
  0
LINE
  5
195
330
167
100
AcDbEntity
  8
AM_7
100
AcDbLine
 10
-2.65625
 20
-0.3240234375000002
 30
0.0
 11
-2.65625
 21
0.3240234375000007
 31
0.0
  0
LINE
  5
196
330
167
100
AcDbEntity
  8
AM_4
100
AcDbLine
 10
3.6875
 20
0.8249999999999998
 30
0.0
 11
3.48125
 21
1.03125
 31
0.0
  0
LINE
  5
197
330
167
100
AcDbEntity
  8
AM_4
100
AcDbLine
 10
3.481250000000001
 20
-1.03125
 30
0.0
 11
3.6875
 21
-0.825
 31
0.0
  0
LINE
  5
198
330
167
100
AcDbEntity
  8
AM_4
100
AcDbLine
 10
3.6875
 20
-0.825
 30
0.0
 11
3.6875
 21
0.825
 31
0.0
  0
LINE
  5
199
330
167
100
AcDbEntity
  8
AM_4
100
AcDbLine
 10
-3.48125
 20
1.03125
 30
0.0
 11
-3.6875
 21
0.825
 31
0.0
  0
LINE
  5
19A
330
167
100
AcDbEntity
  8
AM_4
100
AcDbLine
 10
-3.6875
 20
-0.825
 30
0.0
 11
-3.48125
 21
-1.03125
 31
0.0
  0
LINE
  5
19B
330
167
100
AcDbEntity
  8
AM_4
100
AcDbLine
 10
-3.6875
 20
-0.825
 30
0.0
 11
-3.6875
 21
0.825
 31
0.0
  0
LINE
  5
19C
330
167
100
AcDbEntity
  8
AM_4
100
AcDbLine
 10
3.481250000000001
 20
-1.03125
 30
0.0
 11
2.363839285714286
 21
-1.03125
 31
0.0
  0
LINE
  5
19D
330
167
100
AcDbEntity
  8
AM_4
100
AcDbLine
 10
3.48125
 20
1.03125
 30
0.0
 11
2.363839285714286
 21
1.03125
 31
0.0
  0
LINE
  5
19E
330
167
100
AcDbEntity
  8
AM_4
100
AcDbLine
 10
2.8515625
 20
0.3085937499999999
 30
0.0
 11
2.65625
 21
0.3085937499999999
 31
0.0
  0
ARC
  5
19F
330
167
100
AcDbEntity
  8
AM_4
100
AcDbCircle
 10
2.8515625
 20
-0.0000000000000001
 30
0.0
 40
0.30859375
100
AcDbArc
 50
270.0
 51
90.0
  0
LINE
  5
1A0
330
167
100
AcDbEntity
  8
AM_4
100
AcDbLine
 10
2.65625
 20
-0.3085937500000001
 30
0.0
 11
2.8515625
 21
-0.3085937500000001
 31
0.0
  0
ARC
  5
1A1
330
167
100
AcDbEntity
  8
AM_4
100
AcDbCircle
 10
2.65625
 20
-0.0000000000000001
 30
0.0
 40
0.30859375
100
AcDbArc
 50
90.0
 51
270.0
  0
LINE
  5
1A2
330
167
100
AcDbEntity
  8
AM_4
100
AcDbLine
 10
3.60625
 20
-0.9062500000000001
 30
0.0
 11
3.60625
 21
0.9062500000000001
 31
0.0
  0
LINE
  5
1A3
330
167
100
AcDbEntity
  8
AM_4
100
AcDbLine
 10
-2.363839285714285
 20
1.03125
 30
0.0
 11
-3.48125
 21
1.03125
 31
0.0
  0
LINE
  5
1A4
330
167
100
AcDbEntity
  8
AM_4
100
AcDbLine
 10
-2.363839285714286
 20
-1.03125
 30
0.0
 11
-3.48125
 21
-1.03125
 31
0.0
  0
LINE
  5
1A5
330
167
100
AcDbEntity
  8
AM_4
100
AcDbLine
 10
-2.65625
 20
0.3085937500000003
 30
0.0
 11
-2.8515625
 21
0.3085937500000003
 31
0.0
  0
ARC
  5
1A6
330
167
100
AcDbEntity
  8
AM_4
100
AcDbCircle
 10
-2.65625
 20
0.0000000000000002
 30
0.0
 40
0.30859375
100
AcDbArc
 50
270.0
 51
90.0
  0
LINE
  5
1A7
330
167
100
AcDbEntity
  8
AM_4
100
AcDbLine
 10
-2.8515625
 20
-0.3085937499999996
 30
0.0
 11
-2.65625
 21
-0.3085937499999998
 31
0.0
  0
ARC
  5
1A8
330
167
100
AcDbEntity
  8
AM_4
100
AcDbCircle
 10
-2.8515625
 20
0.0000000000000004
 30
0.0
 40
0.30859375
100
AcDbArc
 50
90.0
 51
270.0
  0
LINE
  5
1A9
330
167
100
AcDbEntity
  8
AM_4
100
AcDbLine
 10
-3.60625
 20
-0.9062499999999993
 30
0.0
 11
-3.60625
 21
0.9062499999999993
 31
0.0
  0
LINE
  5
1AA
330
167
100
AcDbEntity
  8
AM_4
100
AcDbLine
 10
2.203125
 20
-0.61875
 30
0.0
 11
2.203125
 21
0.61875
 31
0.0
  0
LINE
  5
1AB
330
167
100
AcDbEntity
  8
AM_4
100
AcDbLine
 10
-2.203125000000001
 20
-0.61875
 30
0.0
 11
-2.203125000000001
 21
0.61875
 31
0.0
  0
LINE
  5
1AC
330
167
100
AcDbEntity
  8
AM_4
100
AcDbLine
 10
-2.387116878236086
 20
-0.61875
 30
0.0
 11
-2.140625
 21
-0.61875
 31
0.0
  0
LWPOLYLINE
  5
1AD
330
167
100
AcDbEntity
  8
AM_4
100
AcDbPolyline
 90
        6
 70
     0
 43
0.0
 10
-2.265625
 20
-0.9232142857142855
 10
-2.264114017676515
 20
-0.9060527871878131
 10
-2.260275650590003
 20
-0.8912432124828801
 10
-2.255887707955453
 20
-0.8805778281980662
 10
-2.251780653332867
 20
-0.8729374590090583
 10
-2.250663488876326
 20
-0.8711084180856563
  0
LINE
  5
1AE
330
167
100
AcDbEntity
  8
AM_4
100
AcDbLine
 10
-2.387116878236083
 20
-1.03125
 30
0.0
 11
-2.387116878236086
 21
-0.61875
 31
0.0
  0
LWPOLYLINE
  5
1AF
330
167
100
AcDbEntity
  8
AM_4
100
AcDbPolyline
 90
       11
 70
     0
 43
0.0
 10
-2.265625
 20
-0.9330357142857143
 10
-2.267247621534817
 20
-0.9508148123901777
 10
-2.270114933080041
 20
-0.9623934709135652
 10
-2.274131666347926
 20
-0.9730180722200304
 10
-2.283277743298397
 20
-0.9892129677068301
 10
-2.295528688950501
 20
-1.003602762460786
 10
-2.310614927208022
 20
-1.015577907011399
 10
-2.329279199997174
 20
-1.024968550604374
 10
-2.342615861530878
 20
-1.028921655012585
 10
-2.356801307448459
 20
-1.030997506737145
 10
-2.363839285714286
 20
-1.03125
  0
LINE
  5
1B0
330
167
100
AcDbEntity
  8
AM_4
100
AcDbLine
 10
-2.265625
 20
-0.9232142857142855
 30
0.0
 11
-2.265625
 21
-0.9330357142857143
 31
0.0
  0
LINE
  5
1B1
330
167
100
AcDbEntity
  8
AM_4
100
AcDbLine
 10
2.140625
 20
0.61875
 30
0.0
 11
2.387116878236084
 21
0.61875
 31
0.0
  0
LWPOLYLINE
  5
1B2
330
167
100
AcDbEntity
  8
AM_4
100
AcDbPolyline
 90
        6
 70
     0
 43
0.0
 10
2.265625
 20
0.9232142857142855
 10
2.264114017676515
 20
0.9060527871878132
 10
2.260275650590003
 20
0.8912432124828803
 10
2.255887707955453
 20
0.8805778281980664
 10
2.251780653332867
 20
0.8729374590090584
 10
2.250663488876326
 20
0.8711084180856566
  0
LINE
  5
1B3
330
167
100
AcDbEntity
  8
AM_4
100
AcDbLine
 10
2.387116878236084
 20
0.61875
 30
0.0
 11
2.387116878236084
 21
1.03125
 31
0.0
  0
LWPOLYLINE
  5
1B4
330
167
100
AcDbEntity
  8
AM_4
100
AcDbPolyline
 90
       11
 70
     0
 43
0.0
 10
2.265625
 20
0.9330357142857144
 10
2.267247621534817
 20
0.9508148123901778
 10
2.270114933080041
 20
0.9623934709135653
 10
2.274131666347926
 20
0.9730180722200308
 10
2.283419909630956
 20
0.9894354544569898
 10
2.295528688950501
 20
1.003602762460787
 10
2.310953489838809
 20
1.015785454514655
 10
2.329279199997174
 20
1.024968550604374
 10
2.342615861530879
 20
1.028921655012585
 10
2.35680130744846
 20
1.030997506737145
 10
2.363839285714286
 20
1.03125
  0
LINE
  5
1B5
330
167
100
AcDbEntity
  8
AM_4
100
AcDbLine
 10
2.265625
 20
0.9232142857142855
 30
0.0
 11
2.265625
 21
0.9330357142857144
 31
0.0
  0
LINE
  5
1B6
330
167
100
AcDbEntity
  8
AM_4
100
AcDbLine
 10
2.140625
 20
-0.61875
 30
0.0
 11
2.387116878236084
 21
-0.61875
 31
0.0
  0
LWPOLYLINE
  5
1B7
330
167
100
AcDbEntity
  8
AM_4
100
AcDbPolyline
 90
        5
 70
     0
 43
0.0
 10
2.250663488876326
 20
-0.8711084180856569
 10
2.254383176694025
 20
-0.8775871369867565
 10
2.259673747877487
 20
-0.8895456274277398
 10
2.264117056278717
 20
-0.9060699182221302
 10
2.265625000000002
 20
-0.9232142857142779
  0
LINE
  5
1B8
330
167
100
AcDbEntity
  8
AM_4
100
AcDbLine
 10
2.265625
 20
-0.9330357142857144
 30
0.0
 11
2.265625
 21
-0.9232142857142854
 31
0.0
  0
LWPOLYLINE
  5
1B9
330
167
100
AcDbEntity
  8
AM_4
100
AcDbPolyline
 90
       11
 70
     0
 43
0.0
 10
2.363839285714286
 20
-1.03125
 10
2.348708776964713
 20
-1.030066574080727
 10
2.334345402888268
 20
-1.026716858568929
 10
2.321211702662389
 20
-1.021513085729076
 10
2.309344468469169
 20
-1.014744715086046
 10
2.294653810158855
 20
-1.002749322461467
 10
2.28274977818132
 20
-0.9884481468837196
 10
2.275453717212685
 20
-0.9758760399133654
 10
2.269936513305149
 20
-0.9618161807907125
 10
2.266236770786581
 20
-0.9439808044248846
 10
2.265625
 20
-0.9330357142857146
  0
LINE
  5
1BA
330
167
100
AcDbEntity
  8
AM_4
100
AcDbLine
 10
2.387116878236084
 20
-1.03125
 30
0.0
 11
2.387116878236084
 21
-0.61875
 31
0.0
  0
LINE
  5
1BB
330
167
100
AcDbEntity
  8
AM_4
100
AcDbLine
 10
-2.387116878236086
 20
0.61875
 30
0.0
 11
-2.140625
 21
0.61875
 31
0.0
  0
LWPOLYLINE
  5
1BC
330
167
100
AcDbEntity
  8
AM_4
100
AcDbPolyline
 90
        5
 70
     0
 43
0.0
 10
-2.250663488876326
 20
0.8711084180856566
 10
-2.254383176694025
 20
0.8775871369867563
 10
-2.259673747877487
 20
0.8895456274277395
 10
-2.264117056278717
 20
0.9060699182221299
 10
-2.265625000000002
 20
0.9232142857142779
  0
LINE
  5
1BD
330
167
100
AcDbEntity
  8
AM_4
100
AcDbLine
 10
-2.387116878236086
 20
0.61875
 30
0.0
 11
-2.387116878236083
 21
1.03125
 31
0.0
  0
LINE
  5
1BE
330
167
100
AcDbEntity
  8
AM_4
100
AcDbLine
 10
-2.265625
 20
0.9330357142857143
 30
0.0
 11
-2.265625
 21
0.9232142857142854
 31
0.0
  0
LWPOLYLINE
  5
1BF
330
167
100
AcDbEntity
  8
AM_4
100
AcDbPolyline
 90
       11
 70
     0
 43
0.0
 10
-2.363839285714285
 20
1.03125
 10
-2.348708776964712
 20
1.030066574080727
 10
-2.334345402888268
 20
1.026716858568929
 10
-2.321211702662389
 20
1.021513085729076
 10
-2.309344468469169
 20
1.014744715086046
 10
-2.294653810158855
 20
1.002749322461467
 10
-2.28274977818132
 20
0.98844814688372
 10
-2.275453717212685
 20
0.9758760399133657
 10
-2.269936513305149
 20
0.961816180790713
 10
-2.266236770786581
 20
0.9439808044248852
 10
-2.265625
 20
0.9330357142857144
  0
LINE
  5
1C0
330
167
100
AcDbEntity
  8
AM_4
100
AcDbLine
 10
-2.140625
 20
-0.61875
 30
0.0
 11
-2.140625
 21
0.61875
 31
0.0
  0
LINE
  5
1C1
330
167
100
AcDbEntity
  8
AM_4
100
AcDbLine
 10
-2.250663488876326
 20
-0.8711084180856563
 30
0.0
 11
-2.250663488876326
 21
-0.61875
 31
0.0
  0
LWPOLYLINE
  5
1C2
330
167
100
AcDbEntity
  8
AM_4
100
AcDbPolyline
 90
       13
 70
     0
 43
0.0
 10
-2.167410714285714
 20
-0.8250000000000001
 10
-2.175970653305574
 20
-0.8253737350088465
 10
-2.184465446020859
 20
-0.8264920956863011
 10
-2.192830441929712
 20
-0.8283465706323238
 10
-2.201001978362342
 20
-0.8309230461728125
 10
-2.20891786499239
 20
-0.8342019137731862
 10
-2.216517857142857
 20
-0.8381582192711712
 10
-2.223744114284478
 20
-0.8427618527930454
 10
-2.230541640237071
 20
-0.8479777779079574
 10
-2.236858701723679
 20
-0.8537662982763211
 10
-2.242647222092042
 20
-0.860083359762929
 10
-2.247863147206955
 20
-0.8668808857155221
 10
-2.250663488876326
 20
-0.8711084180856563
  0
LWPOLYLINE
  5
1C3
330
167
100
AcDbEntity
  8
AM_4
100
AcDbPolyline
 90
       13
 70
     0
 43
0.0
 10
-2.250663488876326
 20
0.8711084180856566
 10
-2.245805361339624
 20
0.864050739237927
 10
-2.24035060320286
 20
0.8574433307028084
 10
-2.234340728469128
 20
0.851336478848916
 10
-2.227821475914012
 20
0.8457766605062752
 10
-2.22084246098589
 20
0.8408061892495838
 10
-2.213456798202409
 20
0.836462893366358
 10
-2.205720696916936
 20
0.8327798279608228
 10
-2.197693033531439
 20
0.82978502338461
 10
-2.189434903411519
 20
0.827501271908857
 10
-2.181009155913781
 20
0.8259459542612613
 10
-2.172479916064291
 20
0.8251309073482473
 10
-2.167410714285715
 20
0.825
  0
LINE
  5
1C4
330
167
100
AcDbEntity
  8
AM_4
100
AcDbLine
 10
-2.250663488876326
 20
0.6187500000000002
 30
0.0
 11
-2.250663488876326
 21
0.8711084180856566
 31
0.0
  0
LINE
  5
1C5
330
167
100
AcDbEntity
  8
AM_4
100
AcDbLine
 10
2.167410714285714
 20
0.8249999999999998
 30
0.0
 11
-2.167410714285715
 21
0.825
 31
0.0
  0
LINE
  5
1C6
330
167
100
AcDbEntity
  8
AM_4
100
AcDbLine
 10
-2.167410714285714
 20
-0.8250000000000001
 30
0.0
 11
2.167410714285714
 21
-0.825
 31
0.0
  0
LINE
  5
1C7
330
167
100
AcDbEntity
  8
AM_4
100
AcDbLine
 10
2.250663488876326
 20
-0.8711084180856565
 30
0.0
 11
2.250663488876326
 21
-0.61875
 31
0.0
  0
LINE
  5
1C8
330
167
100
AcDbEntity
  8
AM_4
100
AcDbLine
 10
2.140625
 20
0.61875
 30
0.0
 11
2.140625
 21
-0.61875
 31
0.0
  0
LINE
  5
1C9
330
167
100
AcDbEntity
  8
AM_4
100
AcDbLine
 10
2.250663488876326
 20
0.6187500000000002
 30
0.0
 11
2.250663488876326
 21
0.8711084180856558
 31
0.0
  0
LWPOLYLINE
  5
1CA
330
167
100
AcDbEntity
  8
AM_4
100
AcDbPolyline
 90
       13
 70
     0
 43
0.0
 10
2.167410714285714
 20
0.8249999999999998
 10
2.175970653305574
 20
0.8253737350088463
 10
2.184465446020859
 20
0.8264920956863008
 10
2.192830441929712
 20
0.8283465706323234
 10
2.201001978362342
 20
0.8309230461728123
 10
2.20891786499239
 20
0.834201913773186
 10
2.216517857142857
 20
0.838158219271171
 10
2.223744114284478
 20
0.8427618527930452
 10
2.230541640237071
 20
0.8479777779079573
 10
2.236858701723679
 20
0.8537662982763209
 10
2.242647222092042
 20
0.8600833597629289
 10
2.247863147206954
 20
0.866880885715522
 10
2.250663488876326
 20
0.8711084180856563
  0
LWPOLYLINE
  5
1CB
330
167
100
AcDbEntity
  8
AM_4
100
AcDbPolyline
 90
       13
 70
     0
 43
0.0
 10
2.250663488876326
 20
-0.8711084180856565
 10
2.245805361339624
 20
-0.864050739237927
 10
2.24035060320286
 20
-0.8574433307028084
 10
2.234340728469128
 20
-0.851336478848916
 10
2.227821475914012
 20
-0.8457766605062752
 10
2.22084246098589
 20
-0.8408061892495838
 10
2.213456798202409
 20
-0.836462893366358
 10
2.205720696916936
 20
-0.8327798279608228
 10
2.197693033531439
 20
-0.82978502338461
 10
2.189434903411519
 20
-0.827501271908857
 10
2.181009155913781
 20
-0.8259459542612613
 10
2.172479916064291
 20
-0.8251309073482473
 10
2.167410714285713
 20
-0.825
  0
LINE
  5
1CC
330
167
100
AcDbEntity
  8
AM_4
100
AcDbLine
 10
-2.124331175259876
 20
-0.825
 30
0.0
 11
-2.124331175259876
 21
0.825
 31
0.0
  0
LINE
  5
1CD
330
167
100
AcDbEntity
  8
AM_4
100
AcDbLine
 10
2.124331175259876
 20
-0.825
 30
0.0
 11
2.124331175259876
 21
0.825
 31
0.0
  0
LINE
  5
1CE
330
167
100
AcDbEntity
  8
AM_4
100
AcDbLine
 10
0.5540345184225834
 20
-0.8249999999999998
 30
0.0
 11
0.5540345184225834
 21
0.8250000000000001
 31
0.0
  0
LINE
  5
1CF
330
167
100
AcDbEntity
  8
AM_4
100
AcDbLine
 10
-0.5540345184225834
 20
-0.8249999999999998
 30
0.0
 11
-0.5540345184225834
 21
0.8250000000000001
 31
0.0
  0
LINE
  5
1D0
330
167
100
AcDbEntity
  8
AM_4
100
AcDbLine
 10
1.0953125
 20
0.5000000000000002
 30
0.0
 11
1.070276827399221
 21
0.5000000000000002
 31
0.0
  0
LINE
  5
1D1
330
167
100
AcDbEntity
  8
AM_4
100
AcDbLine
 10
1.070266096578559
 20
-0.5
 30
0.0
 11
1.0953125
 21
-0.5
 31
0.0
  0
LWPOLYLINE
  5
1D2
330
167
100
AcDbEntity
  8
AM_4
100
AcDbPolyline
 90
       40
 70
     0
 43
0.0
 10
1.070306024607975
 20
0.4999999999440928
 10
1.062568266085908
 20
0.4999166002268642
 10
1.025473453383439
 20
0.4973490514618445
 10
0.99006760646216
 20
0.4915482986184649
 10
0.9548499314921082
 20
0.4825317699069376
 10
0.9190920662147876
 20
0.4699634436578491
 10
0.8840824423283609
 20
0.4541646103754317
 10
0.8507463136798379
 20
0.4356411529148581
 10
0.8186431126684233
 20
0.4142560455034835
 10
0.7871947099320128
 20
0.3894391289720822
 10
0.7575598894976877
 20
0.3619231349310449
 10
0.7301042782784101
 20
0.3320197375934298
 10
0.704919112339001
 20
0.2998180942708676
 10
0.6816160191806907
 20
0.2645018337074828
 10
0.6611692687372666
 20
0.2272168023607535
 10
0.6441914673851039
 20
0.1892154560466233
 10
0.6302902643614631
 20
0.1498478707417437
 10
0.6193490415015563
 20
0.1081363132535291
 10
0.6119504500181777
 20
0.0655805642211827
 10
0.6083011384041715
 20
0.0247510922818166
 10
0.6079538183040736
 20
-0.0162537890587117
 10
0.6110659459753669
 20
-0.0583613014346454
 10
0.6176485639185723
 20
-0.1000312743115137
 10
0.6271583815426091
 20
-0.1392640947959579
 10
0.6396930771618435
 20
-0.1775504513091628
 10
0.6556163773069745
 20
-0.2156588036376492
 10
0.6744511954272395
 20
-0.2522476864696597
 10
0.6957952560408551
 20
-0.2867246510937171
 10
0.7196282996605998
 20
-0.3192598125547998
 10
0.7465125927776555
 20
-0.3504554944722625
 10
0.7755780399554272
 20
-0.3791773362546835
 10
0.8063683011193403
 20
-0.4050554159240471
 10
0.8388172743878544
 20
-0.4281262518936662
 10
0.8736843641871765
 20
-0.4487628355318204
 10
0.909738388659543
 20
-0.466093087685943
 10
0.9453419261610551
 20
-0.4795282806110634
 10
0.9814902407051708
 20
-0.4896552450652248
 10
1.01901585359474
 20
-0.4965308290173905
 10
1.056518487256654
 20
-0.4997473205137544
 10
1.070309389449223
 20
-0.4999999999870994
  0
ELLIPSE
  5
1D3
330
167
100
AcDbEntity
  8
AM_4
100
AcDbEllipse
 10
1.095312499999999
 20
0.0000000000000001
 30
0.0
 11
3.061616997868384E-17
 21
0.5000000000000001
 31
0.0
210
0.0
220
0.0
230
1.0
 40
0.8660254037844387
 41
0.0
 42
3.141592653589793
  0
ELLIPSE
  5
1D4
330
167
100
AcDbEntity
  8
AM_4
100
AcDbEllipse
 10
1.095312500005377
 20
0.0000000000000025
 30
0.0
 11
3.061616997868369E-17
 21
0.4999999999999977
 31
0.0
210
0.0
220
0.0
230
1.0
 40
0.8660254037843867
 41
6.271566790097732
 42
6.283185307179586
  0
ELLIPSE
  5
1D5
330
167
100
AcDbEntity
  8
AM_4
100
AcDbEllipse
 10
1.1203125
 20
0.0000000000000001
 30
0.0
 11
-8.266365894244638E-17
 21
-0.4500000000000002
 31
0.0
210
0.0
220
0.0
230
1.0
 40
0.8660254037844388
 41
0.0
 42
6.283185307179586
  0
LWPOLYLINE
  5
1D6
330
167
100
AcDbEntity
  8
AM_4
100
AcDbPolyline
 90
       26
 70
     0
 43
0.0
 10
1.535023931702997
 20
0.0000000000000001
 10
1.534749883693566
 20
0.0176665194063728
 10
1.532821888556074
 20
0.0500231086789033
 10
1.529055138946432
 20
0.0821789171097259
 10
1.52346422659239
 20
0.113995321836264
 10
1.516071047697061
 20
0.1453388141326095
 10
1.506904916499832
 20
0.1760774913306312
 10
1.496002553325357
 20
0.2060815393707421
 10
1.483408066119155
 20
0.2352237357599943
 10
1.46917291935874
 20
0.2633799776336548
 10
1.453355881064968
 20
0.2904298404961738
 10
1.436022935315745
 20
0.316257171331865
 10
1.417247144514304
 20
0.3407507163300689
 10
1.397108443417368
 20
0.3638047782427682
 10
1.375693346519655
 20
0.3853198914966495
 10
1.353094552796322
 20
0.4052034952304052
 10
1.329410437765107
 20
0.4233705766259904
 10
1.304744432500469
 20
0.4397442509739994
 10
1.279204301869797
 20
0.4542562427999253
 10
1.252901348098257
 20
0.466847235721696
 10
1.225949578211547
 20
0.477467068238592
 10
1.198464882092892
 20
0.4860747677070407
 10
1.170564269474787
 20
0.4926384331792277
 10
1.142365208070492
 20
0.4971349962855592
 10
1.113985091793793
 20
0.4995499043131907
 10
1.100509670435172
 20
0.4999651464118751
  0
LWPOLYLINE
  5
1D7
330
167
100
AcDbEntity
  8
AM_4
100
AcDbPolyline
 90
       26
 70
     0
 43
0.0
 10
1.099910165424323
 20
-0.4999727237298714
 10
1.120152997450959
 20
-0.4992031651666026
 10
1.148469526886213
 20
-0.4963404583037651
 10
1.176554887063193
 20
-0.4914089686869921
 10
1.204295648144981
 20
-0.4844298026364277
 10
1.231579684693967
 20
-0.4754313966138628
 10
1.258296274965824
 20
-0.4644495870534205
 10
1.284336284141189
 20
-0.451527750312104
 10
1.309592456615746
 20
-0.4367169675832439
 10
1.333959824505774
 20
-0.4200761650403734
 10
1.357336221021538
 20
-0.4016721831513747
 10
1.379622872078714
 20
-0.3815797397858663
 10
1.400725029819638
 20
-0.3598812669352696
 10
1.420552608677643
 20
-0.3366666173841744
 10
1.439020787862527
 20
-0.3120326524206078
 10
1.456050552085103
 20
-0.2860827323733728
 10
1.471569152722869
 20
-0.2589261373684456
 10
1.485510482192768
 20
-0.2306774463949234
 10
1.497815363285272
 20
-0.2014558996700813
 10
1.508431761644913
 20
-0.1713847639228542
 10
1.517314933238888
 20
-0.1405907140690881
 10
1.524427519889219
 20
-0.1092032389796952
 10
1.529739605410022
 20
-0.0773540743271019
 10
1.533228743306134
 20
-0.0451766620843325
 10
1.5348799649685
 20
-0.0128056340711315
 10
1.535023931702997
 20
0.0000000000000001
  0
ELLIPSE
  5
1D8
330
167
100
AcDbEntity
  8
AM_4
100
AcDbEllipse
 10
1.095312500004577
 20
0.0000000000001136
 30
0.0
 11
3.061616997869078E-17
 21
0.5000000000001136
 31
0.0
210
0.0
220
0.0
230
1.0
 40
0.8660254037843722
 41
3.141592653589793
 42
3.151865156309104
  0
ENDBLK
  5
16A
330
167
100
AcDbEntity
  8
0
100
AcDbBlockEnd
  0
ENDSEC
  0
SECTION
  2
ENTITIES
  0
INSERT
  5
6F
330
1F
100
AcDbEntity
  8
0
100
AcDbBlockReference
  2
1_070322_4
 10
0.0
 20
0.0
 30
0.0
  0
POINT
  5
1DA
330
1F
100
AcDbEntity
  8
ConnectionPoints
100
AcDbPoint
 10
0.0
 20
-1.859375
 30
0.0000000000000001
  0
POINT
  5
1DB
330
1F
100
AcDbEntity
  8
ConnectionPoints
100
AcDbPoint
 10
0.0
 20
1.545125
 30
-0.0000000000000001
  0
POINT
  5
1DC
330
1F
100
AcDbEntity
  8
ConnectionPoints
100
AcDbPoint
 10
0.0
 20
-1.859375
 30
0.0000000000000001
  0
POINT
  5
1DD
330
1F
100
AcDbEntity
  8
ConnectionPoints
100
AcDbPoint
 10
1.1203125
 20
0.0000000000000001
 30
1.940438170354508
  0
POINT
  5
1DE
330
1F
100
AcDbEntity
  8
ConnectionPoints
100
AcDbPoint
 10
0.0
 20
-1.609375
 30
0.0000000000000001
  0
POINT
  5
1DF
330
1F
100
AcDbEntity
  8
ConnectionPoints
100
AcDbPoint
 10
0.0
 20
-1.859375
 30
0.0000000000000001
  0
POINT
  5
1E0
330
1F
100
AcDbEntity
  8
ConnectionPoints
100
AcDbPoint
 10
1.1203125
 20
0.0000000000000001
 30
1.940438170354508
  0
ENDSEC
  0
SECTION
  2
OBJECTS
  0
DICTIONARY
  5
C
330
0
100
AcDbDictionary
281
     1
  3
ACAD_DETAILVIEWSTYLE
350
1E8
  3
ACAD_GROUP
350
D
  3
ACAD_LAYOUT
350
1A
  3
ACAD_MATERIAL
350
43
  3
ACAD_MLEADERSTYLE
350
6B
  3
ACAD_MLINESTYLE
350
17
  3
ACAD_PLOTSETTINGS
350
19
  3
ACAD_PLOTSTYLENAME
350
E
  3
ACAD_SCALELIST
350
47
  3
ACAD_SECTIONVIEWSTYLE
350
1E9
  3
ACAD_TABLESTYLE
350
69
  3
ACAD_VISUALSTYLE
350
2A
  3
ACDB_RECOMPOSE_DATA
350
1E5
  3
AcDbVariableDictionary
350
1E1
  0
SUN
  5
6D
330
29
100
AcDbSun
 90
        1
290
     0
 63
     7
421
 16777215
 40
1.0
291
     1
 91
  2455826
 92
 54000000
292
     0
 70
     2
 71
   256
280
     1
  0
DICTIONARY
  5
1E8
102
{ACAD_REACTORS
330
C
102
}
330
C
100
AcDbDictionary
281
     1
  0
DICTIONARY
  5
D
102
{ACAD_REACTORS
330
C
102
}
330
C
100
AcDbDictionary
281
     1
  0
DICTIONARY
  5
1A
102
{ACAD_REACTORS
330
C
102
}
330
C
100
AcDbDictionary
281
     1
  3
Layout1
350
1E
  3
Layout2
350
26
  3
Model
350
22
  0
DICTIONARY
  5
43
102
{ACAD_REACTORS
330
C
102
}
330
C
100
AcDbDictionary
281
     1
  3
ByBlock
350
45
  3
ByLayer
350
44
  3
Global
350
46
  0
DICTIONARY
  5
6B
102
{ACAD_REACTORS
330
C
102
}
330
C
100
AcDbDictionary
281
     1
  3
Standard
350
6C
  0
DICTIONARY
  5
17
102
{ACAD_REACTORS
330
C
102
}
330
C
100
AcDbDictionary
281
     1
  3
Standard
350
18
  0
DICTIONARY
  5
19
102
{ACAD_REACTORS
330
C
102
}
330
C
100
AcDbDictionary
281
     1
  0
ACDBDICTIONARYWDFLT
  5
E
102
{ACAD_REACTORS
330
C
102
}
330
C
100
AcDbDictionary
281
     1
  3
Normal
350
F
100
AcDbDictionaryWithDefault
340
F
  0
DICTIONARY
  5
47
102
{ACAD_REACTORS
330
C
102
}
330
C
100
AcDbDictionary
281
     1
  3
A0
350
48
  3
A1
350
49
  3
A2
350
4A
  3
A3
350
4B
  3
A4
350
4C
  3
A5
350
4D
  3
A6
350
4E
  3
A7
350
4F
  3
A8
350
50
  3
A9
350
51
  3
B0
350
52
  3
B1
350
53
  3
B2
350
54
  3
B3
350
55
  3
B4
350
56
  3
B5
350
57
  3
B6
350
58
  3
B7
350
59
  3
B8
350
5A
  3
B9
350
5B
  3
C0
350
5C
  3
C1
350
5D
  3
C2
350
5E
  3
C3
350
5F
  3
C4
350
60
  3
C5
350
61
  3
C6
350
62
  3
C7
350
63
  3
C8
350
64
  3
C9
350
65
  3
D0
350
66
  3
D1
350
67
  3
D2
350
68
  0
DICTIONARY
  5
1E9
102
{ACAD_REACTORS
330
C
102
}
330
C
100
AcDbDictionary
281
     1
  0
DICTIONARY
  5
69
102
{ACAD_REACTORS
330
C
102
}
330
C
100
AcDbDictionary
281
     1
  3
Standard
350
6A
  0
DICTIONARY
  5
2A
102
{ACAD_REACTORS
330
C
102
}
330
C
100
AcDbDictionary
281
     1
  3
2dWireframe
350
2F
  3
Basic
350
32
  3
Brighten
350
36
  3
ColorChange
350
3A
  3
Conceptual
350
34
  3
Dim
350
35
  3
EdgeColorOff
350
3D
  3
Facepattern
350
39
  3
Flat
350
2B
  3
FlatWithEdges
350
2C
  3
Gouraud
350
2D
  3
GouraudWithEdges
350
2E
  3
Hidden
350
31
  3
JitterOff
350
3B
  3
Linepattern
350
38
  3
OverhangOff
350
3C
  3
Realistic
350
33
  3
Shaded
350
42
  3
Shaded with edges
350
41
  3
Shades of Gray
350
3E
  3
Sketchy
350
3F
  3
Thicken
350
37
  3
Wireframe
350
30
  3
X-Ray
350
40
  0
XRECORD
  5
1E5
102
{ACAD_REACTORS
330
C
102
}
330
C
100
AcDbXrecord
280
     1
 90
        1
330
6A
  0
DICTIONARY
  5
1E1
102
{ACAD_REACTORS
330
C
102
}
330
C
100
AcDbDictionary
281
     1
  3
CANNOSCALE
350
1E2
  3
CMLEADERSTYLE
350
1E7
  3
CTABLESTYLE
350
1E6
  0
LAYOUT
  5
1E
102
{ACAD_REACTORS
330
1A
102
}
330
1A
100
AcDbPlotSettings
  1

  2
none_device
  4

  6

 40
0.0
 41
0.0
 42
0.0
 43
0.0
 44
0.0
 45
0.0
 46
0.0
 47
0.0
 48
0.0
 49
0.0
140
0.0
141
0.0
142
1.0
143
1.0
 70
   688
 72
     0
 73
     0
 74
     5
  7

 75
    16
 76
     0
 77
     2
 78
   300
147
1.0
148
0.0
149
0.0
100
AcDbLayout
  1
Layout1
 70
     1
 71
     1
 10
0.0
 20
0.0
 11
12.0
 21
9.0
 12
0.0
 22
0.0
 32
0.0
 14
1.000000000000000E+20
 24
1.000000000000000E+20
 34
1.000000000000000E+20
 15
-1.000000000000000E+20
 25
-1.000000000000000E+20
 35
-1.000000000000000E+20
146
0.0
 13
0.0
 23
0.0
 33
0.0
 16
1.0
 26
0.0
 36
0.0
 17
0.0
 27
1.0
 37
0.0
 76
     0
330
1B
  0
LAYOUT
  5
26
102
{ACAD_REACTORS
330
1A
102
}
330
1A
100
AcDbPlotSettings
  1

  2
none_device
  4

  6

 40
0.0
 41
0.0
 42
0.0
 43
0.0
 44
0.0
 45
0.0
 46
0.0
 47
0.0
 48
0.0
 49
0.0
140
0.0
141
0.0
142
1.0
143
1.0
 70
   688
 72
     0
 73
     0
 74
     5
  7

 75
    16
 76
     0
 77
     2
 78
   300
147
1.0
148
0.0
149
0.0
100
AcDbLayout
  1
Layout2
 70
     1
 71
     2
 10
0.0
 20
0.0
 11
0.0
 21
0.0
 12
0.0
 22
0.0
 32
0.0
 14
0.0
 24
0.0
 34
0.0
 15
0.0
 25
0.0
 35
0.0
146
0.0
 13
0.0
 23
0.0
 33
0.0
 16
1.0
 26
0.0
 36
0.0
 17
0.0
 27
1.0
 37
0.0
 76
     0
330
23
  0
LAYOUT
  5
22
102
{ACAD_REACTORS
330
1A
102
}
330
1A
100
AcDbPlotSettings
  1

  2
none_device
  4
Letter_(8.50_x_11.00_Inches)
  6

 40
6.35
 41
6.35
 42
6.35000508
 43
6.35000508
 44
215.9
 45
279.4
 46
0.0
 47
0.0
 48
0.0
 49
0.0
140
0.0
141
0.0
142
1.0
143
1.0
 70
  1712
 72
     0
 73
     0
 74
     0
  7

 75
     0
 76
     0
 77
     2
 78
   300
147
1.0
148
0.0
149
0.0
100
AcDbLayout
  1
Model
 70
     1
 71
     0
 10
0.0
 20
0.0
 11
12.0
 21
9.0
 12
0.0
 22
0.0
 32
0.0
 14
1.000000000000000E+20
 24
1.000000000000000E+20
 34
1.000000000000000E+20
 15
-1.000000000000000E+20
 25
-1.000000000000000E+20
 35
-1.000000000000000E+20
146
0.0
 13
0.0
 23
0.0
 33
0.0
 16
1.0
 26
0.0
 36
0.0
 17
0.0
 27
1.0
 37
0.0
 76
     0
330
1F
331
29
  0
MATERIAL
  5
45
102
{ACAD_REACTORS
330
43
102
}
330
43
100
AcDbMaterial
  1
ByBlock
 72
     1
 94
      127
  0
MATERIAL
  5
44
102
{ACAD_REACTORS
330
43
102
}
330
43
100
AcDbMaterial
  1
ByLayer
 72
     1
 94
      127
  0
MATERIAL
  5
46
102
{ACAD_REACTORS
330
43
102
}
330
43
100
AcDbMaterial
  1
Global
 72
     1
 94
      127
  0
MLEADERSTYLE
  5
6C
102
{ACAD_REACTORS
330
6B
102
}
330
6B
100
AcDbMLeaderStyle
179
     2
170
     2
171
     1
172
     0
 90
        2
 40
0.0
 41
0.0
173
     1
 91
-1056964608
340
14
 92
       -2
290
     1
 42
0.09
291
     1
 43
0.36
  3
Standard
341
0
 44
0.18
300

342
11
174
     1
178
     6
175
     1
176
     0
 93
-1056964608
 45
0.18
292
     0
297
     0
 46
0.18
343
0
 94
-1056964608
 47
1.0
 49
1.0
140
1.0
293
     1
141
0.0
294
     1
177
     0
142
1.0
295
     0
296
     0
143
0.125
271
     0
272
     9
273
     9
298
     0
  0
MLINESTYLE
  5
18
102
{ACAD_REACTORS
330
17
102
}
330
17
100
AcDbMlineStyle
  2
Standard
 70
     0
  3

 62
   256
 51
90.0
 52
90.0
 71
     2
 49
0.5
 62
   256
  6
BYLAYER
 49
-0.5
 62
   256
  6
BYLAYER
  0
ACDBPLACEHOLDER
  5
F
102
{ACAD_REACTORS
330
E
102
}
330
E
  0
SCALE
  5
48
102
{ACAD_REACTORS
330
47
102
}
330
47
100
AcDbScale
 70
     0
300
1:1
140
1.0
141
1.0
290
     1
  0
SCALE
  5
49
102
{ACAD_REACTORS
330
47
102
}
330
47
100
AcDbScale
 70
     0
300
1:2
140
1.0
141
2.0
290
     0
  0
SCALE
  5
4A
102
{ACAD_REACTORS
330
47
102
}
330
47
100
AcDbScale
 70
     0
300
1:4
140
1.0
141
4.0
290
     0
  0
SCALE
  5
4B
102
{ACAD_REACTORS
330
47
102
}
330
47
100
AcDbScale
 70
     0
300
1:5
140
1.0
141
5.0
290
     0
  0
SCALE
  5
4C
102
{ACAD_REACTORS
330
47
102
}
330
47
100
AcDbScale
 70
     0
300
1:8
140
1.0
141
8.0
290
     0
  0
SCALE
  5
4D
102
{ACAD_REACTORS
330
47
102
}
330
47
100
AcDbScale
 70
     0
300
1:10
140
1.0
141
10.0
290
     0
  0
SCALE
  5
4E
102
{ACAD_REACTORS
330
47
102
}
330
47
100
AcDbScale
 70
     0
300
1:16
140
1.0
141
16.0
290
     0
  0
SCALE
  5
4F
102
{ACAD_REACTORS
330
47
102
}
330
47
100
AcDbScale
 70
     0
300
1:20
140
1.0
141
20.0
290
     0
  0
SCALE
  5
50
102
{ACAD_REACTORS
330
47
102
}
330
47
100
AcDbScale
 70
     0
300
1:30
140
1.0
141
30.0
290
     0
  0
SCALE
  5
51
102
{ACAD_REACTORS
330
47
102
}
330
47
100
AcDbScale
 70
     0
300
1:40
140
1.0
141
40.0
290
     0
  0
SCALE
  5
52
102
{ACAD_REACTORS
330
47
102
}
330
47
100
AcDbScale
 70
     0
300
1:50
140
1.0
141
50.0
290
     0
  0
SCALE
  5
53
102
{ACAD_REACTORS
330
47
102
}
330
47
100
AcDbScale
 70
     0
300
1:100
140
1.0
141
100.0
290
     0
  0
SCALE
  5
54
102
{ACAD_REACTORS
330
47
102
}
330
47
100
AcDbScale
 70
     0
300
2:1
140
2.0
141
1.0
290
     0
  0
SCALE
  5
55
102
{ACAD_REACTORS
330
47
102
}
330
47
100
AcDbScale
 70
     0
300
4:1
140
4.0
141
1.0
290
     0
  0
SCALE
  5
56
102
{ACAD_REACTORS
330
47
102
}
330
47
100
AcDbScale
 70
     0
300
8:1
140
8.0
141
1.0
290
     0
  0
SCALE
  5
57
102
{ACAD_REACTORS
330
47
102
}
330
47
100
AcDbScale
 70
     0
300
10:1
140
10.0
141
1.0
290
     0
  0
SCALE
  5
58
102
{ACAD_REACTORS
330
47
102
}
330
47
100
AcDbScale
 70
     0
300
100:1
140
100.0
141
1.0
290
     0
  0
SCALE
  5
59
102
{ACAD_REACTORS
330
47
102
}
330
47
100
AcDbScale
 70
     0
300
1/128" = 1'-0"
140
0.0078125
141
12.0
290
     0
  0
SCALE
  5
5A
102
{ACAD_REACTORS
330
47
102
}
330
47
100
AcDbScale
 70
     0
300
1/64" = 1'-0"
140
0.015625
141
12.0
290
     0
  0
SCALE
  5
5B
102
{ACAD_REACTORS
330
47
102
}
330
47
100
AcDbScale
 70
     0
300
1/32" = 1'-0"
140
0.03125
141
12.0
290
     0
  0
SCALE
  5
5C
102
{ACAD_REACTORS
330
47
102
}
330
47
100
AcDbScale
 70
     0
300
1/16" = 1'-0"
140
0.0625
141
12.0
290
     0
  0
SCALE
  5
5D
102
{ACAD_REACTORS
330
47
102
}
330
47
100
AcDbScale
 70
     0
300
3/32" = 1'-0"
140
0.09375
141
12.0
290
     0
  0
SCALE
  5
5E
102
{ACAD_REACTORS
330
47
102
}
330
47
100
AcDbScale
 70
     0
300
1/8" = 1'-0"
140
0.125
141
12.0
290
     0
  0
SCALE
  5
5F
102
{ACAD_REACTORS
330
47
102
}
330
47
100
AcDbScale
 70
     0
300
3/16" = 1'-0"
140
0.1875
141
12.0
290
     0
  0
SCALE
  5
60
102
{ACAD_REACTORS
330
47
102
}
330
47
100
AcDbScale
 70
     0
300
1/4" = 1'-0"
140
0.25
141
12.0
290
     0
  0
SCALE
  5
61
102
{ACAD_REACTORS
330
47
102
}
330
47
100
AcDbScale
 70
     0
300
3/8" = 1'-0"
140
0.375
141
12.0
290
     0
  0
SCALE
  5
62
102
{ACAD_REACTORS
330
47
102
}
330
47
100
AcDbScale
 70
     0
300
1/2" = 1'-0"
140
0.5
141
12.0
290
     0
  0
SCALE
  5
63
102
{ACAD_REACTORS
330
47
102
}
330
47
100
AcDbScale
 70
     0
300
3/4" = 1'-0"
140
0.75
141
12.0
290
     0
  0
SCALE
  5
64
102
{ACAD_REACTORS
330
47
102
}
330
47
100
AcDbScale
 70
     0
300
1" = 1'-0"
140
1.0
141
12.0
290
     0
  0
SCALE
  5
65
102
{ACAD_REACTORS
330
47
102
}
330
47
100
AcDbScale
 70
     0
300
1-1/2" = 1'-0"
140
1.5
141
12.0
290
     0
  0
SCALE
  5
66
102
{ACAD_REACTORS
330
47
102
}
330
47
100
AcDbScale
 70
     0
300
3" = 1'-0"
140
3.0
141
12.0
290
     0
  0
SCALE
  5
67
102
{ACAD_REACTORS
330
47
102
}
330
47
100
AcDbScale
 70
     0
300
6" = 1'-0"
140
6.0
141
12.0
290
     0
  0
SCALE
  5
68
102
{ACAD_REACTORS
330
47
102
}
330
47
100
AcDbScale
 70
     0
300
1'-0" = 1'-0"
140
12.0
141
12.0
290
     0
  0
TABLESTYLE
  5
6A
102
{ACAD_REACTORS
330
69
102
}
102
{ACAD_XDICTIONARY
360
1E3
102
}
330
69
100
AcDbTableStyle
  3
Standard
 70
     0
 71
     0
 40
0.06
 41
0.06
280
     0
281
     0
  7
Standard
140
0.18
170
     2
 62
     0
 63
   257
283
     0
 90
        4
 91
        0
  1

274
    -2
284
     1
 64
     0
275
    -2
285
     1
 65
     0
276
    -2
286
     1
 66
     0
277
    -2
287
     1
 67
     0
278
    -2
288
     1
 68
     0
279
    -2
289
     1
 69
     0
  7
Standard
140
0.25
170
     5
 62
     0
 63
   257
283
     0
 90
        4
 91
        0
  1

274
    -2
284
     1
 64
     0
275
    -2
285
     1
 65
     0
276
    -2
286
     1
 66
     0
277
    -2
287
     1
 67
     0
278
    -2
288
     1
 68
     0
279
    -2
289
     1
 69
     0
  7
Standard
140
0.18
170
     5
 62
     0
 63
   257
283
     0
 90
        4
 91
        0
  1

274
    -2
284
     1
 64
     0
275
    -2
285
     1
 65
     0
276
    -2
286
     1
 66
     0
277
    -2
287
     1
 67
     0
278
    -2
288
     1
 68
     0
279
    -2
289
     1
 69
     0
  0
VISUALSTYLE
  5
2F
102
{ACAD_REACTORS
330
2A
102
}
330
2A
100
AcDbVisualStyle
  2
2dWireframe
 70
     4
177
     3
291
     0
 70
    58
 90
        0
176
     1
 90
        2
176
     1
 90
        0
176
     1
 90
        0
176
     1
 40
0.6
176
     1
 40
30.0
176
     1
 62
     7
420
 16777215
176
     1
 90
        1
176
     1
 90
        4
176
     1
 62
     7
176
     1
 62
   257
176
     1
 90
        1
176
     1
 90
        1
176
     1
 40
1.0
176
     1
 90
        0
176
     1
 62
   257
176
     1
 40
1.0
176
     1
 90
        1
176
     1
 90
        6
176
     1
 90
        2
176
     1
 62
     7
176
     1
 90
        5
176
     1
 90
        0
176
     1
 90
        0
176
     1
290
     0
176
     1
 90
        1
176
     1
 40
0.0
176
     1
 90
        0
176
     1
290
     1
176
     1
290
     1
176
     1
290
     0
176
     1
290
     0
176
     1
290
     0
176
     1
290
     0
176
     1
290
     0
176
     1
290
     0
176
     1
290
     0
176
     1
 90
       50
176
     1
 40
0.0
176
     1
 40
1.0
176
     1
 90
        0
176
     1
 62
    18
420
        0
176
     1
 90
       50
176
     1
 90
        3
176
     1
 62
     5
420
      255
176
     1
290
     0
176
     1
 90
       50
176
     1
 90
       50
176
     1
 90
       50
176
     1
290
     0
176
     1
 90
       50
176
     1
 62
   256
176
     0
 40
1.0
176
     0
 90
        2
176
     1
  1
strokes_ogs.tif
176
     1
290
     0
176
     1
 40
1.0
176
     1
 40
1.0
176
     1
  0
VISUALSTYLE
  5
32
102
{ACAD_REACTORS
330
2A
102
}
330
2A
100
AcDbVisualStyle
  2
Basic
 70
     7
177
     3
291
     1
 70
    58
 90
        1
176
     1
 90
        0
176
     1
 90
        1
176
     1
 90
        0
176
     1
 40
0.6
176
     1
 40
30.0
176
     1
 62
     7
420
 16777215
176
     1
 90
        0
176
     1
 90
        4
176
     1
 62
     7
176
     1
 62
   257
176
     1
 90
        1
176
     1
 90
        1
176
     1
 40
1.0
176
     1
 90
        8
176
     1
 62
     7
176
     1
 40
1.0
176
     1
 90
        1
176
     1
 90
        6
176
     1
 90
        2
176
     1
 62
     7
176
     1
 90
        5
176
     1
 90
        0
176
     1
 90
        0
176
     1
290
     0
176
     1
 90
        1
176
     1
 40
0.0
176
     1
 90
        0
176
     1
290
     0
176
     1
290
     1
176
     1
290
     1
176
     1
290
     0
176
     1
290
     0
176
     1
290
     0
176
     1
290
     0
176
     1
290
     0
176
     1
290
     0
176
     1
 90
       50
176
     1
 40
0.0
176
     1
 40
1.0
176
     1
 90
        0
176
     1
 62
    18
420
        0
176
     1
 90
       50
176
     1
 90
        3
176
     1
 62
     5
420
      255
176
     1
290
     0
176
     1
 90
       50
176
     1
 90
       50
176
     1
 90
       50
176
     1
290
     0
176
     1
 90
       50
176
     1
 62
   256
176
     0
 40
1.0
176
     0
 90
        2
176
     1
  1
strokes_ogs.tif
176
     1
290
     0
176
     1
 40
1.0
176
     1
 40
1.0
176
     1
  0
VISUALSTYLE
  5
36
102
{ACAD_REACTORS
330
2A
102
}
330
2A
100
AcDbVisualStyle
  2
Brighten
 70
    12
177
     3
291
     1
 70
    58
 90
        2
176
     1
 90
        2
176
     1
 90
        0
176
     1
 90
        0
176
     1
 40
0.6
176
     1
 40
30.0
176
     1
 62
     7
420
 16777215
176
     1
 90
        1
176
     1
 90
        4
176
     1
 62
     7
176
     1
 62
   257
176
     1
 90
        1
176
     1
 90
        1
176
     1
 40
1.0
176
     1
 90
        8
176
     1
 62
     7
176
     1
 40
1.0
176
     1
 90
        1
176
     1
 90
        6
176
     1
 90
        2
176
     1
 62
     7
176
     1
 90
        5
176
     1
 90
        0
176
     1
 90
        0
176
     1
290
     0
176
     1
 90
        1
176
     1
 40
50.0
176
     1
 90
        0
176
     1
290
     0
176
     1
290
     1
176
     1
290
     1
176
     1
290
     0
176
     1
290
     0
176
     1
290
     0
176
     1
290
     0
176
     1
290
     0
176
     1
290
     0
176
     1
 90
       50
176
     1
 40
0.0
176
     1
 40
1.0
176
     1
 90
        0
176
     1
 62
    18
420
        0
176
     1
 90
       50
176
     1
 90
        3
176
     1
 62
     5
420
      255
176
     1
290
     0
176
     1
 90
       50
176
     1
 90
       50
176
     1
 90
       50
176
     1
290
     0
176
     1
 90
       50
176
     1
 62
   256
176
     0
 40
1.0
176
     0
 90
        2
176
     1
  1
strokes_ogs.tif
176
     1
290
     0
176
     1
 40
1.0
176
     1
 40
1.0
176
     1
  0
VISUALSTYLE
  5
3A
102
{ACAD_REACTORS
330
2A
102
}
330
2A
100
AcDbVisualStyle
  2
ColorChange
 70
    16
177
     3
291
     1
 70
    58
 90
        2
176
     1
 90
        2
176
     1
 90
        3
176
     1
 90
        0
176
     1
 40
0.6
176
     1
 40
30.0
176
     1
 62
     8
420
  8421504
176
     1
 90
        1
176
     1
 90
        4
176
     1
 62
     7
176
     1
 62
   257
176
     1
 90
        1
176
     1
 90
        1
176
     1
 40
1.0
176
     1
 90
        8
176
     1
 62
     8
420
  8421504
176
     1
 40
1.0
176
     1
 90
        1
176
     1
 90
        6
176
     1
 90
        2
176
     1
 62
     7
176
     1
 90
        5
176
     1
 90
        0
176
     1
 90
        0
176
     1
290
     0
176
     1
 90
        1
176
     1
 40
0.0
176
     1
 90
        0
176
     1
290
     0
176
     1
290
     1
176
     1
290
     1
176
     1
290
     0
176
     1
290
     0
176
     1
290
     0
176
     1
290
     0
176
     1
290
     0
176
     1
290
     0
176
     1
 90
       50
176
     1
 40
0.0
176
     1
 40
1.0
176
     1
 90
        0
176
     1
 62
    18
420
        0
176
     1
 90
       50
176
     1
 90
        3
176
     1
 62
     5
420
      255
176
     1
290
     0
176
     1
 90
       50
176
     1
 90
       50
176
     1
 90
       50
176
     1
290
     0
176
     1
 90
       50
176
     1
 62
   256
176
     0
 40
1.0
176
     0
 90
        2
176
     1
  1
strokes_ogs.tif
176
     1
290
     0
176
     1
 40
1.0
176
     1
 40
1.0
176
     1
  0
VISUALSTYLE
  5
34
102
{ACAD_REACTORS
330
2A
102
}
330
2A
100
AcDbVisualStyle
  2
Conceptual
 70
     9
177
     3
291
     0
 70
    58
 90
        3
176
     1
 90
        2
176
     1
 90
        0
176
     1
 90
        0
176
     1
 40
0.6
176
     1
 40
30.0
176
     1
 62
     7
420
 16777215
176
     1
 90
        2
176
     1
 90
        2
176
     1
 62
     7
176
     1
 62
   257
176
     1
 90
        1
176
     1
 90
        1
176
     1
 40
179.0
176
     1
 90
        8
176
     1
 62
     7
176
     1
 40
1.0
176
     1
 90
        1
176
     1
 90
        6
176
     1
 90
        2
176
     1
 62
     7
176
     1
 90
        3
176
     1
 90
        0
176
     1
 90
        0
176
     1
290
     0
176
     1
 90
        1
176
     1
 40
0.0
176
     1
 90
        0
176
     1
290
     0
176
     1
290
     1
176
     1
290
     1
176
     1
290
     0
176
     1
290
     0
176
     1
290
     0
176
     1
290
     0
176
     1
290
     0
176
     1
290
     0
176
     1
 90
       50
176
     1
 40
0.0
176
     1
 40
1.0
176
     1
 90
        0
176
     1
 62
    18
420
        0
176
     1
 90
       50
176
     1
 90
        3
176
     1
 62
     5
420
      255
176
     1
290
     0
176
     1
 90
       50
176
     1
 90
       50
176
     1
 90
       50
176
     1
290
     0
176
     1
 90
       50
176
     1
 62
   256
176
     0
 40
1.0
176
     0
 90
        2
176
     1
  1
strokes_ogs.tif
176
     1
290
     0
176
     1
 40
1.0
176
     1
 40
1.0
176
     1
  0
VISUALSTYLE
  5
35
102
{ACAD_REACTORS
330
2A
102
}
330
2A
100
AcDbVisualStyle
  2
Dim
 70
    11
177
     3
291
     1
 70
    58
 90
        2
176
     1
 90
        2
176
     1
 90
        0
176
     1
 90
        0
176
     1
 40
0.6
176
     1
 40
30.0
176
     1
 62
     7
420
 16777215
176
     1
 90
        1
176
     1
 90
        4
176
     1
 62
     7
176
     1
 62
   257
176
     1
 90
        1
176
     1
 90
        1
176
     1
 40
1.0
176
     1
 90
        8
176
     1
 62
     7
176
     1
 40
1.0
176
     1
 90
        1
176
     1
 90
        6
176
     1
 90
        2
176
     1
 62
     7
176
     1
 90
        5
176
     1
 90
        0
176
     1
 90
        0
176
     1
290
     0
176
     1
 90
        1
176
     1
 40
-50.0
176
     1
 90
        0
176
     1
290
     0
176
     1
290
     1
176
     1
290
     1
176
     1
290
     0
176
     1
290
     0
176
     1
290
     0
176
     1
290
     0
176
     1
290
     0
176
     1
290
     0
176
     1
 90
       50
176
     1
 40
0.0
176
     1
 40
1.0
176
     1
 90
        0
176
     1
 62
    18
420
        0
176
     1
 90
       50
176
     1
 90
        3
176
     1
 62
     5
420
      255
176
     1
290
     0
176
     1
 90
       50
176
     1
 90
       50
176
     1
 90
       50
176
     1
290
     0
176
     1
 90
       50
176
     1
 62
   256
176
     0
 40
1.0
176
     0
 90
        2
176
     1
  1
strokes_ogs.tif
176
     1
290
     0
176
     1
 40
1.0
176
     1
 40
1.0
176
     1
  0
VISUALSTYLE
  5
3D
102
{ACAD_REACTORS
330
2A
102
}
330
2A
100
AcDbVisualStyle
  2
EdgeColorOff
 70
    22
177
     3
291
     1
 70
    58
 90
        2
176
     0
 90
        2
176
     0
 90
        0
176
     0
 90
        0
176
     0
 40
0.6
176
     0
 40
30.0
176
     0
 62
     7
420
 16777215
176
     0
 90
        1
176
     0
 90
        4
176
     0
 62
     7
176
     0
 62
   257
176
     0
 90
        1
176
     0
 90
        1
176
     0
 40
1.0
176
     0
 90
        8
176
     2
 62
     7
176
     0
 40
1.0
176
     0
 90
        1
176
     0
 90
        6
176
     0
 90
        2
176
     0
 62
     7
176
     0
 90
        5
176
     0
 90
        0
176
     0
 90
        0
176
     0
290
     0
176
     0
 90
        1
176
     0
 40
0.0
176
     0
 90
        0
176
     0
290
     0
176
     0
290
     1
176
     0
290
     1
176
     0
290
     0
176
     0
290
     0
176
     0
290
     0
176
     0
290
     0
176
     0
290
     0
176
     0
290
     0
176
     0
 90
       50
176
     0
 40
0.0
176
     0
 40
1.0
176
     0
 90
        0
176
     0
 62
    18
420
        0
176
     0
 90
       50
176
     0
 90
        3
176
     0
 62
     5
420
      255
176
     0
290
     0
176
     0
 90
       50
176
     0
 90
       50
176
     0
 90
       50
176
     0
290
     0
176
     0
 90
       50
176
     0
 62
   256
176
     0
 40
1.0
176
     0
 90
        2
176
     0
  1
strokes_ogs.tif
176
     0
290
     0
176
     0
 40
1.0
176
     0
 40
1.0
176
     0
  0
VISUALSTYLE
  5
39
102
{ACAD_REACTORS
330
2A
102
}
330
2A
100
AcDbVisualStyle
  2
Facepattern
 70
    15
177
     3
291
     1
 70
    58
 90
        2
176
     1
 90
        2
176
     1
 90
        0
176
     1
 90
        0
176
     1
 40
0.6
176
     1
 40
30.0
176
     1
 62
     7
420
 16777215
176
     1
 90
        1
176
     1
 90
        4
176
     1
 62
     7
176
     1
 62
   257
176
     1
 90
        1
176
     1
 90
        1
176
     1
 40
1.0
176
     1
 90
        8
176
     1
 62
     7
176
     1
 40
1.0
176
     1
 90
        1
176
     1
 90
        6
176
     1
 90
        2
176
     1
 62
     7
176
     1
 90
        5
176
     1
 90
        0
176
     1
 90
        0
176
     1
290
     0
176
     1
 90
        1
176
     1
 40
0.0
176
     1
 90
        0
176
     1
290
     0
176
     1
290
     1
176
     1
290
     1
176
     1
290
     0
176
     1
290
     0
176
     1
290
     0
176
     1
290
     0
176
     1
290
     0
176
     1
290
     0
176
     1
 90
       50
176
     1
 40
0.0
176
     1
 40
1.0
176
     1
 90
        0
176
     1
 62
    18
420
        0
176
     1
 90
       50
176
     1
 90
        3
176
     1
 62
     5
420
      255
176
     1
290
     0
176
     1
 90
       50
176
     1
 90
       50
176
     1
 90
       50
176
     1
290
     0
176
     1
 90
       50
176
     1
 62
   256
176
     0
 40
1.0
176
     0
 90
        2
176
     1
  1
strokes_ogs.tif
176
     1
290
     0
176
     1
 40
1.0
176
     1
 40
1.0
176
     1
  0
VISUALSTYLE
  5
2B
102
{ACAD_REACTORS
330
2A
102
}
330
2A
100
AcDbVisualStyle
  2
Flat
 70
     0
177
     3
291
     1
 70
    58
 90
        2
176
     1
 90
        1
176
     1
 90
        1
176
     1
 90
        2
176
     1
 40
0.6
176
     1
 40
30.0
176
     1
 62
     7
420
 16777215
176
     1
 90
        0
176
     1
 90
        0
176
     1
 62
     7
176
     1
 62
   257
176
     1
 90
        1
176
     1
 90
        1
176
     1
 40
1.0
176
     1
 90
        8
176
     1
 62
     7
176
     1
 40
1.0
176
     1
 90
        1
176
     1
 90
        6
176
     1
 90
        2
176
     1
 62
     7
176
     1
 90
        5
176
     1
 90
        0
176
     1
 90
        0
176
     1
290
     0
176
     1
 90
       13
176
     1
 40
0.0
176
     1
 90
        0
176
     1
290
     0
176
     1
290
     1
176
     1
290
     1
176
     1
290
     0
176
     1
290
     0
176
     1
290
     0
176
     1
290
     0
176
     1
290
     0
176
     1
290
     0
176
     1
 90
       50
176
     1
 40
0.0
176
     1
 40
1.0
176
     1
 90
        0
176
     1
 62
    18
420
        0
176
     1
 90
       50
176
     1
 90
        3
176
     1
 62
     5
420
      255
176
     1
290
     0
176
     1
 90
       50
176
     1
 90
       50
176
     1
 90
       50
176
     1
290
     0
176
     1
 90
       50
176
     1
 62
   256
176
     0
 40
1.0
176
     0
 90
        2
176
     1
  1
strokes_ogs.tif
176
     1
290
     0
176
     1
 40
1.0
176
     1
 40
1.0
176
     1
  0
VISUALSTYLE
  5
2C
102
{ACAD_REACTORS
330
2A
102
}
330
2A
100
AcDbVisualStyle
  2
FlatWithEdges
 70
     1
177
     3
291
     1
 70
    58
 90
        2
176
     1
 90
        1
176
     1
 90
        1
176
     1
 90
        2
176
     1
 40
0.6
176
     1
 40
30.0
176
     1
 62
     7
420
 16777215
176
     1
 90
        1
176
     1
 90
        0
176
     1
 62
     7
176
     1
 62
   257
176
     1
 90
        1
176
     1
 90
        1
176
     1
 40
1.0
176
     1
 90
        0
176
     1
 62
   257
176
     1
 40
1.0
176
     1
 90
        1
176
     1
 90
        6
176
     1
 90
        2
176
     1
 62
     7
176
     1
 90
        5
176
     1
 90
        0
176
     1
 90
        0
176
     1
290
     0
176
     1
 90
       13
176
     1
 40
0.0
176
     1
 90
        0
176
     1
290
     0
176
     1
290
     1
176
     1
290
     1
176
     1
290
     0
176
     1
290
     0
176
     1
290
     0
176
     1
290
     0
176
     1
290
     0
176
     1
290
     0
176
     1
 90
       50
176
     1
 40
0.0
176
     1
 40
1.0
176
     1
 90
        0
176
     1
 62
    18
420
        0
176
     1
 90
       50
176
     1
 90
        3
176
     1
 62
     5
420
      255
176
     1
290
     0
176
     1
 90
       50
176
     1
 90
       50
176
     1
 90
       50
176
     1
290
     0
176
     1
 90
       50
176
     1
 62
   256
176
     0
 40
1.0
176
     0
 90
        2
176
     1
  1
strokes_ogs.tif
176
     1
290
     0
176
     1
 40
1.0
176
     1
 40
1.0
176
     1
  0
VISUALSTYLE
  5
2D
102
{ACAD_REACTORS
330
2A
102
}
330
2A
100
AcDbVisualStyle
  2
Gouraud
 70
     2
177
     3
291
     1
 70
    58
 90
        2
176
     1
 90
        2
176
     1
 90
        1
176
     1
 90
        2
176
     1
 40
0.6
176
     1
 40
30.0
176
     1
 62
     7
420
 16777215
176
     1
 90
        0
176
     1
 90
        0
176
     1
 62
     7
176
     1
 62
   257
176
     1
 90
        1
176
     1
 90
        1
176
     1
 40
1.0
176
     1
 90
        0
176
     1
 62
     7
176
     1
 40
1.0
176
     1
 90
        1
176
     1
 90
        6
176
     1
 90
        2
176
     1
 62
     7
176
     1
 90
        5
176
     1
 90
        0
176
     1
 90
        0
176
     1
290
     0
176
     1
 90
       13
176
     1
 40
0.0
176
     1
 90
        0
176
     1
290
     0
176
     1
290
     1
176
     1
290
     1
176
     1
290
     0
176
     1
290
     0
176
     1
290
     0
176
     1
290
     0
176
     1
290
     0
176
     1
290
     0
176
     1
 90
       50
176
     1
 40
0.0
176
     1
 40
1.0
176
     1
 90
        0
176
     1
 62
    18
420
        0
176
     1
 90
       50
176
     1
 90
        3
176
     1
 62
     5
420
      255
176
     1
290
     0
176
     1
 90
       50
176
     1
 90
       50
176
     1
 90
       50
176
     1
290
     0
176
     1
 90
       50
176
     1
 62
   256
176
     0
 40
1.0
176
     0
 90
        2
176
     1
  1
strokes_ogs.tif
176
     1
290
     0
176
     1
 40
1.0
176
     1
 40
1.0
176
     1
  0
VISUALSTYLE
  5
2E
102
{ACAD_REACTORS
330
2A
102
}
330
2A
100
AcDbVisualStyle
  2
GouraudWithEdges
 70
     3
177
     3
291
     1
 70
    58
 90
        2
176
     1
 90
        2
176
     1
 90
        1
176
     1
 90
        2
176
     1
 40
0.6
176
     1
 40
30.0
176
     1
 62
     7
420
 16777215
176
     1
 90
        1
176
     1
 90
        0
176
     1
 62
     7
176
     1
 62
   257
176
     1
 90
        1
176
     1
 90
        1
176
     1
 40
1.0
176
     1
 90
        0
176
     1
 62
   257
176
     1
 40
1.0
176
     1
 90
        1
176
     1
 90
        6
176
     1
 90
        2
176
     1
 62
     7
176
     1
 90
        5
176
     1
 90
        0
176
     1
 90
        0
176
     1
290
     0
176
     1
 90
       13
176
     1
 40
0.0
176
     1
 90
        0
176
     1
290
     0
176
     1
290
     1
176
     1
290
     1
176
     1
290
     0
176
     1
290
     0
176
     1
290
     0
176
     1
290
     0
176
     1
290
     0
176
     1
290
     0
176
     1
 90
       50
176
     1
 40
0.0
176
     1
 40
1.0
176
     1
 90
        0
176
     1
 62
    18
420
        0
176
     1
 90
       50
176
     1
 90
        3
176
     1
 62
     5
420
      255
176
     1
290
     0
176
     1
 90
       50
176
     1
 90
       50
176
     1
 90
       50
176
     1
290
     0
176
     1
 90
       50
176
     1
 62
   256
176
     0
 40
1.0
176
     0
 90
        2
176
     1
  1
strokes_ogs.tif
176
     1
290
     0
176
     1
 40
1.0
176
     1
 40
1.0
176
     1
  0
VISUALSTYLE
  5
31
102
{ACAD_REACTORS
330
2A
102
}
330
2A
100
AcDbVisualStyle
  2
Hidden
 70
     6
177
     3
291
     0
 70
    58
 90
        1
176
     1
 90
        2
176
     1
 90
        2
176
     1
 90
        0
176
     1
 40
0.6
176
     1
 40
30.0
176
     1
 62
     7
420
 16777215
176
     1
 90
        2
176
     1
 90
        2
176
     1
 62
     7
176
     1
 62
   257
176
     1
 90
        2
176
     1
 90
        1
176
     1
 40
40.0
176
     1
 90
        0
176
     1
 62
   257
176
     1
 40
1.0
176
     1
 90
        1
176
     1
 90
        6
176
     1
 90
        2
176
     1
 62
     7
176
     1
 90
        3
176
     1
 90
        0
176
     1
 90
        0
176
     1
290
     0
176
     1
 90
        1
176
     1
 40
0.0
176
     1
 90
        0
176
     1
290
     0
176
     1
290
     1
176
     1
290
     1
176
     1
290
     0
176
     1
290
     0
176
     1
290
     0
176
     1
290
     0
176
     1
290
     0
176
     1
290
     0
176
     1
 90
       50
176
     1
 40
0.0
176
     1
 40
1.0
176
     1
 90
        0
176
     1
 62
    18
420
        0
176
     1
 90
       50
176
     1
 90
        3
176
     1
 62
     5
420
      255
176
     1
290
     0
176
     1
 90
       50
176
     1
 90
       50
176
     1
 90
       50
176
     1
290
     0
176
     1
 90
       50
176
     1
 62
   256
176
     0
 40
1.0
176
     0
 90
        2
176
     1
  1
strokes_ogs.tif
176
     1
290
     0
176
     1
 40
1.0
176
     1
 40
1.0
176
     1
  0
VISUALSTYLE
  5
3B
102
{ACAD_REACTORS
330
2A
102
}
330
2A
100
AcDbVisualStyle
  2
JitterOff
 70
    20
177
     3
291
     1
 70
    58
 90
        2
176
     0
 90
        2
176
     0
 90
        0
176
     0
 90
        0
176
     0
 40
0.6
176
     0
 40
30.0
176
     0
 62
     7
420
 16777215
176
     0
 90
        1
176
     0
 90
        4
176
     0
 62
     7
176
     0
 62
   257
176
     0
 90
        1
176
     0
 90
        1
176
     0
 40
1.0
176
     0
 90
       10
176
     2
 62
     7
176
     0
 40
1.0
176
     0
 90
        1
176
     0
 90
        6
176
     0
 90
        2
176
     0
 62
     7
176
     0
 90
        5
176
     0
 90
        0
176
     0
 90
        0
176
     0
290
     0
176
     0
 90
        1
176
     0
 40
0.0
176
     0
 90
        0
176
     0
290
     0
176
     0
290
     1
176
     0
290
     1
176
     0
290
     0
176
     0
290
     0
176
     0
290
     0
176
     0
290
     0
176
     0
290
     0
176
     0
290
     0
176
     0
 90
       50
176
     0
 40
0.0
176
     0
 40
1.0
176
     0
 90
        0
176
     0
 62
    18
420
        0
176
     0
 90
       50
176
     0
 90
        3
176
     0
 62
     5
420
      255
176
     0
290
     0
176
     0
 90
       50
176
     0
 90
       50
176
     0
 90
       50
176
     0
290
     0
176
     0
 90
       50
176
     0
 62
   256
176
     0
 40
1.0
176
     0
 90
        2
176
     0
  1
strokes_ogs.tif
176
     0
290
     0
176
     0
 40
1.0
176
     0
 40
1.0
176
     0
  0
VISUALSTYLE
  5
38
102
{ACAD_REACTORS
330
2A
102
}
330
2A
100
AcDbVisualStyle
  2
Linepattern
 70
    14
177
     3
291
     1
 70
    58
 90
        2
176
     1
 90
        2
176
     1
 90
        0
176
     1
 90
        0
176
     1
 40
0.6
176
     1
 40
30.0
176
     1
 62
     7
420
 16777215
176
     1
 90
        1
176
     1
 90
        4
176
     1
 62
     7
176
     1
 62
   257
176
     1
 90
        7
176
     1
 90
        7
176
     1
 40
1.0
176
     1
 90
        8
176
     1
 62
     7
176
     1
 40
1.0
176
     1
 90
        1
176
     1
 90
        6
176
     1
 90
        2
176
     1
 62
     7
176
     1
 90
        5
176
     1
 90
        0
176
     1
 90
        0
176
     1
290
     0
176
     1
 90
        1
176
     1
 40
0.0
176
     1
 90
        0
176
     1
290
     0
176
     1
290
     1
176
     1
290
     1
176
     1
290
     0
176
     1
290
     0
176
     1
290
     0
176
     1
290
     0
176
     1
290
     0
176
     1
290
     0
176
     1
 90
       50
176
     1
 40
0.0
176
     1
 40
1.0
176
     1
 90
        0
176
     1
 62
    18
420
        0
176
     1
 90
       50
176
     1
 90
        3
176
     1
 62
     5
420
      255
176
     1
290
     0
176
     1
 90
       50
176
     1
 90
       50
176
     1
 90
       50
176
     1
290
     0
176
     1
 90
       50
176
     1
 62
   256
176
     0
 40
1.0
176
     0
 90
        2
176
     1
  1
strokes_ogs.tif
176
     1
290
     0
176
     1
 40
1.0
176
     1
 40
1.0
176
     1
  0
VISUALSTYLE
  5
3C
102
{ACAD_REACTORS
330
2A
102
}
330
2A
100
AcDbVisualStyle
  2
OverhangOff
 70
    21
177
     3
291
     1
 70
    58
 90
        2
176
     0
 90
        2
176
     0
 90
        0
176
     0
 90
        0
176
     0
 40
0.6
176
     0
 40
30.0
176
     0
 62
     7
420
 16777215
176
     0
 90
        1
176
     0
 90
        4
176
     0
 62
     7
176
     0
 62
   257
176
     0
 90
        1
176
     0
 90
        1
176
     0
 40
1.0
176
     0
 90
        9
176
     2
 62
     7
176
     0
 40
1.0
176
     0
 90
        1
176
     0
 90
        6
176
     0
 90
        2
176
     0
 62
     7
176
     0
 90
        5
176
     0
 90
        0
176
     0
 90
        0
176
     0
290
     0
176
     0
 90
        1
176
     0
 40
0.0
176
     0
 90
        0
176
     0
290
     0
176
     0
290
     1
176
     0
290
     1
176
     0
290
     0
176
     0
290
     0
176
     0
290
     0
176
     0
290
     0
176
     0
290
     0
176
     0
290
     0
176
     0
 90
       50
176
     0
 40
0.0
176
     0
 40
1.0
176
     0
 90
        0
176
     0
 62
    18
420
        0
176
     0
 90
       50
176
     0
 90
        3
176
     0
 62
     5
420
      255
176
     0
290
     0
176
     0
 90
       50
176
     0
 90
       50
176
     0
 90
       50
176
     0
290
     0
176
     0
 90
       50
176
     0
 62
   256
176
     0
 40
1.0
176
     0
 90
        2
176
     0
  1
strokes_ogs.tif
176
     0
290
     0
176
     0
 40
1.0
176
     0
 40
1.0
176
     0
  0
VISUALSTYLE
  5
33
102
{ACAD_REACTORS
330
2A
102
}
330
2A
100
AcDbVisualStyle
  2
Realistic
 70
     8
177
     3
291
     0
 70
    58
 90
        2
176
     1
 90
        3
176
     1
 90
        0
176
     1
 90
        2
176
     1
 40
0.6
176
     1
 40
30.0
176
     1
 62
     7
420
 16777215
176
     1
 90
        0
176
     1
 90
        0
176
     1
 62
     7
176
     1
 62
   257
176
     1
 90
        1
176
     1
 90
        1
176
     1
 40
1.0
176
     1
 90
        8
176
     1
 62
   257
176
     1
 40
1.0
176
     1
 90
        1
176
     1
 90
        6
176
     1
 90
        2
176
     1
 62
     7
176
     1
 90
        3
176
     1
 90
        0
176
     1
 90
        0
176
     1
290
     0
176
     1
 90
       13
176
     1
 40
0.0
176
     1
 90
        0
176
     1
290
     0
176
     1
290
     1
176
     1
290
     1
176
     1
290
     0
176
     1
290
     0
176
     1
290
     0
176
     1
290
     0
176
     1
290
     0
176
     1
290
     0
176
     1
 90
       50
176
     1
 40
0.0
176
     1
 40
1.0
176
     1
 90
        0
176
     1
 62
    18
420
        0
176
     1
 90
       50
176
     1
 90
        3
176
     1
 62
     5
420
      255
176
     1
290
     0
176
     1
 90
       50
176
     1
 90
       50
176
     1
 90
       50
176
     1
290
     0
176
     1
 90
       50
176
     1
 62
   256
176
     0
 40
1.0
176
     0
 90
        2
176
     1
  1
strokes_ogs.tif
176
     1
290
     0
176
     1
 40
1.0
176
     1
 40
1.0
176
     1
  0
VISUALSTYLE
  5
42
102
{ACAD_REACTORS
330
2A
102
}
330
2A
100
AcDbVisualStyle
  2
Shaded
 70
    27
177
     3
291
     0
 70
    58
 90
        2
176
     1
 90
        2
176
     1
 90
        1
176
     1
 90
        2
176
     1
 40
0.6
176
     1
 40
30.0
176
     1
 62
     7
420
 16777215
176
     1
 90
        0
176
     1
 90
        4
176
     1
 62
     7
176
     1
 62
   257
176
     1
 90
        1
176
     1
 90
        1
176
     1
 40
1.0
176
     1
 90
        8
176
     1
 62
   257
176
     1
 40
1.0
176
     1
 90
        1
176
     1
 90
        6
176
     1
 90
        2
176
     1
 62
     8
420
  7895160
176
     1
 90
        3
176
     1
 90
        0
176
     1
 90
        0
176
     1
290
     0
176
     1
 90
        5
176
     1
 40
0.0
176
     1
 90
        0
176
     1
290
     0
176
     1
290
     1
176
     1
290
     1
176
     1
290
     0
176
     1
290
     0
176
     1
290
     0
176
     1
290
     0
176
     1
290
     0
176
     1
290
     0
176
     1
 90
       50
176
     1
 40
0.0
176
     1
 40
1.0
176
     1
 90
        0
176
     1
 62
    18
420
        0
176
     1
 90
       50
176
     1
 90
        3
176
     1
 62
     5
420
      255
176
     1
290
     0
176
     1
 90
       50
176
     1
 90
       50
176
     1
 90
       50
176
     1
290
     0
176
     1
 90
       50
176
     1
 62
   256
176
     0
 40
1.0
176
     0
 90
        2
176
     1
  1
strokes_ogs.tif
176
     1
290
     0
176
     1
 40
1.0
176
     1
 40
1.0
176
     1
  0
VISUALSTYLE
  5
41
102
{ACAD_REACTORS
330
2A
102
}
330
2A
100
AcDbVisualStyle
  2
Shaded with edges
 70
    26
177
     3
291
     0
 70
    58
 90
        2
176
     1
 90
        2
176
     1
 90
        1
176
     1
 90
        2
176
     1
 40
0.6
176
     1
 40
30.0
176
     1
 62
     7
420
 16777215
176
     1
 90
        1
176
     1
 90
       10
176
     1
 62
     7
176
     1
 62
   257
176
     1
 90
        2
176
     1
 90
        1
176
     1
 40
1.0
176
     1
 90
        8
176
     1
 62
   257
176
     1
 40
1.0
176
     1
 90
        1
176
     1
 90
        6
176
     1
 90
        2
176
     1
 62
     7
176
     1
 90
        3
176
     1
 90
        0
176
     1
 90
        0
176
     1
290
     0
176
     1
 90
        5
176
     1
 40
0.0
176
     1
 90
        0
176
     1
290
     0
176
     1
290
     1
176
     1
290
     1
176
     1
290
     0
176
     1
290
     0
176
     1
290
     0
176
     1
290
     0
176
     1
290
     0
176
     1
290
     0
176
     1
 90
       50
176
     1
 40
0.0
176
     1
 40
1.0
176
     1
 90
        0
176
     1
 62
    18
420
        0
176
     1
 90
       50
176
     1
 90
        3
176
     1
 62
     5
420
      255
176
     1
290
     0
176
     1
 90
       50
176
     1
 90
       50
176
     1
 90
       50
176
     1
290
     0
176
     1
 90
       50
176
     1
 62
   256
176
     0
 40
1.0
176
     0
 90
        2
176
     1
  1
strokes_ogs.tif
176
     1
290
     0
176
     1
 40
1.0
176
     1
 40
1.0
176
     1
  0
VISUALSTYLE
  5
3E
102
{ACAD_REACTORS
330
2A
102
}
330
2A
100
AcDbVisualStyle
  2
Shades of Gray
 70
    23
177
     3
291
     0
 70
    58
 90
        2
176
     1
 90
        2
176
     1
 90
        3
176
     1
 90
        0
176
     1
 40
0.6
176
     1
 40
30.0
176
     1
 62
     7
420
 16777215
176
     1
 90
        2
176
     1
 90
        2
176
     1
 62
     7
176
     1
 62
     7
176
     1
 90
        1
176
     1
 90
        1
176
     1
 40
40.0
176
     1
 90
        8
176
     1
 62
     7
176
     1
 40
1.0
176
     1
 90
        1
176
     1
 90
        6
176
     1
 90
        2
176
     1
 62
     7
176
     1
 90
        3
176
     1
 90
        0
176
     1
 90
        0
176
     1
290
     0
176
     1
 90
        1
176
     1
 40
0.0
176
     1
 90
        0
176
     1
290
     0
176
     1
290
     1
176
     1
290
     1
176
     1
290
     0
176
     1
290
     0
176
     1
290
     0
176
     1
290
     0
176
     1
290
     0
176
     1
290
     0
176
     1
 90
       50
176
     1
 40
0.0
176
     1
 40
1.0
176
     1
 90
        0
176
     1
 62
    18
420
        0
176
     1
 90
       50
176
     1
 90
        3
176
     1
 62
     5
420
      255
176
     1
290
     0
176
     1
 90
       50
176
     1
 90
       50
176
     1
 90
       50
176
     1
290
     0
176
     1
 90
       50
176
     1
 62
   256
176
     0
 40
1.0
176
     0
 90
        2
176
     1
  1
strokes_ogs.tif
176
     1
290
     0
176
     1
 40
1.0
176
     1
 40
1.0
176
     1
  0
VISUALSTYLE
  5
3F
102
{ACAD_REACTORS
330
2A
102
}
330
2A
100
AcDbVisualStyle
  2
Sketchy
 70
    24
177
     3
291
     0
 70
    58
 90
        1
176
     1
 90
        2
176
     1
 90
        2
176
     1
 90
        0
176
     1
 40
0.6
176
     1
 40
30.0
176
     1
 62
     7
420
 16777215
176
     1
 90
        2
176
     1
 90
        2
176
     1
 62
     7
176
     1
 62
     7
176
     1
 90
        1
176
     1
 90
        1
176
     1
 40
40.0
176
     1
 90
       11
176
     1
 62
     7
176
     1
 40
1.0
176
     1
 90
        1
176
     1
 90
        6
176
     1
 90
        2
176
     1
 62
     7
176
     1
 90
        6
176
     1
 90
        0
176
     1
 90
        0
176
     1
290
     0
176
     1
 90
        1
176
     1
 40
0.0
176
     1
 90
        0
176
     1
290
     0
176
     1
290
     1
176
     1
290
     1
176
     1
290
     0
176
     1
290
     0
176
     1
290
     0
176
     1
290
     0
176
     1
290
     0
176
     1
290
     0
176
     1
 90
       50
176
     1
 40
0.0
176
     1
 40
1.0
176
     1
 90
        0
176
     1
 62
    18
420
        0
176
     1
 90
       50
176
     1
 90
        3
176
     1
 62
     5
420
      255
176
     1
290
     0
176
     1
 90
       50
176
     1
 90
       50
176
     1
 90
       50
176
     1
290
     0
176
     1
 90
       50
176
     1
 62
   256
176
     0
 40
1.0
176
     0
 90
        2
176
     1
  1
strokes_ogs.tif
176
     1
290
     0
176
     1
 40
1.0
176
     1
 40
1.0
176
     1
  0
VISUALSTYLE
  5
37
102
{ACAD_REACTORS
330
2A
102
}
330
2A
100
AcDbVisualStyle
  2
Thicken
 70
    13
177
     3
291
     1
 70
    58
 90
        2
176
     1
 90
        2
176
     1
 90
        0
176
     1
 90
        0
176
     1
 40
0.6
176
     1
 40
30.0
176
     1
 62
     7
420
 16777215
176
     1
 90
        1
176
     1
 90
        4
176
     1
 62
     7
176
     1
 62
   257
176
     1
 90
        1
176
     1
 90
        1
176
     1
 40
1.0
176
     1
 90
       12
176
     1
 62
     7
176
     1
 40
1.0
176
     1
 90
        1
176
     1
 90
        6
176
     1
 90
        2
176
     1
 62
     7
176
     1
 90
        5
176
     1
 90
        0
176
     1
 90
        0
176
     1
290
     0
176
     1
 90
        1
176
     1
 40
0.0
176
     1
 90
        0
176
     1
290
     0
176
     1
290
     1
176
     1
290
     1
176
     1
290
     0
176
     1
290
     0
176
     1
290
     0
176
     1
290
     0
176
     1
290
     0
176
     1
290
     0
176
     1
 90
       50
176
     1
 40
0.0
176
     1
 40
1.0
176
     1
 90
        0
176
     1
 62
    18
420
        0
176
     1
 90
       50
176
     1
 90
        3
176
     1
 62
     5
420
      255
176
     1
290
     0
176
     1
 90
       50
176
     1
 90
       50
176
     1
 90
       50
176
     1
290
     0
176
     1
 90
       50
176
     1
 62
   256
176
     0
 40
1.0
176
     0
 90
        2
176
     1
  1
strokes_ogs.tif
176
     1
290
     0
176
     1
 40
1.0
176
     1
 40
1.0
176
     1
  0
VISUALSTYLE
  5
30
102
{ACAD_REACTORS
330
2A
102
}
330
2A
100
AcDbVisualStyle
  2
Wireframe
 70
     5
177
     3
291
     0
 70
    58
 90
        0
176
     1
 90
        2
176
     1
 90
        0
176
     1
 90
        0
176
     1
 40
0.6
176
     1
 40
30.0
176
     1
 62
     7
420
 16777215
176
     1
 90
        1
176
     1
 90
        4
176
     1
 62
     7
176
     1
 62
   257
176
     1
 90
        1
176
     1
 90
        1
176
     1
 40
1.0
176
     1
 90
        0
176
     1
 62
   257
176
     1
 40
1.0
176
     1
 90
        1
176
     1
 90
        6
176
     1
 90
        2
176
     1
 62
     7
176
     1
 90
        3
176
     1
 90
        0
176
     1
 90
        0
176
     1
290
     0
176
     1
 90
        1
176
     1
 40
0.0
176
     1
 90
        0
176
     1
290
     0
176
     1
290
     1
176
     1
290
     1
176
     1
290
     0
176
     1
290
     0
176
     1
290
     0
176
     1
290
     0
176
     1
290
     0
176
     1
290
     0
176
     1
 90
       50
176
     1
 40
0.0
176
     1
 40
1.0
176
     1
 90
        0
176
     1
 62
    18
420
        0
176
     1
 90
       50
176
     1
 90
        3
176
     1
 62
     5
420
      255
176
     1
290
     0
176
     1
 90
       50
176
     1
 90
       50
176
     1
 90
       50
176
     1
290
     0
176
     1
 90
       50
176
     1
 62
   256
176
     0
 40
1.0
176
     0
 90
        2
176
     1
  1
strokes_ogs.tif
176
     1
290
     0
176
     1
 40
1.0
176
     1
 40
1.0
176
     1
  0
VISUALSTYLE
  5
40
102
{ACAD_REACTORS
330
2A
102
}
330
2A
100
AcDbVisualStyle
  2
X-Ray
 70
    25
177
     3
291
     0
 70
    58
 90
        2
176
     1
 90
        2
176
     1
 90
        1
176
     1
 90
        1
176
     1
 40
0.5
176
     1
 40
30.0
176
     1
 62
     7
420
 16777215
176
     1
 90
        1
176
     1
 90
        0
176
     1
 62
     7
176
     1
 62
   257
176
     1
 90
        1
176
     1
 90
        1
176
     1
 40
1.0
176
     1
 90
        8
176
     1
 62
     7
176
     1
 40
1.0
176
     1
 90
        1
176
     1
 90
        6
176
     1
 90
        2
176
     1
 62
     7
176
     1
 90
        3
176
     1
 90
        0
176
     1
 90
        0
176
     1
290
     0
176
     1
 90
       13
176
     1
 40
0.0
176
     1
 90
        0
176
     1
290
     0
176
     1
290
     1
176
     1
290
     1
176
     1
290
     0
176
     1
290
     0
176
     1
290
     0
176
     1
290
     0
176
     1
290
     0
176
     1
290
     0
176
     1
 90
       50
176
     1
 40
0.0
176
     1
 40
1.0
176
     1
 90
        0
176
     1
 62
    18
420
        0
176
     1
 90
       50
176
     1
 90
        3
176
     1
 62
     5
420
      255
176
     1
290
     0
176
     1
 90
       50
176
     1
 90
       50
176
     1
 90
       50
176
     1
290
     0
176
     1
 90
       50
176
     1
 62
   256
176
     0
 40
1.0
176
     0
 90
        2
176
     1
  1
strokes_ogs.tif
176
     1
290
     0
176
     1
 40
1.0
176
     1
 40
1.0
176
     1
  0
DICTIONARYVAR
  5
1E2
102
{ACAD_REACTORS
330
1E1
102
}
330
1E1
100
DictionaryVariables
280
     0
  1
1:1
  0
DICTIONARYVAR
  5
1E7
102
{ACAD_REACTORS
330
1E1
102
}
330
1E1
100
DictionaryVariables
280
     0
  1
Standard
  0
DICTIONARYVAR
  5
1E6
102
{ACAD_REACTORS
330
1E1
102
}
330
1E1
100
DictionaryVariables
280
     0
  1
Standard
  0
DICTIONARY
  5
1E3
330
6A
100
AcDbDictionary
280
     1
281
     1
  3
ACAD_ROUNDTRIP_2008_TABLESTYLE_CELLSTYLEMAP
360
1E4
  0
CELLSTYLEMAP
  5
1E4
102
{ACAD_REACTORS
330
1E3
102
}
330
1E3
100
AcDbCellStyleMap
 90
        3
300
CELLSTYLE
  1
TABLEFORMAT_BEGIN
 90
        5
170
     1
 91
        0
 92
    32768
 62
   257
 93
        1
300
CONTENTFORMAT
  1
CONTENTFORMAT_BEGIN
 90
        0
 91
        0
 92
        4
 93
        0
300

 40
0.0
140
1.0
 94
        5
 62
     0
340
11
144
0.25
309
CONTENTFORMAT_END
171
     1
301
MARGIN
  1
CELLMARGIN_BEGIN
 40
0.06
 40
0.06
 40
0.06
 40
0.06
 40
0.06
 40
0.06
309
CELLMARGIN_END
 94
        6
 95
        1
302
GRIDFORMAT
  1
GRIDFORMAT_BEGIN
 90
        0
 91
        1
 62
     0
 92
       -2
340
14
 93
        0
 40
0.045
309
GRIDFORMAT_END
 95
        2
302
GRIDFORMAT
  1
GRIDFORMAT_BEGIN
 90
        0
 91
        1
 62
     0
 92
       -2
340
14
 93
        0
 40
0.045
309
GRIDFORMAT_END
 95
        4
302
GRIDFORMAT
  1
GRIDFORMAT_BEGIN
 90
        0
 91
        1
 62
     0
 92
       -2
340
14
 93
        0
 40
0.045
309
GRIDFORMAT_END
 95
        8
302
GRIDFORMAT
  1
GRIDFORMAT_BEGIN
 90
        0
 91
        1
 62
     0
 92
       -2
340
14
 93
        0
 40
0.045
309
GRIDFORMAT_END
 95
       16
302
GRIDFORMAT
  1
GRIDFORMAT_BEGIN
 90
        0
 91
        1
 62
     0
 92
       -2
340
14
 93
        0
 40
0.045
309
GRIDFORMAT_END
 95
       32
302
GRIDFORMAT
  1
GRIDFORMAT_BEGIN
 90
        0
 91
        1
 62
     0
 92
       -2
340
14
 93
        0
 40
0.045
309
GRIDFORMAT_END
309
TABLEFORMAT_END
  1
CELLSTYLE_BEGIN
 90
        1
 91
        1
300
_TITLE
309
CELLSTYLE_END
300
CELLSTYLE
  1
TABLEFORMAT_BEGIN
 90
        5
170
     1
 91
        0
 92
        0
 62
   257
 93
        1
300
CONTENTFORMAT
  1
CONTENTFORMAT_BEGIN
 90
        0
 91
        0
 92
        4
 93
        0
300

 40
0.0
140
1.0
 94
        5
 62
     0
340
11
144
0.18
309
CONTENTFORMAT_END
171
     1
301
MARGIN
  1
CELLMARGIN_BEGIN
 40
0.06
 40
0.06
 40
0.06
 40
0.06
 40
0.06
 40
0.06
309
CELLMARGIN_END
 94
        6
 95
        1
302
GRIDFORMAT
  1
GRIDFORMAT_BEGIN
 90
        0
 91
        1
 62
     0
 92
       -2
340
14
 93
        0
 40
0.045
309
GRIDFORMAT_END
 95
        2
302
GRIDFORMAT
  1
GRIDFORMAT_BEGIN
 90
        0
 91
        1
 62
     0
 92
       -2
340
14
 93
        0
 40
0.045
309
GRIDFORMAT_END
 95
        4
302
GRIDFORMAT
  1
GRIDFORMAT_BEGIN
 90
        0
 91
        1
 62
     0
 92
       -2
340
14
 93
        0
 40
0.045
309
GRIDFORMAT_END
 95
        8
302
GRIDFORMAT
  1
GRIDFORMAT_BEGIN
 90
        0
 91
        1
 62
     0
 92
       -2
340
14
 93
        0
 40
0.045
309
GRIDFORMAT_END
 95
       16
302
GRIDFORMAT
  1
GRIDFORMAT_BEGIN
 90
        0
 91
        1
 62
     0
 92
       -2
340
14
 93
        0
 40
0.045
309
GRIDFORMAT_END
 95
       32
302
GRIDFORMAT
  1
GRIDFORMAT_BEGIN
 90
        0
 91
        1
 62
     0
 92
       -2
340
14
 93
        0
 40
0.045
309
GRIDFORMAT_END
309
TABLEFORMAT_END
  1
CELLSTYLE_BEGIN
 90
        2
 91
        1
300
_HEADER
309
CELLSTYLE_END
300
CELLSTYLE
  1
TABLEFORMAT_BEGIN
 90
        5
170
     1
 91
        0
 92
        0
 62
   257
 93
        1
300
CONTENTFORMAT
  1
CONTENTFORMAT_BEGIN
 90
        0
 91
        0
 92
        4
 93
        0
300

 40
0.0
140
1.0
 94
        2
 62
     0
340
11
144
0.18
309
CONTENTFORMAT_END
171
     1
301
MARGIN
  1
CELLMARGIN_BEGIN
 40
0.06
 40
0.06
 40
0.06
 40
0.06
 40
0.06
 40
0.06
309
CELLMARGIN_END
 94
        6
 95
        1
302
GRIDFORMAT
  1
GRIDFORMAT_BEGIN
 90
        0
 91
        1
 62
     0
 92
       -2
340
14
 93
        0
 40
0.045
309
GRIDFORMAT_END
 95
        2
302
GRIDFORMAT
  1
GRIDFORMAT_BEGIN
 90
        0
 91
        1
 62
     0
 92
       -2
340
14
 93
        0
 40
0.045
309
GRIDFORMAT_END
 95
        4
302
GRIDFORMAT
  1
GRIDFORMAT_BEGIN
 90
        0
 91
        1
 62
     0
 92
       -2
340
14
 93
        0
 40
0.045
309
GRIDFORMAT_END
 95
        8
302
GRIDFORMAT
  1
GRIDFORMAT_BEGIN
 90
        0
 91
        1
 62
     0
 92
       -2
340
14
 93
        0
 40
0.045
309
GRIDFORMAT_END
 95
       16
302
GRIDFORMAT
  1
GRIDFORMAT_BEGIN
 90
        0
 91
        1
 62
     0
 92
       -2
340
14
 93
        0
 40
0.045
309
GRIDFORMAT_END
 95
       32
302
GRIDFORMAT
  1
GRIDFORMAT_BEGIN
 90
        0
 91
        1
 62
     0
 92
       -2
340
14
 93
        0
 40
0.045
309
GRIDFORMAT_END
309
TABLEFORMAT_END
  1
CELLSTYLE_BEGIN
 90
        3
 91
        2
300
_DATA
309
CELLSTYLE_END
  0
ENDSEC
  0
EOF