0
SECTION
  2
HEADER
  9
$ACADVER
  1
AC1027
  9
$ACADMAINTVER
 70
     8
  9
$DWGCODEPAGE
  3
ANSI_1252
  9
$REQUIREDVERSIONS
160
                 0
  9
$COMMENTS
  1
File was created by Cadenas
  9
$CUSTOMPROPERTYTAG
  1
NN
  9
$CUSTOMPROPERTY
  1
S-2000 Pillow Block 2-Bolt Inch Bore (Labyrinth Seal)
  9
$CUSTOMPROPERTYTAG
  1
NT
  9
$CUSTOMPROPERTY
  1
S-2000 Pillow Block Bearing -Inch (2-Bolt Base)
  9
$CUSTOMPROPERTYTAG
  1
NB
  9
$CUSTOMPROPERTY
  1
070319
  9
$CUSTOMPROPERTYTAG
  1
NBSYN
  9
$CUSTOMPROPERTY
  1
$PN.
  9
$CUSTOMPROPERTYTAG
  1
LINA
  9
$CUSTOMPROPERTY
  1
070319
  9
$CUSTOMPROPERTYTAG
  1
SS
  9
$CUSTOMPROPERTY
  1
1-7/16
  9
$CUSTOMPROPERTYTAG
  1
PN
  9
$CUSTOMPROPERTY
  1
070319
  9
$CUSTOMPROPERTYTAG
  1
DESCRIPTION
  9
$CUSTOMPROPERTY
  1
P2B-S2-107L
  9
$CUSTOMPROPERTYTAG
  1
EF
  9
$CUSTOMPROPERTY
  1
Non-Expansion Type
  9
$CUSTOMPROPERTYTAG
  1
ST
  9
$CUSTOMPROPERTY
  1
Labyrinth Type
  9
$CUSTOMPROPERTYTAG
  1
A
  9
$CUSTOMPROPERTY
  1
2-17/32
  9
$CUSTOMPROPERTYTAG
  1
B
  9
$CUSTOMPROPERTY
  1
6-7/8
  9
$CUSTOMPROPERTYTAG
  1
C
  9
$CUSTOMPROPERTY
  1
1-61/64
  9
$CUSTOMPROPERTYTAG
  1
DMIN
  9
$CUSTOMPROPERTY
  1
4-13/16
  9
$CUSTOMPROPERTYTAG
  1
DMAX
  9
$CUSTOMPROPERTY
  1
5-13/64
  9
$CUSTOMPROPERTYTAG
  1
F
  9
$CUSTOMPROPERTY
  1
1/2
  9
$CUSTOMPROPERTYTAG
  1
G
  9
$CUSTOMPROPERTY
  1
13/16
  9
$CUSTOMPROPERTYTAG
  1
H
  9
$CUSTOMPROPERTY
  1
1-1/8
  9
$CUSTOMPROPERTYTAG
  1
J
  9
$CUSTOMPROPERTY
  1
3-7/8
  9
$CUSTOMPROPERTYTAG
  1
L
  9
$CUSTOMPROPERTY
  1
2-3/4
  9
$CUSTOMPROPERTYTAG
  1
M
  9
$CUSTOMPROPERTY
  1
1-7/8
  9
$CUSTOMPROPERTYTAG
  1
R
  9
$CUSTOMPROPERTY
  1
7/8
  9
$CUSTOMPROPERTYTAG
  1
S
  9
$CUSTOMPROPERTY
  1
1-21/32
  9
$CUSTOMPROPERTYTAG
  1
X
  9
$CUSTOMPROPERTY
  1
3/16
  9
$CUSTOMPROPERTYTAG
  1
Y
  9
$CUSTOMPROPERTY
  1
0.020
  9
$CUSTOMPROPERTYTAG
  1
Z
  9
$CUSTOMPROPERTY
  1
1-51/64
  9
$CUSTOMPROPERTYTAG
  1
COMPANY
  9
$CUSTOMPROPERTY
  1
baldor
  9
$INSBASE
 10
0.0
 20
0.0
 30
0.0
  9
$EXTMIN
 10
1.000000000000000E+20
 20
1.000000000000000E+20
 30
1.000000000000000E+20
  9
$EXTMAX
 10
-1.000000000000000E+20
 20
-1.000000000000000E+20
 30
-1.000000000000000E+20
  9
$LIMMIN
 10
0.0
 20
0.0
  9
$LIMMAX
 10
12.0
 20
9.0
  9
$ORTHOMODE
 70
     0
  9
$REGENMODE
 70
     1
  9
$FILLMODE
 70
     1
  9
$QTEXTMODE
 70
     0
  9
$MIRRTEXT
 70
     1
  9
$LTSCALE
 40
1.0
  9
$ATTMODE
 70
     1
  9
$TEXTSIZE
 40
0.2
  9
$TRACEWID
 40
0.05
  9
$TEXTSTYLE
  7
Standard
  9
$CLAYER
  8
0
  9
$CELTYPE
  6
ByLayer
  9
$CECOLOR
 62
   256
  9
$CELTSCALE
 40
1.0
  9
$DISPSILH
 70
     0
  9
$DIMSCALE
 40
1.0
  9
$DIMASZ
 40
0.18
  9
$DIMEXO
 40
0.0625
  9
$DIMDLI
 40
0.38
  9
$DIMRND
 40
0.0
  9
$DIMDLE
 40
0.0
  9
$DIMEXE
 40
0.18
  9
$DIMTP
 40
0.0
  9
$DIMTM
 40
0.0
  9
$DIMTXT
 40
0.18
  9
$DIMCEN
 40
0.09
  9
$DIMTSZ
 40
0.0
  9
$DIMTOL
 70
     0
  9
$DIMLIM
 70
     0
  9
$DIMTIH
 70
     1
  9
$DIMTOH
 70
     1
  9
$DIMSE1
 70
     0
  9
$DIMSE2
 70
     0
  9
$DIMTAD
 70
     0
  9
$DIMZIN
 70
     0
  9
$DIMBLK
  1

  9
$DIMASO
 70
     1
  9
$DIMSHO
 70
     1
  9
$DIMPOST
  1

  9
$DIMAPOST
  1

  9
$DIMALT
 70
     0
  9
$DIMALTD
 70
     2
  9
$DIMALTF
 40
25.4
  9
$DIMLFAC
 40
1.0
  9
$DIMTOFL
 70
     0
  9
$DIMTVP
 40
0.0
  9
$DIMTIX
 70
     0
  9
$DIMSOXD
 70
     0
  9
$DIMSAH
 70
     0
  9
$DIMBLK1
  1

  9
$DIMBLK2
  1

  9
$DIMSTYLE
  2
Standard
  9
$DIMCLRD
 70
     0
  9
$DIMCLRE
 70
     0
  9
$DIMCLRT
 70
     0
  9
$DIMTFAC
 40
1.0
  9
$DIMGAP
 40
0.09
  9
$DIMJUST
 70
     0
  9
$DIMSD1
 70
     0
  9
$DIMSD2
 70
     0
  9
$DIMTOLJ
 70
     1
  9
$DIMTZIN
 70
     0
  9
$DIMALTZ
 70
     0
  9
$DIMALTTZ
 70
     0
  9
$DIMUPT
 70
     0
  9
$DIMDEC
 70
     4
  9
$DIMTDEC
 70
     4
  9
$DIMALTU
 70
     2
  9
$DIMALTTD
 70
     2
  9
$DIMTXSTY
  7
Standard
  9
$DIMAUNIT
 70
     0
  9
$DIMADEC
 70
     0
  9
$DIMALTRND
 40
0.0
  9
$DIMAZIN
 70
     0
  9
$DIMDSEP
 70
    46
  9
$DIMATFIT
 70
     3
  9
$DIMFRAC
 70
     0
  9
$DIMLDRBLK
  1

  9
$DIMLUNIT
 70
     2
  9
$DIMLWD
 70
    -2
  9
$DIMLWE
 70
    -2
  9
$DIMTMOVE
 70
     0
  9
$DIMFXL
 40
1.0
  9
$DIMFXLON
 70
     0
  9
$DIMJOGANG
 40
0.7853981633974483
  9
$DIMTFILL
 70
     0
  9
$DIMTFILLCLR
 70
     0
  9
$DIMARCSYM
 70
     0
  9
$DIMLTYPE
  6

  9
$DIMLTEX1
  6

  9
$DIMLTEX2
  6

  9
$DIMTXTDIRECTION
 70
     0
  9
$LUNITS
 70
     2
  9
$LUPREC
 70
     4
  9
$SKETCHINC
 40
0.1
  9
$FILLETRAD
 40
0.5
  9
$AUNITS
 70
     0
  9
$AUPREC
 70
     0
  9
$MENU
  1
.
  9
$ELEVATION
 40
0.0
  9
$PELEVATION
 40
0.0
  9
$THICKNESS
 40
0.0
  9
$LIMCHECK
 70
     0
  9
$CHAMFERA
 40
0.0
  9
$CHAMFERB
 40
0.0
  9
$CHAMFERC
 40
0.0
  9
$CHAMFERD
 40
0.0
  9
$SKPOLY
 70
     0
  9
$TDCREATE
 40
2458168.985172419
  9
$TDUCREATE
 40
2458168.943505752
  9
$TDUPDATE
 40
2458168.985172604
  9
$TDUUPDATE
 40
2458168.943505938
  9
$TDINDWG
 40
0.0000000116
  9
$TDUSRTIMER
 40
0.0000000116
  9
$USRTIMER
 70
     1
  9
$ANGBASE
 50
0.0
  9
$ANGDIR
 70
     0
  9
$PDMODE
 70
     0
  9
$PDSIZE
 40
0.0
  9
$PLINEWID
 40
0.0
  9
$SPLFRAME
 70
     0
  9
$SPLINETYPE
 70
     6
  9
$SPLINESEGS
 70
     8
  9
$HANDSEED
  5
205
  9
$SURFTAB1
 70
     6
  9
$SURFTAB2
 70
     6
  9
$SURFTYPE
 70
     6
  9
$SURFU
 70
     6
  9
$SURFV
 70
     6
  9
$UCSBASE
  2

  9
$UCSNAME
  2

  9
$UCSORG
 10
0.0
 20
0.0
 30
0.0
  9
$UCSXDIR
 10
1.0
 20
0.0
 30
0.0
  9
$UCSYDIR
 10
0.0
 20
1.0
 30
0.0
  9
$UCSORTHOREF
  2

  9
$UCSORTHOVIEW
 70
     0
  9
$UCSORGTOP
 10
0.0
 20
0.0
 30
0.0
  9
$UCSORGBOTTOM
 10
0.0
 20
0.0
 30
0.0
  9
$UCSORGLEFT
 10
0.0
 20
0.0
 30
0.0
  9
$UCSORGRIGHT
 10
0.0
 20
0.0
 30
0.0
  9
$UCSORGFRONT
 10
0.0
 20
0.0
 30
0.0
  9
$UCSORGBACK
 10
0.0
 20
0.0
 30
0.0
  9
$PUCSBASE
  2

  9
$PUCSNAME
  2

  9
$PUCSORG
 10
0.0
 20
0.0
 30
0.0
  9
$PUCSXDIR
 10
1.0
 20
0.0
 30
0.0
  9
$PUCSYDIR
 10
0.0
 20
1.0
 30
0.0
  9
$PUCSORTHOREF
  2

  9
$PUCSORTHOVIEW
 70
     0
  9
$PUCSORGTOP
 10
0.0
 20
0.0
 30
0.0
  9
$PUCSORGBOTTOM
 10
0.0
 20
0.0
 30
0.0
  9
$PUCSORGLEFT
 10
0.0
 20
0.0
 30
0.0
  9
$PUCSORGRIGHT
 10
0.0
 20
0.0
 30
0.0
  9
$PUCSORGFRONT
 10
0.0
 20
0.0
 30
0.0
  9
$PUCSORGBACK
 10
0.0
 20
0.0
 30
0.0
  9
$USERI1
 70
     0
  9
$USERI2
 70
     0
  9
$USERI3
 70
     0
  9
$USERI4
 70
     0
  9
$USERI5
 70
     0
  9
$USERR1
 40
0.0
  9
$USERR2
 40
0.0
  9
$USERR3
 40
0.0
  9
$USERR4
 40
0.0
  9
$USERR5
 40
0.0
  9
$WORLDVIEW
 70
     1
  9
$SHADEDGE
 70
     3
  9
$SHADEDIF
 70
    70
  9
$TILEMODE
 70
     1
  9
$MAXACTVP
 70
    64
  9
$PINSBASE
 10
0.0
 20
0.0
 30
0.0
  9
$PLIMCHECK
 70
     0
  9
$PEXTMIN
 10
1.000000000000000E+20
 20
1.000000000000000E+20
 30
1.000000000000000E+20
  9
$PEXTMAX
 10
-1.000000000000000E+20
 20
-1.000000000000000E+20
 30
-1.000000000000000E+20
  9
$PLIMMIN
 10
0.0
 20
0.0
  9
$PLIMMAX
 10
12.0
 20
9.0
  9
$UNITMODE
 70
     0
  9
$VISRETAIN
 70
     1
  9
$PLINEGEN
 70
     0
  9
$PSLTSCALE
 70
     1
  9
$TREEDEPTH
 70
  3020
  9
$CMLSTYLE
  2
Standard
  9
$CMLJUST
 70
     0
  9
$CMLSCALE
 40
1.0
  9
$PROXYGRAPHICS
 70
     1
  9
$MEASUREMENT
 70
     0
  9
$CELWEIGHT
370
    -1
  9
$ENDCAPS
280
     0
  9
$JOINSTYLE
280
     0
  9
$LWDISPLAY
290
     0
  9
$INSUNITS
 70
     1
  9
$HYPERLINKBASE
  1

  9
$STYLESHEET
  1

  9
$XEDIT
290
     1
  9
$CEPSNTYPE
380
     0
  9
$PSTYLEMODE
290
     1
  9
$FINGERPRINTGUID
  2
{B7674601-A721-4B33-BAF3-5C736C984792}
  9
$VERSIONGUID
  2
{FAEB1C32-E019-11D5-929B-00C0DF256EC4}
  9
$EXTNAMES
290
     1
  9
$PSVPSCALE
 40
0.0
  9
$OLESTARTUP
290
     0
  9
$SORTENTS
280
   127
  9
$INDEXCTL
280
     0
  9
$HIDETEXT
280
     1
  9
$XCLIPFRAME
280
     2
  9
$HALOGAP
280
     0
  9
$OBSCOLOR
 70
   257
  9
$OBSLTYPE
280
     0
  9
$INTERSECTIONDISPLAY
280
     0
  9
$INTERSECTIONCOLOR
 70
   257
  9
$DIMASSOC
280
     2
  9
$PROJECTNAME
  1

  9
$CAMERADISPLAY
290
     0
  9
$LENSLENGTH
 40
50.0
  9
$CAMERAHEIGHT
 40
0.0
  9
$STEPSPERSEC
 40
2.0
  9
$STEPSIZE
 40
6.0
  9
$3DDWFPREC
 40
2.0
  9
$PSOLWIDTH
 40
0.25
  9
$PSOLHEIGHT
 40
4.0
  9
$LOFTANG1
 40
1.570796326794897
  9
$LOFTANG2
 40
1.570796326794897
  9
$LOFTMAG1
 40
0.0
  9
$LOFTMAG2
 40
0.0
  9
$LOFTPARAM
 70
     7
  9
$LOFTNORMALS
280
     1
  9
$LATITUDE
 40
37.795
  9
$LONGITUDE
 40
-122.394
  9
$NORTHDIRECTION
 40
0.0
  9
$TIMEZONE
 70
 -8000
  9
$LIGHTGLYPHDISPLAY
280
     1
  9
$TILEMODELIGHTSYNCH
280
     1
  9
$CMATERIAL
347
44
  9
$SOLIDHIST
280
     0
  9
$SHOWHIST
280
     1
  9
$DWFFRAME
280
     2
  9
$DGNFRAME
280
     2
  9
$REALWORLDSCALE
290
     1
  9
$INTERFERECOLOR
 62
   256
  9
$CSHADOW
280
     0
  9
$SHADOWPLANELOCATION
 40
0.0
  0
ENDSEC
  0
SECTION
  2
CLASSES
  0
CLASS
  1
ACDBDICTIONARYWDFLT
  2
AcDbDictionaryWithDefault
  3
ObjectDBX Classes
 90
        0
 91
        4
280
     0
281
     0
  0
CLASS
  1
VISUALSTYLE
  2
AcDbVisualStyle
  3
ObjectDBX Classes
 90
     4095
 91
        4
280
     0
281
     0
  0
CLASS
  1
MATERIAL
  2
AcDbMaterial
  3
ObjectDBX Classes
 90
     1153
 91
        4
280
     0
281
     0
  0
CLASS
  1
SCALE
  2
AcDbScale
  3
ObjectDBX Classes
 90
     1153
 91
        4
280
     0
281
     0
  0
CLASS
  1
TABLESTYLE
  2
AcDbTableStyle
  3
ObjectDBX Classes
 90
     4095
 91
        4
280
     0
281
     0
  0
CLASS
  1
MLEADERSTYLE
  2
AcDbMLeaderStyle
  3
ACDB_MLEADERSTYLE_CLASS
 90
     4095
 91
        4
280
     0
281
     0
  0
CLASS
  1
SUN
  2
AcDbSun
  3
SCENEOE
 90
     1153
 91
        4
280
     0
281
     0
  0
CLASS
  1
DICTIONARYVAR
  2
AcDbDictionaryVar
  3
ObjectDBX Classes
 90
        0
 91
        4
280
     0
281
     0
  0
CLASS
  1
CELLSTYLEMAP
  2
AcDbCellStyleMap
  3
ObjectDBX Classes
 90
     1152
 91
        4
280
     0
281
     0
  0
ENDSEC
  0
SECTION
  2
TABLES
  0
TABLE
  2
VPORT
  5
8
330
0
100
AcDbSymbolTable
 70
     1
  0
VPORT
  5
29
330
8
100
AcDbSymbolTableRecord
100
AcDbViewportTableRecord
  2
*Active
 70
     0
 10
0.0
 20
0.0
 11
1.0
 21
1.0
 12
-0.1582812499999999
 22
0.1598759126665392
 13
0.0
 23
0.0
 14
0.5
 24
0.5
 15
0.5
 25
0.5
 16
0.0
 26
0.0
 36
1.0
 17
0.0
 27
0.0
 37
0.0
 40
4.15114686183974
 41
0.7983441348377772
 42
50.0
 43
0.0
 44
0.0
 50
0.0
 51
0.0
 71
     0
 72
   100
 73
     1
 74
     3
 75
     0
 76
     0
 77
     0
 78
     0
281
     0
 65
     1
110
0.0
120
0.0
130
0.0
111
1.0
121
0.0
131
0.0
112
0.0
122
1.0
132
0.0
 79
     0
146
0.0
348
2F
 60
     3
 61
     5
292
     1
282
     1
141
0.0
142
0.0
 63
   250
361
6D
  0
ENDTAB
  0
TABLE
  2
LTYPE
  5
5
330
0
100
AcDbSymbolTable
 70
     3
  0
LTYPE
  5
14
330
5
100
AcDbSymbolTableRecord
100
AcDbLinetypeTableRecord
  2
ByBlock
 70
     0
  3

 72
    65
 73
     0
 40
0.0
  0
LTYPE
  5
15
330
5
100
AcDbSymbolTableRecord
100
AcDbLinetypeTableRecord
  2
ByLayer
 70
     0
  3

 72
    65
 73
     0
 40
0.0
  0
LTYPE
  5
16
330
5
100
AcDbSymbolTableRecord
100
AcDbLinetypeTableRecord
  2
Continuous
 70
     0
  3
Solid line
 72
    65
 73
     0
 40
0.0
  0
LTYPE
  5
A7
330
5
100
AcDbSymbolTableRecord
100
AcDbLinetypeTableRecord
  2
Dashed
 70
     0
  3

 72
    65
 73
     2
 40
2.0
 49
1.0
 74
     0
 49
-1.0
 74
     0
  0
LTYPE
  5
135
330
5
100
AcDbSymbolTableRecord
100
AcDbLinetypeTableRecord
  2
Center
 70
     0
  3

 72
    65
 73
     4
 40
1.5
 49
0.45
 74
     0
 49
-0.5
 74
     0
 49
0.05
 74
     0
 49
-0.5
 74
     0
  0
ENDTAB
  0
TABLE
  2
LAYER
  5
2
330
0
100
AcDbSymbolTable
 70
     7
  0
LAYER
  5
10
330
2
100
AcDbSymbolTableRecord
100
AcDbLayerTableRecord
  2
0
 70
     0
 62
     7
  6
Continuous
370
    -3
390
F
347
46
348
0
  0
LAYER
  5
72
330
2
100
AcDbSymbolTableRecord
100
AcDbLayerTableRecord
  2
AM_6
 70
     0
 62
    -2
  6
Continuous
370
    35
390
F
347
46
348
0
  0
LAYER
  5
A8
330
2
100
AcDbSymbolTableRecord
100
AcDbLayerTableRecord
  2
AM_9
 70
     0
 62
     6
  6
Dashed
370
    25
390
F
347
46
348
0
  0
LAYER
  5
C9
330
2
100
AcDbSymbolTableRecord
100
AcDbLayerTableRecord
  2
AM_5
 70
     0
 62
     3
  6
Continuous
370
    25
390
F
347
46
348
0
  0
LAYER
  5
CE
330
2
100
AcDbSymbolTableRecord
100
AcDbLayerTableRecord
  2
AM_4
 70
     0
 62
     7
  6
Continuous
370
    50
390
F
347
46
348
0
  0
LAYER
  5
136
330
2
100
AcDbSymbolTableRecord
100
AcDbLayerTableRecord
  2
AM_7
 70
     0
 62
     7
  6
Center
370
    25
390
F
347
46
348
0
  0
LAYER
  5
1F4
330
2
100
AcDbSymbolTableRecord
100
AcDbLayerTableRecord
  2
ConnectionPoints
 70
     0
 62
     7
  6
Continuous
370
    50
390
F
347
46
348
0
  0
ENDTAB
  0
TABLE
  2
STYLE
  5
3
330
0
100
AcDbSymbolTable
 70
     1
  0
STYLE
  5
11
330
3
100
AcDbSymbolTableRecord
100
AcDbTextStyleTableRecord
  2
Standard
 70
     0
 40
0.0
 41
1.0
 50
0.0
 71
     0
 42
0.2
  3
txt
  4

  0
ENDTAB
  0
TABLE
  2
VIEW
  5
6
330
0
100
AcDbSymbolTable
 70
     0
  0
ENDTAB
  0
TABLE
  2
UCS
  5
7
330
0
100
AcDbSymbolTable
 70
     0
  0
ENDTAB
  0
TABLE
  2
APPID
  5
9
330
0
100
AcDbSymbolTable
 70
     1
  0
APPID
  5
12
330
9
100
AcDbSymbolTableRecord
100
AcDbRegAppTableRecord
  2
ACAD
 70
     0
  0
ENDTAB
  0
TABLE
  2
DIMSTYLE
  5
A
330
0
100
AcDbSymbolTable
 70
     1
100
AcDbDimStyleTable
  0
DIMSTYLE
105
27
330
A
100
AcDbSymbolTableRecord
100
AcDbDimStyleTableRecord
  2
Standard
 70
     0
178
     0
340
11
  0
ENDTAB
  0
TABLE
  2
BLOCK_RECORD
  5
1
330
0
100
AcDbSymbolTable
 70
     6
  0
BLOCK_RECORD
  5
1F
330
1
100
AcDbSymbolTableRecord
100
AcDbBlockTableRecord
  2
*Model_Space
340
22
 70
     0
280
     1
281
     0
  0
BLOCK_RECORD
  5
1B
330
1
100
AcDbSymbolTableRecord
100
AcDbBlockTableRecord
  2
*Paper_Space
340
1E
 70
     0
280
     1
281
     0
  0
BLOCK_RECORD
  5
23
330
1
100
AcDbSymbolTableRecord
100
AcDbBlockTableRecord
  2
*Paper_Space0
340
26
 70
     0
280
     1
281
     0
  0
BLOCK_RECORD
  5
6E
330
1
100
AcDbSymbolTableRecord
100
AcDbBlockTableRecord
  2
1_070319_2
340
0
102
{BLKREFS
331
6F
102
}
 70
     0
280
     1
281
     0
  0
BLOCK_RECORD
  5
8E
330
1
100
AcDbSymbolTableRecord
100
AcDbBlockTableRecord
  2
2_1_7_16CS2i_0_in_070319_2
340
0
102
{BLKREFS
331
8F
102
}
 70
     0
280
     1
281
     0
  0
BLOCK_RECORD
  5
DB
330
1
100
AcDbSymbolTableRecord
100
AcDbBlockTableRecord
  2
3_070017i_0_in_070319_2
340
0
102
{BLKREFS
331
DC
102
}
 70
     0
280
     1
281
     0
  0
BLOCK_RECORD
  5
13E
330
1
100
AcDbSymbolTableRecord
100
AcDbBlockTableRecord
  2
4_405015E_Inch_0_in_070319_2
340
0
102
{BLKREFS
331
13F
102
}
 70
     0
280
     1
281
     0
  0
BLOCK_RECORD
  5
19C
330
1
100
AcDbSymbolTableRecord
100
AcDbBlockTableRecord
  2
5_070319H_0_in_070319_2
340
0
102
{BLKREFS
331
19D
102
}
 70
     0
280
     1
281
     0
  0
ENDTAB
  0
ENDSEC
  0
SECTION
  2
BLOCKS
  0
BLOCK
  5
20
330
1F
100
AcDbEntity
  8
0
100
AcDbBlockBegin
  2
*Model_Space
 70
     0
 10
0.0
 20
0.0
 30
0.0
  3
*Model_Space
  1

  0
ENDBLK
  5
21
330
1F
100
AcDbEntity
  8
0
100
AcDbBlockEnd
  0
BLOCK
  5
1C
330
1B
100
AcDbEntity
 67
     1
  8
0
100
AcDbBlockBegin
  2
*Paper_Space
 70
     0
 10
0.0
 20
0.0
 30
0.0
  3
*Paper_Space
  1

  0
ENDBLK
  5
1D
330
1B
100
AcDbEntity
 67
     1
  8
0
100
AcDbBlockEnd
  0
BLOCK
  5
24
330
23
100
AcDbEntity
  8
0
100
AcDbBlockBegin
  2
*Paper_Space0
 70
     0
 10
0.0
 20
0.0
 30
0.0
  3
*Paper_Space0
  1

  0
ENDBLK
  5
25
330
23
100
AcDbEntity
  8
0
100
AcDbBlockEnd
  0
BLOCK
  5
70
330
6E
100
AcDbEntity
  8
0
100
AcDbBlockBegin
  2
1_070319_2
 70
     2
 10
0.0
 20
0.0
 30
0.0
  3
1_070319_2
  1

  0
ATTDEF
  5
73
330
6E
100
AcDbEntity
  8
AM_6
100
AcDbText
 10
6.10176282051282
 20
2.194751825333079
 30
0.0
 40
0.5
  1
S-2000 Pillow Block 2-Bolt Inch Bore (Labyrinth Seal)
100
AcDbAttributeDefinition
  3

  2
NN
 70
     8
280
     0
  0
ATTDEF
  5
74
330
6E
100
AcDbEntity
  8
AM_6
100
AcDbText
 10
6.10176282051282
 20
1.694751825333079
 30
0.0
 40
0.5
  1
S-2000 Pillow Block Bearing -Inch (2-Bolt Base)
100
AcDbAttributeDefinition
  3

  2
NT
 70
     8
280
     0
  0
ATTDEF
  5
75
330
6E
100
AcDbEntity
  8
AM_6
100
AcDbText
 10
6.10176282051282
 20
1.194751825333079
 30
0.0
 40
0.5
  1
070319
100
AcDbAttributeDefinition
  3

  2
NB
 70
     8
280
     0
  0
ATTDEF
  5
76
330
6E
100
AcDbEntity
  8
AM_6
100
AcDbText
 10
6.10176282051282
 20
0.6947518253330793
 30
0.0
 40
0.5
  1
$PN.
100
AcDbAttributeDefinition
  3

  2
NBSYN
 70
     8
280
     0
  0
ATTDEF
  5
77
330
6E
100
AcDbEntity
  8
AM_6
100
AcDbText
 10
6.10176282051282
 20
0.1947518253330793
 30
0.0
 40
0.5
  1
070319
100
AcDbAttributeDefinition
  3

  2
LINA
 70
     8
280
     0
  0
ATTDEF
  5
78
330
6E
100
AcDbEntity
  8
AM_6
100
AcDbText
 10
6.10176282051282
 20
-0.3052481746669207
 30
0.0
 40
0.5
  1
1-7/16
100
AcDbAttributeDefinition
  3

  2
SS
 70
     8
280
     0
  0
ATTDEF
  5
79
330
6E
100
AcDbEntity
  8
AM_6
100
AcDbText
 10
6.10176282051282
 20
-0.8052481746669207
 30
0.0
 40
0.5
  1
070319
100
AcDbAttributeDefinition
  3

  2
PN
 70
     8
280
     0
  0
ATTDEF
  5
7A
330
6E
100
AcDbEntity
  8
AM_6
100
AcDbText
 10
6.10176282051282
 20
-1.305248174666921
 30
0.0
 40
0.5
  1
P2B-S2-107L
100
AcDbAttributeDefinition
  3

  2
DESCRIPTION
 70
     8
280
     0
  0
ATTDEF
  5
7B
330
6E
100
AcDbEntity
  8
AM_6
100
AcDbText
 10
6.10176282051282
 20
-1.805248174666921
 30
0.0
 40
0.5
  1
Non-Expansion Type
100
AcDbAttributeDefinition
  3

  2
EF
 70
     8
280
     0
  0
ATTDEF
  5
7C
330
6E
100
AcDbEntity
  8
AM_6
100
AcDbText
 10
6.10176282051282
 20
-2.305248174666921
 30
0.0
 40
0.5
  1
Labyrinth Type
100
AcDbAttributeDefinition
  3

  2
ST
 70
     8
280
     0
  0
ATTDEF
  5
7D
330
6E
100
AcDbEntity
  8
AM_6
100
AcDbText
 10
6.10176282051282
 20
-2.805248174666921
 30
0.0
 40
0.5
  1
2-17/32
100
AcDbAttributeDefinition
  3

  2
A
 70
     8
280
     0
  0
ATTDEF
  5
7E
330
6E
100
AcDbEntity
  8
AM_6
100
AcDbText
 10
6.10176282051282
 20
-3.305248174666921
 30
0.0
 40
0.5
  1
6-7/8
100
AcDbAttributeDefinition
  3

  2
B
 70
     8
280
     0
  0
ATTDEF
  5
7F
330
6E
100
AcDbEntity
  8
AM_6
100
AcDbText
 10
6.10176282051282
 20
-3.805248174666921
 30
0.0
 40
0.5
  1
1-61/64
100
AcDbAttributeDefinition
  3

  2
C
 70
     8
280
     0
  0
ATTDEF
  5
80
330
6E
100
AcDbEntity
  8
AM_6
100
AcDbText
 10
6.10176282051282
 20
-4.305248174666921
 30
0.0
 40
0.5
  1
4-13/16
100
AcDbAttributeDefinition
  3

  2
DMIN
 70
     8
280
     0
  0
ATTDEF
  5
81
330
6E
100
AcDbEntity
  8
AM_6
100
AcDbText
 10
6.10176282051282
 20
-4.805248174666921
 30
0.0
 40
0.5
  1
5-13/64
100
AcDbAttributeDefinition
  3

  2
DMAX
 70
     8
280
     0
  0
ATTDEF
  5
82
330
6E
100
AcDbEntity
  8
AM_6
100
AcDbText
 10
6.10176282051282
 20
-5.305248174666921
 30
0.0
 40
0.5
  1
1/2
100
AcDbAttributeDefinition
  3

  2
F
 70
     8
280
     0
  0
ATTDEF
  5
83
330
6E
100
AcDbEntity
  8
AM_6
100
AcDbText
 10
6.10176282051282
 20
-5.805248174666921
 30
0.0
 40
0.5
  1
13/16
100
AcDbAttributeDefinition
  3

  2
G
 70
     8
280
     0
  0
ATTDEF
  5
84
330
6E
100
AcDbEntity
  8
AM_6
100
AcDbText
 10
6.10176282051282
 20
-6.305248174666921
 30
0.0
 40
0.5
  1
1-1/8
100
AcDbAttributeDefinition
  3

  2
H
 70
     8
280
     0
  0
ATTDEF
  5
85
330
6E
100
AcDbEntity
  8
AM_6
100
AcDbText
 10
6.10176282051282
 20
-6.805248174666921
 30
0.0
 40
0.5
  1
3-7/8
100
AcDbAttributeDefinition
  3

  2
J
 70
     8
280
     0
  0
ATTDEF
  5
86
330
6E
100
AcDbEntity
  8
AM_6
100
AcDbText
 10
6.10176282051282
 20
-7.305248174666921
 30
0.0
 40
0.5
  1
2-3/4
100
AcDbAttributeDefinition
  3

  2
L
 70
     8
280
     0
  0
ATTDEF
  5
87
330
6E
100
AcDbEntity
  8
AM_6
100
AcDbText
 10
6.10176282051282
 20
-7.805248174666921
 30
0.0
 40
0.5
  1
1-7/8
100
AcDbAttributeDefinition
  3

  2
M
 70
     8
280
     0
  0
ATTDEF
  5
88
330
6E
100
AcDbEntity
  8
AM_6
100
AcDbText
 10
6.10176282051282
 20
-8.305248174666922
 30
0.0
 40
0.5
  1
7/8
100
AcDbAttributeDefinition
  3

  2
R
 70
     8
280
     0
  0
ATTDEF
  5
89
330
6E
100
AcDbEntity
  8
AM_6
100
AcDbText
 10
6.10176282051282
 20
-8.805248174666922
 30
0.0
 40
0.5
  1
1-21/32
100
AcDbAttributeDefinition
  3

  2
S
 70
     8
280
     0
  0
ATTDEF
  5
8A
330
6E
100
AcDbEntity
  8
AM_6
100
AcDbText
 10
6.10176282051282
 20
-9.305248174666922
 30
0.0
 40
0.5
  1
3/16
100
AcDbAttributeDefinition
  3

  2
X
 70
     8
280
     0
  0
ATTDEF
  5
8B
330
6E
100
AcDbEntity
  8
AM_6
100
AcDbText
 10
6.10176282051282
 20
-9.805248174666922
 30
0.0
 40
0.5
  1
0.020
100
AcDbAttributeDefinition
  3

  2
Y
 70
     8
280
     0
  0
ATTDEF
  5
8C
330
6E
100
AcDbEntity
  8
AM_6
100
AcDbText
 10
6.10176282051282
 20
-10.30524817466692
 30
0.0
 40
0.5
  1
1-51/64
100
AcDbAttributeDefinition
  3

  2
Z
 70
     8
280
     0
  0
ATTDEF
  5
8D
330
6E
100
AcDbEntity
  8
AM_6
100
AcDbText
 10
6.10176282051282
 20
-10.80524817466692
 30
0.0
 40
0.5
  1
baldor
100
AcDbAttributeDefinition
  3

  2
COMPANY
 70
     8
280
     0
  0
INSERT
  5
8F
330
6E
100
AcDbEntity
  8
0
100
AcDbBlockReference
  2
2_1_7_16CS2i_0_in_070319_2
 10
0.0
 20
0.0
 30
0.0
  0
INSERT
  5
DC
330
6E
100
AcDbEntity
  8
0
100
AcDbBlockReference
  2
3_070017i_0_in_070319_2
 10
0.0
 20
0.0
 30
0.0
  0
INSERT
  5
13F
330
6E
100
AcDbEntity
  8
0
100
AcDbBlockReference
  2
4_405015E_Inch_0_in_070319_2
 10
0.0
 20
0.0
 30
0.0
  0
INSERT
  5
19D
330
6E
100
AcDbEntity
  8
0
100
AcDbBlockReference
  2
5_070319H_0_in_070319_2
 10
0.0
 20
0.0
 30
0.0
  0
ENDBLK
  5
71
330
6E
100
AcDbEntity
  8
0
100
AcDbBlockEnd
  0
BLOCK
  5
90
330
8E
100
AcDbEntity
  8
0
100
AcDbBlockBegin
  2
2_1_7_16CS2i_0_in_070319_2
 70
     2
 10
0.0
 20
0.0
 30
0.0
  3
2_1_7_16CS2i_0_in_070319_2
  1

  0
ATTDEF
  5
92
330
8E
100
AcDbEntity
  8
AM_6
100
AcDbText
 10
3.91575
 20
1.375
 30
0.0
 40
0.5
  1
S-2000 Collar -Inch
100
AcDbAttributeDefinition
  3

  2
NN
 70
     8
280
     0
  0
ATTDEF
  5
93
330
8E
100
AcDbEntity
  8
AM_6
100
AcDbText
 10
3.91575
 20
0.8750000000000002
 30
0.0
 40
0.5
  1
S-2000 Bearings
100
AcDbAttributeDefinition
  3

  2
NT
 70
     8
280
     0
  0
ATTDEF
  5
94
330
8E
100
AcDbEntity
  8
AM_6
100
AcDbText
 10
3.91575
 20
0.3750000000000002
 30
0.0
 40
0.5
  1
1-7/16CS2i
100
AcDbAttributeDefinition
  3

  2
NB
 70
     8
280
     0
  0
ATTDEF
  5
95
330
8E
100
AcDbEntity
  8
AM_6
100
AcDbText
 10
3.91575
 20
-0.1249999999999998
 30
0.0
 40
0.5
  1
$BORE.CS2i
100
AcDbAttributeDefinition
  3

  2
NBSYN
 70
     8
280
     0
  0
ATTDEF
  5
96
330
8E
100
AcDbEntity
  8
AM_6
100
AcDbText
 10
3.91575
 20
-0.6249999999999998
 30
0.0
 40
0.5
  1
1-7/16CS2i
100
AcDbAttributeDefinition
  3

  2
LINA
 70
     8
280
     0
  0
ATTDEF
  5
97
330
8E
100
AcDbEntity
  8
AM_6
100
AcDbText
 10
3.91575
 20
-1.125
 30
0.0
 40
0.5
  1
1-7/16
100
AcDbAttributeDefinition
  3

  2
BORE
 70
     8
280
     0
  0
ATTDEF
  5
98
330
8E
100
AcDbEntity
  8
AM_6
100
AcDbText
 10
3.91575
 20
-1.625
 30
0.0
 40
0.5
  1
1.437500
100
AcDbAttributeDefinition
  3

  2
BORE1
 70
     8
280
     0
  0
ATTDEF
  5
99
330
8E
100
AcDbEntity
  8
AM_6
100
AcDbText
 10
3.91575
 20
-2.125
 30
0.0
 40
0.5
  1
2-3/4
100
AcDbAttributeDefinition
  3

  2
L1
 70
     8
280
     0
  0
ATTDEF
  5
9A
330
8E
100
AcDbEntity
  8
AM_6
100
AcDbText
 10
3.91575
 20
-2.625
 30
0.0
 40
0.5
  1
2.75000
100
AcDbAttributeDefinition
  3

  2
L
 70
     8
280
     0
  0
ATTDEF
  5
9B
330
8E
100
AcDbEntity
  8
AM_6
100
AcDbText
 10
3.91575
 20
-3.125
 30
0.0
 40
0.5
  1
2.65625
100
AcDbAttributeDefinition
  3

  2
L2
 70
     8
280
     0
  0
ATTDEF
  5
9C
330
8E
100
AcDbEntity
  8
AM_6
100
AcDbText
 10
3.91575
 20
-3.625
 30
0.0
 40
0.5
  1
3.00
100
AcDbAttributeDefinition
  3

  2
A
 70
     8
280
     0
  0
ATTDEF
  5
9D
330
8E
100
AcDbEntity
  8
AM_6
100
AcDbText
 10
3.91575
 20
-4.125
 30
0.0
 40
0.5
  1
1.25
100
AcDbAttributeDefinition
  3

  2
B
 70
     8
280
     0
  0
ATTDEF
  5
9E
330
8E
100
AcDbEntity
  8
AM_6
100
AcDbText
 10
3.91575
 20
-4.625
 30
0.0
 40
0.5
  1
1.75
100
AcDbAttributeDefinition
  3

  2
C
 70
     8
280
     0
  0
ATTDEF
  5
9F
330
8E
100
AcDbEntity
  8
AM_6
100
AcDbText
 10
3.91575
 20
-5.125
 30
0.0
 40
0.5
  1
2.81
100
AcDbAttributeDefinition
  3

  2
D
 70
     8
280
     0
  0
ATTDEF
  5
A0
330
8E
100
AcDbEntity
  8
AM_6
100
AcDbText
 10
3.91575
 20
-5.625
 30
0.0
 40
0.5
  1
0.35
100
AcDbAttributeDefinition
  3

  2
E
 70
     8
280
     0
  0
ATTDEF
  5
A1
330
8E
100
AcDbEntity
  8
AM_6
100
AcDbText
 10
3.91575
 20
-6.125
 30
0.0
 40
0.5
  1
0.286
100
AcDbAttributeDefinition
  3

  2
F
 70
     8
280
     0
  0
ATTDEF
  5
A2
330
8E
100
AcDbEntity
  8
AM_6
100
AcDbText
 10
3.91575
 20
-6.625
 30
0.0
 40
0.5
  1
5/16-18
100
AcDbAttributeDefinition
  3

  2
CS
 70
     8
280
     0
  0
ATTDEF
  5
A3
330
8E
100
AcDbEntity
  8
AM_6
100
AcDbText
 10
3.91575
 20
-7.125
 30
0.0
 40
0.5
  1
0.3125
100
AcDbAttributeDefinition
  3

  2
NDM
 70
     8
280
     0
  0
ATTDEF
  5
A4
330
8E
100
AcDbEntity
  8
AM_6
100
AcDbText
 10
3.91575
 20
-7.625
 30
0.0
 40
0.5
  1
0.2520
100
AcDbAttributeDefinition
  3

  2
KDM
 70
     8
280
     0
  0
ATTDEF
  5
A5
330
8E
100
AcDbEntity
  8
AM_6
100
AcDbText
 10
3.91575
 20
-8.125
 30
0.0
 40
0.5
  1
1
100
AcDbAttributeDefinition
  3

  2
DD
 70
     8
280
     0
  0
ATTDEF
  5
A6
330
8E
100
AcDbEntity
  8
AM_6
100
AcDbText
 10
3.91575
 20
-8.625
 30
0.0
 40
0.5
  1
baldor
100
AcDbAttributeDefinition
  3

  2
COMPANY
 70
     8
280
     0
  0
ELLIPSE
  5
A9
330
8E
100
AcDbEntity
  8
AM_9
100
AcDbEllipse
 10
-1.37025
 20
0.5684004311281543
 30
0.0
 11
0.1261999999999996
 21
0.0
 31
0.0
210
0.0
220
0.0
230
1.0
 40
0.906307787036649
 41
0.0
 42
1.570796326794897
  0
LINE
  5
AA
330
8E
100
AcDbEntity
  8
AM_9
100
AcDbLine
 10
-1.24405
 20
0.3736861106688197
 30
0.0
 11
-1.24405
 21
0.5684004311281537
 31
0.0
  0
LINE
  5
AB
330
8E
100
AcDbEntity
  8
AM_9
100
AcDbLine
 10
-1.49645
 20
0.5612734845163311
 30
0.0
 11
-1.49645
 21
0.3736861106688197
 31
0.0
  0
LWPOLYLINE
  5
AC
330
8E
100
AcDbEntity
  8
AM_9
100
AcDbPolyline
 90
        4
 70
     0
 43
0.0
 10
-1.407114918633598
 20
0.4495800245602407
 10
-1.404949843468661
 20
0.4489881295101172
 10
-1.38406180399684
 20
0.4450916873686255
 10
-1.37025
 20
0.4443741405206954
  0
LWPOLYLINE
  5
AD
330
8E
100
AcDbEntity
  8
AM_9
100
AcDbPolyline
 90
        3
 70
     0
 43
0.0
 10
-1.442982526079001
 20
0.4661247716681908
 10
-1.424851169132425
 20
0.456109700679365
 10
-1.407114918633598
 20
0.4495800245602407
  0
LWPOLYLINE
  5
AE
330
8E
100
AcDbEntity
  8
AM_9
100
AcDbPolyline
 90
        8
 70
     0
 43
0.0
 10
-1.496449999460588
 20
0.5613004538545718
 10
-1.495632769742057
 20
0.548261804232271
 10
-1.491459791427672
 20
0.5292888820959143
 10
-1.483902813031322
 20
0.5110919801508333
 10
-1.473112408113066
 20
0.4941936652066634
 10
-1.459445427508808
 20
0.479106668529842
 10
-1.443178871310504
 20
0.4662695860046007
 10
-1.442982526079001
 20
0.4661247716681908
  0
ELLIPSE
  5
AF
330
8E
100
AcDbEntity
  8
AM_9
100
AcDbEllipse
 10
-1.37025
 20
0.5684004311281503
 30
0.0
 11
0.1261999999999992
 21
0.0
 31
0.0
210
0.0
220
0.0
230
1.0
 40
0.9063077870366285
 41
4.71238898038469
 42
6.283185307179586
  0
ELLIPSE
  5
B0
330
8E
100
AcDbEntity
  8
AM_9
100
AcDbEllipse
 10
-1.37025
 20
0.3736861106688197
 30
0.0
 11
0.1262000000000001
 21
0.0
 31
0.0
210
0.0
220
0.0
230
1.0
 40
0.9063077870366504
 41
3.141592653589793
 42
4.71238898038469
  0
ELLIPSE
  5
B1
330
8E
100
AcDbEntity
  8
AM_9
100
AcDbEllipse
 10
-1.37025
 20
0.3736861106688193
 30
0.0
 11
0.1261999999999996
 21
0.0
 31
0.0
210
0.0
220
0.0
230
1.0
 40
0.90630778703665
 41
4.71238898038469
 42
6.673811248857156
  0
ELLIPSE
  5
B2
330
8E
100
AcDbEntity
  8
AM_9
100
AcDbEllipse
 10
-1.37025
 20
0.3736861106688194
 30
0.0
 11
0.1262000000000003
 21
0.0
 31
0.0
210
0.0
220
0.0
230
1.0
 40
0.9063077870366496
 41
0.3906259416775688
 42
2.749428242911642
  0
ELLIPSE
  5
B3
330
8E
100
AcDbEntity
  8
AM_9
100
AcDbEllipse
 10
-1.370250000000002
 20
0.3736861106688188
 30
0.0
 11
0.1261999999999985
 21
0.0
 31
0.0
210
0.0
220
0.0
230
1.0
 40
0.9063077870366513
 41
2.749428242911633
 42
3.141592653589793
  0
LINE
  5
B4
330
8E
100
AcDbEntity
  8
AM_9
100
AcDbLine
 10
-1.24405
 20
1.34495
 30
0.0
 11
-1.214
 21
1.375
 31
0.0
  0
LINE
  5
B5
330
8E
100
AcDbEntity
  8
AM_9
100
AcDbLine
 10
-1.49645
 20
0.8842166666666609
 30
0.0
 11
-1.505449176505687
 21
0.8752174901609758
 31
0.0
  0
LINE
  5
B6
330
8E
100
AcDbEntity
  8
AM_9
100
AcDbLine
 10
-1.234995735122451
 20
0.875162401789114
 30
0.0
 11
-1.24405
 21
0.8842166666666609
 31
0.0
  0
LINE
  5
B7
330
8E
100
AcDbEntity
  8
AM_9
100
AcDbLine
 10
-1.37025
 20
1.34495
 30
0.0
 11
-1.24405
 21
1.34495
 31
0.0
  0
LINE
  5
B8
330
8E
100
AcDbEntity
  8
AM_9
100
AcDbLine
 10
-1.24405
 20
0.8842166666666609
 30
0.0
 11
-1.24405
 21
1.34495
 31
0.0
  0
LINE
  5
B9
330
8E
100
AcDbEntity
  8
AM_9
100
AcDbLine
 10
-1.49645
 20
1.328086163487361
 30
0.0
 11
-1.49645
 21
0.8842166666666609
 31
0.0
  0
LINE
  5
BA
330
8E
100
AcDbEntity
  8
AM_9
100
AcDbLine
 10
-1.49645
 20
0.8842166666666609
 30
0.0
 11
-1.24405
 21
0.8842166666666609
 31
0.0
  0
LWPOLYLINE
  5
BB
330
8E
100
AcDbEntity
  8
AM_9
100
AcDbPolyline
 90
        7
 70
     0
 43
0.0
 10
-1.239789624913671
 20
0.405211823003381
 10
-1.235481630533183
 20
0.3826576022816248
 10
-1.235259812554483
 20
0.3591714096025982
 10
-1.239392781865183
 20
0.3351364074071187
 10
-1.247798016760658
 20
0.3117833819193376
 10
-1.258619658256933
 20
0.2924312670912617
 10
-1.272449687246966
 20
0.2747145440319547
  0
LWPOLYLINE
  5
BC
330
8E
100
AcDbEntity
  8
AM_9
100
AcDbPolyline
 90
       11
 70
     0
 43
0.0
 10
-1.370250000000004
 20
0.4986206365716517
 10
-1.363884206282982
 20
0.4984827847741449
 10
-1.34350894312626
 20
0.4961525524586895
 10
-1.32387563387473
 20
0.4910676781511967
 10
-1.305361499415102
 20
0.4833083458856122
 10
-1.288503679073801
 20
0.4731842906274263
 10
-1.272566843916923
 20
0.4599162119453735
 10
-1.259191602637141
 20
0.4445712393548871
 10
-1.247781690827267
 20
0.4258251972919644
 10
-1.239867548557432
 20
0.4054812205096141
 10
-1.239789624913671
 20
0.405211823003381
  0
LWPOLYLINE
  5
BD
330
8E
100
AcDbEntity
  8
AM_9
100
AcDbPolyline
 90
        9
 70
     0
 43
0.0
 10
-1.500659165537931
 20
0.4053891191999086
 10
-1.495781875477308
 20
0.4191151626626449
 10
-1.484498970900006
 20
0.4400387287478101
 10
-1.469446983681326
 20
0.4584011372713985
 10
-1.450865093504593
 20
0.4739739571113861
 10
-1.430443176555066
 20
0.4855651446645857
 10
-1.407824299387511
 20
0.4937189160108401
 10
-1.386114516698872
 20
0.4977458203361217
 10
-1.370250000000004
 20
0.4986206365716517
  0
LWPOLYLINE
  5
BE
330
8E
100
AcDbEntity
  8
AM_9
100
AcDbPolyline
 90
       13
 70
     0
 43
0.0
 10
-1.37025
 20
0.2303008738273366
 10
-1.390877562570655
 20
0.2320080854110893
 10
-1.410637267534549
 20
0.2369594991059039
 10
-1.429322789775267
 20
0.2448848932238789
 10
-1.447091689252798
 20
0.2559202913254337
 10
-1.462901656900545
 20
0.269368149007137
 10
-1.477559478998423
 20
0.2862709578467837
 10
-1.489328944654749
 20
0.3049626335838848
 10
-1.498587265418629
 20
0.3266714700385782
 10
-1.504069628058772
 20
0.3492243555975845
 10
-1.505612341158439
 20
0.3730678800119149
 10
-1.502886230202913
 20
0.3964956204328801
 10
-1.500659165537931
 20
0.4053891191999086
  0
LWPOLYLINE
  5
BF
330
8E
100
AcDbEntity
  8
AM_9
100
AcDbPolyline
 90
        7
 70
     0
 43
0.0
 10
-1.272449687246966
 20
0.2747145440319547
 10
-1.287339900696707
 20
0.2606178034158692
 10
-1.304260762066325
 20
0.2487324497754536
 10
-1.325382534869256
 20
0.2385665516977236
 10
-1.348074940871669
 20
0.2322754671952284
 10
-1.369464117546911
 20
0.2303218925121134
 10
-1.37025
 20
0.2303008738273366
  0
LWPOLYLINE
  5
C0
330
8E
100
AcDbEntity
  8
AM_9
100
AcDbPolyline
 90
        6
 70
     0
 43
0.0
 10
-1.272762944615282
 20
0.8689787319563487
 10
-1.2602283962843
 20
0.8707619088494856
 10
-1.249902100472583
 20
0.8723851958817334
 10
-1.241108463559646
 20
0.8738759453467072
 10
-1.235999860806134
 20
0.8747872692419458
 10
-1.23483333333421
 20
0.8749999999998401
  0
LINE
  5
C1
330
8E
100
AcDbEntity
  8
AM_9
100
AcDbLine
 10
-1.65625
 20
-0.8749999999999998
 30
0.0
 11
-1.08425
 21
-0.8749999999999998
 31
0.0
  0
LINE
  5
C2
330
8E
100
AcDbEntity
  8
AM_9
100
AcDbLine
 10
-1.08425
 20
0.8749999999999998
 30
0.0
 11
-1.235231080069409
 21
0.8749999999999998
 31
0.0
  0
LINE
  5
C3
330
8E
100
AcDbEntity
  8
AM_9
100
AcDbLine
 10
-1.505134379579347
 20
0.8749999999999998
 30
0.0
 11
-1.65625
 21
0.8749999999999998
 31
0.0
  0
LINE
  5
C4
330
8E
100
AcDbEntity
  8
AM_9
100
AcDbLine
 10
-1.501134803626215
 20
0.8741832048905879
 30
0.0
 11
-1.505666666666529
 21
0.8749999999999757
 31
0.0
  0
LINE
  5
C5
330
8E
100
AcDbEntity
  8
AM_9
100
AcDbLine
 10
-1.25856431738609
 20
0.8710141367058652
 30
0.0
 11
-1.272844713045496
 21
0.8689677798002264
 31
0.0
  0
LWPOLYLINE
  5
C6
330
8E
100
AcDbEntity
  8
AM_9
100
AcDbPolyline
 90
       16
 70
     0
 43
0.0
 10
-1.505666666666529
 20
0.8749999999999757
 10
-1.504960188987226
 20
0.8748709598443766
 10
-1.500386518557479
 20
0.8740508426265093
 10
-1.491328315598571
 20
0.8725052420933304
 10
-1.478582045889187
 20
0.8705095186774604
 10
-1.461568304145891
 20
0.868177417783506
 10
-1.442637534011868
 20
0.8660365715169814
 10
-1.42032251054515
 20
0.8641382263301455
 10
-1.398982514827306
 20
0.8629649805597776
 10
-1.3758848770907
 20
0.8624098392798639
 10
-1.355337193868362
 20
0.8625432404217894
 10
-1.334620279908922
 20
0.8632750567347687
 10
-1.315784686868505
 20
0.8644579333300648
 10
-1.297906115607669
 20
0.8660321944276924
 10
-1.284745449176832
 20
0.8674686734704947
 10
-1.272762944615282
 20
0.8689787319563487
  0
LWPOLYLINE
  5
C7
330
8E
100
AcDbEntity
  8
AM_9
100
AcDbPolyline
 90
       11
 70
     0
 43
0.0
 10
-1.37025
 20
0.6731262259687459
 10
-1.391381447093476
 20
0.6715720290625675
 10
-1.411915954367899
 20
0.6669900610631301
 10
-1.431256331333701
 20
0.6594565404468516
 10
-1.4488829986566
 20
0.6491974732053183
 10
-1.464316159029479
 20
0.6363942013358935
 10
-1.477103249577083
 20
0.621428598125618
 10
-1.486859047121186
 20
0.6046245625025538
 10
-1.493320619329846
 20
0.5864785701886418
 10
-1.496248711375933
 20
0.5675286104430793
 10
-1.496449999460588
 20
0.5613004538545718
  0
LWPOLYLINE
  5
C8
330
8E
100
AcDbEntity
  8
AM_9
100
AcDbPolyline
 90
       20
 70
     0
 43
0.0
 10
-1.37025
 20
0.4433657479093907
 10
-1.350593768213998
 20
0.4444934009894788
 10
-1.331223362511572
 20
0.4478457517181569
 10
-1.305189859755089
 20
0.4561975944493462
 10
-1.281039837676338
 20
0.4685656062024801
 10
-1.259908933915898
 20
0.4843628784617423
 10
-1.242038441730542
 20
0.5032690440819227
 10
-1.22864926300055
 20
0.523795138866886
 10
-1.219359496559511
 20
0.5460256318011917
 10
-1.214762549692404
 20
0.5679831524757996
 10
-1.214357675737965
 20
0.59015930017464
 10
-1.218024795793293
 20
0.611133766730228
 10
-1.2254806885824
 20
0.6311187563920213
 10
-1.236599729300735
 20
0.6497100960578004
 10
-1.250927875021348
 20
0.6663706581936172
 10
-1.268841163048293
 20
0.6812885430622504
 10
-1.289240490593438
 20
0.6934717629199861
 10
-1.312804246262341
 20
0.703080383615873
 10
-1.33785550004842
 20
0.7092814429412782
 10
-1.37025
 20
0.712060847933556
  0
LINE
  5
CA
330
8E
100
AcDbEntity
  8
AM_5
100
AcDbLine
 10
-1.5265
 20
1.328125
 30
0.0
 11
-1.5265
 21
0.8749999999999998
 31
0.0
  0
LINE
  5
CB
330
8E
100
AcDbEntity
  8
AM_5
100
AcDbLine
 10
-1.448375
 20
0.8541666666666666
 30
0.0
 11
-1.5265
 21
0.8541666666666666
 31
0.0
  0
LINE
  5
CC
330
8E
100
AcDbEntity
  8
AM_5
100
AcDbLine
 10
-1.214
 20
1.375
 30
0.0
 11
-1.214
 21
0.8749999999999998
 31
0.0
  0
LINE
  5
CD
330
8E
100
AcDbEntity
  8
AM_5
100
AcDbLine
 10
-1.292125
 20
0.8541666666666666
 30
0.0
 11
-1.214
 21
0.8541666666666666
 31
0.0
  0
LWPOLYLINE
  5
CF
330
8E
100
AcDbEntity
  8
AM_4
100
AcDbPolyline
 90
       11
 70
     0
 43
0.0
 10
-1.37025
 20
1.322115568180407
 10
-1.39108297718395
 20
1.322279693772595
 10
-1.411915954367899
 20
1.322771948363885
 10
-1.430997761626058
 20
1.323510432965141
 10
-1.4488829986566
 20
1.32445185797851
 10
-1.464122863042508
 20
1.325443959600253
 10
-1.477103249577083
 20
1.326426474618998
 10
-1.48675304116989
 20
1.327238687737376
 10
-1.493320619329846
 20
1.327831296877443
 10
-1.496244440476503
 20
1.328105483256502
 10
-1.496449999999956
 20
1.328124999999996
  0
LINE
  5
D0
330
8E
100
AcDbEntity
  8
AM_4
100
AcDbLine
 10
-1.560916666666667
 20
-1.328125
 30
0.0
 11
-1.37025
 21
-1.328125
 31
0.0
  0
LINE
  5
D1
330
8E
100
AcDbEntity
  8
AM_4
100
AcDbLine
 10
-1.496039972551335
 20
1.328125
 30
0.0
 11
-1.560916666666667
 21
1.328125
 31
0.0
  0
LINE
  5
D2
330
8E
100
AcDbEntity
  8
AM_4
100
AcDbLine
 10
-1.65625
 20
1.232791666666667
 30
0.0
 11
-1.65625
 21
-1.232791666666667
 31
0.0
  0
ARC
  5
D3
330
8E
100
AcDbEntity
  8
AM_4
100
AcDbCircle
 10
-1.560916666666666
 20
-1.232791666666666
 30
0.0
 40
0.0953333333333337
100
AcDbArc
 50
180.0
 51
270.0
  0
ARC
  5
D4
330
8E
100
AcDbEntity
  8
AM_4
100
AcDbCircle
 10
-1.560916666666666
 20
1.232791666666666
 30
0.0
 40
0.0953333333333337
100
AcDbArc
 50
90.0
 51
180.0
  0
LINE
  5
D5
330
8E
100
AcDbEntity
  8
AM_4
100
AcDbLine
 10
-1.560916666666667
 20
1.328125
 30
0.0
 11
-1.560916666666667
 21
-1.328125
 31
0.0
  0
LINE
  5
D6
330
8E
100
AcDbEntity
  8
AM_4
100
AcDbLine
 10
-1.37025
 20
1.366986120150041
 30
0.0
 11
-1.37025
 21
-1.375
 31
0.0
  0
LINE
  5
D7
330
8E
100
AcDbEntity
  8
AM_4
100
AcDbLine
 10
-1.37025
 20
-1.375
 30
0.0
 11
-1.08425
 21
-1.375
 31
0.0
  0
LINE
  5
D8
330
8E
100
AcDbEntity
  8
AM_4
100
AcDbLine
 10
-1.08425
 20
1.375
 30
0.0
 11
-1.214
 21
1.375
 31
0.0
  0
LWPOLYLINE
  5
D9
330
8E
100
AcDbEntity
  8
AM_4
100
AcDbPolyline
 90
       11
 70
     0
 43
0.0
 10
-1.214000000000032
 20
1.374999999999996
 10
-1.214357675737965
 20
1.374963543381436
 10
-1.217931680200052
 20
1.374603753150546
 10
-1.2254806885824
 20
1.373870707077001
 10
-1.236421252007838
 20
1.372873314516525
 10
-1.250927875021348
 20
1.371669886595542
 10
-1.268585723954482
 20
1.370389074696999
 10
-1.289240490593438
 20
1.369148571323816
 10
-1.31247636308127
 20
1.368086741003399
 10
-1.33785550004842
 20
1.367332328078934
 10
-1.37025
 20
1.366986120150041
  0
LINE
  5
DA
330
8E
100
AcDbEntity
  8
AM_4
100
AcDbLine
 10
-1.08425
 20
1.375
 30
0.0
 11
-1.08425
 21
-1.375
 31
0.0
  0
ENDBLK
  5
91
330
8E
100
AcDbEntity
  8
0
100
AcDbBlockEnd
  0
BLOCK
  5
DD
330
DB
100
AcDbEntity
  8
0
100
AcDbBlockBegin
  2
3_070017i_0_in_070319_2
 70
     2
 10
0.0
 20
0.0
 30
0.0
  3
3_070017i_0_in_070319_2
  1

  0
ATTDEF
  5
DF
330
DB
100
AcDbEntity
  8
AM_6
100
AcDbText
 10
5.875
 20
1.5748
 30
0.0
 40
0.5
  1
S-2000 Insert -Inch
100
AcDbAttributeDefinition
  3

  2
NN
 70
     8
280
     0
  0
ATTDEF
  5
E0
330
DB
100
AcDbEntity
  8
AM_6
100
AcDbText
 10
5.875
 20
1.0748
 30
0.0
 40
0.5
  1
S-2000 Bearings
100
AcDbAttributeDefinition
  3

  2
NT
 70
     8
280
     0
  0
ATTDEF
  5
E1
330
DB
100
AcDbEntity
  8
AM_6
100
AcDbText
 10
5.875
 20
0.5748000000000002
 30
0.0
 40
0.5
  1
070017i
100
AcDbAttributeDefinition
  3

  2
NB
 70
     8
280
     0
  0
ATTDEF
  5
E2
330
DB
100
AcDbEntity
  8
AM_6
100
AcDbText
 10
5.875
 20
0.0748000000000002
 30
0.0
 40
0.5
  1
$PN.i
100
AcDbAttributeDefinition
  3

  2
NBSYN
 70
     8
280
     0
  0
ATTDEF
  5
E3
330
DB
100
AcDbEntity
  8
AM_6
100
AcDbText
 10
5.875
 20
-0.4251999999999998
 30
0.0
 40
0.5
  1
070017i
100
AcDbAttributeDefinition
  3

  2
LINA
 70
     8
280
     0
  0
ATTDEF
  5
E4
330
DB
100
AcDbEntity
  8
AM_6
100
AcDbText
 10
5.875
 20
-0.9251999999999998
 30
0.0
 40
0.5
  1
1-7/16
100
AcDbAttributeDefinition
  3

  2
SS
 70
     8
280
     0
  0
ATTDEF
  5
E5
330
DB
100
AcDbEntity
  8
AM_6
100
AcDbText
 10
5.875
 20
-1.4252
 30
0.0
 40
0.5
  1
1.75
100
AcDbAttributeDefinition
  3

  2
CC
 70
     8
280
     0
  0
ATTDEF
  5
E6
330
DB
100
AcDbEntity
  8
AM_6
100
AcDbText
 10
5.875
 20
-1.9252
 30
0.0
 40
0.5
  1
1.437500
100
AcDbAttributeDefinition
  3

  2
SS1
 70
     8
280
     0
  0
ATTDEF
  5
E7
330
DB
100
AcDbEntity
  8
AM_6
100
AcDbText
 10
5.875
 20
-2.4252
 30
0.0
 40
0.5
  1
070017
100
AcDbAttributeDefinition
  3

  2
PN
 70
     8
280
     0
  0
ATTDEF
  5
E8
330
DB
100
AcDbEntity
  8
AM_6
100
AcDbText
 10
5.875
 20
-2.9252
 30
0.0
 40
0.5
  1
INS-S2-107L
100
AcDbAttributeDefinition
  3

  2
DESCRIPTION
 70
     8
280
     0
  0
ATTDEF
  5
E9
330
DB
100
AcDbEntity
  8
AM_6
100
AcDbText
 10
5.875
 20
-3.4252
 30
0.0
 40
0.5
  1
Labyrinth Seal
100
AcDbAttributeDefinition
  3

  2
ST
 70
     8
280
     0
  0
ATTDEF
  5
EA
330
DB
100
AcDbEntity
  8
AM_6
100
AcDbText
 10
5.875
 20
-3.9252
 30
0.0
 40
0.5
  1
2
100
AcDbAttributeDefinition
  3

  2
ST1
 70
     8
280
     0
  0
ATTDEF
  5
EB
330
DB
100
AcDbEntity
  8
AM_6
100
AcDbText
 10
5.875
 20
-4.4252
 30
0.0
 40
0.5
  1
3.1496
100
AcDbAttributeDefinition
  3

  2
A
 70
     8
280
     0
  0
ATTDEF
  5
EC
330
DB
100
AcDbEntity
  8
AM_6
100
AcDbText
 10
5.875
 20
-4.9252
 30
0.0
 40
0.5
  1
61/64
100
AcDbAttributeDefinition
  3

  2
B
 70
     8
280
     0
  0
ATTDEF
  5
ED
330
DB
100
AcDbEntity
  8
AM_6
100
AcDbText
 10
5.875
 20
-5.4252
 30
0.0
 40
0.5
  1
2-17/32
100
AcDbAttributeDefinition
  3

  2
C
 70
     8
280
     0
  0
ATTDEF
  5
EE
330
DB
100
AcDbEntity
  8
AM_6
100
AcDbText
 10
5.875
 20
-5.9252
 30
0.0
 40
0.5
  1
0.970
100
AcDbAttributeDefinition
  3

  2
D
 70
     8
280
     0
  0
ATTDEF
  5
EF
330
DB
100
AcDbEntity
  8
AM_6
100
AcDbText
 10
5.875
 20
-6.4252
 30
0.0
 40
0.5
  1
2-21/32
100
AcDbAttributeDefinition
  3

  2
E
 70
     8
280
     0
  0
ATTDEF
  5
F0
330
DB
100
AcDbEntity
  8
AM_6
100
AcDbText
 10
5.875
 20
-6.9252
 30
0.0
 40
0.5
  1
0.28125
100
AcDbAttributeDefinition
  3

  2
F
 70
     8
280
     0
  0
ATTDEF
  5
F1
330
DB
100
AcDbEntity
  8
AM_6
100
AcDbText
 10
5.875
 20
-7.4252
 30
0.0
 40
0.5
  1
1
100
AcDbAttributeDefinition
  3

  2
DD
 70
     8
280
     0
  0
ATTDEF
  5
F2
330
DB
100
AcDbEntity
  8
AM_6
100
AcDbText
 10
5.875
 20
-7.9252
 30
0.0
 40
0.5
  1
baldor
100
AcDbAttributeDefinition
  3

  2
COMPANY
 70
     8
280
     0
  0
LINE
  5
F3
330
DB
100
AcDbEntity
  8
AM_9
100
AcDbLine
 10
-1.54525
 20
0.3697407892786317
 30
0.0
 11
-1.54525
 21
0.3037149767865731
 31
0.0
  0
LINE
  5
F4
330
DB
100
AcDbEntity
  8
AM_9
100
AcDbLine
 10
-1.19525
 20
0.3036944390653195
 30
0.0
 11
-1.19525
 21
0.3697686887809535
 31
0.0
  0
LWPOLYLINE
  5
F5
330
DB
100
AcDbEntity
  8
AM_9
100
AcDbPolyline
 90
       12
 70
     0
 43
0.0
 10
-1.37025
 20
0.136011861158999
 10
-1.375946804475874
 20
0.1361264936365928
 10
-1.40482194906584
 20
0.139499694130464
 10
-1.432268902470495
 20
0.1474874020023826
 10
-1.45801780328694
 20
0.1597269542232159
 10
-1.481789842765519
 20
0.1761684743455282
 10
-1.502507401935133
 20
0.1960088263545471
 10
-1.519949005745284
 20
0.2192162645389827
 10
-1.533139171382759
 20
0.2445752160941934
 10
-1.541567869671975
 20
0.271102482515242
 10
-1.545140136732748
 20
0.2981264605553853
 10
-1.545249998920659
 20
0.3037392602530471
  0
LWPOLYLINE
  5
F6
330
DB
100
AcDbEntity
  8
AM_9
100
AcDbPolyline
 90
       11
 70
     0
 43
0.0
 10
-1.195250000311275
 20
0.3037663353893461
 10
-1.196157959322315
 20
0.2875283079412193
 10
-1.201419011668406
 20
0.2614486732332393
 10
-1.211158407467812
 20
0.2361176233541904
 10
-1.225282392773215
 20
0.2120996507253983
 10
-1.243276124558377
 20
0.190318992594663
 10
-1.265307177909936
 20
0.1710333067276598
 10
-1.290329587745538
 20
0.1554472345088017
 10
-1.317834842111776
 20
0.1441463055418013
 10
-1.346906791110282
 20
0.1375943237436697
 10
-1.37025
 20
0.136011861158999
  0
LWPOLYLINE
  5
F7
330
DB
100
AcDbEntity
  8
AM_9
100
AcDbPolyline
 90
       11
 70
     0
 43
0.0
 10
-1.545249998920659
 20
0.3037392602530471
 10
-1.543760712149393
 20
0.3241261097004248
 10
-1.537700184201236
 20
0.3490790122514994
 10
-1.527149454185779
 20
0.3721997117496385
 10
-1.512459658253497
 20
0.3931152602649555
 10
-1.493516089078081
 20
0.4117479534016689
 10
-1.471164542382643
 20
0.4272640564754091
 10
-1.445488477186414
 20
0.4395081852051043
 10
-1.41758871143939
 20
0.4479850124783627
 10
-1.394154376854697
 20
0.4519000455303031
 10
-1.37025
 20
0.4532195866218265
  0
LWPOLYLINE
  5
F8
330
DB
100
AcDbEntity
  8
AM_9
100
AcDbPolyline
 90
        4
 70
     0
 43
0.0
 10
-1.199111912402673
 20
0.3363318997517193
 10
-1.198406957917508
 20
0.3396255187260109
 10
-1.195286873539867
 20
0.3665321634631787
 10
-1.195250000794035
 20
0.3697758701659401
  0
LWPOLYLINE
  5
F9
330
DB
100
AcDbEntity
  8
AM_9
100
AcDbPolyline
 90
       10
 70
     0
 43
0.0
 10
-1.37025
 20
0.2037158213049312
 10
-1.362827619515725
 20
0.2038917547762743
 10
-1.333871299982172
 20
0.2075066122007223
 10
-1.306229881077245
 20
0.2157368492185255
 10
-1.280356953035973
 20
0.2282261998266612
 10
-1.256681828961354
 20
0.2448354720708675
 10
-1.236148441083623
 20
0.2648240413010869
 10
-1.219124165800636
 20
0.2879660936274542
 10
-1.206384317136913
 20
0.3132086694486074
 10
-1.199111912402673
 20
0.3363318997517193
  0
LWPOLYLINE
  5
FA
330
DB
100
AcDbEntity
  8
AM_9
100
AcDbPolyline
 90
       10
 70
     0
 43
0.0
 10
-1.541361619937015
 20
0.3362176259858919
 10
-1.538801802629401
 20
0.3266547150370236
 10
-1.528786892920985
 20
0.3013036279053861
 10
-1.51434478810897
 20
0.2774250956962704
 10
-1.495985313404189
 20
0.2558802731673434
 10
-1.473744122232558
 20
0.237075089825741
 10
-1.448558892580933
 20
0.2219894829701156
 10
-1.421022001484435
 20
0.2111928437207149
 10
-1.391996589325063
 20
0.2050617168720916
 10
-1.37025
 20
0.2037158213049312
  0
LWPOLYLINE
  5
FB
330
DB
100
AcDbEntity
  8
AM_9
100
AcDbPolyline
 90
        3
 70
     0
 43
0.0
 10
-1.545249999531642
 20
0.3698025827460441
 10
-1.544259250110168
 20
0.3528545045844063
 10
-1.541361619937015
 20
0.3362176259858919
  0
LWPOLYLINE
  5
FC
330
DB
100
AcDbEntity
  8
AM_9
100
AcDbPolyline
 90
       11
 70
     0
 43
0.0
 10
-1.195250000794035
 20
0.3697758701659401
 10
-1.197121181899809
 20
0.3926537529647003
 10
-1.203685256493086
 20
0.4177421229406373
 10
-1.214812638645026
 20
0.4410618932399568
 10
-1.230130902679899
 20
0.4621451734631272
 10
-1.249610669136524
 20
0.4807641520800396
 10
-1.272457225996137
 20
0.4961980993919229
 10
-1.298380209615527
 20
0.5081862502528265
 10
-1.326398241540443
 20
0.5163370299424572
 10
-1.348141237387562
 20
0.5197686897601987
 10
-1.37025
 20
0.5209235467677586
  0
LINE
  5
FD
330
DB
100
AcDbEntity
  8
AM_9
100
AcDbLine
 10
-1.54525
 20
0.875
 30
0.0
 11
-1.54525
 21
0.7187499999999998
 31
0.0
  0
LINE
  5
FE
330
DB
100
AcDbEntity
  8
AM_9
100
AcDbLine
 10
-1.19525
 20
0.7187499999999998
 30
0.0
 11
-1.19525
 21
0.8750000000000001
 31
0.0
  0
LWPOLYLINE
  5
FF
330
DB
100
AcDbEntity
  8
AM_9
100
AcDbPolyline
 90
       11
 70
     0
 43
0.0
 10
-1.37025
 20
0.697120192291114
 10
-1.341777486300151
 20
0.6977014021315908
 10
-1.313304972600301
 20
0.6994421338792455
 10
-1.28724435535074
 20
0.7020445139331544
 10
-1.262797198638757
 20
0.7053528670249936
 10
-1.241537850456148
 20
0.7089029411281905
 10
-1.223331865520752
 20
0.7124335061876736
 10
-1.209523703939895
 20
0.7154086278101489
 10
-1.199999546418514
 20
0.7176083747035713
 10
-1.19565874653757
 20
0.7186505884542099
 10
-1.195250000001045
 20
0.7187499999997452
  0
LWPOLYLINE
  5
100
330
DB
100
AcDbEntity
  8
AM_9
100
AcDbPolyline
 90
       11
 70
     0
 43
0.0
 10
-1.37025
 20
0.4532195866218265
 10
-1.341364244890666
 20
0.4512838584212285
 10
-1.313304972600301
 20
0.4455690891834624
 10
-1.286902498416767
 20
0.4361600262364613
 10
-1.262797198638758
 20
0.4232800118630292
 10
-1.241272363426786
 20
0.4067916380454561
 10
-1.223331865520752
 20
0.3872584650267604
 10
-1.209364994725932
 20
0.3647199090505203
 10
-1.199999546418514
 20
0.3399746442936141
 10
-1.195648369938923
 20
0.3141497369543289
 10
-1.195250000311275
 20
0.3037663353893461
  0
LINE
  5
101
330
DB
100
AcDbEntity
  8
AM_9
100
AcDbLine
 10
0.8750000000000001
 20
0.7187499999999998
 30
0.0
 11
-1.19525
 21
0.7187499999999998
 31
0.0
  0
LINE
  5
102
330
DB
100
AcDbEntity
  8
AM_9
100
AcDbLine
 10
-1.54525
 20
0.7187499999999998
 30
0.0
 11
-1.65625
 21
0.7187499999999998
 31
0.0
  0
LINE
  5
103
330
DB
100
AcDbEntity
  8
AM_9
100
AcDbLine
 10
-1.65625
 20
-0.7187499999999998
 30
0.0
 11
0.8750000000000001
 21
-0.7187499999999998
 31
0.0
  0
LINE
  5
104
330
DB
100
AcDbEntity
  8
AM_9
100
AcDbLine
 10
-1.540518425302272
 20
0.7176126386532744
 30
0.0
 11
-1.545249999996714
 21
0.7187499999991998
 31
0.0
  0
LINE
  5
105
330
DB
100
AcDbEntity
  8
AM_9
100
AcDbLine
 10
-1.358377852538574
 20
0.6972212779206595
 30
0.0
 11
-1.373165865300636
 21
0.6971262904025721
 31
0.0
  0
LWPOLYLINE
  5
106
330
DB
100
AcDbEntity
  8
AM_9
100
AcDbPolyline
 90
       11
 70
     0
 43
0.0
 10
-1.545249999996714
 20
0.7187499999991998
 10
-1.543831928877999
 20
0.7184060471161184
 10
-1.537700184201236
 20
0.7169491799904842
 10
-1.527335987626695
 20
0.7145995871875761
 10
-1.512459658253497
 20
0.7114774412450309
 10
-1.493813722415147
 20
0.7079862682263599
 10
-1.471164542382643
 20
0.7043864758527791
 10
-1.445895318656662
 20
0.7012123620806094
 10
-1.41758871143939
 20
0.6987256372144516
 10
-1.394391892195053
 20
0.6975380946290728
 10
-1.37025
 20
0.697120192291114
  0
LINE
  5
107
330
DB
100
AcDbEntity
  8
AM_9
100
AcDbLine
 10
0.78125
 20
0.875
 30
0.0
 11
0.613
 21
0.875
 31
0.0
  0
LINE
  5
108
330
DB
100
AcDbEntity
  8
AM_9
100
AcDbLine
 10
0.613
 20
-0.875
 30
0.0
 11
0.8750000000000001
 21
-0.875
 31
0.0
  0
LINE
  5
109
330
DB
100
AcDbEntity
  8
AM_9
100
AcDbLine
 10
0.8750000000000001
 20
-0.875
 30
0.0
 11
0.8750000000000001
 21
-0.6816371983699896
 31
0.0
  0
LWPOLYLINE
  5
10A
330
DB
100
AcDbEntity
  8
AM_9
100
AcDbPolyline
 90
       11
 70
     0
 43
0.0
 10
-1.37025
 20
0.8573214099741123
 10
-1.398882985489335
 20
0.8577994216936919
 10
-1.427515970978669
 20
0.8592318612761807
 10
-1.45373103080583
 20
0.8613762723133276
 10
-1.478315253459151
 20
0.8641053749428889
 10
-1.499527778174746
 20
0.8670136930463088
 10
-1.517656101515195
 20
0.869901464973998
 10
-1.531298654765078
 20
0.8723168399163467
 10
-1.540660875531932
 20
0.8740937401100408
 10
-1.54489128569591
 20
0.8749283277329178
 10
-1.545249999999272
 20
0.8749999999998543
  0
LWPOLYLINE
  5
10B
330
DB
100
AcDbEntity
  8
AM_9
100
AcDbPolyline
 90
       11
 70
     0
 43
0.0
 10
-1.37025
 20
0.5209235467677586
 10
-1.399296420180066
 20
0.518917916314008
 10
-1.427515970978669
 20
0.5129987322957733
 10
-1.454079225665774
 20
0.5032553642764077
 10
-1.478315253459151
 20
0.4899379323473144
 10
-1.499794332920276
 20
0.4730448023608654
 10
-1.517656101515195
 20
0.4531200546875689
 10
-1.531452793243253
 20
0.4303522253436352
 10
-1.540660875531932
 20
0.4054914751711486
 10
-1.544899912038659
 20
0.3795165122439608
 10
-1.545249999531642
 20
0.3698025827460441
  0
LINE
  5
10C
330
DB
100
AcDbEntity
  8
AM_9
100
AcDbLine
 10
-1.08425
 20
0.875
 30
0.0
 11
-1.19525
 21
0.875
 31
0.0
  0
LINE
  5
10D
330
DB
100
AcDbEntity
  8
AM_9
100
AcDbLine
 10
-1.54525
 20
0.875
 30
0.0
 11
-1.65625
 21
0.875
 31
0.0
  0
LINE
  5
10E
330
DB
100
AcDbEntity
  8
AM_9
100
AcDbLine
 10
-0.9765625000000002
 20
-0.8749999999999998
 30
0.0
 11
-0.803
 21
-0.875
 31
0.0
  0
LINE
  5
10F
330
DB
100
AcDbEntity
  8
AM_9
100
AcDbLine
 10
-1.65625
 20
-0.875
 30
0.0
 11
-1.08425
 21
-0.875
 31
0.0
  0
LINE
  5
110
330
DB
100
AcDbEntity
  8
AM_9
100
AcDbLine
 10
-1.196834156964396
 20
0.8746845457739316
 30
0.0
 11
-1.195250000001128
 21
0.8749999999997743
 31
0.0
  0
LINE
  5
111
330
DB
100
AcDbEntity
  8
AM_9
100
AcDbLine
 10
-1.381248875975948
 20
0.8573919612830061
 30
0.0
 11
-1.366137079327721
 21
0.8573312755968117
 31
0.0
  0
LWPOLYLINE
  5
112
330
DB
100
AcDbEntity
  8
AM_9
100
AcDbPolyline
 90
       11
 70
     0
 43
0.0
 10
-1.195250000001128
 20
0.8749999999997743
 10
-1.197043494267661
 20
0.8746430664150986
 10
-1.203685256493086
 20
0.8733520560344058
 10
-1.214614851050496
 20
0.871333632765621
 10
-1.230130902679899
 20
0.868696357442461
 10
-1.249301503811286
 20
0.8658109139588802
 10
-1.272457225996138
 20
0.8628808878677117
 10
-1.297974512733218
 20
0.8603625666308655
 10
-1.326398241540443
 20
0.8584421801845453
 10
-1.347956758041332
 20
0.8576112106526056
 10
-1.37025
 20
0.8573214099741123
  0
LINE
  5
113
330
DB
100
AcDbEntity
  8
AM_9
100
AcDbLine
 10
0.5176875000000001
 20
1.25984
 30
0.0
 11
0.3815624999999999
 21
1.25984
 31
0.0
  0
LINE
  5
114
330
DB
100
AcDbEntity
  8
AM_9
100
AcDbLine
 10
0.3815624999999999
 20
-1.25984
 30
0.0
 11
0.5176875000000001
 21
-1.25984
 31
0.0
  0
LINE
  5
115
330
DB
100
AcDbEntity
  8
AM_9
100
AcDbLine
 10
-0.803
 20
-1.1645275
 30
0.0
 11
-0.803
 21
-0.490728321122369
 31
0.0
  0
ARC
  5
116
330
DB
100
AcDbEntity
  8
AM_9
100
AcDbCircle
 10
-0.7076875000000011
 20
1.164527500000002
 30
0.0
 40
0.0953124999999979
100
AcDbArc
 50
90.0
 51
140.5160990135971
  0
ARC
  5
117
330
DB
100
AcDbEntity
  8
AM_9
100
AcDbCircle
 10
-0.7076875000000004
 20
-1.1645275
 30
0.0
 40
0.0953124999999997
100
AcDbArc
 50
180.0
 51
270.0
  0
LINE
  5
118
330
DB
100
AcDbEntity
  8
AM_9
100
AcDbLine
 10
-0.5715625
 20
1.25984
 30
0.0
 11
-0.7076875000000002
 21
1.25984
 31
0.0
  0
LINE
  5
119
330
DB
100
AcDbEntity
  8
AM_9
100
AcDbLine
 10
-0.7076875000000002
 20
-1.25984
 30
0.0
 11
-0.5715625
 21
-1.25984
 31
0.0
  0
LINE
  5
11A
330
DB
100
AcDbEntity
  8
AM_9
100
AcDbLine
 10
-0.7076875000000002
 20
-1.25984
 30
0.0
 11
-0.7076875000000002
 21
1.25984
 31
0.0
  0
LINE
  5
11B
330
DB
100
AcDbEntity
  8
AM_9
100
AcDbLine
 10
0.613
 20
-1.1645275
 30
0.0
 11
0.613
 21
1.1645275
 31
0.0
  0
ARC
  5
11C
330
DB
100
AcDbEntity
  8
AM_9
100
AcDbCircle
 10
0.5176875000000001
 20
1.1645275
 30
0.0
 40
0.0953124999999999
100
AcDbArc
 50
0.0
 51
90.0
  0
ARC
  5
11D
330
DB
100
AcDbEntity
  8
AM_9
100
AcDbCircle
 10
0.5176875000000001
 20
-1.1645275
 30
0.0
 40
0.0953124999999999
100
AcDbArc
 50
270.0
 51
0.0
  0
LINE
  5
11E
330
DB
100
AcDbEntity
  8
AM_9
100
AcDbLine
 10
0.5176875000000001
 20
-1.25984
 30
0.0
 11
0.5176875000000001
 21
1.25984
 31
0.0
  0
LINE
  5
11F
330
DB
100
AcDbEntity
  8
AM_9
100
AcDbLine
 10
-0.0477630250370199
 20
1.511808
 30
0.0
 11
-0.1426562499999988
 21
1.511808
 31
0.0
  0
LINE
  5
120
330
DB
100
AcDbEntity
  8
AM_9
100
AcDbLine
 10
-0.1426562499999988
 20
-1.511808
 30
0.0
 11
-0.0473437500000011
 21
-1.511808
 31
0.0
  0
LINE
  5
121
330
DB
100
AcDbEntity
  8
AM_9
100
AcDbLine
 10
0.3815624999999996
 20
-1.479487500000001
 30
0.0
 11
0.3815624999999996
 21
1.479487500000001
 31
0.0
  0
ARC
  5
122
330
DB
100
AcDbEntity
  8
AM_9
100
AcDbCircle
 10
0.2862500000000008
 20
1.479487500000001
 30
0.0
 40
0.0953124999999988
100
AcDbArc
 50
0.0
 51
90.0
  0
ARC
  5
123
330
DB
100
AcDbEntity
  8
AM_9
100
AcDbCircle
 10
0.2862500000000006
 20
-1.479487500000001
 30
0.0
 40
0.095312499999999
100
AcDbArc
 50
270.0
 51
0.0
  0
LINE
  5
124
330
DB
100
AcDbEntity
  8
AM_9
100
AcDbLine
 10
-0.1426562499999988
 20
1.511808
 30
0.0
 11
-0.1790246981567918
 21
1.5748
 31
0.0
  0
LINE
  5
125
330
DB
100
AcDbEntity
  8
AM_9
100
AcDbLine
 10
-0.1790246981567918
 20
-1.5748
 30
0.0
 11
-0.1426562499999988
 21
-1.511808
 31
0.0
  0
LINE
  5
126
330
DB
100
AcDbEntity
  8
AM_9
100
AcDbLine
 10
-0.1426562499999988
 20
-1.511808
 30
0.0
 11
-0.1426562499999988
 21
1.511808
 31
0.0
  0
LINE
  5
127
330
DB
100
AcDbEntity
  8
AM_9
100
AcDbLine
 10
-0.0473437500000011
 20
-1.511808
 30
0.0
 11
-0.0109753018432082
 21
-1.5748
 31
0.0
  0
LINE
  5
128
330
DB
100
AcDbEntity
  8
AM_9
100
AcDbLine
 10
-0.0109753018432082
 20
1.5748
 30
0.0
 11
-0.0473437500000011
 21
1.511808
 31
0.0
  0
LINE
  5
129
330
DB
100
AcDbEntity
  8
AM_9
100
AcDbLine
 10
-0.0473437500000011
 20
-1.511808
 30
0.0
 11
-0.0473437500000011
 21
1.511743584982744
 31
0.0
  0
LINE
  5
12A
330
DB
100
AcDbEntity
  8
AM_9
100
AcDbLine
 10
0.2862499999999999
 20
1.5748
 30
0.0
 11
-0.0109753018432082
 21
1.5748
 31
0.0
  0
LINE
  5
12B
330
DB
100
AcDbEntity
  8
AM_9
100
AcDbLine
 10
-0.0109753018432082
 20
-1.5748
 30
0.0
 11
0.2862499999999999
 21
-1.5748
 31
0.0
  0
LINE
  5
12C
330
DB
100
AcDbEntity
  8
AM_9
100
AcDbLine
 10
0.2862499999999999
 20
-1.5748
 30
0.0
 11
0.2862499999999999
 21
1.5748
 31
0.0
  0
LINE
  5
12D
330
DB
100
AcDbEntity
  8
AM_9
100
AcDbLine
 10
-0.0109753018432082
 20
-1.5748
 30
0.0
 11
-0.0109753018432082
 21
1.5748
 31
0.0
  0
LINE
  5
12E
330
DB
100
AcDbEntity
  8
AM_9
100
AcDbLine
 10
-0.5715625
 20
-1.4794875
 30
0.0
 11
-0.5715625
 21
1.4794875
 31
0.0
  0
ARC
  5
12F
330
DB
100
AcDbEntity
  8
AM_9
100
AcDbCircle
 10
-0.4762500000000001
 20
1.4794875
 30
0.0
 40
0.0953124999999999
100
AcDbArc
 50
90.0
 51
180.0
  0
ARC
  5
130
330
DB
100
AcDbEntity
  8
AM_9
100
AcDbCircle
 10
-0.4762500000000001
 20
-1.4794875
 30
0.0
 40
0.0953124999999999
100
AcDbArc
 50
180.0
 51
270.0
  0
LINE
  5
131
330
DB
100
AcDbEntity
  8
AM_9
100
AcDbLine
 10
-0.1790246981567918
 20
1.5748
 30
0.0
 11
-0.4762500000000003
 21
1.5748
 31
0.0
  0
LINE
  5
132
330
DB
100
AcDbEntity
  8
AM_9
100
AcDbLine
 10
-0.4762500000000003
 20
-1.5748
 30
0.0
 11
-0.1790246981567918
 21
-1.5748
 31
0.0
  0
LINE
  5
133
330
DB
100
AcDbEntity
  8
AM_9
100
AcDbLine
 10
-0.1790246981567918
 20
-1.5748
 30
0.0
 11
-0.1790246981567918
 21
1.5748
 31
0.0
  0
LINE
  5
134
330
DB
100
AcDbEntity
  8
AM_9
100
AcDbLine
 10
-0.4762500000000003
 20
-1.5748
 30
0.0
 11
-0.4762500000000003
 21
1.5748
 31
0.0
  0
LINE
  5
137
330
DB
100
AcDbEntity
  8
AM_7
100
AcDbLine
 10
-1.37025
 20
-0.0448717948717949
 30
0.0
 11
-1.37025
 21
1.401041666666667
 31
0.0
  0
LINE
  5
138
330
DB
100
AcDbEntity
  8
AM_4
100
AcDbLine
 10
0.8750000000000001
 20
-0.6816371983699896
 30
0.0
 11
0.8750000000000001
 21
0.875
 31
0.0
  0
LINE
  5
139
330
DB
100
AcDbEntity
  8
AM_4
100
AcDbLine
 10
0.8750000000000001
 20
0.875
 30
0.0
 11
0.78125
 21
0.875
 31
0.0
  0
LINE
  5
13A
330
DB
100
AcDbEntity
  8
AM_4
100
AcDbLine
 10
-0.803
 20
0.875
 30
0.0
 11
-1.08425
 21
0.875
 31
0.0
  0
LINE
  5
13B
330
DB
100
AcDbEntity
  8
AM_4
100
AcDbLine
 10
-1.08425
 20
-0.875
 30
0.0
 11
-0.9765625000000002
 21
-0.8749999999999998
 31
0.0
  0
LINE
  5
13C
330
DB
100
AcDbEntity
  8
AM_4
100
AcDbLine
 10
-0.803
 20
-0.490728321122369
 30
0.0
 11
-0.803
 21
1.1645275
 31
0.0
  0
ARC
  5
13D
330
DB
100
AcDbEntity
  8
AM_4
100
AcDbCircle
 10
-0.707687500000002
 20
1.164527500000001
 30
0.0
 40
0.0953124999999982
100
AcDbArc
 50
140.5160990135961
 51
180.0
  0
ENDBLK
  5
DE
330
DB
100
AcDbEntity
  8
0
100
AcDbBlockEnd
  0
BLOCK
  5
140
330
13E
100
AcDbEntity
  8
0
100
AcDbBlockBegin
  2
4_405015E_Inch_0_in_070319_2
 70
     2
 10
0.0
 20
0.0
 30
0.0
  3
4_405015E_Inch_0_in_070319_2
  1

  0
ATTDEF
  5
142
330
13E
100
AcDbEntity
  8
AM_6
100
AcDbText
 10
5.21875
 20
2.194751825333079
 30
0.0
 40
0.5
  1
405015E -Inch
100
AcDbAttributeDefinition
  3

  2
NN
 70
     8
280
     0
  0
ATTDEF
  5
143
330
13E
100
AcDbEntity
  8
AM_6
100
AcDbText
 10
5.21875
 20
1.694751825333079
 30
0.0
 40
0.5
  1
Grease Fitting
100
AcDbAttributeDefinition
  3

  2
NT
 70
     8
280
     0
  0
ATTDEF
  5
144
330
13E
100
AcDbEntity
  8
AM_6
100
AcDbText
 10
5.21875
 20
1.194751825333079
 30
0.0
 40
0.5
  1
405015E-Inch
100
AcDbAttributeDefinition
  3

  2
NB
 70
     8
280
     0
  0
ATTDEF
  5
145
330
13E
100
AcDbEntity
  8
AM_6
100
AcDbText
 10
5.21875
 20
0.6947518253330793
 30
0.0
 40
0.5
  1
$MN.-Inch
100
AcDbAttributeDefinition
  3

  2
NBSYN
 70
     8
280
     0
  0
ATTDEF
  5
146
330
13E
100
AcDbEntity
  8
AM_6
100
AcDbText
 10
5.21875
 20
0.1947518253330793
 30
0.0
 40
0.5
  1
405015E
100
AcDbAttributeDefinition
  3

  2
LINA
 70
     8
280
     0
  0
ATTDEF
  5
147
330
13E
100
AcDbEntity
  8
AM_6
100
AcDbText
 10
5.21875
 20
-0.3052481746669207
 30
0.0
 40
0.5
  1
405015E
100
AcDbAttributeDefinition
  3

  2
MN
 70
     8
280
     0
  0
ATTDEF
  5
148
330
13E
100
AcDbEntity
  8
AM_6
100
AcDbText
 10
5.21875
 20
-0.8052481746669207
 30
0.0
 40
0.5
  1
1/8 x 27PTF
100
AcDbAttributeDefinition
  3

  2
T
 70
     8
280
     0
  0
ATTDEF
  5
149
330
13E
100
AcDbEntity
  8
AM_6
100
AcDbText
 10
5.21875
 20
-1.305248174666921
 30
0.0
 40
0.5
  1
baldor
100
AcDbAttributeDefinition
  3

  2
COMPANY
 70
     8
280
     0
  0
LWPOLYLINE
  5
14A
330
13E
100
AcDbEntity
  8
AM_9
100
AcDbPolyline
 90
        3
 70
     0
 43
0.0
 10
-0.1093749999999999
 20
1.913374876486244
 10
-0.0546874999999999
 20
1.931234526470167
 10
0.0000000000000001
 20
1.952801491021168
  0
LWPOLYLINE
  5
14B
330
13E
100
AcDbEntity
  8
AM_9
100
AcDbPolyline
 90
        3
 70
     0
 43
0.0
 10
0.0000000000000001
 20
1.952801491021168
 10
0.0544416102741496
 20
1.931323820103545
 10
0.109375
 20
1.913374876486244
  0
LINE
  5
14C
330
13E
100
AcDbEntity
  8
AM_9
100
AcDbLine
 10
-0.0978262260607087
 20
2.003217025659008
 30
0.0
 11
-0.106002478662244
 21
2.000942936902794
 31
0.0
  0
LWPOLYLINE
  5
14D
330
13E
100
AcDbEntity
  8
AM_9
100
AcDbPolyline
 90
        3
 70
     0
 43
0.0
 10
0.0000000000000001
 20
2.023698488022379
 10
-0.0544416102741495
 20
2.013744280593105
 10
-0.0978262260607087
 20
2.003217025659008
  0
LWPOLYLINE
  5
14E
330
13E
100
AcDbEntity
  8
AM_9
100
AcDbPolyline
 90
        3
 70
     0
 43
0.0
 10
0.0978248365369177
 20
2.003217404123302
 10
0.0546875
 20
2.013691609727072
 10
0.0000000000000001
 20
2.023698488022379
  0
LINE
  5
14F
330
13E
100
AcDbEntity
  8
AM_9
100
AcDbLine
 10
0.10600215787125
 20
2.000943027977138
 30
0.0
 11
0.0978248365369177
 21
2.003217404123302
 31
0.0
  0
LWPOLYLINE
  5
150
330
13E
100
AcDbEntity
  8
AM_9
100
AcDbPolyline
 90
        3
 70
     0
 43
0.0
 10
0.109375
 20
1.913374876486244
 10
0.1640625
 20
1.89966068362386
 10
0.2187500000000001
 20
1.889653805328552
  0
LINE
  5
151
330
13E
100
AcDbEntity
  8
AM_9
100
AcDbLine
 10
0.0000000000000001
 20
2.023698488022379
 30
0.0
 11
0.0000000000000001
 21
1.952801491021168
 31
0.0
  0
LWPOLYLINE
  5
152
330
13E
100
AcDbEntity
  8
AM_9
100
AcDbPolyline
 90
        3
 70
     0
 43
0.0
 10
-0.2187499999999999
 20
1.889653805328553
 10
-0.1643083897258503
 20
1.899608012757827
 10
-0.1093749999999999
 20
1.913374876486244
  0
ELLIPSE
  5
153
330
13E
100
AcDbEntity
  8
AM_9
100
AcDbEllipse
 10
0.0000000000000003
 20
1.589156615944445
 30
0.0
 11
0.1619028724722688
 21
0.0
 31
0.0
210
0.0
220
0.0
230
1.0
 40
0.4999999999999995
 41
4.71238898038469
 42
10.04025766943977
  0
LINE
  5
154
330
13E
100
AcDbEntity
  8
AM_9
100
AcDbLine
 10
0.1321931418159854
 20
1.542419282442226
 30
0.0
 11
0.1621706131788417
 21
1.563616555725727
 31
0.0
  0
LINE
  5
155
330
13E
100
AcDbEntity
  8
AM_9
100
AcDbLine
 10
-0.1621706131788415
 20
1.563616555725727
 30
0.0
 11
-0.1321931418159852
 21
1.542419282442226
 31
0.0
  0
ELLIPSE
  5
156
330
13E
100
AcDbEntity
  8
AM_9
100
AcDbEllipse
 10
0.0000000000000005
 20
1.620952525869697
 30
0.0
 11
0.198617626781216
 21
2.959633272606374E-9
 31
0.0
210
0.0
220
0.0
230
1.0
 40
0.4999999999999984
 41
3.757072339908436
 42
9.442822007678778
  0
ELLIPSE
  5
157
330
13E
100
AcDbEntity
  8
AM_9
100
AcDbEllipse
 10
-0.0000000000000002
 20
1.589156615944445
 30
0.0
 11
0.1619028724722688
 21
0.0
 31
0.0
210
0.0
220
0.0
230
1.0
 40
0.4999999999999997
 41
3.757072362260182
 42
4.71238898038469
  0
ELLIPSE
  5
158
330
13E
100
AcDbEntity
  8
AM_9
100
AcDbEllipse
 10
-0.0000000000000001
 20
1.818653347947322
 30
0.0
 11
0.2187500000000002
 21
0.0
 31
0.0
210
0.0
220
0.0
230
1.0
 40
0.5000000000000027
 41
4.188790204786393
 42
9.42477796076938
  0
ELLIPSE
  5
159
330
13E
100
AcDbEntity
  8
AM_9
100
AcDbEllipse
 10
0.0000000000000003
 20
1.818653347947322
 30
0.0
 11
0.2187500000000003
 21
0.0
 31
0.0
210
0.0
220
0.0
230
1.0
 40
0.5000000000000034
 41
3.141592653589793
 42
4.188790204786391
  0
ELLIPSE
  5
15A
330
13E
100
AcDbEntity
  8
AM_9
100
AcDbEllipse
 10
-0.0000000000000001
 20
1.818653347947321
 30
0.0
 11
0.2057518972230698
 21
0.0
 31
0.0
210
0.0
220
0.0
230
1.0
 40
0.5000000000000012
 41
4.71238898038469
 42
9.442822037473828
  0
LINE
  5
15B
330
13E
100
AcDbEntity
  8
AM_9
100
AcDbLine
 10
0.1985852938306409
 20
1.619160687260877
 30
0.0
 11
0.2057184028850728
 21
1.816797147169691
 31
0.0
  0
LINE
  5
15C
330
13E
100
AcDbEntity
  8
AM_9
100
AcDbLine
 10
-0.2057184028850727
 20
1.816797147169691
 30
0.0
 11
-0.1985852938306407
 21
1.619160687260877
 31
0.0
  0
ELLIPSE
  5
15D
330
13E
100
AcDbEntity
  8
AM_9
100
AcDbEllipse
 10
0.0000000000000002
 20
1.818653347947321
 30
0.0
 11
0.2057518972230698
 21
0.0
 31
0.0
210
0.0
220
0.0
230
1.0
 40
0.5000000000000012
 41
3.159636730294242
 42
4.71238898038469
  0
ELLIPSE
  5
15E
330
13E
100
AcDbEntity
  8
AM_9
100
AcDbEllipse
 10
-0.0000000000000007
 20
1.6209525258697
 30
0.0
 11
0.1986176267812146
 21
0.0
 31
0.0
210
0.0
220
0.0
230
1.0
 40
0.5000000000000054
 41
3.159636730294277
 42
3.757072362260205
  0
LINE
  5
15F
330
13E
100
AcDbEntity
  8
AM_9
100
AcDbLine
 10
-0.10178102724221
 20
2.009088722111608
 30
0.0
 11
-0.1049999999999999
 21
2.002786327472081
 31
0.0
  0
LINE
  5
160
330
13E
100
AcDbEntity
  8
AM_9
100
AcDbLine
 10
0.1050000000000001
 20
2.002786327472081
 30
0.0
 11
0.1017810272422101
 21
2.009088722111608
 31
0.0
  0
ELLIPSE
  5
161
330
13E
100
AcDbEntity
  8
AM_9
100
AcDbEllipse
 10
0.0000000000000001
 20
1.996188555723131
 30
0.0
 11
0.105
 21
0.0
 31
0.0
210
0.0
220
0.0
230
1.0
 40
0.5
 41
0.2500328930988047
 42
3.141592653589793
  0
ELLIPSE
  5
162
330
13E
100
AcDbEntity
  8
AM_9
100
AcDbEllipse
 10
0.0000000000000007
 20
1.968261939852066
 30
0.0
 11
0.1188200907348968
 21
0.0
 31
0.0
210
0.0
220
0.0
230
1.0
 40
0.5000000000000097
 41
0.2500328930988225
 42
2.535447513394695
  0
LINE
  5
163
330
13E
100
AcDbEntity
  8
AM_9
100
AcDbLine
 10
0.1050000000000001
 20
2.014426784535591
 30
0.0
 11
0.1050000000000001
 21
2.022169317836664
 31
0.0
  0
LINE
  5
164
330
13E
100
AcDbEntity
  8
AM_9
100
AcDbLine
 10
-0.1049999999999999
 20
2.022169317836664
 30
0.0
 11
-0.1049999999999999
 21
2.014426784535591
 31
0.0
  0
ELLIPSE
  5
165
330
13E
100
AcDbEntity
  8
AM_9
100
AcDbEllipse
 10
0.0000000000000001
 20
2.022169317836664
 30
0.0
 11
0.1049999999999999
 21
0.0
 31
0.0
210
0.0
220
0.0
230
1.0
 40
0.5000000000000024
 41
5.990342535451017
 42
9.42477796076938
  0
ELLIPSE
  5
166
330
13E
100
AcDbEntity
  8
AM_9
100
AcDbEllipse
 10
-0.0000000000000008
 20
2.022169317836664
 30
0.0
 11
0.1049999999999992
 21
0.0
 31
0.0
210
0.0
220
0.0
230
1.0
 40
0.4999999999999974
 41
3.141592653589793
 42
3.434435425318376
  0
ELLIPSE
  5
167
330
13E
100
AcDbEntity
  8
AM_9
100
AcDbEllipse
 10
0.0000000000000031
 20
1.996188555723126
 30
0.0
 11
0.104999999999997
 21
0.0
 31
0.0
210
0.0
220
0.0
230
1.0
 40
0.5000000000000101
 41
0.0
 42
0.2500328930989051
  0
LINE
  5
168
330
13E
100
AcDbEntity
  8
AM_9
100
AcDbLine
 10
-0.0976523208201057
 20
2.002108055584513
 30
0.0
 11
-0.1098343496897826
 21
1.993321202457663
 31
0.0
  0
LINE
  5
169
330
13E
100
AcDbEntity
  8
AM_9
100
AcDbLine
 10
0.1098343496897827
 20
1.993321202457663
 30
0.0
 11
0.0976523208201059
 21
2.002108055584513
 31
0.0
  0
ELLIPSE
  5
16A
330
13E
100
AcDbEntity
  8
AM_9
100
AcDbEllipse
 10
-0.0000000000000005
 20
1.968261939852066
 30
0.0
 11
0.1188200907348969
 21
1.770557325108303E-9
 31
0.0
210
0.0
220
0.0
230
1.0
 40
0.5000000000000091
 41
2.5354474908469
 42
2.891559732057123
  0
ELLIPSE
  5
16B
330
13E
100
AcDbEntity
  8
AM_9
100
AcDbEllipse
 10
0.0000000000000001
 20
1.921119913613736
 30
0.0
 11
0.1725340532830153
 21
0.0
 31
0.0
210
0.0
220
0.0
230
1.0
 40
0.4999999999999993
 41
0.6061451401950855
 42
2.535447513394708
  0
ELLIPSE
  5
16C
330
13E
100
AcDbEntity
  8
AM_9
100
AcDbEllipse
 10
0.0000000000000001
 20
1.905255888325764
 30
0.0
 11
0.2187499999999998
 21
0.0
 31
0.0
210
0.0
220
0.0
230
1.0
 40
0.5000000000000057
 41
1.070141614390308
 42
2.071451039199486
  0
ELLIPSE
  5
16D
330
13E
100
AcDbEntity
  8
AM_9
100
AcDbEllipse
 10
-0.0000000000018045
 20
1.905255888323782
 30
0.0
 11
0.2137499999963709
 21
0.0
 31
0.0
210
0.0
220
0.0
230
1.0
 40
0.5000000000144168
 41
-4.19888988295758
 42
-4.18456477776135
  0
ELLIPSE
  5
16E
330
13E
100
AcDbEntity
  8
AM_9
100
AcDbEllipse
 10
0.00000000000023
 20
1.905255888325542
 30
0.0
 11
0.2137500000004776
 21
0.0
 31
0.0
210
0.0
220
0.0
230
1.0
 40
0.5000000000000289
 41
-4.217356306595803
 42
-4.198889882953514
  0
ELLIPSE
  5
16F
330
13E
100
AcDbEntity
  8
AM_9
100
AcDbEllipse
 10
0.0
 20
1.905255888325765
 30
0.0
 11
0.2137499999999983
 21
3.185123205184912E-9
 31
0.0
210
0.0
220
0.0
230
1.0
 40
0.5000000000000031
 41
1.075763640511012
 42
2.065828988088832
  0
ELLIPSE
  5
170
330
13E
100
AcDbEntity
  8
AM_9
100
AcDbEllipse
 10
0.0000000000004078
 20
1.905255888326681
 30
0.0
 11
0.2137499999991636
 21
0.0
 31
0.0
210
0.0
220
0.0
230
1.0
 40
0.4999999999977268
 41
1.042972124166778
 42
1.075763653005498
  0
ELLIPSE
  5
171
330
13E
100
AcDbEntity
  8
AM_9
100
AcDbEllipse
 10
0.0
 20
2.07413084206373
 30
0.0
 11
0.1350000000000003
 21
0.0
 31
0.0
210
0.0
220
0.0
230
1.0
 40
0.5000000000000014
 41
0.2354336045415648
 42
2.906159049048229
  0
LINE
  5
172
330
13E
100
AcDbEntity
  8
AM_4
100
AcDbLine
 10
-0.106002478662244
 20
2.000942936902794
 30
0.0
 11
-0.1093749999999999
 21
1.999977416864688
 31
0.0
  0
LINE
  5
173
330
13E
100
AcDbEntity
  8
AM_4
100
AcDbLine
 10
0.1093749999999999
 20
1.999977416864688
 30
0.0
 11
0.10600215787125
 21
2.000943027977138
 31
0.0
  0
LWPOLYLINE
  5
174
330
13E
100
AcDbEntity
  8
AM_4
100
AcDbPolyline
 90
        3
 70
     0
 43
0.0
 10
0.2187500000000001
 20
1.960550802329764
 10
0.1643083897258504
 20
1.982028473247386
 10
0.109375
 20
1.999977416864688
  0
LWPOLYLINE
  5
175
330
13E
100
AcDbEntity
  8
AM_4
100
AcDbPolyline
 90
        3
 70
     0
 43
0.0
 10
-0.1093749999999999
 20
1.999977416864688
 10
-0.1640624999999999
 20
1.982117766880765
 10
-0.2187499999999999
 20
1.960550802329764
  0
LINE
  5
176
330
13E
100
AcDbEntity
  8
AM_4
100
AcDbLine
 10
-0.1049999999999999
 20
2.002786327472081
 30
0.0
 11
-0.1151252948555657
 21
1.982962113717266
 31
0.0
  0
LINE
  5
177
330
13E
100
AcDbEntity
  8
AM_4
100
AcDbLine
 10
0.1151252948555658
 20
1.982962113717266
 30
0.0
 11
0.1050000000000001
 21
2.002786327472081
 31
0.0
  0
ELLIPSE
  5
178
330
13E
100
AcDbEntity
  8
AM_4
100
AcDbEllipse
 10
0.0000000000000002
 20
1.968261939852067
 30
0.0
 11
0.1188200907348978
 21
0.0
 31
0.0
210
0.0
220
0.0
230
1.0
 40
0.499999999999998
 41
2.891559760490989
 42
4.71238898038469
  0
ELLIPSE
  5
179
330
13E
100
AcDbEntity
  8
AM_4
100
AcDbEllipse
 10
0.0000000000000004
 20
1.99618855572313
 30
0.0
 11
0.1049999999999997
 21
0.0
 31
0.0
210
0.0
220
0.0
230
1.0
 40
0.499999999999997
 41
4.71238898038469
 42
6.283185307179586
  0
LINE
  5
17A
330
13E
100
AcDbEntity
  8
AM_4
100
AcDbLine
 10
0.1050000000000001
 20
1.996188555723131
 30
0.0
 11
0.1050000000000001
 21
2.014426784535591
 31
0.0
  0
LINE
  5
17B
330
13E
100
AcDbEntity
  8
AM_4
100
AcDbLine
 10
-0.1049999999999999
 20
2.014426784535591
 30
0.0
 11
-0.1049999999999999
 21
1.996188555723131
 31
0.0
  0
ELLIPSE
  5
17C
330
13E
100
AcDbEntity
  8
AM_4
100
AcDbEllipse
 10
-0.0000000000000002
 20
1.99618855572313
 30
0.0
 11
0.1049999999999997
 21
0.0
 31
0.0
210
0.0
220
0.0
230
1.0
 40
0.499999999999997
 41
3.141592653589793
 42
4.71238898038469
  0
ELLIPSE
  5
17D
330
13E
100
AcDbEntity
  8
AM_4
100
AcDbEllipse
 10
-0.0000000000000001
 20
1.968261939852067
 30
0.0
 11
0.1188200907348977
 21
0.0
 31
0.0
210
0.0
220
0.0
230
1.0
 40
0.4999999999999984
 41
4.71238898038469
 42
6.533218200278391
  0
LINE
  5
17E
330
13E
100
AcDbEntity
  8
AM_4
100
AcDbLine
 10
-0.1098343496897826
 20
1.993321202457663
 30
0.0
 11
-0.1417971541629018
 21
1.970266547815807
 31
0.0
  0
LINE
  5
17F
330
13E
100
AcDbEntity
  8
AM_4
100
AcDbLine
 10
0.1417971541629019
 20
1.970266547815807
 30
0.0
 11
0.1098343496897827
 21
1.993321202457663
 31
0.0
  0
ELLIPSE
  5
180
330
13E
100
AcDbEntity
  8
AM_4
100
AcDbEllipse
 10
-0.0000000000000001
 20
1.921119913613736
 30
0.0
 11
0.1725340532830152
 21
0.0
 31
0.0
210
0.0
220
0.0
230
1.0
 40
0.4999999999999982
 41
2.535447513394704
 42
4.71238898038469
  0
ELLIPSE
  5
181
330
13E
100
AcDbEntity
  8
AM_4
100
AcDbEllipse
 10
0.0000000000000001
 20
1.905255888325764
 30
0.0
 11
0.21875
 21
0.0
 31
0.0
210
0.0
220
0.0
230
1.0
 40
0.5000000000000021
 41
2.076348015338557
 42
3.141592653589793
  0
ELLIPSE
  5
182
330
13E
100
AcDbEntity
  8
AM_4
100
AcDbEllipse
 10
0.0000000000000003
 20
1.905255888325766
 30
0.0
 11
0.2187500000000002
 21
0.0
 31
0.0
210
0.0
220
0.0
230
1.0
 40
0.5000000000000036
 41
3.141592653589793
 42
4.188790204786391
  0
ELLIPSE
  5
183
330
13E
100
AcDbEntity
  8
AM_4
100
AcDbEllipse
 10
0.0000000000000004
 20
1.905255888325765
 30
0.0
 11
0.2187499999999997
 21
0.0
 31
0.0
210
0.0
220
0.0
230
1.0
 40
0.5000000000000018
 41
4.18879020478639
 42
6.283185307179586
  0
ELLIPSE
  5
184
330
13E
100
AcDbEntity
  8
AM_4
100
AcDbEllipse
 10
0.0000000000000001
 20
1.905255888325765
 30
0.0
 11
0.21875
 21
0.0
 31
0.0
210
0.0
220
0.0
230
1.0
 40
0.500000000000001
 41
0.0
 42
1.047197551196598
  0
ELLIPSE
  5
185
330
13E
100
AcDbEntity
  8
AM_4
100
AcDbEllipse
 10
-0.0000000000006043
 20
1.905255888321775
 30
0.0
 11
0.2187500000012352
 21
0.0
 31
0.0
210
0.0
220
0.0
230
1.0
 40
0.5000000000137355
 41
1.047197551200549
 42
1.065244638254842
  0
ELLIPSE
  5
186
330
13E
100
AcDbEntity
  8
AM_4
100
AcDbEllipse
 10
0.0000000000000002
 20
1.921119913613736
 30
0.0
 11
0.1725340532830152
 21
2.570957739398110E-9
 31
0.0
210
0.0
220
0.0
230
1.0
 40
0.4999999999999983
 41
4.71238898038469
 42
6.889330424826883
  0
ELLIPSE
  5
187
330
13E
100
AcDbEntity
  8
AM_4
100
AcDbEllipse
 10
0.0
 20
1.905255888325765
 30
0.0
 11
0.2137499999999998
 21
0.0
 31
0.0
210
0.0
220
0.0
230
1.0
 40
0.5000000000000007
 41
2.098620529422326
 42
4.71238898038469
  0
ELLIPSE
  5
188
330
13E
100
AcDbEntity
  8
AM_4
100
AcDbEllipse
 10
0.0000000000000002
 20
1.905255888325765
 30
0.0
 11
0.2137499999999999
 21
0.0
 31
0.0
210
0.0
220
0.0
230
1.0
 40
0.4999999999999994
 41
4.71238898038469
 42
7.326157431347053
  0
ELLIPSE
  5
189
330
13E
100
AcDbEntity
  8
AM_4
100
AcDbEllipse
 10
0.0000000000000003
 20
2.022169317836664
 30
0.0
 11
0.1049999999999997
 21
1.564621925354000E-9
 31
0.0
210
0.0
220
0.0
230
1.0
 40
0.5000000000000034
 41
3.434435397378694
 42
5.990342507511332
  0
LINE
  5
18A
330
13E
100
AcDbEntity
  8
AM_4
100
AcDbLine
 10
0.1005298463144156
 20
2.007013873270437
 30
0.0
 11
0.1292526595471057
 21
2.054645270478581
 31
0.0
  0
LINE
  5
18B
330
13E
100
AcDbEntity
  8
AM_4
100
AcDbLine
 10
-0.1292526595471056
 20
2.054645270478581
 30
0.0
 11
-0.1005298463144154
 21
2.007013873270437
 31
0.0
  0
ELLIPSE
  5
18C
330
13E
100
AcDbEntity
  8
AM_4
100
AcDbEllipse
 10
0.0000000000000004
 20
2.074130842063731
 30
0.0
 11
0.1350000000000005
 21
0.0
 31
0.0
210
0.0
220
0.0
230
1.0
 40
0.5000000000000009
 41
3.434435425318366
 42
6.518618911721145
  0
LWPOLYLINE
  5
18D
330
13E
100
AcDbEntity
  8
AM_4
100
AcDbPolyline
 90
        3
 70
     0
 43
0.0
 10
-0.2187499999999999
 20
1.834255430944533
 10
-0.1643083897258503
 20
1.824301223515259
 10
-0.1093749999999999
 20
1.810534359786842
  0
LINE
  5
18E
330
13E
100
AcDbEntity
  8
AM_4
100
AcDbLine
 10
-0.2187499999999999
 20
1.960550802329764
 30
0.0
 11
-0.2187499999999999
 21
1.763358433943322
 31
0.0
  0
LWPOLYLINE
  5
18F
330
13E
100
AcDbEntity
  8
AM_4
100
AcDbPolyline
 90
        3
 70
     0
 43
0.0
 10
-0.1093749999999999
 20
1.723931819408398
 10
-0.1640624999999999
 20
1.741791469392321
 10
-0.2187499999999999
 20
1.763358433943322
  0
LWPOLYLINE
  5
190
330
13E
100
AcDbEntity
  8
AM_4
100
AcDbPolyline
 90
        3
 70
     0
 43
0.0
 10
0.0000000000000001
 20
1.700210748250707
 10
-0.0544416102741495
 20
1.710164955679981
 10
-0.1093749999999999
 20
1.723931819408398
  0
LINE
  5
191
330
13E
100
AcDbEntity
  8
AM_4
100
AcDbLine
 10
0.2187500000000001
 20
1.960550802329764
 30
0.0
 11
0.2187500000000001
 21
1.763358433943322
 31
0.0
  0
LWPOLYLINE
  5
192
330
13E
100
AcDbEntity
  8
AM_4
100
AcDbPolyline
 90
        3
 70
     0
 43
0.0
 10
0.109375
 20
1.810534359786842
 10
0.1640625
 20
1.824248552649226
 10
0.2187500000000001
 20
1.834255430944533
  0
LINE
  5
193
330
13E
100
AcDbEntity
  8
AM_4
100
AcDbLine
 10
0.0000000000000001
 20
1.771107745251918
 30
0.0
 11
0.0000000000000001
 21
1.700210748250707
 31
0.0
  0
LWPOLYLINE
  5
194
330
13E
100
AcDbEntity
  8
AM_4
100
AcDbPolyline
 90
        3
 70
     0
 43
0.0
 10
0.1093750000000001
 20
1.723931819408398
 10
0.0546875000000001
 20
1.710217626546014
 10
0.0000000000000001
 20
1.700210748250707
  0
LWPOLYLINE
  5
195
330
13E
100
AcDbEntity
  8
AM_4
100
AcDbPolyline
 90
        3
 70
     0
 43
0.0
 10
0.2187500000000001
 20
1.763358433943322
 10
0.1643083897258505
 20
1.7418807630257
 10
0.1093750000000001
 20
1.723931819408398
  0
LWPOLYLINE
  5
196
330
13E
100
AcDbEntity
  8
AM_4
100
AcDbPolyline
 90
        3
 70
     0
 43
0.0
 10
-0.1093749999999999
 20
1.810534359786842
 10
-0.0546874999999999
 20
1.792674709802919
 10
0.0000000000000001
 20
1.771107745251918
  0
LWPOLYLINE
  5
197
330
13E
100
AcDbEntity
  8
AM_4
100
AcDbPolyline
 90
        3
 70
     0
 43
0.0
 10
0.0000000000000001
 20
1.771107745251918
 10
0.0544416102741496
 20
1.79258541616954
 10
0.109375
 20
1.810534359786842
  0
LINE
  5
198
330
13E
100
AcDbEntity
  8
AM_4
100
AcDbLine
 10
-0.0998453562378796
 20
2.155388436807684
 30
0.0
 11
-0.1312757938985218
 21
2.089876205955308
 31
0.0
  0
LINE
  5
199
330
13E
100
AcDbEntity
  8
AM_4
100
AcDbLine
 10
0.131275793898522
 20
2.089876205955308
 30
0.0
 11
0.0998453562378798
 21
2.155388436807684
 31
0.0
  0
ELLIPSE
  5
19A
330
13E
100
AcDbEntity
  8
AM_4
100
AcDbEllipse
 10
0.0000000000000002
 20
2.074130842063735
 30
0.0
 11
0.1350000000000001
 21
0.0
 31
0.0
210
0.0
220
0.0
230
1.0
 40
0.4999999999999989
 41
2.906159049048304
 42
3.434435425318438
  0
ELLIPSE
  5
19B
330
13E
100
AcDbEntity
  8
AM_4
100
AcDbEllipse
 10
0.0000000000000004
 20
2.143412874366486
 30
0.0
 11
0.1026779019331872
 21
0.0
 31
0.0
210
0.0
220
0.0
230
1.0
 40
0.500000000000002
 41
0.0
 42
6.283185307179586
  0
ENDBLK
  5
141
330
13E
100
AcDbEntity
  8
0
100
AcDbBlockEnd
  0
BLOCK
  5
19E
330
19C
100
AcDbEntity
  8
0
100
AcDbBlockBegin
  2
5_070319H_0_in_070319_2
 70
     2
 10
0.0
 20
0.0
 30
0.0
  3
5_070319H_0_in_070319_2
  1

  0
ATTDEF
  5
1A0
330
19C
100
AcDbEntity
  8
AM_6
100
AcDbText
 10
6.10176282051282
 20
2.05034157272558
 30
0.0
 40
0.5
  1
P2B-S2-(Labyrinth Seal)-Housing
100
AcDbAttributeDefinition
  3

  2
NN
 70
     8
280
     0
  0
ATTDEF
  5
1A1
330
19C
100
AcDbEntity
  8
AM_6
100
AcDbText
 10
6.10176282051282
 20
1.55034157272558
 30
0.0
 40
0.5
  1
S-2000 Pillow Block Bearing -Inch (2-Bolt Base)
100
AcDbAttributeDefinition
  3

  2
NT
 70
     8
280
     0
  0
ATTDEF
  5
1A2
330
19C
100
AcDbEntity
  8
AM_6
100
AcDbText
 10
6.10176282051282
 20
1.05034157272558
 30
0.0
 40
0.5
  1
070319H
100
AcDbAttributeDefinition
  3

  2
NB
 70
     8
280
     0
  0
ATTDEF
  5
1A3
330
19C
100
AcDbEntity
  8
AM_6
100
AcDbText
 10
6.10176282051282
 20
0.5503415727255803
 30
0.0
 40
0.5
  1
$PN.H
100
AcDbAttributeDefinition
  3

  2
NBSYN
 70
     8
280
     0
  0
ATTDEF
  5
1A4
330
19C
100
AcDbEntity
  8
AM_6
100
AcDbText
 10
6.10176282051282
 20
0.0503415727255803
 30
0.0
 40
0.5
  1
070319
100
AcDbAttributeDefinition
  3

  2
LINA
 70
     8
280
     0
  0
ATTDEF
  5
1A5
330
19C
100
AcDbEntity
  8
AM_6
100
AcDbText
 10
6.10176282051282
 20
-0.4496584272744197
 30
0.0
 40
0.5
  1
1-7/16
100
AcDbAttributeDefinition
  3

  2
SS
 70
     8
280
     0
  0
ATTDEF
  5
1A6
330
19C
100
AcDbEntity
  8
AM_6
100
AcDbText
 10
6.10176282051282
 20
-0.9496584272744197
 30
0.0
 40
0.5
  1
070319
100
AcDbAttributeDefinition
  3

  2
PN
 70
     8
280
     0
  0
ATTDEF
  5
1A7
330
19C
100
AcDbEntity
  8
AM_6
100
AcDbText
 10
6.10176282051282
 20
-1.44965842727442
 30
0.0
 40
0.5
  1
P2B-S2-107L
100
AcDbAttributeDefinition
  3

  2
DESCRIPTION
 70
     8
280
     0
  0
ATTDEF
  5
1A8
330
19C
100
AcDbEntity
  8
AM_6
100
AcDbText
 10
6.10176282051282
 20
-1.94965842727442
 30
0.0
 40
0.5
  1
Non-Expansion Type
100
AcDbAttributeDefinition
  3

  2
EF
 70
     8
280
     0
  0
ATTDEF
  5
1A9
330
19C
100
AcDbEntity
  8
AM_6
100
AcDbText
 10
6.10176282051282
 20
-2.44965842727442
 30
0.0
 40
0.5
  1
1
100
AcDbAttributeDefinition
  3

  2
EF1
 70
     8
280
     0
  0
ATTDEF
  5
1AA
330
19C
100
AcDbEntity
  8
AM_6
100
AcDbText
 10
6.10176282051282
 20
-2.94965842727442
 30
0.0
 40
0.5
  1
2-17/32
100
AcDbAttributeDefinition
  3

  2
A
 70
     8
280
     0
  0
ATTDEF
  5
1AB
330
19C
100
AcDbEntity
  8
AM_6
100
AcDbText
 10
6.10176282051282
 20
-3.44965842727442
 30
0.0
 40
0.5
  1
6-7/8
100
AcDbAttributeDefinition
  3

  2
B
 70
     8
280
     0
  0
ATTDEF
  5
1AC
330
19C
100
AcDbEntity
  8
AM_6
100
AcDbText
 10
6.10176282051282
 20
-3.94965842727442
 30
0.0
 40
0.5
  1
1-61/64
100
AcDbAttributeDefinition
  3

  2
C
 70
     8
280
     0
  0
ATTDEF
  5
1AD
330
19C
100
AcDbEntity
  8
AM_6
100
AcDbText
 10
6.10176282051282
 20
-4.44965842727442
 30
0.0
 40
0.5
  1
4-13/16
100
AcDbAttributeDefinition
  3

  2
DMIN
 70
     8
280
     0
  0
ATTDEF
  5
1AE
330
19C
100
AcDbEntity
  8
AM_6
100
AcDbText
 10
6.10176282051282
 20
-4.94965842727442
 30
0.0
 40
0.5
  1
5-13/64
100
AcDbAttributeDefinition
  3

  2
DMAX
 70
     8
280
     0
  0
ATTDEF
  5
1AF
330
19C
100
AcDbEntity
  8
AM_6
100
AcDbText
 10
6.10176282051282
 20
-5.44965842727442
 30
0.0
 40
0.5
  1
1/2
100
AcDbAttributeDefinition
  3

  2
F
 70
     8
280
     0
  0
ATTDEF
  5
1B0
330
19C
100
AcDbEntity
  8
AM_6
100
AcDbText
 10
6.10176282051282
 20
-5.94965842727442
 30
0.0
 40
0.5
  1
13/16
100
AcDbAttributeDefinition
  3

  2
G
 70
     8
280
     0
  0
ATTDEF
  5
1B1
330
19C
100
AcDbEntity
  8
AM_6
100
AcDbText
 10
6.10176282051282
 20
-6.44965842727442
 30
0.0
 40
0.5
  1
1-1/8
100
AcDbAttributeDefinition
  3

  2
H
 70
     8
280
     0
  0
ATTDEF
  5
1B2
330
19C
100
AcDbEntity
  8
AM_6
100
AcDbText
 10
6.10176282051282
 20
-6.94965842727442
 30
0.0
 40
0.5
  1
3-7/8
100
AcDbAttributeDefinition
  3

  2
J
 70
     8
280
     0
  0
ATTDEF
  5
1B3
330
19C
100
AcDbEntity
  8
AM_6
100
AcDbText
 10
6.10176282051282
 20
-7.44965842727442
 30
0.0
 40
0.5
  1
2-3/4
100
AcDbAttributeDefinition
  3

  2
L
 70
     8
280
     0
  0
ATTDEF
  5
1B4
330
19C
100
AcDbEntity
  8
AM_6
100
AcDbText
 10
6.10176282051282
 20
-7.94965842727442
 30
0.0
 40
0.5
  1
1-7/8
100
AcDbAttributeDefinition
  3

  2
M
 70
     8
280
     0
  0
ATTDEF
  5
1B5
330
19C
100
AcDbEntity
  8
AM_6
100
AcDbText
 10
6.10176282051282
 20
-8.44965842727442
 30
0.0
 40
0.5
  1
7/8
100
AcDbAttributeDefinition
  3

  2
R
 70
     8
280
     0
  0
ATTDEF
  5
1B6
330
19C
100
AcDbEntity
  8
AM_6
100
AcDbText
 10
6.10176282051282
 20
-8.94965842727442
 30
0.0
 40
0.5
  1
1-21/32
100
AcDbAttributeDefinition
  3

  2
S
 70
     8
280
     0
  0
ATTDEF
  5
1B7
330
19C
100
AcDbEntity
  8
AM_6
100
AcDbText
 10
6.10176282051282
 20
-9.44965842727442
 30
0.0
 40
0.5
  1
3/16
100
AcDbAttributeDefinition
  3

  2
X
 70
     8
280
     0
  0
ATTDEF
  5
1B8
330
19C
100
AcDbEntity
  8
AM_6
100
AcDbText
 10
6.10176282051282
 20
-9.94965842727442
 30
0.0
 40
0.5
  1
0.020
100
AcDbAttributeDefinition
  3

  2
Y
 70
     8
280
     0
  0
ATTDEF
  5
1B9
330
19C
100
AcDbEntity
  8
AM_6
100
AcDbText
 10
6.10176282051282
 20
-10.44965842727442
 30
0.0
 40
0.5
  1
1-51/64
100
AcDbAttributeDefinition
  3

  2
Z
 70
     8
280
     0
  0
ATTDEF
  5
1BA
330
19C
100
AcDbEntity
  8
AM_6
100
AcDbText
 10
6.10176282051282
 20
-10.94965842727442
 30
0.0
 40
0.5
  1
2
100
AcDbAttributeDefinition
  3

  2
ST1
 70
     8
280
     0
  0
ATTDEF
  5
1BB
330
19C
100
AcDbEntity
  8
AM_6
100
AcDbText
 10
6.10176282051282
 20
-11.44965842727442
 30
0.0
 40
0.5
  1
baldor
100
AcDbAttributeDefinition
  3

  2
COMPANY
 70
     8
280
     0
  0
LINE
  5
1BC
330
19C
100
AcDbEntity
  8
AM_9
100
AcDbLine
 10
-0.2931966860256029
 20
2.0
 30
0.0
 11
0.2928916528339361
 21
2.0
 31
0.0
  0
LWPOLYLINE
  5
1BD
330
19C
100
AcDbEntity
  8
AM_9
100
AcDbPolyline
 90
       16
 70
     0
 43
0.0
 10
-0.0280763543768784
 20
1.926832786981461
 10
-0.0431785020369814
 20
1.926530865808691
 10
-0.0979262438433346
 20
1.924352244500682
 10
-0.1505289029506211
 20
1.92050542997178
 10
-0.2014377230147182
 20
1.914906344668461
 10
-0.2497569876349152
 20
1.907518181331567
 10
-0.2959058837552038
 20
1.898020573702068
 10
-0.3385615745109009
 20
1.886438161661544
 10
-0.3769902205200944
 20
1.87275903354519
 10
-0.4115954974848475
 20
1.856418804753338
 10
-0.4410962970721432
 20
1.837685551588917
 10
-0.4649193241526818
 20
1.816698369378782
 10
-0.4826180597677116
 20
1.793602612038002
 10
-0.4942761504023923
 20
1.768384735927431
 10
-0.4996406575904422
 20
1.741449495264775
 10
-0.4999999998462734
 20
1.732057006881379
  0
LWPOLYLINE
  5
1BE
330
19C
100
AcDbEntity
  8
AM_9
100
AcDbPolyline
 90
       15
 70
     0
 43
0.0
 10
0.4999999998148955
 20
1.732044004873323
 10
0.497444086469842
 20
1.756744459294174
 10
0.4889495022803838
 20
1.781856915019517
 10
0.4746417480143663
 20
1.805231486418526
 10
0.4548062256057399
 20
1.826547395971584
 10
0.429321044559336
 20
1.845880924455667
 10
0.3986576318079567
 20
1.863081609458864
 10
0.3633652023379574
 20
1.878050041113897
 10
0.3225563238133372
 20
1.891160669955687
 10
0.2775365636916621
 20
1.902122318080331
 10
0.2291117670466899
 20
1.91095705294774
 10
0.1774079285402905
 20
1.917800687970476
 10
0.1231694919900284
 20
1.922729676675117
 10
0.0674529914307664
 20
1.925782665507778
 10
0.0333437426821004
 20
1.926743049874315
  0
ELLIPSE
  5
1BF
330
19C
100
AcDbEntity
  8
AM_9
100
AcDbEllipse
 10
0.0000000000000001
 20
1.818653347947319
 30
0.0
 11
-0.4500000000000013
 21
5.510910596163106E-17
 31
0.0
210
0.0
220
0.0
230
1.0
 40
0.5000000000000032
 41
4.447327559919911
 42
4.977450400849469
  0
LWPOLYLINE
  5
1C0
330
19C
100
AcDbEntity
  8
AM_9
100
AcDbPolyline
 90
       10
 70
     0
 43
0.0
 10
0.1218658682220435
 20
2.042408125352344
 10
0.1171617000491532
 20
2.043018765725779
 10
0.0871053443150867
 20
2.046325978614887
 10
0.0567433123628065
 20
2.048651598224148
 10
0.026182962073178
 20
2.049990999650541
 10
-0.0044675650849091
 20
2.05034157272558
 10
-0.0350997810633821
 20
2.049702807153058
 10
-0.0656033159884468
 20
2.048076453717665
 10
-0.095869353966613
 20
2.045466507392658
 10
-0.1218639738510089
 20
2.042408376413924
  0
ELLIPSE
  5
1C1
330
19C
100
AcDbEntity
  8
AM_9
100
AcDbEllipse
 10
0.0000000000000001
 20
1.775352077758099
 30
0.0
 11
-0.5000000000000001
 21
6.123233995736767E-17
 31
0.0
210
0.0
220
0.0
230
1.0
 40
0.4999999999999999
 41
3.142734642620102
 42
6.283622701757759
  0
LINE
  5
1C2
330
19C
100
AcDbEntity
  8
AM_9
100
AcDbLine
 10
-0.78125
 20
-1.5748
 30
0.0
 11
0.78125
 21
-1.5748
 31
0.0
  0
LINE
  5
1C3
330
19C
100
AcDbEntity
  8
AM_9
100
AcDbLine
 10
0.78125
 20
1.5748
 30
0.0
 11
-0.78125
 21
1.5748
 31
0.0
  0
LINE
  5
1C4
330
19C
100
AcDbEntity
  8
AM_9
100
AcDbLine
 10
-0.4147489669810525
 20
1.931851652578138
 30
0.0
 11
0.4149734173747551
 21
1.931851652578138
 31
0.0
  0
LINE
  5
1C5
330
19C
100
AcDbEntity
  8
AM_9
100
AcDbLine
 10
0.8742559523809526
 20
-0.6816371983699893
 30
0.0
 11
0.8742559523809526
 21
-1.875
 31
0.0
  0
LINE
  5
1C6
330
19C
100
AcDbEntity
  8
AM_9
100
AcDbLine
 10
0.7812500000000002
 20
-0.0244216480918566
 30
0.0
 11
0.7812500000000002
 21
-0.83125
 31
0.0
  0
LINE
  5
1C7
330
19C
100
AcDbEntity
  8
AM_9
100
AcDbLine
 10
-0.8742559523809527
 20
-0.6816371983699905
 30
0.0
 11
-0.8742559523809527
 21
-1.875
 31
0.0
  0
LINE
  5
1C8
330
19C
100
AcDbEntity
  8
AM_9
100
AcDbLine
 10
-0.7812499999999999
 20
-0.0244216480918241
 30
0.0
 11
-0.7812499999999999
 21
-0.8312499999999999
 31
0.0
  0
LINE
  5
1C9
330
19C
100
AcDbEntity
  8
AM_9
100
AcDbLine
 10
0.8835565476190468
 20
-0.6816371983699905
 30
0.0
 11
0.8835565476190468
 21
-1.875
 31
0.0
  0
LINE
  5
1CA
330
19C
100
AcDbEntity
  8
AM_9
100
AcDbLine
 10
-0.8835565476190482
 20
-0.6816371983699893
 30
0.0
 11
-0.8835565476190482
 21
-1.875
 31
0.0
  0
LINE
  5
1CB
330
19C
100
AcDbEntity
  8
AM_9
100
AcDbLine
 10
0.3085937500000001
 20
-0.7499999999999999
 30
0.0
 11
0.3085937500000001
 21
-1.875
 31
0.0
  0
LINE
  5
1CC
330
19C
100
AcDbEntity
  8
AM_9
100
AcDbLine
 10
-0.3085937499999998
 20
-0.7499999999999999
 30
0.0
 11
-0.3085937499999998
 21
-1.875
 31
0.0
  0
LINE
  5
1CD
330
19C
100
AcDbEntity
  8
AM_7
100
AcDbLine
 10
1.10176282051282
 20
0.0
 30
0.0
 11
-1.7828125
 21
0.0
 31
0.0
  0
LINE
  5
1CE
330
19C
100
AcDbEntity
  8
AM_4
100
AcDbLine
 10
0.2928916528339361
 20
2.0
 30
0.0
 11
0.78125
 21
2.0
 31
0.0
  0
LINE
  5
1CF
330
19C
100
AcDbEntity
  8
AM_4
100
AcDbLine
 10
-0.78125
 20
2.0
 30
0.0
 11
-0.2931966860256029
 21
2.0
 31
0.0
  0
LINE
  5
1D0
330
19C
100
AcDbEntity
  8
AM_4
100
AcDbLine
 10
-0.4999999999999998
 20
1.7753520777581
 30
0.0
 11
-0.4999999999999998
 21
1.731897813937255
 31
0.0
  0
LINE
  5
1D1
330
19C
100
AcDbEntity
  8
AM_4
100
AcDbLine
 10
0.5
 20
1.731977905554198
 30
0.0
 11
0.5
 21
1.7753520777581
 31
0.0
  0
LWPOLYLINE
  5
1D2
330
19C
100
AcDbEntity
  8
AM_4
100
AcDbPolyline
 90
       16
 70
     0
 43
0.0
 10
-0.4999999998462734
 20
1.732057006881379
 10
-0.4986638772868138
 20
1.713768205998178
 10
-0.491679249052838
 20
1.684948552294937
 10
-0.4788328728485685
 20
1.655588552430819
 10
-0.4603021331719089
 20
1.626194289712945
 10
-0.436303399158144
 20
1.597016721101937
 10
-0.4072831431368217
 20
1.568723803444119
 10
-0.3725725874215597
 20
1.541111102128362
 10
-0.3331806345635143
 20
1.515311640745495
 10
-0.2898006092403302
 20
1.492001415912787
 10
-0.2418498791432991
 20
1.471306521137356
 10
-0.1905658831027808
 20
1.454056381844778
 10
-0.1369137016023809
 20
1.440792636180766
 10
-0.0919996620277243
 20
1.433229654846554
 10
-0.0461566972538942
 20
1.428613468646152
 10
0.0000000000000001
 20
1.427050983124843
  0
ELLIPSE
  5
1D3
330
19C
100
AcDbEntity
  8
AM_4
100
AcDbEllipse
 10
0.0000000000000001
 20
1.818653347947321
 30
0.0
 11
-0.45
 21
5.510910596163089E-17
 31
0.0
210
0.0
220
0.0
230
1.0
 40
0.4999999999999998
 41
4.977450400849471
 42
10.7305128670995
  0
ELLIPSE
  5
1D4
330
19C
100
AcDbEntity
  8
AM_4
100
AcDbEllipse
 10
-0.0000000000000001
 20
1.7753520777581
 30
0.0
 11
-0.4999999999999998
 21
6.123233995736764E-17
 31
0.0
210
0.0
220
0.0
230
1.0
 40
0.5000000000000007
 41
0.0004373945781717
 42
3.142734642620102
  0
LWPOLYLINE
  5
1D5
330
19C
100
AcDbEntity
  8
AM_4
100
AcDbPolyline
 90
       23
 70
     0
 43
0.0
 10
-0.1218639738510089
 20
2.042408376413924
 10
-0.1257912975364735
 20
2.041878920624459
 10
-0.155264108743852
 20
2.037321422597016
 10
-0.1841847117408326
 20
2.031803258172799
 10
-0.212452318828292
 20
2.025334852037197
 10
-0.2399686390736097
 20
2.017927404336548
 10
-0.2666379135375723
 20
2.009592436375572
 10
-0.2923667005051414
 20
2.000341328593408
 10
-0.3170633097833582
 20
1.990184935862372
 10
-0.3406367640403853
 20
1.979133438106528
 10
-0.3629951668425992
 20
1.967196698989416
 10
-0.3840434262139406
 20
1.954385563470283
 10
-0.4036805039761722
 20
1.940714687086406
 10
-0.4217874724188227
 20
1.926215593031831
 10
-0.4382396484322389
 20
1.910937617153749
 10
-0.4529134025765654
 20
1.894952495370358
 10
-0.465693426336521
 20
1.878360368954546
 10
-0.476488057684781
 20
1.861285463932311
 10
-0.485242297418518
 20
1.843863502642733
 10
-0.4919415426568604
 20
1.826225989157774
 10
-0.4966045052357299
 20
1.808488483760869
 10
-0.4992700571044535
 20
1.790746088456222
 10
-0.4999999395384244
 20
1.775211899263912
  0
LWPOLYLINE
  5
1D6
330
19C
100
AcDbEntity
  8
AM_4
100
AcDbPolyline
 90
       23
 70
     0
 43
0.0
 10
0.4999995781242323
 20
1.775722360810523
 10
0.4997490274330081
 20
1.784381796114629
 10
0.497830841085241
 20
1.801860981647753
 10
0.494055824302562
 20
1.819113043695595
 10
0.488447300342322
 20
1.836110289383939
 10
0.4810112261075857
 20
1.852829633225527
 10
0.4717401498533444
 20
1.869244615420104
 10
0.4606223567514069
 20
1.885317304049917
 10
0.447655190189733
 20
1.900992480122455
 10
0.4328588620749769
 20
1.916197020029315
 10
0.4162852262663216
 20
1.930845839888904
 10
0.3980174810184501
 20
1.944852399908532
 10
0.378161588581846
 20
1.958139058586424
 10
0.3568345035265284
 20
1.970643119381173
 10
0.3341625680203258
 20
1.982313713696837
 10
0.3102621976243248
 20
1.993117415392291
 10
0.2852388938679701
 20
2.003032188207178
 10
0.2591945412059711
 20
2.012040594854225
 10
0.2322291251019984
 20
2.020127839066441
 10
0.2044422226523739
 20
2.027280723431598
 10
0.1759340665642031
 20
2.033487228196873
 10
0.1468061862223411
 20
2.038736456218447
 10
0.1218658682220435
 20
2.042408125352344
  0
LINE
  5
1D7
330
19C
100
AcDbEntity
  8
AM_4
100
AcDbLine
 10
0.4149734173747551
 20
1.931851652578138
 30
0.0
 11
0.78125
 21
1.931851652578138
 31
0.0
  0
LINE
  5
1D8
330
19C
100
AcDbEntity
  8
AM_4
100
AcDbLine
 10
-0.78125
 20
1.931851652578138
 30
0.0
 11
-0.4147489669810525
 21
1.931851652578138
 31
0.0
  0
LWPOLYLINE
  5
1D9
330
19C
100
AcDbEntity
  8
AM_4
100
AcDbPolyline
 90
       16
 70
     0
 43
0.0
 10
0.0000000000000001
 20
1.427050983124843
 10
0.0550591235115317
 20
1.429286469801038
 10
0.1095862590533501
 20
1.435850204468793
 10
0.1625465078839834
 20
1.446528099086865
 10
0.2133732342450995
 20
1.46113702357116
 10
0.2617093646766471
 20
1.47930797886029
 10
0.3067146337486433
 20
1.50051882573512
 10
0.3487518833093827
 20
1.524912515037526
 10
0.3865827165370785
 20
1.551620360017989
 10
0.4195309809885528
 20
1.579946942792918
 10
0.447573426005255
 20
1.609861464417412
 10
0.4700014137907344
 20
1.640504344845142
 10
0.4863522744417341
 20
1.671122081518421
 10
0.4962046813941286
 20
1.700656496683203
 10
0.4999289570743566
 20
1.729395202208816
 10
0.4999999998148955
 20
1.732044004873323
  0
LINE
  5
1DA
330
19C
100
AcDbEntity
  8
AM_4
100
AcDbLine
 10
-0.5859374999999999
 20
-0.6937499999999995
 30
0.0
 11
0.5859375000000001
 21
-0.6937499999999995
 31
0.0
  0
LINE
  5
1DB
330
19C
100
AcDbEntity
  8
AM_4
100
AcDbLine
 10
-0.5859374999999999
 20
-0.7499999999999999
 30
0.0
 11
-0.5859374999999999
 21
0.1276595744681849
 31
0.0
  0
LINE
  5
1DC
330
19C
100
AcDbEntity
  8
AM_4
100
AcDbLine
 10
0.5859375000000001
 20
-0.7499999999999999
 30
0.0
 11
0.5859375000000002
 21
0.1276595744681849
 31
0.0
  0
LINE
  5
1DD
330
19C
100
AcDbEntity
  8
AM_4
100
AcDbLine
 10
0.5859375000000002
 20
0.1276595744681849
 30
0.0
 11
-0.5859374999999999
 21
0.1276595744681849
 31
0.0
  0
LINE
  5
1DE
330
19C
100
AcDbEntity
  8
AM_4
100
AcDbLine
 10
0.7812500000000002
 20
-0.0244216480918566
 30
0.0
 11
0.78125
 21
2.0
 31
0.0
  0
LINE
  5
1DF
330
19C
100
AcDbEntity
  8
AM_4
100
AcDbLine
 10
-0.7812499999999999
 20
0.2542831379621271
 30
0.0
 11
0.7812500000000002
 21
0.2542831379621271
 31
0.0
  0
LINE
  5
1E0
330
19C
100
AcDbEntity
  8
AM_4
100
AcDbLine
 10
-0.78125
 20
2.0
 30
0.0
 11
-0.7812499999999999
 21
-0.0244216480918241
 31
0.0
  0
LWPOLYLINE
  5
1E1
330
19C
100
AcDbEntity
  8
AM_4
100
AcDbPolyline
 90
       13
 70
     0
 43
0.0
 10
0.7812500000000002
 20
-0.0244216480918564
 10
0.7816039157280744
 20
-0.0876599682740323
 10
0.7826629693999064
 20
-0.1504170066552802
 10
0.7844191009775793
 20
-0.2122151442797828
 10
0.786858945239406
 20
-0.2725840600054821
 10
0.7899639334973356
 20
-0.3310643099319574
 10
0.793710434915882
 20
-0.387210824045928
 10
0.7980699363570508
 20
-0.4405962934727946
 10
0.8030092593825356
 20
-0.4908144225551906
 10
0.808490812761668
 20
-0.5374830210082637
 10
0.81447287856338
 20
-0.580246912618516
 10
0.8209099296548509
 20
-0.6187806383492496
 10
0.824279531771104
 20
-0.636346558461076
  0
LWPOLYLINE
  5
1E2
330
19C
100
AcDbEntity
  8
AM_4
100
AcDbPolyline
 90
       13
 70
     0
 43
0.0
 10
-0.8242795317711036
 20
-0.636346558461076
 10
-0.8176334157036979
 20
-0.6000371110352526
 10
-0.8114182313300282
 20
-0.5593468823703107
 10
-0.8056812799560097
 20
-0.5145855496758222
 10
-0.800466223245664
 20
-0.4660937737212239
 10
-0.7958127509294947
 20
-0.4142406062016651
 10
-0.7917562787416711
 20
-0.3594206810317683
 10
-0.7883276788849073
 20
-0.3020512109432523
 10
-0.7855530450743584
 20
-0.2425688122441236
 10
-0.7834534939486926
 20
-0.1814261819049372
 10
-0.7820450043597197
 20
-0.1190886522615038
 10
-0.7813382957636812
 20
-0.0560306495548393
 10
-0.7812499999999999
 20
-0.0244216480918244
  0
LINE
  5
1E3
330
19C
100
AcDbEntity
  8
AM_4
100
AcDbLine
 10
0.9765625000000001
 20
-0.7481997143143135
 30
0.0
 11
0.9765625000000001
 21
-1.875
 31
0.0
  0
LINE
  5
1E4
330
19C
100
AcDbEntity
  8
AM_4
100
AcDbLine
 10
0.5859374999999997
 20
-0.636346558461076
 30
0.0
 11
0.824279531771103
 21
-0.636346558461076
 31
0.0
  0
LWPOLYLINE
  5
1E5
330
19C
100
AcDbEntity
  8
AM_4
100
AcDbPolyline
 90
       11
 70
     0
 43
0.0
 10
0.8835565476190468
 20
-0.6816371983699905
 10
0.9005727563227294
 20
-0.6844613568852426
 10
0.911629889096477
 20
-0.6890678761509879
 10
0.9217757651263384
 20
-0.6948924122048667
 10
0.9372782112268012
 20
-0.7060586096324619
 10
0.9506483058391388
 20
-0.7175678058081305
 10
0.962106933059258
 20
-0.7286864861502464
 10
0.9707228991781321
 20
-0.7382682371015679
 10
0.9744226087010831
 20
-0.7432423869559653
 10
0.9763435991167041
 20
-0.7469637728015764
 10
0.9765625000000001
 20
-0.7481997143143133
  0
LINE
  5
1E6
330
19C
100
AcDbEntity
  8
AM_4
100
AcDbLine
 10
0.8742559523809526
 20
-0.6816371983699893
 30
0.0
 11
0.8835565476190468
 21
-0.6816371983699905
 31
0.0
  0
LWPOLYLINE
  5
1E7
330
19C
100
AcDbEntity
  8
AM_4
100
AcDbPolyline
 90
        6
 70
     0
 43
0.0
 10
0.8742559523809526
 20
-0.6816371983699899
 10
0.8578533638976908
 20
-0.6788565715716119
 10
0.8436790432014953
 20
-0.6709126644425086
 10
0.8334225430393725
 20
-0.6594355616739719
 10
0.8260646480827658
 20
-0.643442273467817
 10
0.8242795317711041
 20
-0.6363465584610758
  0
LINE
  5
1E8
330
19C
100
AcDbEntity
  8
AM_4
100
AcDbLine
 10
-0.9765625
 20
-0.7481997143143133
 30
0.0
 11
-0.9765624999999999
 21
-1.875
 31
0.0
  0
LINE
  5
1E9
330
19C
100
AcDbEntity
  8
AM_4
100
AcDbLine
 10
-0.8242795317711037
 20
-0.636346558461076
 30
0.0
 11
-0.5859374999999999
 21
-0.636346558461076
 31
0.0
  0
LWPOLYLINE
  5
1EA
330
19C
100
AcDbEntity
  8
AM_4
100
AcDbPolyline
 90
        5
 70
     0
 43
0.0
 10
-0.8242795317711036
 20
-0.636346558461076
 10
-0.8305502951639231
 20
-0.6545178007997001
 10
-0.8420880500736877
 20
-0.6695559843759624
 10
-0.8579361546693492
 20
-0.6788856292068723
 10
-0.8742559523809469
 20
-0.6816371983700065
  0
LINE
  5
1EB
330
19C
100
AcDbEntity
  8
AM_4
100
AcDbLine
 10
-0.8835565476190482
 20
-0.6816371983699893
 30
0.0
 11
-0.8742559523809527
 21
-0.6816371983699905
 31
0.0
  0
LWPOLYLINE
  5
1EC
330
19C
100
AcDbEntity
  8
AM_4
100
AcDbPolyline
 90
       11
 70
     0
 43
0.0
 10
-0.9765625
 20
-0.7481997143143139
 10
-0.9754438403177588
 20
-0.7449449282427528
 10
-0.9722756223890772
 20
-0.7402287631553875
 10
-0.9673502855813252
 20
-0.7343262526809078
 10
-0.9609403173625829
 20
-0.7274962377476467
 10
-0.9497746675616136
 20
-0.7167708594338127
 10
-0.9360957764659622
 20
-0.7051555601552356
 10
-0.9241735017072863
 20
-0.6964329032641788
 10
-0.9108418442189228
 20
-0.6886826222191096
 10
-0.8937779098029784
 20
-0.6826697881320853
 10
-0.8835565476190483
 20
-0.6816371983699895
  0
LINE
  5
1ED
330
19C
100
AcDbEntity
  8
AM_4
100
AcDbLine
 10
-0.7812499999999998
 20
-0.8312499999999999
 30
0.0
 11
0.78125
 21
-0.83125
 31
0.0
  0
LINE
  5
1EE
330
19C
100
AcDbEntity
  8
AM_4
100
AcDbLine
 10
-0.7812499999999998
 20
-0.8312499999999999
 30
0.0
 11
-0.7812499999999998
 21
-1.875
 31
0.0
  0
LWPOLYLINE
  5
1EF
330
19C
100
AcDbEntity
  8
AM_4
100
AcDbPolyline
 90
       19
 70
     0
 43
0.0
 10
-0.8625
 20
-0.7499999999999998
 10
-0.8554185959017527
 20
-0.7503091807800454
 10
-0.848391085564562
 20
-0.7512343700677578
 10
-0.8414709525854202
 20
-0.752768526614013
 10
-0.8347108633547895
 20
-0.7548999745611447
 10
-0.8281622662335681
 20
-0.7576124923032719
 10
-0.8218749999999999
 20
-0.7608854359425141
 10
-0.8158969145464775
 20
-0.764693896401519
 10
-0.8102735067129686
 20
-0.7690088889965827
 10
-0.805047574028593
 20
-0.7737975740285926
 10
-0.8002588889965829
 20
-0.7790235067129684
 10
-0.7959438964015193
 20
-0.7846469145464771
 10
-0.7921354359425142
 20
-0.7906249999999996
 10
-0.788862492303272
 20
-0.7969122662335678
 10
-0.7861499745611448
 20
-0.8034608633547891
 10
-0.7840185266140131
 20
-0.8102209525854198
 10
-0.782484370067758
 20
-0.8171410855645614
 10
-0.7815591807800455
 20
-0.8241685959017524
 10
-0.7812499999999998
 20
-0.8312499999999996
  0
LINE
  5
1F0
330
19C
100
AcDbEntity
  8
AM_4
100
AcDbLine
 10
0.78125
 20
-0.83125
 30
0.0
 11
0.78125
 21
-1.875
 31
0.0
  0
LINE
  5
1F1
330
19C
100
AcDbEntity
  8
AM_4
100
AcDbLine
 10
-0.9765624999999999
 20
-1.875
 30
0.0
 11
0.9765625000000001
 21
-1.875
 31
0.0
  0
LINE
  5
1F2
330
19C
100
AcDbEntity
  8
AM_4
100
AcDbLine
 10
-0.9765624999999999
 20
-0.7499999999999999
 30
0.0
 11
0.9765625000000001
 21
-0.7499999999999999
 31
0.0
  0
LWPOLYLINE
  5
1F3
330
19C
100
AcDbEntity
  8
AM_4
100
AcDbPolyline
 90
       19
 70
     0
 43
0.0
 10
0.7812500000000003
 20
-0.8312499999999999
 10
0.781559180780046
 20
-0.8241685959017526
 10
0.7824843700677584
 20
-0.8171410855645619
 10
0.7840185266140134
 20
-0.81022095258542
 10
0.7861499745611453
 20
-0.8034608633547894
 10
0.7888624923032724
 20
-0.796912266233568
 10
0.7921354359425146
 20
-0.7906249999999998
 10
0.7959438964015196
 20
-0.7846469145464774
 10
0.8002588889965834
 20
-0.7790235067129685
 10
0.8050475740285933
 20
-0.773797574028593
 10
0.8102735067129689
 20
-0.7690088889965829
 10
0.8158969145464777
 20
-0.7646938964015193
 10
0.8218750000000002
 20
-0.7608854359425142
 10
0.8281622662335685
 20
-0.757612492303272
 10
0.8347108633547897
 20
-0.7548999745611448
 10
0.8414709525854205
 20
-0.7527685266140131
 10
0.8483910855645621
 20
-0.7512343700677578
 10
0.8554185959017531
 20
-0.7503091807800455
 10
0.8625000000000003
 20
-0.7499999999999998
  0
ENDBLK
  5
19F
330
19C
100
AcDbEntity
  8
0
100
AcDbBlockEnd
  0
ENDSEC
  0
SECTION
  2
ENTITIES
  0
INSERT
  5
6F
330
1F
100
AcDbEntity
  8
0
100
AcDbBlockReference
  2
1_070319_2
 10
0.0
 20
0.0
 30
0.0
  0
POINT
  5
1F5
330
1F
100
AcDbEntity
  8
ConnectionPoints
100
AcDbPoint
 10
-1.65625
 20
0.0
 30
0.0000000000000001
  0
POINT
  5
1F6
330
1F
100
AcDbEntity
  8
ConnectionPoints
100
AcDbPoint
 10
1.46625
 20
0.0
 30
-0.0000000000000001
  0
POINT
  5
1F7
330
1F
100
AcDbEntity
  8
ConnectionPoints
100
AcDbPoint
 10
-1.65625
 20
0.0
 30
0.0000000000000001
  0
POINT
  5
1F8
330
1F
100
AcDbEntity
  8
ConnectionPoints
100
AcDbPoint
 10
0.0000000000000001
 20
1.818653347947321
 30
1.05
  0
POINT
  5
1F9
330
1F
100
AcDbEntity
  8
ConnectionPoints
100
AcDbPoint
 10
-1.46875
 20
0.0
 30
0.0000000000000001
  0
POINT
  5
1FA
330
1F
100
AcDbEntity
  8
ConnectionPoints
100
AcDbPoint
 10
-1.65625
 20
0.0
 30
0.0000000000000001
  0
POINT
  5
1FB
330
1F
100
AcDbEntity
  8
ConnectionPoints
100
AcDbPoint
 10
0.0000000000000001
 20
1.818653347947321
 30
1.05
  0
ENDSEC
  0
SECTION
  2
OBJECTS
  0
DICTIONARY
  5
C
330
0
100
AcDbDictionary
281
     1
  3
ACAD_DETAILVIEWSTYLE
350
203
  3
ACAD_GROUP
350
D
  3
ACAD_LAYOUT
350
1A
  3
ACAD_MATERIAL
350
43
  3
ACAD_MLEADERSTYLE
350
6B
  3
ACAD_MLINESTYLE
350
17
  3
ACAD_PLOTSETTINGS
350
19
  3
ACAD_PLOTSTYLENAME
350
E
  3
ACAD_SCALELIST
350
47
  3
ACAD_SECTIONVIEWSTYLE
350
204
  3
ACAD_TABLESTYLE
350
69
  3
ACAD_VISUALSTYLE
350
2A
  3
ACDB_RECOMPOSE_DATA
350
200
  3
AcDbVariableDictionary
350
1FC
  0
SUN
  5
6D
330
29
100
AcDbSun
 90
        1
290
     0
 63
     7
421
 16777215
 40
1.0
291
     1
 91
  2455826
 92
 54000000
292
     0
 70
     2
 71
   256
280
     1
  0
DICTIONARY
  5
203
102
{ACAD_REACTORS
330
C
102
}
330
C
100
AcDbDictionary
281
     1
  0
DICTIONARY
  5
D
102
{ACAD_REACTORS
330
C
102
}
330
C
100
AcDbDictionary
281
     1
  0
DICTIONARY
  5
1A
102
{ACAD_REACTORS
330
C
102
}
330
C
100
AcDbDictionary
281
     1
  3
Layout1
350
1E
  3
Layout2
350
26
  3
Model
350
22
  0
DICTIONARY
  5
43
102
{ACAD_REACTORS
330
C
102
}
330
C
100
AcDbDictionary
281
     1
  3
ByBlock
350
45
  3
ByLayer
350
44
  3
Global
350
46
  0
DICTIONARY
  5
6B
102
{ACAD_REACTORS
330
C
102
}
330
C
100
AcDbDictionary
281
     1
  3
Standard
350
6C
  0
DICTIONARY
  5
17
102
{ACAD_REACTORS
330
C
102
}
330
C
100
AcDbDictionary
281
     1
  3
Standard
350
18
  0
DICTIONARY
  5
19
102
{ACAD_REACTORS
330
C
102
}
330
C
100
AcDbDictionary
281
     1
  0
ACDBDICTIONARYWDFLT
  5
E
102
{ACAD_REACTORS
330
C
102
}
330
C
100
AcDbDictionary
281
     1
  3
Normal
350
F
100
AcDbDictionaryWithDefault
340
F
  0
DICTIONARY
  5
47
102
{ACAD_REACTORS
330
C
102
}
330
C
100
AcDbDictionary
281
     1
  3
A0
350
48
  3
A1
350
49
  3
A2
350
4A
  3
A3
350
4B
  3
A4
350
4C
  3
A5
350
4D
  3
A6
350
4E
  3
A7
350
4F
  3
A8
350
50
  3
A9
350
51
  3
B0
350
52
  3
B1
350
53
  3
B2
350
54
  3
B3
350
55
  3
B4
350
56
  3
B5
350
57
  3
B6
350
58
  3
B7
350
59
  3
B8
350
5A
  3
B9
350
5B
  3
C0
350
5C
  3
C1
350
5D
  3
C2
350
5E
  3
C3
350
5F
  3
C4
350
60
  3
C5
350
61
  3
C6
350
62
  3
C7
350
63
  3
C8
350
64
  3
C9
350
65
  3
D0
350
66
  3
D1
350
67
  3
D2
350
68
  0
DICTIONARY
  5
204
102
{ACAD_REACTORS
330
C
102
}
330
C
100
AcDbDictionary
281
     1
  0
DICTIONARY
  5
69
102
{ACAD_REACTORS
330
C
102
}
330
C
100
AcDbDictionary
281
     1
  3
Standard
350
6A
  0
DICTIONARY
  5
2A
102
{ACAD_REACTORS
330
C
102
}
330
C
100
AcDbDictionary
281
     1
  3
2dWireframe
350
2F
  3
Basic
350
32
  3
Brighten
350
36
  3
ColorChange
350
3A
  3
Conceptual
350
34
  3
Dim
350
35
  3
EdgeColorOff
350
3D
  3
Facepattern
350
39
  3
Flat
350
2B
  3
FlatWithEdges
350
2C
  3
Gouraud
350
2D
  3
GouraudWithEdges
350
2E
  3
Hidden
350
31
  3
JitterOff
350
3B
  3
Linepattern
350
38
  3
OverhangOff
350
3C
  3
Realistic
350
33
  3
Shaded
350
42
  3
Shaded with edges
350
41
  3
Shades of Gray
350
3E
  3
Sketchy
350
3F
  3
Thicken
350
37
  3
Wireframe
350
30
  3
X-Ray
350
40
  0
XRECORD
  5
200
102
{ACAD_REACTORS
330
C
102
}
330
C
100
AcDbXrecord
280
     1
 90
        1
330
6A
  0
DICTIONARY
  5
1FC
102
{ACAD_REACTORS
330
C
102
}
330
C
100
AcDbDictionary
281
     1
  3
CANNOSCALE
350
1FD
  3
CMLEADERSTYLE
350
202
  3
CTABLESTYLE
350
201
  0
LAYOUT
  5
1E
102
{ACAD_REACTORS
330
1A
102
}
330
1A
100
AcDbPlotSettings
  1

  2
none_device
  4

  6

 40
0.0
 41
0.0
 42
0.0
 43
0.0
 44
0.0
 45
0.0
 46
0.0
 47
0.0
 48
0.0
 49
0.0
140
0.0
141
0.0
142
1.0
143
1.0
 70
   688
 72
     0
 73
     0
 74
     5
  7

 75
    16
 76
     0
 77
     2
 78
   300
147
1.0
148
0.0
149
0.0
100
AcDbLayout
  1
Layout1
 70
     1
 71
     1
 10
0.0
 20
0.0
 11
12.0
 21
9.0
 12
0.0
 22
0.0
 32
0.0
 14
1.000000000000000E+20
 24
1.000000000000000E+20
 34
1.000000000000000E+20
 15
-1.000000000000000E+20
 25
-1.000000000000000E+20
 35
-1.000000000000000E+20
146
0.0
 13
0.0
 23
0.0
 33
0.0
 16
1.0
 26
0.0
 36
0.0
 17
0.0
 27
1.0
 37
0.0
 76
     0
330
1B
  0
LAYOUT
  5
26
102
{ACAD_REACTORS
330
1A
102
}
330
1A
100
AcDbPlotSettings
  1

  2
none_device
  4

  6

 40
0.0
 41
0.0
 42
0.0
 43
0.0
 44
0.0
 45
0.0
 46
0.0
 47
0.0
 48
0.0
 49
0.0
140
0.0
141
0.0
142
1.0
143
1.0
 70
   688
 72
     0
 73
     0
 74
     5
  7

 75
    16
 76
     0
 77
     2
 78
   300
147
1.0
148
0.0
149
0.0
100
AcDbLayout
  1
Layout2
 70
     1
 71
     2
 10
0.0
 20
0.0
 11
0.0
 21
0.0
 12
0.0
 22
0.0
 32
0.0
 14
0.0
 24
0.0
 34
0.0
 15
0.0
 25
0.0
 35
0.0
146
0.0
 13
0.0
 23
0.0
 33
0.0
 16
1.0
 26
0.0
 36
0.0
 17
0.0
 27
1.0
 37
0.0
 76
     0
330
23
  0
LAYOUT
  5
22
102
{ACAD_REACTORS
330
1A
102
}
330
1A
100
AcDbPlotSettings
  1

  2
none_device
  4
Letter_(8.50_x_11.00_Inches)
  6

 40
6.35
 41
6.35
 42
6.35000508
 43
6.35000508
 44
215.9
 45
279.4
 46
0.0
 47
0.0
 48
0.0
 49
0.0
140
0.0
141
0.0
142
1.0
143
1.0
 70
  1712
 72
     0
 73
     0
 74
     0
  7

 75
     0
 76
     0
 77
     2
 78
   300
147
1.0
148
0.0
149
0.0
100
AcDbLayout
  1
Model
 70
     1
 71
     0
 10
0.0
 20
0.0
 11
12.0
 21
9.0
 12
0.0
 22
0.0
 32
0.0
 14
1.000000000000000E+20
 24
1.000000000000000E+20
 34
1.000000000000000E+20
 15
-1.000000000000000E+20
 25
-1.000000000000000E+20
 35
-1.000000000000000E+20
146
0.0
 13
0.0
 23
0.0
 33
0.0
 16
1.0
 26
0.0
 36
0.0
 17
0.0
 27
1.0
 37
0.0
 76
     0
330
1F
331
29
  0
MATERIAL
  5
45
102
{ACAD_REACTORS
330
43
102
}
330
43
100
AcDbMaterial
  1
ByBlock
 72
     1
 94
      127
  0
MATERIAL
  5
44
102
{ACAD_REACTORS
330
43
102
}
330
43
100
AcDbMaterial
  1
ByLayer
 72
     1
 94
      127
  0
MATERIAL
  5
46
102
{ACAD_REACTORS
330
43
102
}
330
43
100
AcDbMaterial
  1
Global
 72
     1
 94
      127
  0
MLEADERSTYLE
  5
6C
102
{ACAD_REACTORS
330
6B
102
}
330
6B
100
AcDbMLeaderStyle
179
     2
170
     2
171
     1
172
     0
 90
        2
 40
0.0
 41
0.0
173
     1
 91
-1056964608
340
14
 92
       -2
290
     1
 42
0.09
291
     1
 43
0.36
  3
Standard
341
0
 44
0.18
300

342
11
174
     1
178
     6
175
     1
176
     0
 93
-1056964608
 45
0.18
292
     0
297
     0
 46
0.18
343
0
 94
-1056964608
 47
1.0
 49
1.0
140
1.0
293
     1
141
0.0
294
     1
177
     0
142
1.0
295
     0
296
     0
143
0.125
271
     0
272
     9
273
     9
298
     0
  0
MLINESTYLE
  5
18
102
{ACAD_REACTORS
330
17
102
}
330
17
100
AcDbMlineStyle
  2
Standard
 70
     0
  3

 62
   256
 51
90.0
 52
90.0
 71
     2
 49
0.5
 62
   256
  6
BYLAYER
 49
-0.5
 62
   256
  6
BYLAYER
  0
ACDBPLACEHOLDER
  5
F
102
{ACAD_REACTORS
330
E
102
}
330
E
  0
SCALE
  5
48
102
{ACAD_REACTORS
330
47
102
}
330
47
100
AcDbScale
 70
     0
300
1:1
140
1.0
141
1.0
290
     1
  0
SCALE
  5
49
102
{ACAD_REACTORS
330
47
102
}
330
47
100
AcDbScale
 70
     0
300
1:2
140
1.0
141
2.0
290
     0
  0
SCALE
  5
4A
102
{ACAD_REACTORS
330
47
102
}
330
47
100
AcDbScale
 70
     0
300
1:4
140
1.0
141
4.0
290
     0
  0
SCALE
  5
4B
102
{ACAD_REACTORS
330
47
102
}
330
47
100
AcDbScale
 70
     0
300
1:5
140
1.0
141
5.0
290
     0
  0
SCALE
  5
4C
102
{ACAD_REACTORS
330
47
102
}
330
47
100
AcDbScale
 70
     0
300
1:8
140
1.0
141
8.0
290
     0
  0
SCALE
  5
4D
102
{ACAD_REACTORS
330
47
102
}
330
47
100
AcDbScale
 70
     0
300
1:10
140
1.0
141
10.0
290
     0
  0
SCALE
  5
4E
102
{ACAD_REACTORS
330
47
102
}
330
47
100
AcDbScale
 70
     0
300
1:16
140
1.0
141
16.0
290
     0
  0
SCALE
  5
4F
102
{ACAD_REACTORS
330
47
102
}
330
47
100
AcDbScale
 70
     0
300
1:20
140
1.0
141
20.0
290
     0
  0
SCALE
  5
50
102
{ACAD_REACTORS
330
47
102
}
330
47
100
AcDbScale
 70
     0
300
1:30
140
1.0
141
30.0
290
     0
  0
SCALE
  5
51
102
{ACAD_REACTORS
330
47
102
}
330
47
100
AcDbScale
 70
     0
300
1:40
140
1.0
141
40.0
290
     0
  0
SCALE
  5
52
102
{ACAD_REACTORS
330
47
102
}
330
47
100
AcDbScale
 70
     0
300
1:50
140
1.0
141
50.0
290
     0
  0
SCALE
  5
53
102
{ACAD_REACTORS
330
47
102
}
330
47
100
AcDbScale
 70
     0
300
1:100
140
1.0
141
100.0
290
     0
  0
SCALE
  5
54
102
{ACAD_REACTORS
330
47
102
}
330
47
100
AcDbScale
 70
     0
300
2:1
140
2.0
141
1.0
290
     0
  0
SCALE
  5
55
102
{ACAD_REACTORS
330
47
102
}
330
47
100
AcDbScale
 70
     0
300
4:1
140
4.0
141
1.0
290
     0
  0
SCALE
  5
56
102
{ACAD_REACTORS
330
47
102
}
330
47
100
AcDbScale
 70
     0
300
8:1
140
8.0
141
1.0
290
     0
  0
SCALE
  5
57
102
{ACAD_REACTORS
330
47
102
}
330
47
100
AcDbScale
 70
     0
300
10:1
140
10.0
141
1.0
290
     0
  0
SCALE
  5
58
102
{ACAD_REACTORS
330
47
102
}
330
47
100
AcDbScale
 70
     0
300
100:1
140
100.0
141
1.0
290
     0
  0
SCALE
  5
59
102
{ACAD_REACTORS
330
47
102
}
330
47
100
AcDbScale
 70
     0
300
1/128" = 1'-0"
140
0.0078125
141
12.0
290
     0
  0
SCALE
  5
5A
102
{ACAD_REACTORS
330
47
102
}
330
47
100
AcDbScale
 70
     0
300
1/64" = 1'-0"
140
0.015625
141
12.0
290
     0
  0
SCALE
  5
5B
102
{ACAD_REACTORS
330
47
102
}
330
47
100
AcDbScale
 70
     0
300
1/32" = 1'-0"
140
0.03125
141
12.0
290
     0
  0
SCALE
  5
5C
102
{ACAD_REACTORS
330
47
102
}
330
47
100
AcDbScale
 70
     0
300
1/16" = 1'-0"
140
0.0625
141
12.0
290
     0
  0
SCALE
  5
5D
102
{ACAD_REACTORS
330
47
102
}
330
47
100
AcDbScale
 70
     0
300
3/32" = 1'-0"
140
0.09375
141
12.0
290
     0
  0
SCALE
  5
5E
102
{ACAD_REACTORS
330
47
102
}
330
47
100
AcDbScale
 70
     0
300
1/8" = 1'-0"
140
0.125
141
12.0
290
     0
  0
SCALE
  5
5F
102
{ACAD_REACTORS
330
47
102
}
330
47
100
AcDbScale
 70
     0
300
3/16" = 1'-0"
140
0.1875
141
12.0
290
     0
  0
SCALE
  5
60
102
{ACAD_REACTORS
330
47
102
}
330
47
100
AcDbScale
 70
     0
300
1/4" = 1'-0"
140
0.25
141
12.0
290
     0
  0
SCALE
  5
61
102
{ACAD_REACTORS
330
47
102
}
330
47
100
AcDbScale
 70
     0
300
3/8" = 1'-0"
140
0.375
141
12.0
290
     0
  0
SCALE
  5
62
102
{ACAD_REACTORS
330
47
102
}
330
47
100
AcDbScale
 70
     0
300
1/2" = 1'-0"
140
0.5
141
12.0
290
     0
  0
SCALE
  5
63
102
{ACAD_REACTORS
330
47
102
}
330
47
100
AcDbScale
 70
     0
300
3/4" = 1'-0"
140
0.75
141
12.0
290
     0
  0
SCALE
  5
64
102
{ACAD_REACTORS
330
47
102
}
330
47
100
AcDbScale
 70
     0
300
1" = 1'-0"
140
1.0
141
12.0
290
     0
  0
SCALE
  5
65
102
{ACAD_REACTORS
330
47
102
}
330
47
100
AcDbScale
 70
     0
300
1-1/2" = 1'-0"
140
1.5
141
12.0
290
     0
  0
SCALE
  5
66
102
{ACAD_REACTORS
330
47
102
}
330
47
100
AcDbScale
 70
     0
300
3" = 1'-0"
140
3.0
141
12.0
290
     0
  0
SCALE
  5
67
102
{ACAD_REACTORS
330
47
102
}
330
47
100
AcDbScale
 70
     0
300
6" = 1'-0"
140
6.0
141
12.0
290
     0
  0
SCALE
  5
68
102
{ACAD_REACTORS
330
47
102
}
330
47
100
AcDbScale
 70
     0
300
1'-0" = 1'-0"
140
12.0
141
12.0
290
     0
  0
TABLESTYLE
  5
6A
102
{ACAD_REACTORS
330
69
102
}
102
{ACAD_XDICTIONARY
360
1FE
102
}
330
69
100
AcDbTableStyle
  3
Standard
 70
     0
 71
     0
 40
0.06
 41
0.06
280
     0
281
     0
  7
Standard
140
0.18
170
     2
 62
     0
 63
   257
283
     0
 90
        4
 91
        0
  1

274
    -2
284
     1
 64
     0
275
    -2
285
     1
 65
     0
276
    -2
286
     1
 66
     0
277
    -2
287
     1
 67
     0
278
    -2
288
     1
 68
     0
279
    -2
289
     1
 69
     0
  7
Standard
140
0.25
170
     5
 62
     0
 63
   257
283
     0
 90
        4
 91
        0
  1

274
    -2
284
     1
 64
     0
275
    -2
285
     1
 65
     0
276
    -2
286
     1
 66
     0
277
    -2
287
     1
 67
     0
278
    -2
288
     1
 68
     0
279
    -2
289
     1
 69
     0
  7
Standard
140
0.18
170
     5
 62
     0
 63
   257
283
     0
 90
        4
 91
        0
  1

274
    -2
284
     1
 64
     0
275
    -2
285
     1
 65
     0
276
    -2
286
     1
 66
     0
277
    -2
287
     1
 67
     0
278
    -2
288
     1
 68
     0
279
    -2
289
     1
 69
     0
  0
VISUALSTYLE
  5
2F
102
{ACAD_REACTORS
330
2A
102
}
330
2A
100
AcDbVisualStyle
  2
2dWireframe
 70
     4
177
     3
291
     0
 70
    58
 90
        0
176
     1
 90
        2
176
     1
 90
        0
176
     1
 90
        0
176
     1
 40
0.6
176
     1
 40
30.0
176
     1
 62
     7
420
 16777215
176
     1
 90
        1
176
     1
 90
        4
176
     1
 62
     7
176
     1
 62
   257
176
     1
 90
        1
176
     1
 90
        1
176
     1
 40
1.0
176
     1
 90
        0
176
     1
 62
   257
176
     1
 40
1.0
176
     1
 90
        1
176
     1
 90
        6
176
     1
 90
        2
176
     1
 62
     7
176
     1
 90
        5
176
     1
 90
        0
176
     1
 90
        0
176
     1
290
     0
176
     1
 90
        1
176
     1
 40
0.0
176
     1
 90
        0
176
     1
290
     1
176
     1
290
     1
176
     1
290
     0
176
     1
290
     0
176
     1
290
     0
176
     1
290
     0
176
     1
290
     0
176
     1
290
     0
176
     1
290
     0
176
     1
 90
       50
176
     1
 40
0.0
176
     1
 40
1.0
176
     1
 90
        0
176
     1
 62
    18
420
        0
176
     1
 90
       50
176
     1
 90
        3
176
     1
 62
     5
420
      255
176
     1
290
     0
176
     1
 90
       50
176
     1
 90
       50
176
     1
 90
       50
176
     1
290
     0
176
     1
 90
       50
176
     1
 62
   256
176
     0
 40
1.0
176
     0
 90
        2
176
     1
  1
strokes_ogs.tif
176
     1
290
     0
176
     1
 40
1.0
176
     1
 40
1.0
176
     1
  0
VISUALSTYLE
  5
32
102
{ACAD_REACTORS
330
2A
102
}
330
2A
100
AcDbVisualStyle
  2
Basic
 70
     7
177
     3
291
     1
 70
    58
 90
        1
176
     1
 90
        0
176
     1
 90
        1
176
     1
 90
        0
176
     1
 40
0.6
176
     1
 40
30.0
176
     1
 62
     7
420
 16777215
176
     1
 90
        0
176
     1
 90
        4
176
     1
 62
     7
176
     1
 62
   257
176
     1
 90
        1
176
     1
 90
        1
176
     1
 40
1.0
176
     1
 90
        8
176
     1
 62
     7
176
     1
 40
1.0
176
     1
 90
        1
176
     1
 90
        6
176
     1
 90
        2
176
     1
 62
     7
176
     1
 90
        5
176
     1
 90
        0
176
     1
 90
        0
176
     1
290
     0
176
     1
 90
        1
176
     1
 40
0.0
176
     1
 90
        0
176
     1
290
     0
176
     1
290
     1
176
     1
290
     1
176
     1
290
     0
176
     1
290
     0
176
     1
290
     0
176
     1
290
     0
176
     1
290
     0
176
     1
290
     0
176
     1
 90
       50
176
     1
 40
0.0
176
     1
 40
1.0
176
     1
 90
        0
176
     1
 62
    18
420
        0
176
     1
 90
       50
176
     1
 90
        3
176
     1
 62
     5
420
      255
176
     1
290
     0
176
     1
 90
       50
176
     1
 90
       50
176
     1
 90
       50
176
     1
290
     0
176
     1
 90
       50
176
     1
 62
   256
176
     0
 40
1.0
176
     0
 90
        2
176
     1
  1
strokes_ogs.tif
176
     1
290
     0
176
     1
 40
1.0
176
     1
 40
1.0
176
     1
  0
VISUALSTYLE
  5
36
102
{ACAD_REACTORS
330
2A
102
}
330
2A
100
AcDbVisualStyle
  2
Brighten
 70
    12
177
     3
291
     1
 70
    58
 90
        2
176
     1
 90
        2
176
     1
 90
        0
176
     1
 90
        0
176
     1
 40
0.6
176
     1
 40
30.0
176
     1
 62
     7
420
 16777215
176
     1
 90
        1
176
     1
 90
        4
176
     1
 62
     7
176
     1
 62
   257
176
     1
 90
        1
176
     1
 90
        1
176
     1
 40
1.0
176
     1
 90
        8
176
     1
 62
     7
176
     1
 40
1.0
176
     1
 90
        1
176
     1
 90
        6
176
     1
 90
        2
176
     1
 62
     7
176
     1
 90
        5
176
     1
 90
        0
176
     1
 90
        0
176
     1
290
     0
176
     1
 90
        1
176
     1
 40
50.0
176
     1
 90
        0
176
     1
290
     0
176
     1
290
     1
176
     1
290
     1
176
     1
290
     0
176
     1
290
     0
176
     1
290
     0
176
     1
290
     0
176
     1
290
     0
176
     1
290
     0
176
     1
 90
       50
176
     1
 40
0.0
176
     1
 40
1.0
176
     1
 90
        0
176
     1
 62
    18
420
        0
176
     1
 90
       50
176
     1
 90
        3
176
     1
 62
     5
420
      255
176
     1
290
     0
176
     1
 90
       50
176
     1
 90
       50
176
     1
 90
       50
176
     1
290
     0
176
     1
 90
       50
176
     1
 62
   256
176
     0
 40
1.0
176
     0
 90
        2
176
     1
  1
strokes_ogs.tif
176
     1
290
     0
176
     1
 40
1.0
176
     1
 40
1.0
176
     1
  0
VISUALSTYLE
  5
3A
102
{ACAD_REACTORS
330
2A
102
}
330
2A
100
AcDbVisualStyle
  2
ColorChange
 70
    16
177
     3
291
     1
 70
    58
 90
        2
176
     1
 90
        2
176
     1
 90
        3
176
     1
 90
        0
176
     1
 40
0.6
176
     1
 40
30.0
176
     1
 62
     8
420
  8421504
176
     1
 90
        1
176
     1
 90
        4
176
     1
 62
     7
176
     1
 62
   257
176
     1
 90
        1
176
     1
 90
        1
176
     1
 40
1.0
176
     1
 90
        8
176
     1
 62
     8
420
  8421504
176
     1
 40
1.0
176
     1
 90
        1
176
     1
 90
        6
176
     1
 90
        2
176
     1
 62
     7
176
     1
 90
        5
176
     1
 90
        0
176
     1
 90
        0
176
     1
290
     0
176
     1
 90
        1
176
     1
 40
0.0
176
     1
 90
        0
176
     1
290
     0
176
     1
290
     1
176
     1
290
     1
176
     1
290
     0
176
     1
290
     0
176
     1
290
     0
176
     1
290
     0
176
     1
290
     0
176
     1
290
     0
176
     1
 90
       50
176
     1
 40
0.0
176
     1
 40
1.0
176
     1
 90
        0
176
     1
 62
    18
420
        0
176
     1
 90
       50
176
     1
 90
        3
176
     1
 62
     5
420
      255
176
     1
290
     0
176
     1
 90
       50
176
     1
 90
       50
176
     1
 90
       50
176
     1
290
     0
176
     1
 90
       50
176
     1
 62
   256
176
     0
 40
1.0
176
     0
 90
        2
176
     1
  1
strokes_ogs.tif
176
     1
290
     0
176
     1
 40
1.0
176
     1
 40
1.0
176
     1
  0
VISUALSTYLE
  5
34
102
{ACAD_REACTORS
330
2A
102
}
330
2A
100
AcDbVisualStyle
  2
Conceptual
 70
     9
177
     3
291
     0
 70
    58
 90
        3
176
     1
 90
        2
176
     1
 90
        0
176
     1
 90
        0
176
     1
 40
0.6
176
     1
 40
30.0
176
     1
 62
     7
420
 16777215
176
     1
 90
        2
176
     1
 90
        2
176
     1
 62
     7
176
     1
 62
   257
176
     1
 90
        1
176
     1
 90
        1
176
     1
 40
179.0
176
     1
 90
        8
176
     1
 62
     7
176
     1
 40
1.0
176
     1
 90
        1
176
     1
 90
        6
176
     1
 90
        2
176
     1
 62
     7
176
     1
 90
        3
176
     1
 90
        0
176
     1
 90
        0
176
     1
290
     0
176
     1
 90
        1
176
     1
 40
0.0
176
     1
 90
        0
176
     1
290
     0
176
     1
290
     1
176
     1
290
     1
176
     1
290
     0
176
     1
290
     0
176
     1
290
     0
176
     1
290
     0
176
     1
290
     0
176
     1
290
     0
176
     1
 90
       50
176
     1
 40
0.0
176
     1
 40
1.0
176
     1
 90
        0
176
     1
 62
    18
420
        0
176
     1
 90
       50
176
     1
 90
        3
176
     1
 62
     5
420
      255
176
     1
290
     0
176
     1
 90
       50
176
     1
 90
       50
176
     1
 90
       50
176
     1
290
     0
176
     1
 90
       50
176
     1
 62
   256
176
     0
 40
1.0
176
     0
 90
        2
176
     1
  1
strokes_ogs.tif
176
     1
290
     0
176
     1
 40
1.0
176
     1
 40
1.0
176
     1
  0
VISUALSTYLE
  5
35
102
{ACAD_REACTORS
330
2A
102
}
330
2A
100
AcDbVisualStyle
  2
Dim
 70
    11
177
     3
291
     1
 70
    58
 90
        2
176
     1
 90
        2
176
     1
 90
        0
176
     1
 90
        0
176
     1
 40
0.6
176
     1
 40
30.0
176
     1
 62
     7
420
 16777215
176
     1
 90
        1
176
     1
 90
        4
176
     1
 62
     7
176
     1
 62
   257
176
     1
 90
        1
176
     1
 90
        1
176
     1
 40
1.0
176
     1
 90
        8
176
     1
 62
     7
176
     1
 40
1.0
176
     1
 90
        1
176
     1
 90
        6
176
     1
 90
        2
176
     1
 62
     7
176
     1
 90
        5
176
     1
 90
        0
176
     1
 90
        0
176
     1
290
     0
176
     1
 90
        1
176
     1
 40
-50.0
176
     1
 90
        0
176
     1
290
     0
176
     1
290
     1
176
     1
290
     1
176
     1
290
     0
176
     1
290
     0
176
     1
290
     0
176
     1
290
     0
176
     1
290
     0
176
     1
290
     0
176
     1
 90
       50
176
     1
 40
0.0
176
     1
 40
1.0
176
     1
 90
        0
176
     1
 62
    18
420
        0
176
     1
 90
       50
176
     1
 90
        3
176
     1
 62
     5
420
      255
176
     1
290
     0
176
     1
 90
       50
176
     1
 90
       50
176
     1
 90
       50
176
     1
290
     0
176
     1
 90
       50
176
     1
 62
   256
176
     0
 40
1.0
176
     0
 90
        2
176
     1
  1
strokes_ogs.tif
176
     1
290
     0
176
     1
 40
1.0
176
     1
 40
1.0
176
     1
  0
VISUALSTYLE
  5
3D
102
{ACAD_REACTORS
330
2A
102
}
330
2A
100
AcDbVisualStyle
  2
EdgeColorOff
 70
    22
177
     3
291
     1
 70
    58
 90
        2
176
     0
 90
        2
176
     0
 90
        0
176
     0
 90
        0
176
     0
 40
0.6
176
     0
 40
30.0
176
     0
 62
     7
420
 16777215
176
     0
 90
        1
176
     0
 90
        4
176
     0
 62
     7
176
     0
 62
   257
176
     0
 90
        1
176
     0
 90
        1
176
     0
 40
1.0
176
     0
 90
        8
176
     2
 62
     7
176
     0
 40
1.0
176
     0
 90
        1
176
     0
 90
        6
176
     0
 90
        2
176
     0
 62
     7
176
     0
 90
        5
176
     0
 90
        0
176
     0
 90
        0
176
     0
290
     0
176
     0
 90
        1
176
     0
 40
0.0
176
     0
 90
        0
176
     0
290
     0
176
     0
290
     1
176
     0
290
     1
176
     0
290
     0
176
     0
290
     0
176
     0
290
     0
176
     0
290
     0
176
     0
290
     0
176
     0
290
     0
176
     0
 90
       50
176
     0
 40
0.0
176
     0
 40
1.0
176
     0
 90
        0
176
     0
 62
    18
420
        0
176
     0
 90
       50
176
     0
 90
        3
176
     0
 62
     5
420
      255
176
     0
290
     0
176
     0
 90
       50
176
     0
 90
       50
176
     0
 90
       50
176
     0
290
     0
176
     0
 90
       50
176
     0
 62
   256
176
     0
 40
1.0
176
     0
 90
        2
176
     0
  1
strokes_ogs.tif
176
     0
290
     0
176
     0
 40
1.0
176
     0
 40
1.0
176
     0
  0
VISUALSTYLE
  5
39
102
{ACAD_REACTORS
330
2A
102
}
330
2A
100
AcDbVisualStyle
  2
Facepattern
 70
    15
177
     3
291
     1
 70
    58
 90
        2
176
     1
 90
        2
176
     1
 90
        0
176
     1
 90
        0
176
     1
 40
0.6
176
     1
 40
30.0
176
     1
 62
     7
420
 16777215
176
     1
 90
        1
176
     1
 90
        4
176
     1
 62
     7
176
     1
 62
   257
176
     1
 90
        1
176
     1
 90
        1
176
     1
 40
1.0
176
     1
 90
        8
176
     1
 62
     7
176
     1
 40
1.0
176
     1
 90
        1
176
     1
 90
        6
176
     1
 90
        2
176
     1
 62
     7
176
     1
 90
        5
176
     1
 90
        0
176
     1
 90
        0
176
     1
290
     0
176
     1
 90
        1
176
     1
 40
0.0
176
     1
 90
        0
176
     1
290
     0
176
     1
290
     1
176
     1
290
     1
176
     1
290
     0
176
     1
290
     0
176
     1
290
     0
176
     1
290
     0
176
     1
290
     0
176
     1
290
     0
176
     1
 90
       50
176
     1
 40
0.0
176
     1
 40
1.0
176
     1
 90
        0
176
     1
 62
    18
420
        0
176
     1
 90
       50
176
     1
 90
        3
176
     1
 62
     5
420
      255
176
     1
290
     0
176
     1
 90
       50
176
     1
 90
       50
176
     1
 90
       50
176
     1
290
     0
176
     1
 90
       50
176
     1
 62
   256
176
     0
 40
1.0
176
     0
 90
        2
176
     1
  1
strokes_ogs.tif
176
     1
290
     0
176
     1
 40
1.0
176
     1
 40
1.0
176
     1
  0
VISUALSTYLE
  5
2B
102
{ACAD_REACTORS
330
2A
102
}
330
2A
100
AcDbVisualStyle
  2
Flat
 70
     0
177
     3
291
     1
 70
    58
 90
        2
176
     1
 90
        1
176
     1
 90
        1
176
     1
 90
        2
176
     1
 40
0.6
176
     1
 40
30.0
176
     1
 62
     7
420
 16777215
176
     1
 90
        0
176
     1
 90
        0
176
     1
 62
     7
176
     1
 62
   257
176
     1
 90
        1
176
     1
 90
        1
176
     1
 40
1.0
176
     1
 90
        8
176
     1
 62
     7
176
     1
 40
1.0
176
     1
 90
        1
176
     1
 90
        6
176
     1
 90
        2
176
     1
 62
     7
176
     1
 90
        5
176
     1
 90
        0
176
     1
 90
        0
176
     1
290
     0
176
     1
 90
       13
176
     1
 40
0.0
176
     1
 90
        0
176
     1
290
     0
176
     1
290
     1
176
     1
290
     1
176
     1
290
     0
176
     1
290
     0
176
     1
290
     0
176
     1
290
     0
176
     1
290
     0
176
     1
290
     0
176
     1
 90
       50
176
     1
 40
0.0
176
     1
 40
1.0
176
     1
 90
        0
176
     1
 62
    18
420
        0
176
     1
 90
       50
176
     1
 90
        3
176
     1
 62
     5
420
      255
176
     1
290
     0
176
     1
 90
       50
176
     1
 90
       50
176
     1
 90
       50
176
     1
290
     0
176
     1
 90
       50
176
     1
 62
   256
176
     0
 40
1.0
176
     0
 90
        2
176
     1
  1
strokes_ogs.tif
176
     1
290
     0
176
     1
 40
1.0
176
     1
 40
1.0
176
     1
  0
VISUALSTYLE
  5
2C
102
{ACAD_REACTORS
330
2A
102
}
330
2A
100
AcDbVisualStyle
  2
FlatWithEdges
 70
     1
177
     3
291
     1
 70
    58
 90
        2
176
     1
 90
        1
176
     1
 90
        1
176
     1
 90
        2
176
     1
 40
0.6
176
     1
 40
30.0
176
     1
 62
     7
420
 16777215
176
     1
 90
        1
176
     1
 90
        0
176
     1
 62
     7
176
     1
 62
   257
176
     1
 90
        1
176
     1
 90
        1
176
     1
 40
1.0
176
     1
 90
        0
176
     1
 62
   257
176
     1
 40
1.0
176
     1
 90
        1
176
     1
 90
        6
176
     1
 90
        2
176
     1
 62
     7
176
     1
 90
        5
176
     1
 90
        0
176
     1
 90
        0
176
     1
290
     0
176
     1
 90
       13
176
     1
 40
0.0
176
     1
 90
        0
176
     1
290
     0
176
     1
290
     1
176
     1
290
     1
176
     1
290
     0
176
     1
290
     0
176
     1
290
     0
176
     1
290
     0
176
     1
290
     0
176
     1
290
     0
176
     1
 90
       50
176
     1
 40
0.0
176
     1
 40
1.0
176
     1
 90
        0
176
     1
 62
    18
420
        0
176
     1
 90
       50
176
     1
 90
        3
176
     1
 62
     5
420
      255
176
     1
290
     0
176
     1
 90
       50
176
     1
 90
       50
176
     1
 90
       50
176
     1
290
     0
176
     1
 90
       50
176
     1
 62
   256
176
     0
 40
1.0
176
     0
 90
        2
176
     1
  1
strokes_ogs.tif
176
     1
290
     0
176
     1
 40
1.0
176
     1
 40
1.0
176
     1
  0
VISUALSTYLE
  5
2D
102
{ACAD_REACTORS
330
2A
102
}
330
2A
100
AcDbVisualStyle
  2
Gouraud
 70
     2
177
     3
291
     1
 70
    58
 90
        2
176
     1
 90
        2
176
     1
 90
        1
176
     1
 90
        2
176
     1
 40
0.6
176
     1
 40
30.0
176
     1
 62
     7
420
 16777215
176
     1
 90
        0
176
     1
 90
        0
176
     1
 62
     7
176
     1
 62
   257
176
     1
 90
        1
176
     1
 90
        1
176
     1
 40
1.0
176
     1
 90
        0
176
     1
 62
     7
176
     1
 40
1.0
176
     1
 90
        1
176
     1
 90
        6
176
     1
 90
        2
176
     1
 62
     7
176
     1
 90
        5
176
     1
 90
        0
176
     1
 90
        0
176
     1
290
     0
176
     1
 90
       13
176
     1
 40
0.0
176
     1
 90
        0
176
     1
290
     0
176
     1
290
     1
176
     1
290
     1
176
     1
290
     0
176
     1
290
     0
176
     1
290
     0
176
     1
290
     0
176
     1
290
     0
176
     1
290
     0
176
     1
 90
       50
176
     1
 40
0.0
176
     1
 40
1.0
176
     1
 90
        0
176
     1
 62
    18
420
        0
176
     1
 90
       50
176
     1
 90
        3
176
     1
 62
     5
420
      255
176
     1
290
     0
176
     1
 90
       50
176
     1
 90
       50
176
     1
 90
       50
176
     1
290
     0
176
     1
 90
       50
176
     1
 62
   256
176
     0
 40
1.0
176
     0
 90
        2
176
     1
  1
strokes_ogs.tif
176
     1
290
     0
176
     1
 40
1.0
176
     1
 40
1.0
176
     1
  0
VISUALSTYLE
  5
2E
102
{ACAD_REACTORS
330
2A
102
}
330
2A
100
AcDbVisualStyle
  2
GouraudWithEdges
 70
     3
177
     3
291
     1
 70
    58
 90
        2
176
     1
 90
        2
176
     1
 90
        1
176
     1
 90
        2
176
     1
 40
0.6
176
     1
 40
30.0
176
     1
 62
     7
420
 16777215
176
     1
 90
        1
176
     1
 90
        0
176
     1
 62
     7
176
     1
 62
   257
176
     1
 90
        1
176
     1
 90
        1
176
     1
 40
1.0
176
     1
 90
        0
176
     1
 62
   257
176
     1
 40
1.0
176
     1
 90
        1
176
     1
 90
        6
176
     1
 90
        2
176
     1
 62
     7
176
     1
 90
        5
176
     1
 90
        0
176
     1
 90
        0
176
     1
290
     0
176
     1
 90
       13
176
     1
 40
0.0
176
     1
 90
        0
176
     1
290
     0
176
     1
290
     1
176
     1
290
     1
176
     1
290
     0
176
     1
290
     0
176
     1
290
     0
176
     1
290
     0
176
     1
290
     0
176
     1
290
     0
176
     1
 90
       50
176
     1
 40
0.0
176
     1
 40
1.0
176
     1
 90
        0
176
     1
 62
    18
420
        0
176
     1
 90
       50
176
     1
 90
        3
176
     1
 62
     5
420
      255
176
     1
290
     0
176
     1
 90
       50
176
     1
 90
       50
176
     1
 90
       50
176
     1
290
     0
176
     1
 90
       50
176
     1
 62
   256
176
     0
 40
1.0
176
     0
 90
        2
176
     1
  1
strokes_ogs.tif
176
     1
290
     0
176
     1
 40
1.0
176
     1
 40
1.0
176
     1
  0
VISUALSTYLE
  5
31
102
{ACAD_REACTORS
330
2A
102
}
330
2A
100
AcDbVisualStyle
  2
Hidden
 70
     6
177
     3
291
     0
 70
    58
 90
        1
176
     1
 90
        2
176
     1
 90
        2
176
     1
 90
        0
176
     1
 40
0.6
176
     1
 40
30.0
176
     1
 62
     7
420
 16777215
176
     1
 90
        2
176
     1
 90
        2
176
     1
 62
     7
176
     1
 62
   257
176
     1
 90
        2
176
     1
 90
        1
176
     1
 40
40.0
176
     1
 90
        0
176
     1
 62
   257
176
     1
 40
1.0
176
     1
 90
        1
176
     1
 90
        6
176
     1
 90
        2
176
     1
 62
     7
176
     1
 90
        3
176
     1
 90
        0
176
     1
 90
        0
176
     1
290
     0
176
     1
 90
        1
176
     1
 40
0.0
176
     1
 90
        0
176
     1
290
     0
176
     1
290
     1
176
     1
290
     1
176
     1
290
     0
176
     1
290
     0
176
     1
290
     0
176
     1
290
     0
176
     1
290
     0
176
     1
290
     0
176
     1
 90
       50
176
     1
 40
0.0
176
     1
 40
1.0
176
     1
 90
        0
176
     1
 62
    18
420
        0
176
     1
 90
       50
176
     1
 90
        3
176
     1
 62
     5
420
      255
176
     1
290
     0
176
     1
 90
       50
176
     1
 90
       50
176
     1
 90
       50
176
     1
290
     0
176
     1
 90
       50
176
     1
 62
   256
176
     0
 40
1.0
176
     0
 90
        2
176
     1
  1
strokes_ogs.tif
176
     1
290
     0
176
     1
 40
1.0
176
     1
 40
1.0
176
     1
  0
VISUALSTYLE
  5
3B
102
{ACAD_REACTORS
330
2A
102
}
330
2A
100
AcDbVisualStyle
  2
JitterOff
 70
    20
177
     3
291
     1
 70
    58
 90
        2
176
     0
 90
        2
176
     0
 90
        0
176
     0
 90
        0
176
     0
 40
0.6
176
     0
 40
30.0
176
     0
 62
     7
420
 16777215
176
     0
 90
        1
176
     0
 90
        4
176
     0
 62
     7
176
     0
 62
   257
176
     0
 90
        1
176
     0
 90
        1
176
     0
 40
1.0
176
     0
 90
       10
176
     2
 62
     7
176
     0
 40
1.0
176
     0
 90
        1
176
     0
 90
        6
176
     0
 90
        2
176
     0
 62
     7
176
     0
 90
        5
176
     0
 90
        0
176
     0
 90
        0
176
     0
290
     0
176
     0
 90
        1
176
     0
 40
0.0
176
     0
 90
        0
176
     0
290
     0
176
     0
290
     1
176
     0
290
     1
176
     0
290
     0
176
     0
290
     0
176
     0
290
     0
176
     0
290
     0
176
     0
290
     0
176
     0
290
     0
176
     0
 90
       50
176
     0
 40
0.0
176
     0
 40
1.0
176
     0
 90
        0
176
     0
 62
    18
420
        0
176
     0
 90
       50
176
     0
 90
        3
176
     0
 62
     5
420
      255
176
     0
290
     0
176
     0
 90
       50
176
     0
 90
       50
176
     0
 90
       50
176
     0
290
     0
176
     0
 90
       50
176
     0
 62
   256
176
     0
 40
1.0
176
     0
 90
        2
176
     0
  1
strokes_ogs.tif
176
     0
290
     0
176
     0
 40
1.0
176
     0
 40
1.0
176
     0
  0
VISUALSTYLE
  5
38
102
{ACAD_REACTORS
330
2A
102
}
330
2A
100
AcDbVisualStyle
  2
Linepattern
 70
    14
177
     3
291
     1
 70
    58
 90
        2
176
     1
 90
        2
176
     1
 90
        0
176
     1
 90
        0
176
     1
 40
0.6
176
     1
 40
30.0
176
     1
 62
     7
420
 16777215
176
     1
 90
        1
176
     1
 90
        4
176
     1
 62
     7
176
     1
 62
   257
176
     1
 90
        7
176
     1
 90
        7
176
     1
 40
1.0
176
     1
 90
        8
176
     1
 62
     7
176
     1
 40
1.0
176
     1
 90
        1
176
     1
 90
        6
176
     1
 90
        2
176
     1
 62
     7
176
     1
 90
        5
176
     1
 90
        0
176
     1
 90
        0
176
     1
290
     0
176
     1
 90
        1
176
     1
 40
0.0
176
     1
 90
        0
176
     1
290
     0
176
     1
290
     1
176
     1
290
     1
176
     1
290
     0
176
     1
290
     0
176
     1
290
     0
176
     1
290
     0
176
     1
290
     0
176
     1
290
     0
176
     1
 90
       50
176
     1
 40
0.0
176
     1
 40
1.0
176
     1
 90
        0
176
     1
 62
    18
420
        0
176
     1
 90
       50
176
     1
 90
        3
176
     1
 62
     5
420
      255
176
     1
290
     0
176
     1
 90
       50
176
     1
 90
       50
176
     1
 90
       50
176
     1
290
     0
176
     1
 90
       50
176
     1
 62
   256
176
     0
 40
1.0
176
     0
 90
        2
176
     1
  1
strokes_ogs.tif
176
     1
290
     0
176
     1
 40
1.0
176
     1
 40
1.0
176
     1
  0
VISUALSTYLE
  5
3C
102
{ACAD_REACTORS
330
2A
102
}
330
2A
100
AcDbVisualStyle
  2
OverhangOff
 70
    21
177
     3
291
     1
 70
    58
 90
        2
176
     0
 90
        2
176
     0
 90
        0
176
     0
 90
        0
176
     0
 40
0.6
176
     0
 40
30.0
176
     0
 62
     7
420
 16777215
176
     0
 90
        1
176
     0
 90
        4
176
     0
 62
     7
176
     0
 62
   257
176
     0
 90
        1
176
     0
 90
        1
176
     0
 40
1.0
176
     0
 90
        9
176
     2
 62
     7
176
     0
 40
1.0
176
     0
 90
        1
176
     0
 90
        6
176
     0
 90
        2
176
     0
 62
     7
176
     0
 90
        5
176
     0
 90
        0
176
     0
 90
        0
176
     0
290
     0
176
     0
 90
        1
176
     0
 40
0.0
176
     0
 90
        0
176
     0
290
     0
176
     0
290
     1
176
     0
290
     1
176
     0
290
     0
176
     0
290
     0
176
     0
290
     0
176
     0
290
     0
176
     0
290
     0
176
     0
290
     0
176
     0
 90
       50
176
     0
 40
0.0
176
     0
 40
1.0
176
     0
 90
        0
176
     0
 62
    18
420
        0
176
     0
 90
       50
176
     0
 90
        3
176
     0
 62
     5
420
      255
176
     0
290
     0
176
     0
 90
       50
176
     0
 90
       50
176
     0
 90
       50
176
     0
290
     0
176
     0
 90
       50
176
     0
 62
   256
176
     0
 40
1.0
176
     0
 90
        2
176
     0
  1
strokes_ogs.tif
176
     0
290
     0
176
     0
 40
1.0
176
     0
 40
1.0
176
     0
  0
VISUALSTYLE
  5
33
102
{ACAD_REACTORS
330
2A
102
}
330
2A
100
AcDbVisualStyle
  2
Realistic
 70
     8
177
     3
291
     0
 70
    58
 90
        2
176
     1
 90
        3
176
     1
 90
        0
176
     1
 90
        2
176
     1
 40
0.6
176
     1
 40
30.0
176
     1
 62
     7
420
 16777215
176
     1
 90
        0
176
     1
 90
        0
176
     1
 62
     7
176
     1
 62
   257
176
     1
 90
        1
176
     1
 90
        1
176
     1
 40
1.0
176
     1
 90
        8
176
     1
 62
   257
176
     1
 40
1.0
176
     1
 90
        1
176
     1
 90
        6
176
     1
 90
        2
176
     1
 62
     7
176
     1
 90
        3
176
     1
 90
        0
176
     1
 90
        0
176
     1
290
     0
176
     1
 90
       13
176
     1
 40
0.0
176
     1
 90
        0
176
     1
290
     0
176
     1
290
     1
176
     1
290
     1
176
     1
290
     0
176
     1
290
     0
176
     1
290
     0
176
     1
290
     0
176
     1
290
     0
176
     1
290
     0
176
     1
 90
       50
176
     1
 40
0.0
176
     1
 40
1.0
176
     1
 90
        0
176
     1
 62
    18
420
        0
176
     1
 90
       50
176
     1
 90
        3
176
     1
 62
     5
420
      255
176
     1
290
     0
176
     1
 90
       50
176
     1
 90
       50
176
     1
 90
       50
176
     1
290
     0
176
     1
 90
       50
176
     1
 62
   256
176
     0
 40
1.0
176
     0
 90
        2
176
     1
  1
strokes_ogs.tif
176
     1
290
     0
176
     1
 40
1.0
176
     1
 40
1.0
176
     1
  0
VISUALSTYLE
  5
42
102
{ACAD_REACTORS
330
2A
102
}
330
2A
100
AcDbVisualStyle
  2
Shaded
 70
    27
177
     3
291
     0
 70
    58
 90
        2
176
     1
 90
        2
176
     1
 90
        1
176
     1
 90
        2
176
     1
 40
0.6
176
     1
 40
30.0
176
     1
 62
     7
420
 16777215
176
     1
 90
        0
176
     1
 90
        4
176
     1
 62
     7
176
     1
 62
   257
176
     1
 90
        1
176
     1
 90
        1
176
     1
 40
1.0
176
     1
 90
        8
176
     1
 62
   257
176
     1
 40
1.0
176
     1
 90
        1
176
     1
 90
        6
176
     1
 90
        2
176
     1
 62
     8
420
  7895160
176
     1
 90
        3
176
     1
 90
        0
176
     1
 90
        0
176
     1
290
     0
176
     1
 90
        5
176
     1
 40
0.0
176
     1
 90
        0
176
     1
290
     0
176
     1
290
     1
176
     1
290
     1
176
     1
290
     0
176
     1
290
     0
176
     1
290
     0
176
     1
290
     0
176
     1
290
     0
176
     1
290
     0
176
     1
 90
       50
176
     1
 40
0.0
176
     1
 40
1.0
176
     1
 90
        0
176
     1
 62
    18
420
        0
176
     1
 90
       50
176
     1
 90
        3
176
     1
 62
     5
420
      255
176
     1
290
     0
176
     1
 90
       50
176
     1
 90
       50
176
     1
 90
       50
176
     1
290
     0
176
     1
 90
       50
176
     1
 62
   256
176
     0
 40
1.0
176
     0
 90
        2
176
     1
  1
strokes_ogs.tif
176
     1
290
     0
176
     1
 40
1.0
176
     1
 40
1.0
176
     1
  0
VISUALSTYLE
  5
41
102
{ACAD_REACTORS
330
2A
102
}
330
2A
100
AcDbVisualStyle
  2
Shaded with edges
 70
    26
177
     3
291
     0
 70
    58
 90
        2
176
     1
 90
        2
176
     1
 90
        1
176
     1
 90
        2
176
     1
 40
0.6
176
     1
 40
30.0
176
     1
 62
     7
420
 16777215
176
     1
 90
        1
176
     1
 90
       10
176
     1
 62
     7
176
     1
 62
   257
176
     1
 90
        2
176
     1
 90
        1
176
     1
 40
1.0
176
     1
 90
        8
176
     1
 62
   257
176
     1
 40
1.0
176
     1
 90
        1
176
     1
 90
        6
176
     1
 90
        2
176
     1
 62
     7
176
     1
 90
        3
176
     1
 90
        0
176
     1
 90
        0
176
     1
290
     0
176
     1
 90
        5
176
     1
 40
0.0
176
     1
 90
        0
176
     1
290
     0
176
     1
290
     1
176
     1
290
     1
176
     1
290
     0
176
     1
290
     0
176
     1
290
     0
176
     1
290
     0
176
     1
290
     0
176
     1
290
     0
176
     1
 90
       50
176
     1
 40
0.0
176
     1
 40
1.0
176
     1
 90
        0
176
     1
 62
    18
420
        0
176
     1
 90
       50
176
     1
 90
        3
176
     1
 62
     5
420
      255
176
     1
290
     0
176
     1
 90
       50
176
     1
 90
       50
176
     1
 90
       50
176
     1
290
     0
176
     1
 90
       50
176
     1
 62
   256
176
     0
 40
1.0
176
     0
 90
        2
176
     1
  1
strokes_ogs.tif
176
     1
290
     0
176
     1
 40
1.0
176
     1
 40
1.0
176
     1
  0
VISUALSTYLE
  5
3E
102
{ACAD_REACTORS
330
2A
102
}
330
2A
100
AcDbVisualStyle
  2
Shades of Gray
 70
    23
177
     3
291
     0
 70
    58
 90
        2
176
     1
 90
        2
176
     1
 90
        3
176
     1
 90
        0
176
     1
 40
0.6
176
     1
 40
30.0
176
     1
 62
     7
420
 16777215
176
     1
 90
        2
176
     1
 90
        2
176
     1
 62
     7
176
     1
 62
     7
176
     1
 90
        1
176
     1
 90
        1
176
     1
 40
40.0
176
     1
 90
        8
176
     1
 62
     7
176
     1
 40
1.0
176
     1
 90
        1
176
     1
 90
        6
176
     1
 90
        2
176
     1
 62
     7
176
     1
 90
        3
176
     1
 90
        0
176
     1
 90
        0
176
     1
290
     0
176
     1
 90
        1
176
     1
 40
0.0
176
     1
 90
        0
176
     1
290
     0
176
     1
290
     1
176
     1
290
     1
176
     1
290
     0
176
     1
290
     0
176
     1
290
     0
176
     1
290
     0
176
     1
290
     0
176
     1
290
     0
176
     1
 90
       50
176
     1
 40
0.0
176
     1
 40
1.0
176
     1
 90
        0
176
     1
 62
    18
420
        0
176
     1
 90
       50
176
     1
 90
        3
176
     1
 62
     5
420
      255
176
     1
290
     0
176
     1
 90
       50
176
     1
 90
       50
176
     1
 90
       50
176
     1
290
     0
176
     1
 90
       50
176
     1
 62
   256
176
     0
 40
1.0
176
     0
 90
        2
176
     1
  1
strokes_ogs.tif
176
     1
290
     0
176
     1
 40
1.0
176
     1
 40
1.0
176
     1
  0
VISUALSTYLE
  5
3F
102
{ACAD_REACTORS
330
2A
102
}
330
2A
100
AcDbVisualStyle
  2
Sketchy
 70
    24
177
     3
291
     0
 70
    58
 90
        1
176
     1
 90
        2
176
     1
 90
        2
176
     1
 90
        0
176
     1
 40
0.6
176
     1
 40
30.0
176
     1
 62
     7
420
 16777215
176
     1
 90
        2
176
     1
 90
        2
176
     1
 62
     7
176
     1
 62
     7
176
     1
 90
        1
176
     1
 90
        1
176
     1
 40
40.0
176
     1
 90
       11
176
     1
 62
     7
176
     1
 40
1.0
176
     1
 90
        1
176
     1
 90
        6
176
     1
 90
        2
176
     1
 62
     7
176
     1
 90
        6
176
     1
 90
        0
176
     1
 90
        0
176
     1
290
     0
176
     1
 90
        1
176
     1
 40
0.0
176
     1
 90
        0
176
     1
290
     0
176
     1
290
     1
176
     1
290
     1
176
     1
290
     0
176
     1
290
     0
176
     1
290
     0
176
     1
290
     0
176
     1
290
     0
176
     1
290
     0
176
     1
 90
       50
176
     1
 40
0.0
176
     1
 40
1.0
176
     1
 90
        0
176
     1
 62
    18
420
        0
176
     1
 90
       50
176
     1
 90
        3
176
     1
 62
     5
420
      255
176
     1
290
     0
176
     1
 90
       50
176
     1
 90
       50
176
     1
 90
       50
176
     1
290
     0
176
     1
 90
       50
176
     1
 62
   256
176
     0
 40
1.0
176
     0
 90
        2
176
     1
  1
strokes_ogs.tif
176
     1
290
     0
176
     1
 40
1.0
176
     1
 40
1.0
176
     1
  0
VISUALSTYLE
  5
37
102
{ACAD_REACTORS
330
2A
102
}
330
2A
100
AcDbVisualStyle
  2
Thicken
 70
    13
177
     3
291
     1
 70
    58
 90
        2
176
     1
 90
        2
176
     1
 90
        0
176
     1
 90
        0
176
     1
 40
0.6
176
     1
 40
30.0
176
     1
 62
     7
420
 16777215
176
     1
 90
        1
176
     1
 90
        4
176
     1
 62
     7
176
     1
 62
   257
176
     1
 90
        1
176
     1
 90
        1
176
     1
 40
1.0
176
     1
 90
       12
176
     1
 62
     7
176
     1
 40
1.0
176
     1
 90
        1
176
     1
 90
        6
176
     1
 90
        2
176
     1
 62
     7
176
     1
 90
        5
176
     1
 90
        0
176
     1
 90
        0
176
     1
290
     0
176
     1
 90
        1
176
     1
 40
0.0
176
     1
 90
        0
176
     1
290
     0
176
     1
290
     1
176
     1
290
     1
176
     1
290
     0
176
     1
290
     0
176
     1
290
     0
176
     1
290
     0
176
     1
290
     0
176
     1
290
     0
176
     1
 90
       50
176
     1
 40
0.0
176
     1
 40
1.0
176
     1
 90
        0
176
     1
 62
    18
420
        0
176
     1
 90
       50
176
     1
 90
        3
176
     1
 62
     5
420
      255
176
     1
290
     0
176
     1
 90
       50
176
     1
 90
       50
176
     1
 90
       50
176
     1
290
     0
176
     1
 90
       50
176
     1
 62
   256
176
     0
 40
1.0
176
     0
 90
        2
176
     1
  1
strokes_ogs.tif
176
     1
290
     0
176
     1
 40
1.0
176
     1
 40
1.0
176
     1
  0
VISUALSTYLE
  5
30
102
{ACAD_REACTORS
330
2A
102
}
330
2A
100
AcDbVisualStyle
  2
Wireframe
 70
     5
177
     3
291
     0
 70
    58
 90
        0
176
     1
 90
        2
176
     1
 90
        0
176
     1
 90
        0
176
     1
 40
0.6
176
     1
 40
30.0
176
     1
 62
     7
420
 16777215
176
     1
 90
        1
176
     1
 90
        4
176
     1
 62
     7
176
     1
 62
   257
176
     1
 90
        1
176
     1
 90
        1
176
     1
 40
1.0
176
     1
 90
        0
176
     1
 62
   257
176
     1
 40
1.0
176
     1
 90
        1
176
     1
 90
        6
176
     1
 90
        2
176
     1
 62
     7
176
     1
 90
        3
176
     1
 90
        0
176
     1
 90
        0
176
     1
290
     0
176
     1
 90
        1
176
     1
 40
0.0
176
     1
 90
        0
176
     1
290
     0
176
     1
290
     1
176
     1
290
     1
176
     1
290
     0
176
     1
290
     0
176
     1
290
     0
176
     1
290
     0
176
     1
290
     0
176
     1
290
     0
176
     1
 90
       50
176
     1
 40
0.0
176
     1
 40
1.0
176
     1
 90
        0
176
     1
 62
    18
420
        0
176
     1
 90
       50
176
     1
 90
        3
176
     1
 62
     5
420
      255
176
     1
290
     0
176
     1
 90
       50
176
     1
 90
       50
176
     1
 90
       50
176
     1
290
     0
176
     1
 90
       50
176
     1
 62
   256
176
     0
 40
1.0
176
     0
 90
        2
176
     1
  1
strokes_ogs.tif
176
     1
290
     0
176
     1
 40
1.0
176
     1
 40
1.0
176
     1
  0
VISUALSTYLE
  5
40
102
{ACAD_REACTORS
330
2A
102
}
330
2A
100
AcDbVisualStyle
  2
X-Ray
 70
    25
177
     3
291
     0
 70
    58
 90
        2
176
     1
 90
        2
176
     1
 90
        1
176
     1
 90
        1
176
     1
 40
0.5
176
     1
 40
30.0
176
     1
 62
     7
420
 16777215
176
     1
 90
        1
176
     1
 90
        0
176
     1
 62
     7
176
     1
 62
   257
176
     1
 90
        1
176
     1
 90
        1
176
     1
 40
1.0
176
     1
 90
        8
176
     1
 62
     7
176
     1
 40
1.0
176
     1
 90
        1
176
     1
 90
        6
176
     1
 90
        2
176
     1
 62
     7
176
     1
 90
        3
176
     1
 90
        0
176
     1
 90
        0
176
     1
290
     0
176
     1
 90
       13
176
     1
 40
0.0
176
     1
 90
        0
176
     1
290
     0
176
     1
290
     1
176
     1
290
     1
176
     1
290
     0
176
     1
290
     0
176
     1
290
     0
176
     1
290
     0
176
     1
290
     0
176
     1
290
     0
176
     1
 90
       50
176
     1
 40
0.0
176
     1
 40
1.0
176
     1
 90
        0
176
     1
 62
    18
420
        0
176
     1
 90
       50
176
     1
 90
        3
176
     1
 62
     5
420
      255
176
     1
290
     0
176
     1
 90
       50
176
     1
 90
       50
176
     1
 90
       50
176
     1
290
     0
176
     1
 90
       50
176
     1
 62
   256
176
     0
 40
1.0
176
     0
 90
        2
176
     1
  1
strokes_ogs.tif
176
     1
290
     0
176
     1
 40
1.0
176
     1
 40
1.0
176
     1
  0
DICTIONARYVAR
  5
1FD
102
{ACAD_REACTORS
330
1FC
102
}
330
1FC
100
DictionaryVariables
280
     0
  1
1:1
  0
DICTIONARYVAR
  5
202
102
{ACAD_REACTORS
330
1FC
102
}
330
1FC
100
DictionaryVariables
280
     0
  1
Standard
  0
DICTIONARYVAR
  5
201
102
{ACAD_REACTORS
330
1FC
102
}
330
1FC
100
DictionaryVariables
280
     0
  1
Standard
  0
DICTIONARY
  5
1FE
330
6A
100
AcDbDictionary
280
     1
281
     1
  3
ACAD_ROUNDTRIP_2008_TABLESTYLE_CELLSTYLEMAP
360
1FF
  0
CELLSTYLEMAP
  5
1FF
102
{ACAD_REACTORS
330
1FE
102
}
330
1FE
100
AcDbCellStyleMap
 90
        3
300
CELLSTYLE
  1
TABLEFORMAT_BEGIN
 90
        5
170
     1
 91
        0
 92
    32768
 62
   257
 93
        1
300
CONTENTFORMAT
  1
CONTENTFORMAT_BEGIN
 90
        0
 91
        0
 92
        4
 93
        0
300

 40
0.0
140
1.0
 94
        5
 62
     0
340
11
144
0.25
309
CONTENTFORMAT_END
171
     1
301
MARGIN
  1
CELLMARGIN_BEGIN
 40
0.06
 40
0.06
 40
0.06
 40
0.06
 40
0.06
 40
0.06
309
CELLMARGIN_END
 94
        6
 95
        1
302
GRIDFORMAT
  1
GRIDFORMAT_BEGIN
 90
        0
 91
        1
 62
     0
 92
       -2
340
14
 93
        0
 40
0.045
309
GRIDFORMAT_END
 95
        2
302
GRIDFORMAT
  1
GRIDFORMAT_BEGIN
 90
        0
 91
        1
 62
     0
 92
       -2
340
14
 93
        0
 40
0.045
309
GRIDFORMAT_END
 95
        4
302
GRIDFORMAT
  1
GRIDFORMAT_BEGIN
 90
        0
 91
        1
 62
     0
 92
       -2
340
14
 93
        0
 40
0.045
309
GRIDFORMAT_END
 95
        8
302
GRIDFORMAT
  1
GRIDFORMAT_BEGIN
 90
        0
 91
        1
 62
     0
 92
       -2
340
14
 93
        0
 40
0.045
309
GRIDFORMAT_END
 95
       16
302
GRIDFORMAT
  1
GRIDFORMAT_BEGIN
 90
        0
 91
        1
 62
     0
 92
       -2
340
14
 93
        0
 40
0.045
309
GRIDFORMAT_END
 95
       32
302
GRIDFORMAT
  1
GRIDFORMAT_BEGIN
 90
        0
 91
        1
 62
     0
 92
       -2
340
14
 93
        0
 40
0.045
309
GRIDFORMAT_END
309
TABLEFORMAT_END
  1
CELLSTYLE_BEGIN
 90
        1
 91
        1
300
_TITLE
309
CELLSTYLE_END
300
CELLSTYLE
  1
TABLEFORMAT_BEGIN
 90
        5
170
     1
 91
        0
 92
        0
 62
   257
 93
        1
300
CONTENTFORMAT
  1
CONTENTFORMAT_BEGIN
 90
        0
 91
        0
 92
        4
 93
        0
300

 40
0.0
140
1.0
 94
        5
 62
     0
340
11
144
0.18
309
CONTENTFORMAT_END
171
     1
301
MARGIN
  1
CELLMARGIN_BEGIN
 40
0.06
 40
0.06
 40
0.06
 40
0.06
 40
0.06
 40
0.06
309
CELLMARGIN_END
 94
        6
 95
        1
302
GRIDFORMAT
  1
GRIDFORMAT_BEGIN
 90
        0
 91
        1
 62
     0
 92
       -2
340
14
 93
        0
 40
0.045
309
GRIDFORMAT_END
 95
        2
302
GRIDFORMAT
  1
GRIDFORMAT_BEGIN
 90
        0
 91
        1
 62
     0
 92
       -2
340
14
 93
        0
 40
0.045
309
GRIDFORMAT_END
 95
        4
302
GRIDFORMAT
  1
GRIDFORMAT_BEGIN
 90
        0
 91
        1
 62
     0
 92
       -2
340
14
 93
        0
 40
0.045
309
GRIDFORMAT_END
 95
        8
302
GRIDFORMAT
  1
GRIDFORMAT_BEGIN
 90
        0
 91
        1
 62
     0
 92
       -2
340
14
 93
        0
 40
0.045
309
GRIDFORMAT_END
 95
       16
302
GRIDFORMAT
  1
GRIDFORMAT_BEGIN
 90
        0
 91
        1
 62
     0
 92
       -2
340
14
 93
        0
 40
0.045
309
GRIDFORMAT_END
 95
       32
302
GRIDFORMAT
  1
GRIDFORMAT_BEGIN
 90
        0
 91
        1
 62
     0
 92
       -2
340
14
 93
        0
 40
0.045
309
GRIDFORMAT_END
309
TABLEFORMAT_END
  1
CELLSTYLE_BEGIN
 90
        2
 91
        1
300
_HEADER
309
CELLSTYLE_END
300
CELLSTYLE
  1
TABLEFORMAT_BEGIN
 90
        5
170
     1
 91
        0
 92
        0
 62
   257
 93
        1
300
CONTENTFORMAT
  1
CONTENTFORMAT_BEGIN
 90
        0
 91
        0
 92
        4
 93
        0
300

 40
0.0
140
1.0
 94
        2
 62
     0
340
11
144
0.18
309
CONTENTFORMAT_END
171
     1
301
MARGIN
  1
CELLMARGIN_BEGIN
 40
0.06
 40
0.06
 40
0.06
 40
0.06
 40
0.06
 40
0.06
309
CELLMARGIN_END
 94
        6
 95
        1
302
GRIDFORMAT
  1
GRIDFORMAT_BEGIN
 90
        0
 91
        1
 62
     0
 92
       -2
340
14
 93
        0
 40
0.045
309
GRIDFORMAT_END
 95
        2
302
GRIDFORMAT
  1
GRIDFORMAT_BEGIN
 90
        0
 91
        1
 62
     0
 92
       -2
340
14
 93
        0
 40
0.045
309
GRIDFORMAT_END
 95
        4
302
GRIDFORMAT
  1
GRIDFORMAT_BEGIN
 90
        0
 91
        1
 62
     0
 92
       -2
340
14
 93
        0
 40
0.045
309
GRIDFORMAT_END
 95
        8
302
GRIDFORMAT
  1
GRIDFORMAT_BEGIN
 90
        0
 91
        1
 62
     0
 92
       -2
340
14
 93
        0
 40
0.045
309
GRIDFORMAT_END
 95
       16
302
GRIDFORMAT
  1
GRIDFORMAT_BEGIN
 90
        0
 91
        1
 62
     0
 92
       -2
340
14
 93
        0
 40
0.045
309
GRIDFORMAT_END
 95
       32
302
GRIDFORMAT
  1
GRIDFORMAT_BEGIN
 90
        0
 91
        1
 62
     0
 92
       -2
340
14
 93
        0
 40
0.045
309
GRIDFORMAT_END
309
TABLEFORMAT_END
  1
CELLSTYLE_BEGIN
 90
        3
 91
        2
300
_DATA
309
CELLSTYLE_END
  0
ENDSEC
  0
EOF