0
SECTION
  2
HEADER
  9
$ACADVER
  1
AC1027
  9
$ACADMAINTVER
 70
     8
  9
$DWGCODEPAGE
  3
ANSI_1252
  9
$REQUIREDVERSIONS
160
                 0
  9
$COMMENTS
  1
File was created by Cadenas
  9
$CUSTOMPROPERTYTAG
  1
NN
  9
$CUSTOMPROPERTY
  1
S-2000 Pillow Block 2-Bolt Inch Bore (Contact Seal)
  9
$CUSTOMPROPERTYTAG
  1
NT
  9
$CUSTOMPROPERTY
  1
S-2000 Pillow Block Bearing -Inch (2-Bolt Base)
  9
$CUSTOMPROPERTYTAG
  1
NB
  9
$CUSTOMPROPERTY
  1
070308
  9
$CUSTOMPROPERTYTAG
  1
NBSYN
  9
$CUSTOMPROPERTY
  1
$PN.
  9
$CUSTOMPROPERTYTAG
  1
LINA
  9
$CUSTOMPROPERTY
  1
070308
  9
$CUSTOMPROPERTYTAG
  1
SS
  9
$CUSTOMPROPERTY
  1
2-15/16
  9
$CUSTOMPROPERTYTAG
  1
PN
  9
$CUSTOMPROPERTY
  1
070308
  9
$CUSTOMPROPERTYTAG
  1
DESCRIPTION
  9
$CUSTOMPROPERTY
  1
P2B-S2-215RE
  9
$CUSTOMPROPERTYTAG
  1
EF
  9
$CUSTOMPROPERTY
  1
Expansion Type
  9
$CUSTOMPROPERTYTAG
  1
ST
  9
$CUSTOMPROPERTY
  1
Contact Seal
  9
$CUSTOMPROPERTYTAG
  1
A
  9
$CUSTOMPROPERTY
  1
3-19/32
  9
$CUSTOMPROPERTYTAG
  1
B
  9
$CUSTOMPROPERTY
  1
10-7/16
  9
$CUSTOMPROPERTYTAG
  1
C
  9
$CUSTOMPROPERTY
  1
3-5/64
  9
$CUSTOMPROPERTYTAG
  1
DMIN
  9
$CUSTOMPROPERTY
  1
7-15/16
  9
$CUSTOMPROPERTYTAG
  1
DMAX
  9
$CUSTOMPROPERTY
  1
8-5/16
  9
$CUSTOMPROPERTYTAG
  1
F
  9
$CUSTOMPROPERTY
  1
3/4
  9
$CUSTOMPROPERTYTAG
  1
G
  9
$CUSTOMPROPERTY
  1
1-1/16
  9
$CUSTOMPROPERTYTAG
  1
H
  9
$CUSTOMPROPERTY
  1
1-7/8
  9
$CUSTOMPROPERTYTAG
  1
J
  9
$CUSTOMPROPERTY
  1
6-3/8
  9
$CUSTOMPROPERTYTAG
  1
L
  9
$CUSTOMPROPERTY
  1
4-45/64
  9
$CUSTOMPROPERTYTAG
  1
M
  9
$CUSTOMPROPERTY
  1
3-1/4
  9
$CUSTOMPROPERTYTAG
  1
R
  9
$CUSTOMPROPERTY
  1
1-15/64
  9
$CUSTOMPROPERTYTAG
  1
S
  9
$CUSTOMPROPERTY
  1
2-23/64
  9
$CUSTOMPROPERTYTAG
  1
X
  9
$CUSTOMPROPERTY
  1
1/4
  9
$CUSTOMPROPERTYTAG
  1
Y
  9
$CUSTOMPROPERTY
  1
0.025
  9
$CUSTOMPROPERTYTAG
  1
Z
  9
$CUSTOMPROPERTY
  1
3-15/32
  9
$CUSTOMPROPERTYTAG
  1
COMPANY
  9
$CUSTOMPROPERTY
  1
baldor
  9
$INSBASE
 10
0.0
 20
0.0
 30
0.0
  9
$EXTMIN
 10
1.000000000000000E+20
 20
1.000000000000000E+20
 30
1.000000000000000E+20
  9
$EXTMAX
 10
-1.000000000000000E+20
 20
-1.000000000000000E+20
 30
-1.000000000000000E+20
  9
$LIMMIN
 10
0.0
 20
0.0
  9
$LIMMAX
 10
12.0
 20
9.0
  9
$ORTHOMODE
 70
     0
  9
$REGENMODE
 70
     1
  9
$FILLMODE
 70
     1
  9
$QTEXTMODE
 70
     0
  9
$MIRRTEXT
 70
     1
  9
$LTSCALE
 40
1.0
  9
$ATTMODE
 70
     1
  9
$TEXTSIZE
 40
0.2
  9
$TRACEWID
 40
0.05
  9
$TEXTSTYLE
  7
Standard
  9
$CLAYER
  8
0
  9
$CELTYPE
  6
ByLayer
  9
$CECOLOR
 62
   256
  9
$CELTSCALE
 40
1.0
  9
$DISPSILH
 70
     0
  9
$DIMSCALE
 40
1.0
  9
$DIMASZ
 40
0.18
  9
$DIMEXO
 40
0.0625
  9
$DIMDLI
 40
0.38
  9
$DIMRND
 40
0.0
  9
$DIMDLE
 40
0.0
  9
$DIMEXE
 40
0.18
  9
$DIMTP
 40
0.0
  9
$DIMTM
 40
0.0
  9
$DIMTXT
 40
0.18
  9
$DIMCEN
 40
0.09
  9
$DIMTSZ
 40
0.0
  9
$DIMTOL
 70
     0
  9
$DIMLIM
 70
     0
  9
$DIMTIH
 70
     1
  9
$DIMTOH
 70
     1
  9
$DIMSE1
 70
     0
  9
$DIMSE2
 70
     0
  9
$DIMTAD
 70
     0
  9
$DIMZIN
 70
     0
  9
$DIMBLK
  1

  9
$DIMASO
 70
     1
  9
$DIMSHO
 70
     1
  9
$DIMPOST
  1

  9
$DIMAPOST
  1

  9
$DIMALT
 70
     0
  9
$DIMALTD
 70
     2
  9
$DIMALTF
 40
25.4
  9
$DIMLFAC
 40
1.0
  9
$DIMTOFL
 70
     0
  9
$DIMTVP
 40
0.0
  9
$DIMTIX
 70
     0
  9
$DIMSOXD
 70
     0
  9
$DIMSAH
 70
     0
  9
$DIMBLK1
  1

  9
$DIMBLK2
  1

  9
$DIMSTYLE
  2
Standard
  9
$DIMCLRD
 70
     0
  9
$DIMCLRE
 70
     0
  9
$DIMCLRT
 70
     0
  9
$DIMTFAC
 40
1.0
  9
$DIMGAP
 40
0.09
  9
$DIMJUST
 70
     0
  9
$DIMSD1
 70
     0
  9
$DIMSD2
 70
     0
  9
$DIMTOLJ
 70
     1
  9
$DIMTZIN
 70
     0
  9
$DIMALTZ
 70
     0
  9
$DIMALTTZ
 70
     0
  9
$DIMUPT
 70
     0
  9
$DIMDEC
 70
     4
  9
$DIMTDEC
 70
     4
  9
$DIMALTU
 70
     2
  9
$DIMALTTD
 70
     2
  9
$DIMTXSTY
  7
Standard
  9
$DIMAUNIT
 70
     0
  9
$DIMADEC
 70
     0
  9
$DIMALTRND
 40
0.0
  9
$DIMAZIN
 70
     0
  9
$DIMDSEP
 70
    46
  9
$DIMATFIT
 70
     3
  9
$DIMFRAC
 70
     0
  9
$DIMLDRBLK
  1

  9
$DIMLUNIT
 70
     2
  9
$DIMLWD
 70
    -2
  9
$DIMLWE
 70
    -2
  9
$DIMTMOVE
 70
     0
  9
$DIMFXL
 40
1.0
  9
$DIMFXLON
 70
     0
  9
$DIMJOGANG
 40
0.7853981633974483
  9
$DIMTFILL
 70
     0
  9
$DIMTFILLCLR
 70
     0
  9
$DIMARCSYM
 70
     0
  9
$DIMLTYPE
  6

  9
$DIMLTEX1
  6

  9
$DIMLTEX2
  6

  9
$DIMTXTDIRECTION
 70
     0
  9
$LUNITS
 70
     2
  9
$LUPREC
 70
     4
  9
$SKETCHINC
 40
0.1
  9
$FILLETRAD
 40
0.5
  9
$AUNITS
 70
     0
  9
$AUPREC
 70
     0
  9
$MENU
  1
.
  9
$ELEVATION
 40
0.0
  9
$PELEVATION
 40
0.0
  9
$THICKNESS
 40
0.0
  9
$LIMCHECK
 70
     0
  9
$CHAMFERA
 40
0.0
  9
$CHAMFERB
 40
0.0
  9
$CHAMFERC
 40
0.0
  9
$CHAMFERD
 40
0.0
  9
$SKPOLY
 70
     0
  9
$TDCREATE
 40
2458168.984599306
  9
$TDUCREATE
 40
2458168.942932639
  9
$TDUPDATE
 40
2458168.984599491
  9
$TDUUPDATE
 40
2458168.942932824
  9
$TDINDWG
 40
0.0000000116
  9
$TDUSRTIMER
 40
0.0000000116
  9
$USRTIMER
 70
     1
  9
$ANGBASE
 50
0.0
  9
$ANGDIR
 70
     0
  9
$PDMODE
 70
     0
  9
$PDSIZE
 40
0.0
  9
$PLINEWID
 40
0.0
  9
$SPLFRAME
 70
     0
  9
$SPLINETYPE
 70
     6
  9
$SPLINESEGS
 70
     8
  9
$HANDSEED
  5
1F2
  9
$SURFTAB1
 70
     6
  9
$SURFTAB2
 70
     6
  9
$SURFTYPE
 70
     6
  9
$SURFU
 70
     6
  9
$SURFV
 70
     6
  9
$UCSBASE
  2

  9
$UCSNAME
  2

  9
$UCSORG
 10
0.0
 20
0.0
 30
0.0
  9
$UCSXDIR
 10
1.0
 20
0.0
 30
0.0
  9
$UCSYDIR
 10
0.0
 20
1.0
 30
0.0
  9
$UCSORTHOREF
  2

  9
$UCSORTHOVIEW
 70
     0
  9
$UCSORGTOP
 10
0.0
 20
0.0
 30
0.0
  9
$UCSORGBOTTOM
 10
0.0
 20
0.0
 30
0.0
  9
$UCSORGLEFT
 10
0.0
 20
0.0
 30
0.0
  9
$UCSORGRIGHT
 10
0.0
 20
0.0
 30
0.0
  9
$UCSORGFRONT
 10
0.0
 20
0.0
 30
0.0
  9
$UCSORGBACK
 10
0.0
 20
0.0
 30
0.0
  9
$PUCSBASE
  2

  9
$PUCSNAME
  2

  9
$PUCSORG
 10
0.0
 20
0.0
 30
0.0
  9
$PUCSXDIR
 10
1.0
 20
0.0
 30
0.0
  9
$PUCSYDIR
 10
0.0
 20
1.0
 30
0.0
  9
$PUCSORTHOREF
  2

  9
$PUCSORTHOVIEW
 70
     0
  9
$PUCSORGTOP
 10
0.0
 20
0.0
 30
0.0
  9
$PUCSORGBOTTOM
 10
0.0
 20
0.0
 30
0.0
  9
$PUCSORGLEFT
 10
0.0
 20
0.0
 30
0.0
  9
$PUCSORGRIGHT
 10
0.0
 20
0.0
 30
0.0
  9
$PUCSORGFRONT
 10
0.0
 20
0.0
 30
0.0
  9
$PUCSORGBACK
 10
0.0
 20
0.0
 30
0.0
  9
$USERI1
 70
     0
  9
$USERI2
 70
     0
  9
$USERI3
 70
     0
  9
$USERI4
 70
     0
  9
$USERI5
 70
     0
  9
$USERR1
 40
0.0
  9
$USERR2
 40
0.0
  9
$USERR3
 40
0.0
  9
$USERR4
 40
0.0
  9
$USERR5
 40
0.0
  9
$WORLDVIEW
 70
     1
  9
$SHADEDGE
 70
     3
  9
$SHADEDIF
 70
    70
  9
$TILEMODE
 70
     1
  9
$MAXACTVP
 70
    64
  9
$PINSBASE
 10
0.0
 20
0.0
 30
0.0
  9
$PLIMCHECK
 70
     0
  9
$PEXTMIN
 10
1.000000000000000E+20
 20
1.000000000000000E+20
 30
1.000000000000000E+20
  9
$PEXTMAX
 10
-1.000000000000000E+20
 20
-1.000000000000000E+20
 30
-1.000000000000000E+20
  9
$PLIMMIN
 10
0.0
 20
0.0
  9
$PLIMMAX
 10
12.0
 20
9.0
  9
$UNITMODE
 70
     0
  9
$VISRETAIN
 70
     1
  9
$PLINEGEN
 70
     0
  9
$PSLTSCALE
 70
     1
  9
$TREEDEPTH
 70
  3020
  9
$CMLSTYLE
  2
Standard
  9
$CMLJUST
 70
     0
  9
$CMLSCALE
 40
1.0
  9
$PROXYGRAPHICS
 70
     1
  9
$MEASUREMENT
 70
     0
  9
$CELWEIGHT
370
    -1
  9
$ENDCAPS
280
     0
  9
$JOINSTYLE
280
     0
  9
$LWDISPLAY
290
     0
  9
$INSUNITS
 70
     1
  9
$HYPERLINKBASE
  1

  9
$STYLESHEET
  1

  9
$XEDIT
290
     1
  9
$CEPSNTYPE
380
     0
  9
$PSTYLEMODE
290
     1
  9
$FINGERPRINTGUID
  2
{4C8EC206-1FF8-4EF0-8DF6-EAA32BC4F701}
  9
$VERSIONGUID
  2
{FAEB1C32-E019-11D5-929B-00C0DF256EC4}
  9
$EXTNAMES
290
     1
  9
$PSVPSCALE
 40
0.0
  9
$OLESTARTUP
290
     0
  9
$SORTENTS
280
   127
  9
$INDEXCTL
280
     0
  9
$HIDETEXT
280
     1
  9
$XCLIPFRAME
280
     2
  9
$HALOGAP
280
     0
  9
$OBSCOLOR
 70
   257
  9
$OBSLTYPE
280
     0
  9
$INTERSECTIONDISPLAY
280
     0
  9
$INTERSECTIONCOLOR
 70
   257
  9
$DIMASSOC
280
     2
  9
$PROJECTNAME
  1

  9
$CAMERADISPLAY
290
     0
  9
$LENSLENGTH
 40
50.0
  9
$CAMERAHEIGHT
 40
0.0
  9
$STEPSPERSEC
 40
2.0
  9
$STEPSIZE
 40
6.0
  9
$3DDWFPREC
 40
2.0
  9
$PSOLWIDTH
 40
0.25
  9
$PSOLHEIGHT
 40
4.0
  9
$LOFTANG1
 40
1.570796326794897
  9
$LOFTANG2
 40
1.570796326794897
  9
$LOFTMAG1
 40
0.0
  9
$LOFTMAG2
 40
0.0
  9
$LOFTPARAM
 70
     7
  9
$LOFTNORMALS
280
     1
  9
$LATITUDE
 40
37.795
  9
$LONGITUDE
 40
-122.394
  9
$NORTHDIRECTION
 40
0.0
  9
$TIMEZONE
 70
 -8000
  9
$LIGHTGLYPHDISPLAY
280
     1
  9
$TILEMODELIGHTSYNCH
280
     1
  9
$CMATERIAL
347
44
  9
$SOLIDHIST
280
     0
  9
$SHOWHIST
280
     1
  9
$DWFFRAME
280
     2
  9
$DGNFRAME
280
     2
  9
$REALWORLDSCALE
290
     1
  9
$INTERFERECOLOR
 62
   256
  9
$CSHADOW
280
     0
  9
$SHADOWPLANELOCATION
 40
0.0
  0
ENDSEC
  0
SECTION
  2
CLASSES
  0
CLASS
  1
ACDBDICTIONARYWDFLT
  2
AcDbDictionaryWithDefault
  3
ObjectDBX Classes
 90
        0
 91
        4
280
     0
281
     0
  0
CLASS
  1
VISUALSTYLE
  2
AcDbVisualStyle
  3
ObjectDBX Classes
 90
     4095
 91
        4
280
     0
281
     0
  0
CLASS
  1
MATERIAL
  2
AcDbMaterial
  3
ObjectDBX Classes
 90
     1153
 91
        4
280
     0
281
     0
  0
CLASS
  1
SCALE
  2
AcDbScale
  3
ObjectDBX Classes
 90
     1153
 91
        4
280
     0
281
     0
  0
CLASS
  1
TABLESTYLE
  2
AcDbTableStyle
  3
ObjectDBX Classes
 90
     4095
 91
        4
280
     0
281
     0
  0
CLASS
  1
MLEADERSTYLE
  2
AcDbMLeaderStyle
  3
ACDB_MLEADERSTYLE_CLASS
 90
     4095
 91
        4
280
     0
281
     0
  0
CLASS
  1
SUN
  2
AcDbSun
  3
SCENEOE
 90
     1153
 91
        4
280
     0
281
     0
  0
CLASS
  1
DICTIONARYVAR
  2
AcDbDictionaryVar
  3
ObjectDBX Classes
 90
        0
 91
        4
280
     0
281
     0
  0
CLASS
  1
CELLSTYLEMAP
  2
AcDbCellStyleMap
  3
ObjectDBX Classes
 90
     1152
 91
        4
280
     0
281
     0
  0
ENDSEC
  0
SECTION
  2
TABLES
  0
TABLE
  2
VPORT
  5
8
330
0
100
AcDbSymbolTable
 70
     1
  0
VPORT
  5
29
330
8
100
AcDbSymbolTableRecord
100
AcDbViewportTableRecord
  2
*Active
 70
     0
 10
0.0
 20
0.0
 11
1.0
 21
1.0
 12
0.0
 22
0.1403749999999997
 13
0.0
 23
0.0
 14
0.5
 24
0.5
 15
0.5
 25
0.5
 16
0.0
 26
0.0
 36
1.0
 17
0.0
 27
0.0
 37
0.0
 40
5.099489999999999
 41
2.087708770877088
 42
50.0
 43
0.0
 44
0.0
 50
0.0
 51
0.0
 71
     0
 72
   100
 73
     1
 74
     3
 75
     0
 76
     0
 77
     0
 78
     0
281
     0
 65
     1
110
0.0
120
0.0
130
0.0
111
1.0
121
0.0
131
0.0
112
0.0
122
1.0
132
0.0
 79
     0
146
0.0
348
2F
 60
     3
 61
     5
292
     1
282
     1
141
0.0
142
0.0
 63
   250
361
6D
  0
ENDTAB
  0
TABLE
  2
LTYPE
  5
5
330
0
100
AcDbSymbolTable
 70
     3
  0
LTYPE
  5
14
330
5
100
AcDbSymbolTableRecord
100
AcDbLinetypeTableRecord
  2
ByBlock
 70
     0
  3

 72
    65
 73
     0
 40
0.0
  0
LTYPE
  5
15
330
5
100
AcDbSymbolTableRecord
100
AcDbLinetypeTableRecord
  2
ByLayer
 70
     0
  3

 72
    65
 73
     0
 40
0.0
  0
LTYPE
  5
16
330
5
100
AcDbSymbolTableRecord
100
AcDbLinetypeTableRecord
  2
Continuous
 70
     0
  3
Solid line
 72
    65
 73
     0
 40
0.0
  0
LTYPE
  5
A7
330
5
100
AcDbSymbolTableRecord
100
AcDbLinetypeTableRecord
  2
Dashed
 70
     0
  3

 72
    65
 73
     2
 40
2.0
 49
1.0
 74
     0
 49
-1.0
 74
     0
  0
LTYPE
  5
194
330
5
100
AcDbSymbolTableRecord
100
AcDbLinetypeTableRecord
  2
Center
 70
     0
  3

 72
    65
 73
     4
 40
1.5
 49
0.45
 74
     0
 49
-0.5
 74
     0
 49
0.05
 74
     0
 49
-0.5
 74
     0
  0
ENDTAB
  0
TABLE
  2
LAYER
  5
2
330
0
100
AcDbSymbolTable
 70
     7
  0
LAYER
  5
10
330
2
100
AcDbSymbolTableRecord
100
AcDbLayerTableRecord
  2
0
 70
     0
 62
     7
  6
Continuous
370
    -3
390
F
347
46
348
0
  0
LAYER
  5
72
330
2
100
AcDbSymbolTableRecord
100
AcDbLayerTableRecord
  2
AM_6
 70
     0
 62
    -2
  6
Continuous
370
    35
390
F
347
46
348
0
  0
LAYER
  5
A8
330
2
100
AcDbSymbolTableRecord
100
AcDbLayerTableRecord
  2
AM_9
 70
     0
 62
     6
  6
Dashed
370
    25
390
F
347
46
348
0
  0
LAYER
  5
B9
330
2
100
AcDbSymbolTableRecord
100
AcDbLayerTableRecord
  2
AM_5
 70
     0
 62
     3
  6
Continuous
370
    25
390
F
347
46
348
0
  0
LAYER
  5
BC
330
2
100
AcDbSymbolTableRecord
100
AcDbLayerTableRecord
  2
AM_4
 70
     0
 62
     7
  6
Continuous
370
    50
390
F
347
46
348
0
  0
LAYER
  5
195
330
2
100
AcDbSymbolTableRecord
100
AcDbLayerTableRecord
  2
AM_7
 70
     0
 62
     7
  6
Center
370
    25
390
F
347
46
348
0
  0
LAYER
  5
1E1
330
2
100
AcDbSymbolTableRecord
100
AcDbLayerTableRecord
  2
ConnectionPoints
 70
     0
 62
     7
  6
Continuous
370
    50
390
F
347
46
348
0
  0
ENDTAB
  0
TABLE
  2
STYLE
  5
3
330
0
100
AcDbSymbolTable
 70
     1
  0
STYLE
  5
11
330
3
100
AcDbSymbolTableRecord
100
AcDbTextStyleTableRecord
  2
Standard
 70
     0
 40
0.0
 41
1.0
 50
0.0
 71
     0
 42
0.2
  3
txt
  4

  0
ENDTAB
  0
TABLE
  2
VIEW
  5
6
330
0
100
AcDbSymbolTable
 70
     0
  0
ENDTAB
  0
TABLE
  2
UCS
  5
7
330
0
100
AcDbSymbolTable
 70
     0
  0
ENDTAB
  0
TABLE
  2
APPID
  5
9
330
0
100
AcDbSymbolTable
 70
     1
  0
APPID
  5
12
330
9
100
AcDbSymbolTableRecord
100
AcDbRegAppTableRecord
  2
ACAD
 70
     0
  0
ENDTAB
  0
TABLE
  2
DIMSTYLE
  5
A
330
0
100
AcDbSymbolTable
 70
     1
100
AcDbDimStyleTable
  0
DIMSTYLE
105
27
330
A
100
AcDbSymbolTableRecord
100
AcDbDimStyleTableRecord
  2
Standard
 70
     0
178
     0
340
11
  0
ENDTAB
  0
TABLE
  2
BLOCK_RECORD
  5
1
330
0
100
AcDbSymbolTable
 70
     6
  0
BLOCK_RECORD
  5
1F
330
1
100
AcDbSymbolTableRecord
100
AcDbBlockTableRecord
  2
*Model_Space
340
22
 70
     0
280
     1
281
     0
  0
BLOCK_RECORD
  5
1B
330
1
100
AcDbSymbolTableRecord
100
AcDbBlockTableRecord
  2
*Paper_Space
340
1E
 70
     0
280
     1
281
     0
  0
BLOCK_RECORD
  5
23
330
1
100
AcDbSymbolTableRecord
100
AcDbBlockTableRecord
  2
*Paper_Space0
340
26
 70
     0
280
     1
281
     0
  0
BLOCK_RECORD
  5
6E
330
1
100
AcDbSymbolTableRecord
100
AcDbBlockTableRecord
  2
1_070308_4
340
0
102
{BLKREFS
331
6F
102
}
 70
     0
280
     1
281
     0
  0
BLOCK_RECORD
  5
8E
330
1
100
AcDbSymbolTableRecord
100
AcDbBlockTableRecord
  2
2_2_15_16CS2i_0_in_070308_4
340
0
102
{BLKREFS
331
8F
102
}
 70
     0
280
     1
281
     0
  0
BLOCK_RECORD
  5
DD
330
1
100
AcDbSymbolTableRecord
100
AcDbBlockTableRecord
  2
3_070010i_0_in_070308_4
340
0
102
{BLKREFS
331
DE
102
}
 70
     0
280
     1
281
     0
  0
BLOCK_RECORD
  5
12A
330
1
100
AcDbSymbolTableRecord
100
AcDbBlockTableRecord
  2
4_405015E_Inch_0_in_070308_4
340
0
102
{BLKREFS
331
12B
102
}
 70
     0
280
     1
281
     0
  0
BLOCK_RECORD
  5
169
330
1
100
AcDbSymbolTableRecord
100
AcDbBlockTableRecord
  2
5_070308H_0_in_070308_4
340
0
102
{BLKREFS
331
16A
102
}
 70
     0
280
     1
281
     0
  0
ENDTAB
  0
ENDSEC
  0
SECTION
  2
BLOCKS
  0
BLOCK
  5
20
330
1F
100
AcDbEntity
  8
0
100
AcDbBlockBegin
  2
*Model_Space
 70
     0
 10
0.0
 20
0.0
 30
0.0
  3
*Model_Space
  1

  0
ENDBLK
  5
21
330
1F
100
AcDbEntity
  8
0
100
AcDbBlockEnd
  0
BLOCK
  5
1C
330
1B
100
AcDbEntity
 67
     1
  8
0
100
AcDbBlockBegin
  2
*Paper_Space
 70
     0
 10
0.0
 20
0.0
 30
0.0
  3
*Paper_Space
  1

  0
ENDBLK
  5
1D
330
1B
100
AcDbEntity
 67
     1
  8
0
100
AcDbBlockEnd
  0
BLOCK
  5
24
330
23
100
AcDbEntity
  8
0
100
AcDbBlockBegin
  2
*Paper_Space0
 70
     0
 10
0.0
 20
0.0
 30
0.0
  3
*Paper_Space0
  1

  0
ENDBLK
  5
25
330
23
100
AcDbEntity
  8
0
100
AcDbBlockEnd
  0
BLOCK
  5
70
330
6E
100
AcDbEntity
  8
0
100
AcDbBlockBegin
  2
1_070308_4
 70
     2
 10
0.0
 20
0.0
 30
0.0
  3
1_070308_4
  1

  0
ATTDEF
  5
73
330
6E
100
AcDbEntity
  8
AM_6
100
AcDbText
 10
10.21875
 20
1.736378205128205
 30
0.0
 40
0.5
  1
S-2000 Pillow Block 2-Bolt Inch Bore (Contact Seal)
100
AcDbAttributeDefinition
  3

  2
NN
 70
     8
280
     0
  0
ATTDEF
  5
74
330
6E
100
AcDbEntity
  8
AM_6
100
AcDbText
 10
10.21875
 20
1.236378205128205
 30
0.0
 40
0.5
  1
S-2000 Pillow Block Bearing -Inch (2-Bolt Base)
100
AcDbAttributeDefinition
  3

  2
NT
 70
     8
280
     0
  0
ATTDEF
  5
75
330
6E
100
AcDbEntity
  8
AM_6
100
AcDbText
 10
10.21875
 20
0.7363782051282051
 30
0.0
 40
0.5
  1
070308
100
AcDbAttributeDefinition
  3

  2
NB
 70
     8
280
     0
  0
ATTDEF
  5
76
330
6E
100
AcDbEntity
  8
AM_6
100
AcDbText
 10
10.21875
 20
0.2363782051282051
 30
0.0
 40
0.5
  1
$PN.
100
AcDbAttributeDefinition
  3

  2
NBSYN
 70
     8
280
     0
  0
ATTDEF
  5
77
330
6E
100
AcDbEntity
  8
AM_6
100
AcDbText
 10
10.21875
 20
-0.2636217948717949
 30
0.0
 40
0.5
  1
070308
100
AcDbAttributeDefinition
  3

  2
LINA
 70
     8
280
     0
  0
ATTDEF
  5
78
330
6E
100
AcDbEntity
  8
AM_6
100
AcDbText
 10
10.21875
 20
-0.7636217948717949
 30
0.0
 40
0.5
  1
2-15/16
100
AcDbAttributeDefinition
  3

  2
SS
 70
     8
280
     0
  0
ATTDEF
  5
79
330
6E
100
AcDbEntity
  8
AM_6
100
AcDbText
 10
10.21875
 20
-1.263621794871795
 30
0.0
 40
0.5
  1
070308
100
AcDbAttributeDefinition
  3

  2
PN
 70
     8
280
     0
  0
ATTDEF
  5
7A
330
6E
100
AcDbEntity
  8
AM_6
100
AcDbText
 10
10.21875
 20
-1.763621794871795
 30
0.0
 40
0.5
  1
P2B-S2-215RE
100
AcDbAttributeDefinition
  3

  2
DESCRIPTION
 70
     8
280
     0
  0
ATTDEF
  5
7B
330
6E
100
AcDbEntity
  8
AM_6
100
AcDbText
 10
10.21875
 20
-2.263621794871795
 30
0.0
 40
0.5
  1
Expansion Type
100
AcDbAttributeDefinition
  3

  2
EF
 70
     8
280
     0
  0
ATTDEF
  5
7C
330
6E
100
AcDbEntity
  8
AM_6
100
AcDbText
 10
10.21875
 20
-2.763621794871795
 30
0.0
 40
0.5
  1
Contact Seal
100
AcDbAttributeDefinition
  3

  2
ST
 70
     8
280
     0
  0
ATTDEF
  5
7D
330
6E
100
AcDbEntity
  8
AM_6
100
AcDbText
 10
10.21875
 20
-3.263621794871795
 30
0.0
 40
0.5
  1
3-19/32
100
AcDbAttributeDefinition
  3

  2
A
 70
     8
280
     0
  0
ATTDEF
  5
7E
330
6E
100
AcDbEntity
  8
AM_6
100
AcDbText
 10
10.21875
 20
-3.763621794871795
 30
0.0
 40
0.5
  1
10-7/16
100
AcDbAttributeDefinition
  3

  2
B
 70
     8
280
     0
  0
ATTDEF
  5
7F
330
6E
100
AcDbEntity
  8
AM_6
100
AcDbText
 10
10.21875
 20
-4.263621794871795
 30
0.0
 40
0.5
  1
3-5/64
100
AcDbAttributeDefinition
  3

  2
C
 70
     8
280
     0
  0
ATTDEF
  5
80
330
6E
100
AcDbEntity
  8
AM_6
100
AcDbText
 10
10.21875
 20
-4.763621794871795
 30
0.0
 40
0.5
  1
7-15/16
100
AcDbAttributeDefinition
  3

  2
DMIN
 70
     8
280
     0
  0
ATTDEF
  5
81
330
6E
100
AcDbEntity
  8
AM_6
100
AcDbText
 10
10.21875
 20
-5.263621794871795
 30
0.0
 40
0.5
  1
8-5/16
100
AcDbAttributeDefinition
  3

  2
DMAX
 70
     8
280
     0
  0
ATTDEF
  5
82
330
6E
100
AcDbEntity
  8
AM_6
100
AcDbText
 10
10.21875
 20
-5.763621794871795
 30
0.0
 40
0.5
  1
3/4
100
AcDbAttributeDefinition
  3

  2
F
 70
     8
280
     0
  0
ATTDEF
  5
83
330
6E
100
AcDbEntity
  8
AM_6
100
AcDbText
 10
10.21875
 20
-6.263621794871795
 30
0.0
 40
0.5
  1
1-1/16
100
AcDbAttributeDefinition
  3

  2
G
 70
     8
280
     0
  0
ATTDEF
  5
84
330
6E
100
AcDbEntity
  8
AM_6
100
AcDbText
 10
10.21875
 20
-6.763621794871795
 30
0.0
 40
0.5
  1
1-7/8
100
AcDbAttributeDefinition
  3

  2
H
 70
     8
280
     0
  0
ATTDEF
  5
85
330
6E
100
AcDbEntity
  8
AM_6
100
AcDbText
 10
10.21875
 20
-7.263621794871795
 30
0.0
 40
0.5
  1
6-3/8
100
AcDbAttributeDefinition
  3

  2
J
 70
     8
280
     0
  0
ATTDEF
  5
86
330
6E
100
AcDbEntity
  8
AM_6
100
AcDbText
 10
10.21875
 20
-7.763621794871795
 30
0.0
 40
0.5
  1
4-45/64
100
AcDbAttributeDefinition
  3

  2
L
 70
     8
280
     0
  0
ATTDEF
  5
87
330
6E
100
AcDbEntity
  8
AM_6
100
AcDbText
 10
10.21875
 20
-8.263621794871796
 30
0.0
 40
0.5
  1
3-1/4
100
AcDbAttributeDefinition
  3

  2
M
 70
     8
280
     0
  0
ATTDEF
  5
88
330
6E
100
AcDbEntity
  8
AM_6
100
AcDbText
 10
10.21875
 20
-8.763621794871796
 30
0.0
 40
0.5
  1
1-15/64
100
AcDbAttributeDefinition
  3

  2
R
 70
     8
280
     0
  0
ATTDEF
  5
89
330
6E
100
AcDbEntity
  8
AM_6
100
AcDbText
 10
10.21875
 20
-9.263621794871796
 30
0.0
 40
0.5
  1
2-23/64
100
AcDbAttributeDefinition
  3

  2
S
 70
     8
280
     0
  0
ATTDEF
  5
8A
330
6E
100
AcDbEntity
  8
AM_6
100
AcDbText
 10
10.21875
 20
-9.763621794871796
 30
0.0
 40
0.5
  1
1/4
100
AcDbAttributeDefinition
  3

  2
X
 70
     8
280
     0
  0
ATTDEF
  5
8B
330
6E
100
AcDbEntity
  8
AM_6
100
AcDbText
 10
10.21875
 20
-10.2636217948718
 30
0.0
 40
0.5
  1
0.025
100
AcDbAttributeDefinition
  3

  2
Y
 70
     8
280
     0
  0
ATTDEF
  5
8C
330
6E
100
AcDbEntity
  8
AM_6
100
AcDbText
 10
10.21875
 20
-10.7636217948718
 30
0.0
 40
0.5
  1
3-15/32
100
AcDbAttributeDefinition
  3

  2
Z
 70
     8
280
     0
  0
ATTDEF
  5
8D
330
6E
100
AcDbEntity
  8
AM_6
100
AcDbText
 10
10.21875
 20
-11.2636217948718
 30
0.0
 40
0.5
  1
baldor
100
AcDbAttributeDefinition
  3

  2
COMPANY
 70
     8
280
     0
  0
INSERT
  5
8F
330
6E
100
AcDbEntity
  8
0
100
AcDbBlockReference
  2
2_2_15_16CS2i_0_in_070308_4
 10
0.0
 20
0.0
 30
0.0
  0
INSERT
  5
DE
330
6E
100
AcDbEntity
  8
0
100
AcDbBlockReference
  2
3_070010i_0_in_070308_4
 10
0.0
 20
0.0
 30
0.0
  0
INSERT
  5
12B
330
6E
100
AcDbEntity
  8
0
100
AcDbBlockReference
  2
4_405015E_Inch_0_in_070308_4
 10
0.0
 20
0.0
 30
0.0
  0
INSERT
  5
16A
330
6E
100
AcDbEntity
  8
0
100
AcDbBlockReference
  2
5_070308H_0_in_070308_4
 10
0.0
 20
0.0
 30
0.0
  0
ENDBLK
  5
71
330
6E
100
AcDbEntity
  8
0
100
AcDbBlockEnd
  0
BLOCK
  5
90
330
8E
100
AcDbEntity
  8
0
100
AcDbBlockBegin
  2
2_2_15_16CS2i_0_in_070308_4
 70
     2
 10
0.0
 20
0.0
 30
0.0
  3
2_2_15_16CS2i_0_in_070308_4
  1

  0
ATTDEF
  5
92
330
8E
100
AcDbEntity
  8
AM_6
100
AcDbText
 10
7.3125
 20
-1.225375
 30
0.0
 40
0.5
  1
S-2000 Collar -Inch
100
AcDbAttributeDefinition
  3

  2
NN
 70
     8
280
     0
  0
ATTDEF
  5
93
330
8E
100
AcDbEntity
  8
AM_6
100
AcDbText
 10
7.3125
 20
-1.725375
 30
0.0
 40
0.5
  1
S-2000 Bearings
100
AcDbAttributeDefinition
  3

  2
NT
 70
     8
280
     0
  0
ATTDEF
  5
94
330
8E
100
AcDbEntity
  8
AM_6
100
AcDbText
 10
7.3125
 20
-2.225375
 30
0.0
 40
0.5
  1
2-15/16CS2i
100
AcDbAttributeDefinition
  3

  2
NB
 70
     8
280
     0
  0
ATTDEF
  5
95
330
8E
100
AcDbEntity
  8
AM_6
100
AcDbText
 10
7.3125
 20
-2.725375
 30
0.0
 40
0.5
  1
$BORE.CS2i
100
AcDbAttributeDefinition
  3

  2
NBSYN
 70
     8
280
     0
  0
ATTDEF
  5
96
330
8E
100
AcDbEntity
  8
AM_6
100
AcDbText
 10
7.3125
 20
-3.225375
 30
0.0
 40
0.5
  1
2-15/16CS2i
100
AcDbAttributeDefinition
  3

  2
LINA
 70
     8
280
     0
  0
ATTDEF
  5
97
330
8E
100
AcDbEntity
  8
AM_6
100
AcDbText
 10
7.3125
 20
-3.725375
 30
0.0
 40
0.5
  1
2-15/16
100
AcDbAttributeDefinition
  3

  2
BORE
 70
     8
280
     0
  0
ATTDEF
  5
98
330
8E
100
AcDbEntity
  8
AM_6
100
AcDbText
 10
7.3125
 20
-4.225375
 30
0.0
 40
0.5
  1
2.937500
100
AcDbAttributeDefinition
  3

  2
BORE1
 70
     8
280
     0
  0
ATTDEF
  5
99
330
8E
100
AcDbEntity
  8
AM_6
100
AcDbText
 10
7.3125
 20
-4.725375
 30
0.0
 40
0.5
  1
4-45/64
100
AcDbAttributeDefinition
  3

  2
L1
 70
     8
280
     0
  0
ATTDEF
  5
9A
330
8E
100
AcDbEntity
  8
AM_6
100
AcDbText
 10
7.3125
 20
-5.225375
 30
0.0
 40
0.5
  1
4.70313
100
AcDbAttributeDefinition
  3

  2
L
 70
     8
280
     0
  0
ATTDEF
  5
9B
330
8E
100
AcDbEntity
  8
AM_6
100
AcDbText
 10
7.3125
 20
-5.725375
 30
0.0
 40
0.5
  1
4.62500
100
AcDbAttributeDefinition
  3

  2
L2
 70
     8
280
     0
  0
ATTDEF
  5
9C
330
8E
100
AcDbEntity
  8
AM_6
100
AcDbText
 10
7.3125
 20
-6.225375
 30
0.0
 40
0.5
  1
4.50
100
AcDbAttributeDefinition
  3

  2
A
 70
     8
280
     0
  0
ATTDEF
  5
9D
330
8E
100
AcDbEntity
  8
AM_6
100
AcDbText
 10
7.3125
 20
-6.725375
 30
0.0
 40
0.5
  1
1.94
100
AcDbAttributeDefinition
  3

  2
B
 70
     8
280
     0
  0
ATTDEF
  5
9E
330
8E
100
AcDbEntity
  8
AM_6
100
AcDbText
 10
7.3125
 20
-7.225375
 30
0.0
 40
0.5
  1
3.47
100
AcDbAttributeDefinition
  3

  2
C
 70
     8
280
     0
  0
ATTDEF
  5
9F
330
8E
100
AcDbEntity
  8
AM_6
100
AcDbText
 10
7.3125
 20
-7.725375
 30
0.0
 40
0.5
  1
4.78
100
AcDbAttributeDefinition
  3

  2
D
 70
     8
280
     0
  0
ATTDEF
  5
A0
330
8E
100
AcDbEntity
  8
AM_6
100
AcDbText
 10
7.3125
 20
-8.225375
 30
0.0
 40
0.5
  1
0.54
100
AcDbAttributeDefinition
  3

  2
E
 70
     8
280
     0
  0
ATTDEF
  5
A1
330
8E
100
AcDbEntity
  8
AM_6
100
AcDbText
 10
7.3125
 20
-8.725375
 30
0.0
 40
0.5
  1
0.442
100
AcDbAttributeDefinition
  3

  2
F
 70
     8
280
     0
  0
ATTDEF
  5
A2
330
8E
100
AcDbEntity
  8
AM_6
100
AcDbText
 10
7.3125
 20
-9.225375
 30
0.0
 40
0.5
  1
1/2-13
100
AcDbAttributeDefinition
  3

  2
CS
 70
     8
280
     0
  0
ATTDEF
  5
A3
330
8E
100
AcDbEntity
  8
AM_6
100
AcDbText
 10
7.3125
 20
-9.725375
 30
0.0
 40
0.5
  1
0.5000
100
AcDbAttributeDefinition
  3

  2
NDM
 70
     8
280
     0
  0
ATTDEF
  5
A4
330
8E
100
AcDbEntity
  8
AM_6
100
AcDbText
 10
7.3125
 20
-10.225375
 30
0.0
 40
0.5
  1
0.4170
100
AcDbAttributeDefinition
  3

  2
KDM
 70
     8
280
     0
  0
ATTDEF
  5
A5
330
8E
100
AcDbEntity
  8
AM_6
100
AcDbText
 10
7.3125
 20
-10.725375
 30
0.0
 40
0.5
  1
2
100
AcDbAttributeDefinition
  3

  2
DD
 70
     8
280
     0
  0
ATTDEF
  5
A6
330
8E
100
AcDbEntity
  8
AM_6
100
AcDbText
 10
7.3125
 20
-11.225375
 30
0.0
 40
0.5
  1
baldor
100
AcDbAttributeDefinition
  3

  2
COMPANY
 70
     8
280
     0
  0
LINE
  5
A9
330
8E
100
AcDbEntity
  8
AM_9
100
AcDbLine
 10
-1.621041032257525
 20
-1.851686121479211
 30
0.0
 11
-1.61304687778303
 21
-1.861657123119238
 31
0.0
  0
LINE
  5
AA
330
8E
100
AcDbEntity
  8
AM_9
100
AcDbLine
 10
-1.613054560316741
 20
-1.473102459202003
 30
0.0
 11
-1.621041032257525
 21
-1.483063878520789
 31
0.0
  0
LWPOLYLINE
  5
AB
330
8E
100
AcDbEntity
  8
AM_9
100
AcDbPolyline
 90
       25
 70
     0
 43
0.0
 10
-1.612995312123004
 20
-1.861721440273525
 10
-1.599999726722099
 20
-1.874478700389166
 10
-1.584485341085734
 20
-1.882335235219271
 10
-1.567658280422003
 20
-1.883786114352767
 10
-1.549616345784997
 20
-1.878442220647533
 10
-1.531740581249529
 20
-1.866564965200798
 10
-1.513825450581306
 20
-1.847715734915685
 10
-1.497914878249092
 20
-1.823859769650648
 10
-1.483490738501406
 20
-1.793785334238765
 10
-1.472733739191382
 20
-1.761946293770886
 10
-1.464802398822038
 20
-1.7257214517832
 10
-1.460903919125782
 20
-1.69140122961186
 10
-1.460320023142081
 20
-1.655206398016386
 10
-1.462902593154057
 20
-1.622263599907359
 10
-1.468521829407611
 20
-1.589670213212397
 10
-1.476653869843025
 20
-1.559797082354887
 10
-1.487276321835602
 20
-1.532029236130348
 10
-1.500160262576954
 20
-1.507030096308984
 10
-1.51483798983032
 20
-1.485763550425185
 10
-1.531143548722088
 20
-1.468696425731912
 10
-1.548322491076697
 20
-1.456948200158213
 10
-1.565747113836829
 20
-1.451206299756216
 10
-1.582983686310431
 20
-1.452008464860002
 10
-1.598917156173117
 20
-1.459487024932891
 10
-1.612995489963762
 20
-1.473028781543316
  0
LWPOLYLINE
  5
AC
330
8E
100
AcDbEntity
  8
AM_9
100
AcDbPolyline
 90
        3
 70
     0
 43
0.0
 10
-1.616311639465783
 20
-1.477424330987318
 10
-1.624401079964469
 20
-1.490610434007988
 10
-1.633858622098936
 20
-1.511835767138974
  0
LWPOLYLINE
  5
AD
330
8E
100
AcDbEntity
  8
AM_9
100
AcDbPolyline
 90
        3
 70
     0
 43
0.0
 10
-1.612995489963762
 20
-1.473028781543316
 10
-1.613745367501103
 20
-1.473977020644804
 10
-1.616311639465783
 20
-1.477424330987318
  0
ELLIPSE
  5
AE
330
8E
100
AcDbEntity
  8
AM_9
100
AcDbEllipse
 10
-2.09349395189261
 20
-1.667375000000002
 30
0.0
 11
1.275775803011736E-17
 21
0.2083499999999969
 31
0.0
210
0.0
220
0.0
230
1.0
 40
0.4226182617403299
 41
3.626704900062393
 42
3.69389879912932
  0
LINE
  5
AF
330
8E
100
AcDbEntity
  8
AM_9
100
AcDbLine
 10
-1.579981470270782
 20
-1.459025
 30
0.0
 11
-2.093493951892763
 21
-1.459025
 31
0.0
  0
LINE
  5
B0
330
8E
100
AcDbEntity
  8
AM_9
100
AcDbLine
 10
-2.093493951892763
 20
-1.875725
 30
0.0
 11
-1.579981470270782
 21
-1.875725
 31
0.0
  0
LWPOLYLINE
  5
B1
330
8E
100
AcDbEntity
  8
AM_9
100
AcDbPolyline
 90
        3
 70
     0
 43
0.0
 10
-1.618788006541401
 20
-1.853684252460503
 10
-1.613698358657967
 20
-1.860833188147679
 10
-1.612995312123004
 20
-1.861721440273525
  0
LWPOLYLINE
  5
B2
330
8E
100
AcDbEntity
  8
AM_9
100
AcDbPolyline
 90
       13
 70
     0
 43
0.0
 10
-1.633858622098936
 20
-1.511835767138974
 10
-1.641391420559964
 20
-1.535572992660086
 10
-1.647581990311325
 20
-1.56307939886035
 10
-1.652512126213276
 20
-1.596127577690727
 10
-1.655548882923959
 20
-1.632683884043454
 10
-1.656455894820756
 20
-1.666823280293218
 10
-1.655550545090074
 20
-1.702034609339307
 10
-1.653013662546203
 20
-1.734104276553562
 10
-1.648736541414842
 20
-1.765206273095761
 10
-1.642804209359765
 20
-1.793721349179526
 10
-1.635071968379723
 20
-1.819589827786419
 10
-1.625340127563161
 20
-1.842347569846922
 10
-1.618788006541401
 20
-1.853684252460503
  0
LWPOLYLINE
  5
B3
330
8E
100
AcDbEntity
  8
AM_9
100
AcDbPolyline
 90
       39
 70
     0
 43
0.0
 10
0.1558552102441073
 20
-1.50693066875648
 10
0.1293958147651115
 20
-1.487602006086455
 10
0.0998779979819063
 20
-1.471865675361797
 10
0.0630829471088222
 20
-1.458896173555301
 10
0.0236084634277779
 20
-1.451836797028241
 10
-0.0167291019991729
 20
-1.451274240723616
 10
-0.0577346991685372
 20
-1.457545428180735
 10
-0.0962881840603967
 20
-1.470299160792598
 10
-0.1331446413508827
 20
-1.490004757231113
 10
-0.1644211119986263
 20
-1.514552325787725
 10
-0.1916767647966401
 20
-1.545229894468448
 10
-0.2112066866635975
 20
-1.577407526719131
 10
-0.2250360104084846
 20
-1.613812628082111
 10
-0.2313629144297323
 20
-1.648128983566449
 10
-0.2315849188619679
 20
-1.684153266969308
 10
-0.2260940987321662
 20
-1.716931008412986
 10
-0.2149810566433588
 20
-1.749230005921874
 10
-0.1990312503979371
 20
-1.778844731420992
 10
-0.1780867287782308
 20
-1.806243925596462
 10
-0.1522341665990929
 20
-1.830818248221805
 10
-0.1220907162653654
 20
-1.851550428933718
 10
-0.0876138028628634
 20
-1.867955104557035
 10
-0.0499620330934108
 20
-1.878941887546217
 10
-0.0102613064757014
 20
-1.883828921719002
 10
0.0308299839604382
 20
-1.882113766420177
 10
0.0705982438879987
 20
-1.873736504589611
 10
0.1094705331399551
 20
-1.858347840272985
 10
0.143742517543129
 20
-1.837383268912055
 10
0.1747313002304186
 20
-1.809900984542453
 10
0.1985085733417882
 20
-1.779650503323749
 10
0.2170203034083165
 20
-1.744427376945249
 10
0.2276619167280847
 20
-1.71027211655163
 10
0.2321909757465763
 20
-1.673571659427123
 10
0.2304205197041101
 20
-1.640046394591279
 10
0.2228265944000734
 20
-1.606338263442653
 10
0.2102671821876774
 20
-1.575519946884768
 10
0.1925062661923142
 20
-1.546367724445744
 10
0.1755103006053439
 20
-1.525683555747471
 10
0.1558552102441073
 20
-1.50693066875648
  0
LINE
  5
B4
330
8E
100
AcDbEntity
  8
AM_9
100
AcDbLine
 10
1.735
 20
-2.109375
 30
0.0
 11
1.735
 21
-1.225375
 31
0.0
  0
LINE
  5
B5
330
8E
100
AcDbEntity
  8
AM_9
100
AcDbLine
 10
-1.735
 20
-1.225375
 30
0.0
 11
-1.735
 21
-2.109375
 31
0.0
  0
LINE
  5
B6
330
8E
100
AcDbEntity
  8
AM_9
100
AcDbLine
 10
2.202380952380952
 20
-1.23125
 30
0.0
 11
2.202380952380952
 21
-1.225375
 31
0.0
  0
LINE
  5
B7
330
8E
100
AcDbEntity
  8
AM_9
100
AcDbLine
 10
-2.202380952380952
 20
-1.225375
 30
0.0
 11
-2.202380952380952
 21
-1.23125
 31
0.0
  0
LINE
  5
B8
330
8E
100
AcDbEntity
  8
AM_9
100
AcDbLine
 10
-2.202380952380952
 20
-1.225375
 30
0.0
 11
2.202380952380952
 21
-1.225375
 31
0.0
  0
ARC
  5
BA
330
8E
100
AcDbEntity
  8
AM_5
100
AcDbCircle
 10
0.0000000000000005
 20
-1.667375
 30
0.0
 40
0.2499999999999994
100
AcDbArc
 50
75.00000000000001
 51
14.99999999999997
  0
ELLIPSE
  5
BB
330
8E
100
AcDbEntity
  8
AM_9
100
AcDbEllipse
 10
-1.579981470270782
 20
-1.667375
 30
0.0
 11
1.275775803011754E-17
 21
0.2083499999999998
 31
0.0
210
0.0
220
0.0
230
1.0
 40
0.4226182617407002
 41
0.0
 42
6.283185307179586
  0
LWPOLYLINE
  5
BD
330
8E
100
AcDbEntity
  8
AM_4
100
AcDbPolyline
 90
        8
 70
     0
 43
0.0
 10
-2.052805249439663
 20
-1.852148688775052
 10
-2.058198972531814
 20
-1.858397951675583
 10
-2.069848235007113
 20
-1.868838339693982
 10
-2.083987175818257
 20
-1.876318388010325
 10
-2.098487525065037
 20
-1.878207618742108
 10
-2.111699565002028
 20
-1.87449898810262
 10
-2.124440346965654
 20
-1.865251440139361
 10
-2.139690869595015
 20
-1.844746868471293
  0
ELLIPSE
  5
BE
330
8E
100
AcDbEntity
  8
AM_4
100
AcDbEllipse
 10
-2.093493951892756
 20
-1.667375000000008
 30
0.0
 11
1.275775803011708E-17
 21
0.2083499999999923
 31
0.0
210
0.0
220
0.0
230
1.0
 40
0.4226182617407102
 41
2.589286508049108
 42
3.626704900063507
  0
ELLIPSE
  5
BF
330
8E
100
AcDbEntity
  8
AM_4
100
AcDbEllipse
 10
-2.093493951892762
 20
-1.667374999999996
 30
0.0
 11
1.275775803011732E-17
 21
0.2083499999999963
 31
0.0
210
0.0
220
0.0
230
1.0
 40
0.4226182617406978
 41
5.730879161638975
 42
6.835491452720222
  0
ARC
  5
C0
330
8E
100
AcDbEntity
  8
AM_4
100
AcDbCircle
 10
0.0000000000000002
 20
-1.667374999999999
 30
0.0
 40
0.2083500000000007
100
AcDbArc
 50
238.3551888613846
 51
301.6448111386152
  0
ARC
  5
C1
330
8E
100
AcDbEntity
  8
AM_4
100
AcDbCircle
 10
0.0000000000000194
 20
-1.667375000000067
 30
0.0
 40
0.2083500000000673
100
AcDbArc
 50
58.35518886139607
 51
121.6448111386103
  0
LINE
  5
C2
330
8E
100
AcDbEntity
  8
AM_4
100
AcDbLine
 10
2.202380952380952
 20
-1.280325058072009
 30
0.0
 11
2.202380952380952
 21
-1.23125
 31
0.0
  0
LINE
  5
C3
330
8E
100
AcDbEntity
  8
AM_4
100
AcDbLine
 10
-2.202380952380952
 20
-1.23125
 30
0.0
 11
-2.202380952380952
 21
-1.280325058072009
 31
0.0
  0
LINE
  5
C4
330
8E
100
AcDbEntity
  8
AM_4
100
AcDbLine
 10
2.25609756097561
 20
-1.417375
 30
0.0
 11
2.25609756097561
 21
-1.334041666666667
 31
0.0
  0
LINE
  5
C5
330
8E
100
AcDbEntity
  8
AM_4
100
AcDbLine
 10
-2.25609756097561
 20
-1.334041666666667
 30
0.0
 11
-2.25609756097561
 21
-1.417375
 31
0.0
  0
LINE
  5
C6
330
8E
100
AcDbEntity
  8
AM_4
100
AcDbLine
 10
-2.202380952380952
 20
-1.280325058072009
 30
0.0
 11
-2.25609756097561
 21
-1.334041666666667
 31
0.0
  0
LINE
  5
C7
330
8E
100
AcDbEntity
  8
AM_4
100
AcDbLine
 10
2.25609756097561
 20
-1.334041666666667
 30
0.0
 11
2.202380952380952
 21
-1.280325058072009
 31
0.0
  0
LINE
  5
C8
330
8E
100
AcDbEntity
  8
AM_4
100
AcDbLine
 10
-2.25609756097561
 20
-1.334041666666667
 30
0.0
 11
2.25609756097561
 21
-1.334041666666667
 31
0.0
  0
LINE
  5
C9
330
8E
100
AcDbEntity
  8
AM_4
100
AcDbLine
 10
-2.202380952380952
 20
-1.280325058072009
 30
0.0
 11
2.202380952380952
 21
-1.280325058072009
 31
0.0
  0
LWPOLYLINE
  5
CA
330
8E
100
AcDbEntity
  8
AM_4
100
AcDbPolyline
 90
       13
 70
     0
 43
0.0
 10
-2.139690869595015
 20
-1.844746868471293
 10
-2.150253301765782
 20
-1.823845370977226
 10
-2.159112393942237
 20
-1.798528830449368
 10
-2.166114632456999
 20
-1.769453279645965
 10
-2.171197233036197
 20
-1.737486449603252
 10
-2.174280255679048
 20
-1.7035407383811
 10
-2.175364273788554
 20
-1.668568130248525
 10
-2.174424361268534
 20
-1.633686570671275
 10
-2.171498483601667
 20
-1.599754831874524
 10
-2.166593270470814
 20
-1.567760863942797
 10
-2.159782254313468
 20
-1.5385607962869
 10
-2.150665011257281
 20
-1.511899596145594
 10
-2.139690869595015
 20
-1.490003131528707
  0
LWPOLYLINE
  5
CB
330
8E
100
AcDbEntity
  8
AM_4
100
AcDbPolyline
 90
        8
 70
     0
 43
0.0
 10
-2.139690869595015
 20
-1.490003131528707
 10
-2.130598115567353
 20
-1.476352048324417
 10
-2.120421949824968
 20
-1.465911660306018
 10
-2.107385980425382
 20
-1.458431611989676
 10
-2.093170481159435
 20
-1.456542381257892
 10
-2.079401660513396
 20
-1.460251011897381
 10
-2.065315011403893
 20
-1.469498559860639
 10
-2.047297034190511
 20
-1.490003131528707
  0
LWPOLYLINE
  5
CC
330
8E
100
AcDbEntity
  8
AM_4
100
AcDbPolyline
 90
       13
 70
     0
 43
0.0
 10
-2.047297034190511
 20
-1.490003131528707
 10
-2.033996941184252
 20
-1.510904629022775
 10
-2.02227699270006
 20
-1.536221169550632
 10
-2.012613984293758
 20
-1.565296720354036
 10
-2.005362544128791
 20
-1.597263550396748
 10
-2.000866852303487
 20
-1.6312092616189
 10
-1.99926213170122
 20
-1.666181869751475
 10
-2.000654605716923
 20
-1.701063429328725
 10
-2.004926327002371
 20
-1.734995168125476
 10
-2.011939987791728
 20
-1.766989136057203
 10
-2.02136816433255
 20
-1.7961892037131
 10
-2.033463641565287
 20
-1.822850403854407
 10
-2.047297034190511
 20
-1.844746868471293
  0
LINE
  5
CD
330
8E
100
AcDbEntity
  8
AM_4
100
AcDbLine
 10
-2.047297034190511
 20
-1.844746868471293
 30
0.0
 11
-2.052805249439663
 21
-1.852148688775052
 31
0.0
  0
LWPOLYLINE
  5
CE
330
8E
100
AcDbEntity
  8
AM_4
100
AcDbPolyline
 90
       13
 70
     0
 43
0.0
 10
0.1093112198038346
 20
-1.490003131528707
 10
0.1375429922297818
 20
-1.510904629022775
 10
0.1618900715252742
 20
-1.536221169550632
 10
0.1816067383493972
 20
-1.565296720354035
 10
0.1961991517171534
 20
-1.597263550396748
 10
0.2051655348035573
 20
-1.6312092616189
 10
0.2083465837017972
 20
-1.666181869751475
 10
0.2055871353451222
 20
-1.701063429328725
 10
0.1970716503271904
 20
-1.734995168125476
 10
0.1829704211574924
 20
-1.766989136057202
 10
0.1637578194217304
 20
-1.7961892037131
 10
0.1386610332564184
 20
-1.822850403854407
 10
0.1093112198038346
 20
-1.844746868471293
  0
LWPOLYLINE
  5
CF
330
8E
100
AcDbEntity
  8
AM_4
100
AcDbPolyline
 90
        9
 70
     0
 43
0.0
 10
0.1093112198038346
 20
-1.844746868471293
 10
0.0888676509357432
 20
-1.856790941176019
 10
0.0576169409411744
 20
-1.869542066374428
 10
0.0235750945925724
 20
-1.876867496888424
 10
-0.0088618232193029
 20
-1.878106770925497
 10
-0.0419970861814776
 20
-1.873697732606286
 10
-0.0725976050318415
 20
-1.864208943480357
 10
-0.1020154452882455
 20
-1.849423728254032
 10
-0.109311219803835
 20
-1.844746868471293
  0
LWPOLYLINE
  5
D0
330
8E
100
AcDbEntity
  8
AM_4
100
AcDbPolyline
 90
       13
 70
     0
 43
0.0
 10
-0.109311219803835
 20
-1.844746868471293
 10
-0.1375429922297826
 20
-1.823845370977225
 10
-0.161890071525275
 20
-1.798528830449367
 10
-0.1816067383493976
 20
-1.769453279645964
 10
-0.1961991517171538
 20
-1.737486449603252
 10
-0.2051655348035574
 20
-1.703540738381099
 10
-0.2083465837017975
 20
-1.668568130248524
 10
-0.2055871353451225
 20
-1.633686570671274
 10
-0.1970716503271904
 20
-1.599754831874524
 10
-0.1829704211574922
 20
-1.567760863942797
 10
-0.1637578194217301
 20
-1.5385607962869
 10
-0.1386610332564185
 20
-1.511899596145593
 10
-0.109311219803835
 20
-1.490003131528707
  0
LWPOLYLINE
  5
D1
330
8E
100
AcDbEntity
  8
AM_4
100
AcDbPolyline
 90
        9
 70
     0
 43
0.0
 10
-0.109311219803835
 20
-1.490003131528707
 10
-0.1083734354373929
 20
-1.489376865382718
 10
-0.0783314231021419
 20
-1.472953592017259
 10
-0.044838983208252
 20
-1.461705798587904
 10
-0.0123962521239044
 20
-1.456837850310769
 10
0.0214014115951383
 20
-1.457628046922179
 10
0.064523390313313
 20
-1.467496818270482
 10
0.0874510215291536
 20
-1.477241374887198
 10
0.109311219803854
 20
-1.490003131528695
  0
LINE
  5
D2
330
8E
100
AcDbEntity
  8
AM_4
100
AcDbLine
 10
2.3125
 20
-1.962041666666667
 30
0.0
 11
2.3125
 21
-1.449938963353683
 31
0.0
  0
LINE
  5
D3
330
8E
100
AcDbEntity
  8
AM_4
100
AcDbLine
 10
-2.3125
 20
-1.449938963353683
 30
0.0
 11
-2.3125
 21
-1.962041666666667
 31
0.0
  0
LINE
  5
D4
330
8E
100
AcDbEntity
  8
AM_4
100
AcDbLine
 10
-2.25609756097561
 20
-1.417375
 30
0.0
 11
-2.3125
 21
-1.449938963353683
 31
0.0
  0
LINE
  5
D5
330
8E
100
AcDbEntity
  8
AM_4
100
AcDbLine
 10
2.3125
 20
-1.449938963353683
 30
0.0
 11
2.25609756097561
 21
-1.417375
 31
0.0
  0
LINE
  5
D6
330
8E
100
AcDbEntity
  8
AM_4
100
AcDbLine
 10
-2.3125
 20
-1.449938963353683
 30
0.0
 11
2.3125
 21
-1.449938963353683
 31
0.0
  0
LINE
  5
D7
330
8E
100
AcDbEntity
  8
AM_4
100
AcDbLine
 10
-2.25609756097561
 20
-1.417375
 30
0.0
 11
2.25609756097561
 21
-1.417375
 31
0.0
  0
LINE
  5
D8
330
8E
100
AcDbEntity
  8
AM_4
100
AcDbLine
 10
-2.165166666666666
 20
-2.109375
 30
0.0
 11
2.165166666666666
 21
-2.109375
 31
0.0
  0
ARC
  5
D9
330
8E
100
AcDbEntity
  8
AM_4
100
AcDbCircle
 10
2.165166666666666
 20
-1.962041666666666
 30
0.0
 40
0.147333333333334
100
AcDbArc
 50
270.0
 51
0.0000008537736463
  0
ARC
  5
DA
330
8E
100
AcDbEntity
  8
AM_4
100
AcDbCircle
 10
-2.165166666666666
 20
-1.962041666666666
 30
0.0
 40
0.147333333333334
100
AcDbArc
 50
179.9999991462263
 51
270.0
  0
LINE
  5
DB
330
8E
100
AcDbEntity
  8
AM_4
100
AcDbLine
 10
-2.3125
 20
-1.962041666666667
 30
0.0
 11
2.3125
 21
-1.962041666666667
 31
0.0
  0
CIRCLE
  5
DC
330
8E
100
AcDbEntity
  8
AM_5
100
AcDbCircle
 10
0.0000000000000003
 20
-1.667375
 30
0.0
 40
0.2499999999999996
  0
ENDBLK
  5
91
330
8E
100
AcDbEntity
  8
0
100
AcDbBlockEnd
  0
BLOCK
  5
DF
330
DD
100
AcDbEntity
  8
0
100
AcDbBlockBegin
  2
3_070010i_0_in_070308_4
 70
     2
 10
0.0
 20
0.0
 30
0.0
  3
3_070010i_0_in_070308_4
  1

  0
ATTDEF
  5
E1
330
DD
100
AcDbEntity
  8
AM_6
100
AcDbText
 10
7.55905
 20
1.484375
 30
0.0
 40
0.5
  1
S-2000 Insert -Inch
100
AcDbAttributeDefinition
  3

  2
NN
 70
     8
280
     0
  0
ATTDEF
  5
E2
330
DD
100
AcDbEntity
  8
AM_6
100
AcDbText
 10
7.55905
 20
0.984375
 30
0.0
 40
0.5
  1
S-2000 Bearings
100
AcDbAttributeDefinition
  3

  2
NT
 70
     8
280
     0
  0
ATTDEF
  5
E3
330
DD
100
AcDbEntity
  8
AM_6
100
AcDbText
 10
7.55905
 20
0.484375
 30
0.0
 40
0.5
  1
070010i
100
AcDbAttributeDefinition
  3

  2
NB
 70
     8
280
     0
  0
ATTDEF
  5
E4
330
DD
100
AcDbEntity
  8
AM_6
100
AcDbText
 10
7.55905
 20
-0.015625
 30
0.0
 40
0.5
  1
$PN.i
100
AcDbAttributeDefinition
  3

  2
NBSYN
 70
     8
280
     0
  0
ATTDEF
  5
E5
330
DD
100
AcDbEntity
  8
AM_6
100
AcDbText
 10
7.55905
 20
-0.515625
 30
0.0
 40
0.5
  1
070010i
100
AcDbAttributeDefinition
  3

  2
LINA
 70
     8
280
     0
  0
ATTDEF
  5
E6
330
DD
100
AcDbEntity
  8
AM_6
100
AcDbText
 10
7.55905
 20
-1.015625
 30
0.0
 40
0.5
  1
2-15/16
100
AcDbAttributeDefinition
  3

  2
SS
 70
     8
280
     0
  0
ATTDEF
  5
E7
330
DD
100
AcDbEntity
  8
AM_6
100
AcDbText
 10
7.55905
 20
-1.515625
 30
0.0
 40
0.5
  1
3.47
100
AcDbAttributeDefinition
  3

  2
CC
 70
     8
280
     0
  0
ATTDEF
  5
E8
330
DD
100
AcDbEntity
  8
AM_6
100
AcDbText
 10
7.55905
 20
-2.015625
 30
0.0
 40
0.5
  1
2.937500
100
AcDbAttributeDefinition
  3

  2
SS1
 70
     8
280
     0
  0
ATTDEF
  5
E9
330
DD
100
AcDbEntity
  8
AM_6
100
AcDbText
 10
7.55905
 20
-2.515625
 30
0.0
 40
0.5
  1
070010
100
AcDbAttributeDefinition
  3

  2
PN
 70
     8
280
     0
  0
ATTDEF
  5
EA
330
DD
100
AcDbEntity
  8
AM_6
100
AcDbText
 10
7.55905
 20
-3.015625
 30
0.0
 40
0.5
  1
INS-S2-215R
100
AcDbAttributeDefinition
  3

  2
DESCRIPTION
 70
     8
280
     0
  0
ATTDEF
  5
EB
330
DD
100
AcDbEntity
  8
AM_6
100
AcDbText
 10
7.55905
 20
-3.515625
 30
0.0
 40
0.5
  1
Contact Seal
100
AcDbAttributeDefinition
  3

  2
ST
 70
     8
280
     0
  0
ATTDEF
  5
EC
330
DD
100
AcDbEntity
  8
AM_6
100
AcDbText
 10
7.55905
 20
-4.015625
 30
0.0
 40
0.5
  1
1
100
AcDbAttributeDefinition
  3

  2
ST1
 70
     8
280
     0
  0
ATTDEF
  5
ED
330
DD
100
AcDbEntity
  8
AM_6
100
AcDbText
 10
7.55905
 20
-4.515625
 30
0.0
 40
0.5
  1
5.1181
100
AcDbAttributeDefinition
  3

  2
A
 70
     8
280
     0
  0
ATTDEF
  5
EE
330
DD
100
AcDbEntity
  8
AM_6
100
AcDbText
 10
7.55905
 20
-5.015625
 30
0.0
 40
0.5
  1
1-9/32
100
AcDbAttributeDefinition
  3

  2
B
 70
     8
280
     0
  0
ATTDEF
  5
EF
330
DD
100
AcDbEntity
  8
AM_6
100
AcDbText
 10
7.55905
 20
-5.515625
 30
0.0
 40
0.5
  1
3-19/32
100
AcDbAttributeDefinition
  3

  2
C
 70
     8
280
     0
  0
ATTDEF
  5
F0
330
DD
100
AcDbEntity
  8
AM_6
100
AcDbText
 10
7.55905
 20
-6.015625
 30
0.0
 40
0.5
  1
1.219
100
AcDbAttributeDefinition
  3

  2
D
 70
     8
280
     0
  0
ATTDEF
  5
F1
330
DD
100
AcDbEntity
  8
AM_6
100
AcDbText
 10
7.55905
 20
-6.515625
 30
0.0
 40
0.5
  1
4-5/8
100
AcDbAttributeDefinition
  3

  2
E
 70
     8
280
     0
  0
ATTDEF
  5
F2
330
DD
100
AcDbEntity
  8
AM_6
100
AcDbText
 10
7.55905
 20
-7.015625
 30
0.0
 40
0.5
  1
0.53125
100
AcDbAttributeDefinition
  3

  2
F
 70
     8
280
     0
  0
ATTDEF
  5
F3
330
DD
100
AcDbEntity
  8
AM_6
100
AcDbText
 10
7.55905
 20
-7.515625
 30
0.0
 40
0.5
  1
2
100
AcDbAttributeDefinition
  3

  2
DD
 70
     8
280
     0
  0
ATTDEF
  5
F4
330
DD
100
AcDbEntity
  8
AM_6
100
AcDbText
 10
7.55905
 20
-8.015625
 30
0.0
 40
0.5
  1
baldor
100
AcDbAttributeDefinition
  3

  2
COMPANY
 70
     8
280
     0
  0
LINE
  5
F5
330
DD
100
AcDbEntity
  8
AM_9
100
AcDbLine
 10
-1.572317458141751
 20
-1.937375
 30
0.0
 11
-1.331087529217957
 21
-1.937375
 31
0.0
  0
LINE
  5
F6
330
DD
100
AcDbEntity
  8
AM_9
100
AcDbLine
 10
-1.330987940618048
 20
-1.397375
 30
0.0
 11
-1.572419677107409
 21
-1.397375
 31
0.0
  0
LWPOLYLINE
  5
F7
330
DD
100
AcDbEntity
  8
AM_9
100
AcDbPolyline
 90
       21
 70
     0
 43
0.0
 10
-1.331130802623554
 20
-1.397375000795543
 10
-1.343170580700393
 20
-1.398946172234286
 10
-1.360128124917929
 20
-1.407269821091187
 10
-1.3756296363037
 20
-1.423057606252527
 10
-1.388660126220074
 20
-1.445123849731258
 10
-1.399776096627661
 20
-1.474007860483893
 10
-1.408485328986305
 20
-1.507882104018587
 10
-1.415181756866045
 20
-1.547356793199859
 10
-1.419590854431234
 20
-1.589203389985771
 10
-1.422055274698114
 20
-1.634620332013574
 10
-1.422497532927867
 20
-1.679037007908809
 10
-1.421006922763158
 20
-1.724412348670711
 10
-1.41766523477397
 20
-1.766580815178388
 10
-1.412202580017699
 20
-1.807128617367224
 10
-1.404733809689059
 20
-1.843138223779808
 10
-1.39479281284684
 20
-1.875179968285833
 10
-1.382718841051338
 20
-1.900927369096493
 10
-1.3679566017174
 20
-1.920666555927731
 10
-1.35160145875269
 20
-1.932655517295214
 10
-1.332926277480183
 20
-1.937341692613923
 10
-1.33114838867741
 20
-1.937374999192213
  0
LWPOLYLINE
  5
F8
330
DD
100
AcDbEntity
  8
AM_9
100
AcDbPolyline
 90
       11
 70
     0
 43
0.0
 10
-1.33114838867741
 20
-1.937374999192213
 10
-1.313769569324586
 20
-1.934405128095985
 10
-1.293348702656488
 20
-1.923898380846527
 10
-1.273533315097072
 20
-1.906749771366885
 10
-1.253938010932159
 20
-1.882488218906887
 10
-1.236185140922429
 20
-1.852655272999292
 10
-1.220362481069244
 20
-1.816687625699886
 10
-1.207994331767545
 20
-1.777200944241546
 10
-1.199164043813467
 20
-1.733296522030643
 10
-1.195580005387731
 20
-1.700856311854057
 10
-1.194347472703613
 20
-1.667375
  0
LWPOLYLINE
  5
F9
330
DD
100
AcDbEntity
  8
AM_9
100
AcDbPolyline
 90
       12
 70
     0
 43
0.0
 10
-1.667311649208277
 20
-1.654778245582845
 10
-1.66730618207336
 20
-1.654366927009088
 10
-1.665590890727805
 20
-1.608920868557394
 10
-1.661832716873244
 20
-1.566616141557393
 10
-1.655772904707592
 20
-1.525978240050793
 10
-1.647631141821057
 20
-1.490065256922136
 10
-1.636956317187928
 20
-1.458183406601096
 10
-1.624243960870365
 20
-1.432756628933681
 10
-1.608946189914343
 20
-1.413371897166227
 10
-1.59222247298181
 20
-1.40171906020292
 10
-1.573383499213372
 20
-1.397384176900261
 10
-1.572449458925774
 20
-1.397375000307792
  0
LWPOLYLINE
  5
FA
330
DD
100
AcDbEntity
  8
AM_9
100
AcDbPolyline
 90
       11
 70
     0
 43
0.0
 10
-1.572434527790925
 20
-1.937374999067684
 10
-1.584764777193062
 20
-1.935736689251915
 10
-1.601982734371269
 20
-1.927260648311371
 10
-1.617900947246759
 20
-1.911249925706517
 10
-1.63142217530574
 20
-1.888943274721003
 10
-1.643100712278386
 20
-1.859769707038779
 10
-1.652320553247606
 20
-1.825745695918303
 10
-1.659484695067208
 20
-1.786156192761772
 10
-1.664230647506377
 20
-1.744276003930176
 10
-1.666876395037564
 20
-1.698895148649331
 10
-1.667135694926453
 20
-1.689669622427009
  0
LWPOLYLINE
  5
FB
330
DD
100
AcDbEntity
  8
AM_9
100
AcDbPolyline
 90
       11
 70
     0
 43
0.0
 10
-1.572449458925774
 20
-1.397375000307792
 10
-1.554199141611445
 20
-1.400673762514923
 10
-1.533958352919281
 20
-1.411587070566499
 10
-1.514486313606586
 20
-1.429181273893857
 10
-1.495396339729562
 20
-1.453944579887676
 10
-1.478319084420855
 20
-1.484166180495765
 10
-1.463234805511676
 20
-1.520496540818258
 10
-1.45159876714754
 20
-1.560158910902559
 10
-1.443411203137538
 20
-1.604135450401828
 10
-1.440260069305253
 20
-1.635300684637121
 10
-1.439180086532968
 20
-1.667375
  0
LWPOLYLINE
  5
FC
330
DD
100
AcDbEntity
  8
AM_9
100
AcDbPolyline
 90
       11
 70
     0
 43
0.0
 10
-1.194347472703613
 20
-1.667375
 10
-1.196505373990953
 20
-1.623118999489902
 10
-1.203109829331094
 20
-1.578862998979805
 10
-1.213437223473883
 20
-1.538340620936412
 10
-1.227531204982243
 20
-1.500343102920861
 10
-1.244138161011406
 20
-1.467639153931264
 10
-1.263280943294932
 20
-1.43970891800072
 10
-1.283227502457856
 20
-1.418741911657267
 10
-1.304169714608267
 20
-1.404376963355146
 10
-1.323907664909632
 20
-1.397904647551703
 10
-1.331130802623554
 20
-1.397375000795543
  0
LINE
  5
FD
330
DD
100
AcDbEntity
  8
AM_9
100
AcDbLine
 10
-1.46875
 20
1.484375
 30
0.0
 11
-1.46875
 21
-2.109375
 31
0.0
  0
LINE
  5
FE
330
DD
100
AcDbEntity
  8
AM_9
100
AcDbLine
 10
1.46875
 20
-2.109375
 30
0.0
 11
1.46875
 21
1.484375
 31
0.0
  0
LINE
  5
FF
330
DD
100
AcDbEntity
  8
AM_9
100
AcDbLine
 10
-1.735
 20
1.23125
 30
0.0
 11
-1.735
 21
1.224874999999999
 31
0.0
  0
LINE
  5
100
330
DD
100
AcDbEntity
  8
AM_9
100
AcDbLine
 10
1.735
 20
1.224874999999999
 30
0.0
 11
1.735
 21
1.23125
 31
0.0
  0
LWPOLYLINE
  5
101
330
DD
100
AcDbEntity
  8
AM_9
100
AcDbPolyline
 90
       39
 70
     0
 43
0.0
 10
0.27
 20
-1.667375
 10
0.266327945324375
 20
-1.711753210185819
 10
0.2549947015975295
 20
-1.756131420371638
 10
0.2369739392194663
 20
-1.796771105547303
 10
0.2117654761328368
 20
-1.834872412273244
 10
0.1812028386142653
 20
-1.867538761151045
 10
0.1445716436275958
 20
-1.895407979761296
 10
0.104696059677735
 20
-1.916249938649829
 10
0.0605724654261541
 20
-1.930492799535108
 10
0.016324236592193
 20
-1.936881065422807
 10
-0.0296985478072317
 20
-1.935736689251915
 10
-0.0732082632069512
 20
-1.927260648311371
 10
-0.1158663912083256
 20
-1.911249925706517
 10
-0.1542967907545654
 20
-1.888943274721003
 10
-0.1894314564782272
 20
-1.859769707038779
 10
-0.2186749246583898
 20
-1.825745695918303
 10
-0.2424686129091574
 20
-1.786156192761772
 10
-0.2588169924764044
 20
-1.744276003930175
 10
-0.2681538368719047
 20
-1.698895148649331
 10
-0.2696864661733382
 20
-1.654366927009088
 10
-0.2635964994405096
 20
-1.608920868557394
 10
-0.2504948152065081
 20
-1.566616141557393
 10
-0.230015121841731
 20
-1.525978240050793
 10
-0.2036203698298914
 20
-1.490065256922136
 10
-0.1707011342997687
 20
-1.458183406601096
 10
-0.1336196840221795
 20
-1.432756628933681
 10
-0.0915555773878123
 20
-1.413371897166227
 10
-0.0482381762769903
 20
-1.40171906020292
 10
-0.0022260821919896
 20
-1.397384176900261
 10
0.0420767147473347
 20
-1.400673762514923
 10
0.0864438265934715
 20
-1.411587070566499
 10
0.127136732865336
 20
-1.429181273893857
 10
0.1653706617592033
 20
-1.453944579887676
 10
0.1983293434060237
 20
-1.484166180495765
 10
0.2265540073103926
 20
-1.520496540818258
 10
0.2477997381730851
 20
-1.560158910902559
 10
0.2624895414423599
 20
-1.604135450401829
 10
0.2680881166594345
 20
-1.635300684637121
 10
0.27
 20
-1.667375
  0
LWPOLYLINE
  5
102
330
DD
100
AcDbEntity
  8
AM_9
100
AcDbPolyline
 90
       11
 70
     0
 43
0.0
 10
-1.439180086532968
 20
-1.667375
 10
-1.441252602663188
 20
-1.711753210185819
 10
-1.447603109064745
 20
-1.756131420371638
 10
-1.457558238654596
 20
-1.796771105547303
 10
-1.471191415405587
 20
-1.834872412273244
 10
-1.487265036559565
 20
-1.867538761151045
 10
-1.505876892657058
 20
-1.895407979761295
 10
-1.525332027969434
 20
-1.916249938649829
 10
-1.545886398760266
 20
-1.930492799535108
 10
-1.56547548803332
 20
-1.936881065422807
 10
-1.572434527790925
 20
-1.937374999067684
  0
LINE
  5
103
330
DD
100
AcDbEntity
  8
AM_9
100
AcDbLine
 10
-1.735
 20
-0.6941250000000003
 30
0.0
 11
-1.735
 21
-2.109375
 31
0.0
  0
LINE
  5
104
330
DD
100
AcDbEntity
  8
AM_9
100
AcDbLine
 10
1.735
 20
-2.109375
 30
0.0
 11
1.735
 21
-0.6941250000000003
 31
0.0
  0
LINE
  5
105
330
DD
100
AcDbEntity
  8
AM_9
100
AcDbLine
 10
-2.04724
 20
1.096749999999999
 30
0.0
 11
-2.04724
 21
0.9059999999999998
 31
0.0
  0
LINE
  5
106
330
DD
100
AcDbEntity
  8
AM_9
100
AcDbLine
 10
2.04724
 20
0.9059999999999998
 30
0.0
 11
2.04724
 21
1.096749999999999
 31
0.0
  0
LINE
  5
107
330
DD
100
AcDbEntity
  8
AM_9
100
AcDbLine
 10
1.919115
 20
1.224874999999999
 30
0.0
 11
-1.919114999987958
 21
1.224874999999999
 31
0.0
  0
LINE
  5
108
330
DD
100
AcDbEntity
  8
AM_9
100
AcDbLine
 10
2.04724
 20
1.096749999999999
 30
0.0
 11
-2.04724
 21
1.096749999999999
 31
0.0
  0
ARC
  5
109
330
DD
100
AcDbEntity
  8
AM_9
100
AcDbCircle
 10
-1.919115
 20
1.096749999999999
 30
0.0
 40
0.128125
100
AcDbArc
 50
90.0
 51
180.0
  0
ARC
  5
10A
330
DD
100
AcDbEntity
  8
AM_9
100
AcDbCircle
 10
1.919115
 20
1.096749999999999
 30
0.0
 40
0.128125
100
AcDbArc
 50
0.0
 51
90.0
  0
LINE
  5
10B
330
DD
100
AcDbEntity
  8
AM_9
100
AcDbLine
 10
-2.04724
 20
-0.3752500000000003
 30
0.0
 11
-2.04724
 21
-0.5660000000000004
 31
0.0
  0
LINE
  5
10C
330
DD
100
AcDbEntity
  8
AM_9
100
AcDbLine
 10
2.04724
 20
-0.5660000000000004
 30
0.0
 11
2.04724
 21
-0.3752500000000003
 31
0.0
  0
LINE
  5
10D
330
DD
100
AcDbEntity
  8
AM_9
100
AcDbLine
 10
2.04724
 20
-0.5660000000000004
 30
0.0
 11
-2.04724
 21
-0.5660000000000004
 31
0.0
  0
LINE
  5
10E
330
DD
100
AcDbEntity
  8
AM_9
100
AcDbLine
 10
1.919115
 20
-0.6941250000000003
 30
0.0
 11
-1.919114999987958
 21
-0.6941250000000003
 31
0.0
  0
ARC
  5
10F
330
DD
100
AcDbEntity
  8
AM_9
100
AcDbCircle
 10
-1.919115
 20
-0.5659999999999996
 30
0.0
 40
0.1281250000000007
100
AcDbArc
 50
180.0
 51
270.0
  0
ARC
  5
110
330
DD
100
AcDbEntity
  8
AM_9
100
AcDbCircle
 10
1.919115
 20
-0.5659999999999996
 30
0.0
 40
0.1281250000000007
100
AcDbArc
 50
270.0
 51
0.0
  0
LINE
  5
111
330
DD
100
AcDbEntity
  8
AM_9
100
AcDbLine
 10
-2.456688
 20
0.3294374999999959
 30
0.0
 11
-2.456688
 21
0.2013125000000034
 31
0.0
  0
LINE
  5
112
330
DD
100
AcDbEntity
  8
AM_9
100
AcDbLine
 10
2.456688
 20
0.2013125000000034
 30
0.0
 11
2.456688
 21
0.3294374999999959
 31
0.0
  0
LINE
  5
113
330
DD
100
AcDbEntity
  8
AM_9
100
AcDbLine
 10
2.430925
 20
-0.37525
 30
0.0
 11
-2.430924999994712
 21
-0.37525
 31
0.0
  0
ARC
  5
114
330
DD
100
AcDbEntity
  8
AM_9
100
AcDbCircle
 10
-2.430925000000001
 20
-0.2471250000000011
 30
0.0
 40
0.1281249999999989
100
AcDbArc
 50
180.0
 51
270.0
  0
ARC
  5
115
330
DD
100
AcDbEntity
  8
AM_9
100
AcDbCircle
 10
2.430925000000001
 20
-0.2471250000000011
 30
0.0
 40
0.1281249999999989
100
AcDbArc
 50
270.0
 51
0.0
  0
LINE
  5
116
330
DD
100
AcDbEntity
  8
AM_9
100
AcDbLine
 10
2.456688
 20
0.3294374999999959
 30
0.0
 11
-2.456688
 21
0.3294374999999959
 31
0.0
  0
LINE
  5
117
330
DD
100
AcDbEntity
  8
AM_9
100
AcDbLine
 10
2.456688
 20
0.3294374999999959
 30
0.0
 11
2.55905
 21
0.388536228254784
 31
0.0
  0
LINE
  5
118
330
DD
100
AcDbEntity
  8
AM_9
100
AcDbLine
 10
-2.55905
 20
0.388536228254784
 30
0.0
 11
-2.456688
 21
0.3294374999999959
 31
0.0
  0
LINE
  5
119
330
DD
100
AcDbEntity
  8
AM_9
100
AcDbLine
 10
2.430925000000001
 20
0.9059999999999993
 30
0.0
 11
-2.430923594748576
 21
0.9059999999999993
 31
0.0
  0
ARC
  5
11A
330
DD
100
AcDbEntity
  8
AM_9
100
AcDbCircle
 10
-2.430925
 20
0.7778749999999997
 30
0.0
 40
0.1281249999999996
100
AcDbArc
 50
90.0
 51
180.0
  0
ARC
  5
11B
330
DD
100
AcDbEntity
  8
AM_9
100
AcDbCircle
 10
2.430925
 20
0.7778749999999997
 30
0.0
 40
0.1281249999999998
100
AcDbArc
 50
0.0
 51
90.0
  0
LINE
  5
11C
330
DD
100
AcDbEntity
  8
AM_9
100
AcDbLine
 10
2.55905
 20
0.7778749999999997
 30
0.0
 11
-2.55905
 21
0.7778749999999997
 31
0.0
  0
LINE
  5
11D
330
DD
100
AcDbEntity
  8
AM_9
100
AcDbLine
 10
2.55905
 20
0.388536228254784
 30
0.0
 11
-2.55905
 21
0.388536228254784
 31
0.0
  0
LINE
  5
11E
330
DD
100
AcDbEntity
  8
AM_9
100
AcDbLine
 10
-2.55905
 20
0.7778749999999997
 30
0.0
 11
-2.55905
 21
0.388536228254784
 31
0.0
  0
LINE
  5
11F
330
DD
100
AcDbEntity
  8
AM_9
100
AcDbLine
 10
2.55905
 20
0.388536228254784
 30
0.0
 11
2.55905
 21
0.7778749999999997
 31
0.0
  0
LINE
  5
120
330
DD
100
AcDbEntity
  8
AM_9
100
AcDbLine
 10
2.456688
 20
0.2013125000000034
 30
0.0
 11
-2.456688
 21
0.2013125000000034
 31
0.0
  0
LINE
  5
121
330
DD
100
AcDbEntity
  8
AM_9
100
AcDbLine
 10
-2.456688
 20
0.2013125000000034
 30
0.0
 11
-2.55905
 21
0.1422137717452154
 31
0.0
  0
LINE
  5
122
330
DD
100
AcDbEntity
  8
AM_9
100
AcDbLine
 10
2.55905
 20
0.1422137717452154
 30
0.0
 11
2.456688
 21
0.2013125000000034
 31
0.0
  0
LINE
  5
123
330
DD
100
AcDbEntity
  8
AM_9
100
AcDbLine
 10
2.55905
 20
0.1422137717452154
 30
0.0
 11
-2.55905
 21
0.1422137717452154
 31
0.0
  0
LINE
  5
124
330
DD
100
AcDbEntity
  8
AM_9
100
AcDbLine
 10
2.55905
 20
-0.2471250000000009
 30
0.0
 11
-2.55905
 21
-0.2471250000000009
 31
0.0
  0
LINE
  5
125
330
DD
100
AcDbEntity
  8
AM_9
100
AcDbLine
 10
-2.55905
 20
0.1422137717452154
 30
0.0
 11
-2.55905
 21
-0.2471250000000009
 31
0.0
  0
LINE
  5
126
330
DD
100
AcDbEntity
  8
AM_9
100
AcDbLine
 10
2.55905
 20
-0.2471250000000009
 30
0.0
 11
2.55905
 21
0.1422137717452154
 31
0.0
  0
LINE
  5
127
330
DD
100
AcDbEntity
  8
AM_4
100
AcDbLine
 10
1.735
 20
1.484375
 30
0.0
 11
-1.735
 21
1.484375
 31
0.0
  0
LINE
  5
128
330
DD
100
AcDbEntity
  8
AM_4
100
AcDbLine
 10
-1.735
 20
1.484375
 30
0.0
 11
-1.735
 21
1.23125
 31
0.0
  0
LINE
  5
129
330
DD
100
AcDbEntity
  8
AM_4
100
AcDbLine
 10
1.735
 20
1.23125
 30
0.0
 11
1.735
 21
1.484375
 31
0.0
  0
ENDBLK
  5
E0
330
DD
100
AcDbEntity
  8
0
100
AcDbBlockEnd
  0
BLOCK
  5
12C
330
12A
100
AcDbEntity
  8
0
100
AcDbBlockBegin
  2
4_405015E_Inch_0_in_070308_4
 70
     2
 10
0.0
 20
0.0
 30
0.0
  3
4_405015E_Inch_0_in_070308_4
  1

  0
ATTDEF
  5
12E
330
12A
100
AcDbEntity
  8
AM_6
100
AcDbText
 10
6.888921671481428
 20
0.2187500000000002
 30
0.0
 40
0.5
  1
405015E -Inch
100
AcDbAttributeDefinition
  3

  2
NN
 70
     8
280
     0
  0
ATTDEF
  5
12F
330
12A
100
AcDbEntity
  8
AM_6
100
AcDbText
 10
6.888921671481428
 20
-0.2812499999999998
 30
0.0
 40
0.5
  1
Grease Fitting
100
AcDbAttributeDefinition
  3

  2
NT
 70
     8
280
     0
  0
ATTDEF
  5
130
330
12A
100
AcDbEntity
  8
AM_6
100
AcDbText
 10
6.888921671481428
 20
-0.7812499999999998
 30
0.0
 40
0.5
  1
405015E-Inch
100
AcDbAttributeDefinition
  3

  2
NB
 70
     8
280
     0
  0
ATTDEF
  5
131
330
12A
100
AcDbEntity
  8
AM_6
100
AcDbText
 10
6.888921671481428
 20
-1.28125
 30
0.0
 40
0.5
  1
$MN.-Inch
100
AcDbAttributeDefinition
  3

  2
NBSYN
 70
     8
280
     0
  0
ATTDEF
  5
132
330
12A
100
AcDbEntity
  8
AM_6
100
AcDbText
 10
6.888921671481428
 20
-1.78125
 30
0.0
 40
0.5
  1
405015E
100
AcDbAttributeDefinition
  3

  2
LINA
 70
     8
280
     0
  0
ATTDEF
  5
133
330
12A
100
AcDbEntity
  8
AM_6
100
AcDbText
 10
6.888921671481428
 20
-2.28125
 30
0.0
 40
0.5
  1
405015E
100
AcDbAttributeDefinition
  3

  2
MN
 70
     8
280
     0
  0
ATTDEF
  5
134
330
12A
100
AcDbEntity
  8
AM_6
100
AcDbText
 10
6.888921671481428
 20
-2.78125
 30
0.0
 40
0.5
  1
1/8 x 27PTF
100
AcDbAttributeDefinition
  3

  2
T
 70
     8
280
     0
  0
ATTDEF
  5
135
330
12A
100
AcDbEntity
  8
AM_6
100
AcDbText
 10
6.888921671481428
 20
-3.28125
 30
0.0
 40
0.5
  1
baldor
100
AcDbAttributeDefinition
  3

  2
COMPANY
 70
     8
280
     0
  0
ELLIPSE
  5
136
330
12A
100
AcDbEntity
  8
AM_9
100
AcDbEllipse
 10
1.48
 20
0.0000000000000002
 30
0.0
 11
9.913691727296317E-18
 21
0.161902872472269
 31
0.0
210
0.0
220
0.0
230
1.0
 40
0.8660254037844383
 41
0.0
 42
6.283185307179586
  0
LINE
  5
137
330
12A
100
AcDbEntity
  8
AM_9
100
AcDbLine
 10
1.798484882381598
 20
-0.0669800211867332
 30
0.0
 11
1.7765625
 21
-0.1093749999999998
 31
0.0
  0
LINE
  5
138
330
12A
100
AcDbEntity
  8
AM_9
100
AcDbLine
 10
1.835783799848308
 20
0.0000000000000002
 30
0.0
 11
1.811228063708996
 21
-0.0434877043119757
 31
0.0
  0
LINE
  5
139
330
12A
100
AcDbEntity
  8
AM_9
100
AcDbLine
 10
1.812647751004735
 20
0.0409144074585188
 30
0.0
 11
1.835783799848308
 21
0.0000000000000002
 31
0.0
  0
LINE
  5
13A
330
12A
100
AcDbEntity
  8
AM_9
100
AcDbLine
 10
1.7765625
 20
0.1093750000000002
 30
0.0
 11
1.797467299630489
 21
0.0688889725014224
 31
0.0
  0
LWPOLYLINE
  5
13B
330
12A
100
AcDbEntity
  8
AM_9
100
AcDbPolyline
 90
        3
 70
     0
 43
0.0
 10
1.8265625
 20
-0.1093749999999998
 10
1.852709559607483
 20
-0.0546874999999998
 10
1.876716200151693
 20
0.0000000000000002
  0
LWPOLYLINE
  5
13C
330
12A
100
AcDbEntity
  8
AM_9
100
AcDbPolyline
 90
        3
 70
     0
 43
0.0
 10
1.876716200151693
 20
0.0000000000000002
 10
1.852821932388115
 20
0.0544416102741497
 10
1.8265625
 20
0.1093750000000001
  0
LWPOLYLINE
  5
13D
330
12A
100
AcDbEntity
  8
AM_9
100
AcDbPolyline
 90
        3
 70
     0
 43
0.0
 10
1.726408799848308
 20
0.2187500000000002
 10
1.750303067611885
 20
0.1643083897258506
 10
1.7765625
 20
0.1093750000000002
  0
LWPOLYLINE
  5
13E
330
12A
100
AcDbEntity
  8
AM_9
100
AcDbPolyline
 90
        3
 70
     0
 43
0.0
 10
1.7765625
 20
-0.1093749999999998
 10
1.750415440392518
 20
-0.1640624999999998
 10
1.726408799848308
 20
-0.2187499999999998
  0
LINE
  5
13F
330
12A
100
AcDbEntity
  8
AM_9
100
AcDbLine
 10
1.876716200151693
 20
0.0000000000000002
 30
0.0
 11
1.835783799848308
 21
0.0000000000000002
 31
0.0
  0
LINE
  5
140
330
12A
100
AcDbEntity
  8
AM_9
100
AcDbLine
 10
1.489046710626155
 20
-0.1983264404626878
 30
0.0
 11
1.602854897832291
 21
-0.2054502516015133
 31
0.0
  0
LINE
  5
141
330
12A
100
AcDbEntity
  8
AM_9
100
AcDbLine
 10
1.602854897832291
 20
0.2054502516015136
 30
0.0
 11
1.489046710626155
 21
0.1983264404626881
 31
0.0
  0
ELLIPSE
  5
142
330
12A
100
AcDbEntity
  8
AM_9
100
AcDbEllipse
 10
1.662500000015128
 20
0.0000000000077653
 30
0.0
 11
-4.018372309420732E-17
 21
-0.2187499999846748
 31
0.0
210
0.0
220
0.0
230
1.0
 40
0.8660254037698993
 41
1.032970329551008
 42
2.108622323977814
  0
ELLIPSE
  5
143
330
12A
100
AcDbEntity
  8
AM_9
100
AcDbEllipse
 10
1.662500000000001
 20
-0.000000000000001
 30
0.0
 11
-3.926523799766142E-17
 21
-0.2137499999999968
 31
0.0
210
0.0
220
0.0
230
1.0
 40
0.8660254037844498
 41
0.986286852235442
 42
2.155305801354362
  0
ELLIPSE
  5
144
330
12A
100
AcDbEntity
  8
AM_9
100
AcDbEllipse
 10
1.671659099270439
 20
0.0000000000000013
 30
0.0
 11
-3.169399141454501E-17
 21
-0.1725340532830179
 31
0.0
210
0.0
220
0.0
230
1.0
 40
0.8660254037844445
 41
0.6732704101475022
 42
2.468322243442283
  0
LINE
  5
145
330
12A
100
AcDbEntity
  8
AM_9
100
AcDbLine
 10
1.7825
 20
0.0703562363973517
 30
0.0
 11
1.775260904853149
 21
0.0796165180238022
 31
0.0
  0
LINE
  5
146
330
12A
100
AcDbEntity
  8
AM_9
100
AcDbLine
 10
1.775260904853149
 20
-0.0796165180238018
 30
0.0
 11
1.7825
 21
-0.0703562363973513
 31
0.0
  0
ELLIPSE
  5
147
330
12A
100
AcDbEntity
  8
AM_9
100
AcDbEllipse
 10
1.698876560809287
 20
-0.0000000000000001
 30
0.0
 11
-2.182689656893348E-17
 21
-0.1188200907348971
 31
0.0
210
0.0
220
0.0
230
1.0
 40
0.8660254037844354
 41
0.0521714424104927
 42
3.089421211179301
  0
LINE
  5
148
330
12A
100
AcDbEntity
  8
AM_9
100
AcDbLine
 10
1.715000000000001
 20
-0.1049999999999998
 30
0.0
 11
1.73
 21
-0.1049999999999998
 31
0.0
  0
LINE
  5
149
330
12A
100
AcDbEntity
  8
AM_9
100
AcDbLine
 10
1.73
 20
0.1050000000000002
 30
0.0
 11
1.715000000000001
 21
0.1050000000000002
 31
0.0
  0
ELLIPSE
  5
14A
330
12A
100
AcDbEntity
  8
AM_9
100
AcDbEllipse
 10
1.730000000000001
 20
0.0000000000000004
 30
0.0
 11
-1.928818708657077E-17
 21
-0.1049999999999998
 31
0.0
210
0.0
220
0.0
230
1.0
 40
0.8660254037844425
 41
5.235987755982988
 42
10.47197551196598
  0
ELLIPSE
  5
14B
330
12A
100
AcDbEntity
  8
AM_9
100
AcDbEllipse
 10
1.714999999999996
 20
-0.0000000000000037
 30
0.0
 11
-1.928818708657010E-17
 21
-0.1049999999999961
 31
0.0
210
0.0
220
0.0
230
1.0
 40
0.8660254037844327
 41
5.858105981271637
 42
9.849857286677295
  0
ELLIPSE
  5
14C
330
12A
100
AcDbEntity
  8
AM_9
100
AcDbEllipse
 10
1.759999999999997
 20
-0.0000000000000017
 30
0.0
 11
-2.479909768273469E-17
 21
-0.1350000000000043
 31
0.0
210
0.0
220
0.0
230
1.0
 40
0.8660254037844348
 41
0.775109010715151
 42
2.366483642874663
  0
ELLIPSE
  5
14D
330
12A
100
AcDbEntity
  8
AM_9
100
AcDbEllipse
 10
1.6125
 20
0.0000000000000003
 30
0.0
 11
-3.779601035290910E-17
 21
-0.2057518972230696
 31
0.0
210
0.0
220
0.0
230
1.0
 40
0.8660254037844388
 41
0.0
 42
6.283185307179586
  0
ELLIPSE
  5
14E
330
12A
100
AcDbEntity
  8
AM_9
100
AcDbEllipse
 10
1.498357377154474
 20
0.0000000000000003
 30
0.0
 11
-3.648546613377884E-17
 21
-0.1986176267812153
 31
0.0
210
0.0
220
0.0
230
1.0
 40
0.866025403784438
 41
0.0
 42
6.283185307179586
  0
ELLIPSE
  5
14F
330
12A
100
AcDbEntity
  8
AM_9
100
AcDbEllipse
 10
1.612499999999999
 20
0.0000000000000002
 30
0.0
 11
-4.018372309702250E-17
 21
-0.2187499999999998
 31
0.0
210
0.0
220
0.0
230
1.0
 40
0.8660254037844335
 41
0.0
 42
6.283185307179586
  0
LWPOLYLINE
  5
150
330
12A
100
AcDbEntity
  8
AM_4
100
AcDbPolyline
 90
        3
 70
     0
 43
0.0
 10
1.767341200151693
 20
-0.2187499999999998
 10
1.797888542662265
 20
-0.1643083897258502
 10
1.8265625
 20
-0.1093749999999998
  0
LWPOLYLINE
  5
151
330
12A
100
AcDbEntity
  8
AM_4
100
AcDbPolyline
 90
        3
 70
     0
 43
0.0
 10
1.8265625
 20
0.1093750000000001
 10
1.798022059607483
 20
0.1640625000000001
 10
1.767341200151693
 20
0.2187500000000002
  0
ELLIPSE
  5
152
330
12A
100
AcDbEntity
  8
AM_4
100
AcDbEllipse
 10
1.662500000000001
 20
0.0000000000000009
 30
0.0
 11
-4.018372309702238E-17
 21
-0.2187499999999993
 31
0.0
210
0.0
220
0.0
230
1.0
 40
0.8660254037844378
 41
2.10862232397478
 42
7.316155636794594
  0
ELLIPSE
  5
153
330
12A
100
AcDbEntity
  8
AM_4
100
AcDbEllipse
 10
1.662500000000001
 20
0.0000000000000002
 30
0.0
 11
-3.926523799766203E-17
 21
-0.2137500000000001
 31
0.0
210
0.0
220
0.0
230
1.0
 40
0.8660254037844385
 41
2.155305801354351
 42
7.269472159415029
  0
LINE
  5
154
330
12A
100
AcDbEntity
  8
AM_4
100
AcDbLine
 10
1.767341200151693
 20
-0.2187499999999998
 30
0.0
 11
1.507658799848308
 21
-0.2187499999999998
 31
0.0
  0
LWPOLYLINE
  5
155
330
12A
100
AcDbEntity
  8
AM_4
100
AcDbPolyline
 90
        3
 70
     0
 43
0.0
 10
1.4984375
 20
-0.1093749999999998
 10
1.524584559607483
 20
-0.1640624999999998
 10
1.548591200151693
 20
-0.2187499999999998
  0
LWPOLYLINE
  5
156
330
12A
100
AcDbEntity
  8
AM_4
100
AcDbPolyline
 90
        3
 70
     0
 43
0.0
 10
1.439216200151693
 20
0.0000000000000002
 10
1.469763542662265
 20
-0.0544416102741494
 10
1.4984375
 20
-0.1093749999999998
  0
LWPOLYLINE
  5
157
330
12A
100
AcDbEntity
  8
AM_4
100
AcDbPolyline
 90
        3
 70
     0
 43
0.0
 10
1.4484375
 20
-0.1093749999999998
 10
1.422290440392518
 20
-0.0546874999999998
 10
1.398283799848308
 20
0.0000000000000002
  0
LWPOLYLINE
  5
158
330
12A
100
AcDbEntity
  8
AM_4
100
AcDbPolyline
 90
        3
 70
     0
 43
0.0
 10
1.507658799848308
 20
-0.2187499999999998
 10
1.477111457337736
 20
-0.1643083897258502
 10
1.4484375
 20
-0.1093749999999998
  0
LINE
  5
159
330
12A
100
AcDbEntity
  8
AM_4
100
AcDbLine
 10
1.439216200151693
 20
0.0000000000000002
 30
0.0
 11
1.398283799848308
 21
0.0000000000000002
 31
0.0
  0
LWPOLYLINE
  5
15A
330
12A
100
AcDbEntity
  8
AM_4
100
AcDbPolyline
 90
        3
 70
     0
 43
0.0
 10
1.4984375
 20
0.1093750000000001
 10
1.469897059607483
 20
0.0546875000000001
 10
1.439216200151693
 20
0.0000000000000002
  0
LWPOLYLINE
  5
15B
330
12A
100
AcDbEntity
  8
AM_4
100
AcDbPolyline
 90
        3
 70
     0
 43
0.0
 10
1.548591200151693
 20
0.2187500000000002
 10
1.524696932388116
 20
0.1643083897258505
 10
1.4984375
 20
0.1093750000000001
  0
LINE
  5
15C
330
12A
100
AcDbEntity
  8
AM_4
100
AcDbLine
 10
1.767341200151693
 20
0.2187500000000002
 30
0.0
 11
1.507658799848308
 21
0.2187500000000002
 31
0.0
  0
LWPOLYLINE
  5
15D
330
12A
100
AcDbEntity
  8
AM_4
100
AcDbPolyline
 90
        3
 70
     0
 43
0.0
 10
1.4484375
 20
0.1093750000000002
 10
1.476977940392518
 20
0.1640625000000001
 10
1.507658799848308
 20
0.2187500000000002
  0
LWPOLYLINE
  5
15E
330
12A
100
AcDbEntity
  8
AM_4
100
AcDbPolyline
 90
        3
 70
     0
 43
0.0
 10
1.398283799848308
 20
0.0000000000000002
 10
1.422178067611885
 20
0.0544416102741498
 10
1.4484375
 20
0.1093750000000002
  0
ELLIPSE
  5
15F
330
12A
100
AcDbEntity
  8
AM_4
100
AcDbEllipse
 10
1.671659099270441
 20
0.0000000000000002
 30
0.0
 11
-3.169399141454455E-17
 21
-0.1725340532830154
 31
0.0
210
0.0
220
0.0
230
1.0
 40
0.8660254037844365
 41
2.468322243442297
 42
6.956455717327081
  0
ELLIPSE
  5
160
330
12A
100
AcDbEntity
  8
AM_4
100
AcDbEllipse
 10
1.698876560809287
 20
0.0000000000000002
 30
0.0
 11
-2.182689656893355E-17
 21
-0.1188200907348975
 31
0.0
210
0.0
220
0.0
230
1.0
 40
0.8660254037844457
 41
3.089421211179301
 42
6.335356749590079
  0
ELLIPSE
  5
161
330
12A
100
AcDbEntity
  8
AM_4
100
AcDbEllipse
 10
1.715
 20
0.0000000000000002
 30
0.0
 11
-1.928818708657083E-17
 21
-0.1050000000000001
 31
0.0
210
0.0
220
0.0
230
1.0
 40
0.8660254037844378
 41
3.566671979497762
 42
5.858105981271616
  0
LINE
  5
162
330
12A
100
AcDbEntity
  8
AM_4
100
AcDbLine
 10
1.65125
 20
-0.0524999999999999
 30
0.0
 11
1.65875
 21
-0.0674999999999999
 31
0.0
  0
LINE
  5
163
330
12A
100
AcDbEntity
  8
AM_4
100
AcDbLine
 10
1.65875
 20
0.0675000000000002
 30
0.0
 11
1.65125
 21
0.0525000000000002
 31
0.0
  0
ELLIPSE
  5
164
330
12A
100
AcDbEntity
  8
AM_4
100
AcDbEllipse
 10
1.760000000000003
 20
0.0000000000000002
 30
0.0
 11
-2.479909768273416E-17
 21
-0.1350000000000014
 31
0.0
210
0.0
220
0.0
230
1.0
 40
0.8660254037844518
 41
2.366483642874699
 42
7.058294317894683
  0
ELLIPSE
  5
165
330
12A
100
AcDbEntity
  8
AM_4
100
AcDbEllipse
 10
1.729999999999999
 20
0.0000000000000002
 30
0.0
 11
-1.928818708657065E-17
 21
-0.1049999999999991
 31
0.0
210
0.0
220
0.0
230
1.0
 40
0.8660254037844375
 41
4.188790204786386
 42
5.235987755982995
  0
LINE
  5
166
330
12A
100
AcDbEntity
  8
AM_4
100
AcDbLine
 10
1.862226847792108
 20
0.0733474205218689
 30
0.0
 11
1.84181531073162
 21
0.0964365416902993
 31
0.0
  0
LINE
  5
167
330
12A
100
AcDbEntity
  8
AM_4
100
AcDbLine
 10
1.84181531073162
 20
-0.0964365416902989
 30
0.0
 11
1.862226847792108
 21
-0.0733474205218685
 31
0.0
  0
ELLIPSE
  5
168
330
12A
100
AcDbEntity
  8
AM_4
100
AcDbEllipse
 10
1.800000000000004
 20
0.0000000000000022
 30
0.0
 11
-1.886162459184589E-17
 21
-0.1026779019331837
 31
0.0
210
0.0
220
0.0
230
1.0
 40
0.8660254037844328
 41
0.0
 42
6.283185307179586
  0
ENDBLK
  5
12D
330
12A
100
AcDbEntity
  8
0
100
AcDbBlockEnd
  0
BLOCK
  5
16B
330
169
100
AcDbEntity
  8
0
100
AcDbBlockBegin
  2
5_070308H_0_in_070308_4
 70
     2
 10
0.0
 20
0.0
 30
0.0
  3
5_070308H_0_in_070308_4
  1

  0
ATTDEF
  5
16D
330
169
100
AcDbEntity
  8
AM_6
100
AcDbText
 10
10.21875
 20
1.736378205128205
 30
0.0
 40
0.5
  1
P2B-S2-(Contact Seal)-Housing
100
AcDbAttributeDefinition
  3

  2
NN
 70
     8
280
     0
  0
ATTDEF
  5
16E
330
169
100
AcDbEntity
  8
AM_6
100
AcDbText
 10
10.21875
 20
1.236378205128205
 30
0.0
 40
0.5
  1
S-2000 Pillow Block Bearing -Inch (2-Bolt Base)
100
AcDbAttributeDefinition
  3

  2
NT
 70
     8
280
     0
  0
ATTDEF
  5
16F
330
169
100
AcDbEntity
  8
AM_6
100
AcDbText
 10
10.21875
 20
0.7363782051282051
 30
0.0
 40
0.5
  1
070308H
100
AcDbAttributeDefinition
  3

  2
NB
 70
     8
280
     0
  0
ATTDEF
  5
170
330
169
100
AcDbEntity
  8
AM_6
100
AcDbText
 10
10.21875
 20
0.2363782051282051
 30
0.0
 40
0.5
  1
$PN.H
100
AcDbAttributeDefinition
  3

  2
NBSYN
 70
     8
280
     0
  0
ATTDEF
  5
171
330
169
100
AcDbEntity
  8
AM_6
100
AcDbText
 10
10.21875
 20
-0.2636217948717949
 30
0.0
 40
0.5
  1
070308
100
AcDbAttributeDefinition
  3

  2
LINA
 70
     8
280
     0
  0
ATTDEF
  5
172
330
169
100
AcDbEntity
  8
AM_6
100
AcDbText
 10
10.21875
 20
-0.7636217948717949
 30
0.0
 40
0.5
  1
2-15/16
100
AcDbAttributeDefinition
  3

  2
SS
 70
     8
280
     0
  0
ATTDEF
  5
173
330
169
100
AcDbEntity
  8
AM_6
100
AcDbText
 10
10.21875
 20
-1.263621794871795
 30
0.0
 40
0.5
  1
070308
100
AcDbAttributeDefinition
  3

  2
PN
 70
     8
280
     0
  0
ATTDEF
  5
174
330
169
100
AcDbEntity
  8
AM_6
100
AcDbText
 10
10.21875
 20
-1.763621794871795
 30
0.0
 40
0.5
  1
P2B-S2-215RE
100
AcDbAttributeDefinition
  3

  2
DESCRIPTION
 70
     8
280
     0
  0
ATTDEF
  5
175
330
169
100
AcDbEntity
  8
AM_6
100
AcDbText
 10
10.21875
 20
-2.263621794871795
 30
0.0
 40
0.5
  1
Expansion Type
100
AcDbAttributeDefinition
  3

  2
EF
 70
     8
280
     0
  0
ATTDEF
  5
176
330
169
100
AcDbEntity
  8
AM_6
100
AcDbText
 10
10.21875
 20
-2.763621794871795
 30
0.0
 40
0.5
  1
2
100
AcDbAttributeDefinition
  3

  2
EF1
 70
     8
280
     0
  0
ATTDEF
  5
177
330
169
100
AcDbEntity
  8
AM_6
100
AcDbText
 10
10.21875
 20
-3.263621794871795
 30
0.0
 40
0.5
  1
3-19/32
100
AcDbAttributeDefinition
  3

  2
A
 70
     8
280
     0
  0
ATTDEF
  5
178
330
169
100
AcDbEntity
  8
AM_6
100
AcDbText
 10
10.21875
 20
-3.763621794871795
 30
0.0
 40
0.5
  1
10-7/16
100
AcDbAttributeDefinition
  3

  2
B
 70
     8
280
     0
  0
ATTDEF
  5
179
330
169
100
AcDbEntity
  8
AM_6
100
AcDbText
 10
10.21875
 20
-4.263621794871795
 30
0.0
 40
0.5
  1
3-5/64
100
AcDbAttributeDefinition
  3

  2
C
 70
     8
280
     0
  0
ATTDEF
  5
17A
330
169
100
AcDbEntity
  8
AM_6
100
AcDbText
 10
10.21875
 20
-4.763621794871795
 30
0.0
 40
0.5
  1
7-15/16
100
AcDbAttributeDefinition
  3

  2
DMIN
 70
     8
280
     0
  0
ATTDEF
  5
17B
330
169
100
AcDbEntity
  8
AM_6
100
AcDbText
 10
10.21875
 20
-5.263621794871795
 30
0.0
 40
0.5
  1
8-5/16
100
AcDbAttributeDefinition
  3

  2
DMAX
 70
     8
280
     0
  0
ATTDEF
  5
17C
330
169
100
AcDbEntity
  8
AM_6
100
AcDbText
 10
10.21875
 20
-5.763621794871795
 30
0.0
 40
0.5
  1
3/4
100
AcDbAttributeDefinition
  3

  2
F
 70
     8
280
     0
  0
ATTDEF
  5
17D
330
169
100
AcDbEntity
  8
AM_6
100
AcDbText
 10
10.21875
 20
-6.263621794871795
 30
0.0
 40
0.5
  1
1-1/16
100
AcDbAttributeDefinition
  3

  2
G
 70
     8
280
     0
  0
ATTDEF
  5
17E
330
169
100
AcDbEntity
  8
AM_6
100
AcDbText
 10
10.21875
 20
-6.763621794871795
 30
0.0
 40
0.5
  1
1-7/8
100
AcDbAttributeDefinition
  3

  2
H
 70
     8
280
     0
  0
ATTDEF
  5
17F
330
169
100
AcDbEntity
  8
AM_6
100
AcDbText
 10
10.21875
 20
-7.263621794871795
 30
0.0
 40
0.5
  1
6-3/8
100
AcDbAttributeDefinition
  3

  2
J
 70
     8
280
     0
  0
ATTDEF
  5
180
330
169
100
AcDbEntity
  8
AM_6
100
AcDbText
 10
10.21875
 20
-7.763621794871795
 30
0.0
 40
0.5
  1
4-45/64
100
AcDbAttributeDefinition
  3

  2
L
 70
     8
280
     0
  0
ATTDEF
  5
181
330
169
100
AcDbEntity
  8
AM_6
100
AcDbText
 10
10.21875
 20
-8.263621794871796
 30
0.0
 40
0.5
  1
3-1/4
100
AcDbAttributeDefinition
  3

  2
M
 70
     8
280
     0
  0
ATTDEF
  5
182
330
169
100
AcDbEntity
  8
AM_6
100
AcDbText
 10
10.21875
 20
-8.763621794871796
 30
0.0
 40
0.5
  1
1-15/64
100
AcDbAttributeDefinition
  3

  2
R
 70
     8
280
     0
  0
ATTDEF
  5
183
330
169
100
AcDbEntity
  8
AM_6
100
AcDbText
 10
10.21875
 20
-9.263621794871796
 30
0.0
 40
0.5
  1
2-23/64
100
AcDbAttributeDefinition
  3

  2
S
 70
     8
280
     0
  0
ATTDEF
  5
184
330
169
100
AcDbEntity
  8
AM_6
100
AcDbText
 10
10.21875
 20
-9.763621794871796
 30
0.0
 40
0.5
  1
1/4
100
AcDbAttributeDefinition
  3

  2
X
 70
     8
280
     0
  0
ATTDEF
  5
185
330
169
100
AcDbEntity
  8
AM_6
100
AcDbText
 10
10.21875
 20
-10.2636217948718
 30
0.0
 40
0.5
  1
0.025
100
AcDbAttributeDefinition
  3

  2
Y
 70
     8
280
     0
  0
ATTDEF
  5
186
330
169
100
AcDbEntity
  8
AM_6
100
AcDbText
 10
10.21875
 20
-10.7636217948718
 30
0.0
 40
0.5
  1
3-15/32
100
AcDbAttributeDefinition
  3

  2
Z
 70
     8
280
     0
  0
ATTDEF
  5
187
330
169
100
AcDbEntity
  8
AM_6
100
AcDbText
 10
10.21875
 20
-11.2636217948718
 30
0.0
 40
0.5
  1
1
100
AcDbAttributeDefinition
  3

  2
ST1
 70
     8
280
     0
  0
ATTDEF
  5
188
330
169
100
AcDbEntity
  8
AM_6
100
AcDbText
 10
10.21875
 20
-11.7636217948718
 30
0.0
 40
0.5
  1
baldor
100
AcDbAttributeDefinition
  3

  2
COMPANY
 70
     8
280
     0
  0
LINE
  5
189
330
169
100
AcDbEntity
  8
AM_9
100
AcDbLine
 10
2.55905
 20
-1.23125
 30
0.0
 11
2.55905
 21
1.23125
 31
0.0
  0
LINE
  5
18A
330
169
100
AcDbEntity
  8
AM_9
100
AcDbLine
 10
-2.55905
 20
1.23125
 30
0.0
 11
-2.55905
 21
-1.23125
 31
0.0
  0
LWPOLYLINE
  5
18B
330
169
100
AcDbEntity
  8
AM_9
100
AcDbPolyline
 90
        8
 70
     0
 43
0.0
 10
1.873925110298122
 20
-0.3335726046502487
 10
1.884810538198411
 20
-0.3177646825454772
 10
1.911352229407801
 20
-0.2726500497556065
 10
1.933626762619046
 20
-0.2237436081583578
 10
1.951374674831367
 20
-0.1718090088395827
 10
1.964312659406173
 20
-0.1178279975171208
 10
1.972598577822843
 20
-0.0593417405227412
 10
1.975383036798853
 20
0.0000000000000001
  0
LWPOLYLINE
  5
18C
330
169
100
AcDbEntity
  8
AM_9
100
AcDbPolyline
 90
        9
 70
     0
 43
0.0
 10
1.582952344324665
 20
-0.4994395078008799
 10
1.606339370225808
 20
-0.4973658433712164
 10
1.65333333543786
 20
-0.488609561261362
 10
1.69858508730906
 20
-0.4738811287933647
 10
1.741638588949748
 20
-0.4532695089039598
 10
1.782237653665276
 20
-0.4270449526032058
 10
1.81971287205638
 20
-0.3956957706948057
 10
1.854103572856929
 20
-0.3590320242874026
 10
1.873925110298122
 20
-0.3335726046502487
  0
LINE
  5
18D
330
169
100
AcDbEntity
  8
AM_9
100
AcDbLine
 10
1.562490195188678
 20
-0.4999999998718208
 30
0.0
 11
1.582952344324665
 21
-0.4994395078008799
 31
0.0
  0
LWPOLYLINE
  5
18E
330
169
100
AcDbEntity
  8
AM_9
100
AcDbPolyline
 90
        3
 70
     0
 43
0.0
 10
1.580820137042235
 20
0.4995505371680695
 10
1.563423490247861
 20
0.4999576385637125
 10
1.56250456945629
 20
0.4999999999721599
  0
LWPOLYLINE
  5
18F
330
169
100
AcDbEntity
  8
AM_9
100
AcDbPolyline
 90
        9
 70
     0
 43
0.0
 10
1.873881377130911
 20
0.3336331797849037
 10
1.859906921177804
 20
0.3519413443903825
 10
1.82602509781878
 20
0.3895489252096658
 10
1.788738990488811
 20
0.4221855673740847
 10
1.748029413643476
 20
0.4496083395394401
 10
1.70444592849057
 20
0.4714298852590719
 10
1.658753493716552
 20
0.4872233292992731
 10
1.611722083423821
 20
0.4966821469390724
 10
1.580820137042235
 20
0.4995505371680695
  0
LWPOLYLINE
  5
190
330
169
100
AcDbEntity
  8
AM_9
100
AcDbPolyline
 90
        8
 70
     0
 43
0.0
 10
1.975383036798853
 20
0.0000000000000001
 10
1.972915401062801
 20
0.0556432743052308
 10
1.965590224421584
 20
0.110756139668272
 10
1.953524102725612
 20
0.1642984711205212
 10
1.936743653549515
 20
0.2157199758664133
 10
1.915408015826497
 20
0.2646027368593395
 10
1.889846045969755
 20
0.3100561284680117
 10
1.873881377130911
 20
0.3336331797849037
  0
ELLIPSE
  5
191
330
169
100
AcDbEntity
  8
AM_9
100
AcDbEllipse
 10
1.587500000000563
 20
0.0000000000029673
 30
0.0
 11
3.061616997886550E-17
 21
0.5000000000029668
 31
0.0
210
0.0
220
0.0
230
1.0
 40
0.8660254037844164
 41
3.141592653589793
 42
3.175362428535395
  0
ELLIPSE
  5
192
330
169
100
AcDbEntity
  8
AM_9
100
AcDbEllipse
 10
1.5875
 20
-0.0000000000000001
 30
0.0
 11
3.061616997868374E-17
 21
0.4999999999999985
 31
0.0
210
0.0
220
0.0
230
1.0
 40
0.8660254037844384
 41
3.189518441288691
 42
6.102744000009751
  0
ELLIPSE
  5
193
330
169
100
AcDbEntity
  8
AM_9
100
AcDbEllipse
 10
1.587499999954881
 20
0.0000000000132371
 30
0.0
 11
3.061616997787314E-17
 21
0.4999999999867604
 31
0.0
210
0.0
220
0.0
230
1.0
 40
0.8660254037859383
 41
6.264351138782827
 42
6.270267891391923
  0
LINE
  5
196
330
169
100
AcDbEntity
  8
AM_7
100
AcDbLine
 10
0.0
 20
1.736378205128205
 30
0.0
 11
0.0
 21
-2.2890625
 31
0.0
  0
LINE
  5
197
330
169
100
AcDbEntity
  8
AM_7
100
AcDbLine
 10
-4.615625
 20
0.0000000000000004
 30
0.0
 11
-3.509375
 21
0.0000000000000006
 31
0.0
  0
LINE
  5
198
330
169
100
AcDbEntity
  8
AM_7
100
AcDbLine
 10
-4.15625
 20
-0.4593749999999996
 30
0.0
 11
-4.15625
 21
0.4593750000000005
 31
0.0
  0
LINE
  5
199
330
169
100
AcDbEntity
  8
AM_7
100
AcDbLine
 10
3.509375
 20
-0.0000000000000001
 30
0.0
 11
4.615625
 21
-0.0000000000000002
 31
0.0
  0
LINE
  5
19A
330
169
100
AcDbEntity
  8
AM_7
100
AcDbLine
 10
4.15625
 20
-0.4593750000000002
 30
0.0
 11
4.15625
 21
0.4593749999999999
 31
0.0
  0
LINE
  5
19B
330
169
100
AcDbEntity
  8
AM_7
100
AcDbLine
 10
-3.96875
 20
-0.4593749999999994
 30
0.0
 11
-3.96875
 21
0.4593750000000006
 31
0.0
  0
LINE
  5
19C
330
169
100
AcDbEntity
  8
AM_7
100
AcDbLine
 10
3.96875
 20
-0.4593750000000002
 30
0.0
 11
3.96875
 21
0.4593749999999999
 31
0.0
  0
LINE
  5
19D
330
169
100
AcDbEntity
  8
AM_4
100
AcDbLine
 10
4.910937500000001
 20
-1.5390625
 30
0.0
 11
5.21875
 21
-1.23125
 31
0.0
  0
LINE
  5
19E
330
169
100
AcDbEntity
  8
AM_4
100
AcDbLine
 10
5.21875
 20
1.23125
 30
0.0
 11
4.9109375
 21
1.5390625
 31
0.0
  0
LINE
  5
19F
330
169
100
AcDbEntity
  8
AM_4
100
AcDbLine
 10
5.21875
 20
-1.23125
 30
0.0
 11
5.21875
 21
1.23125
 31
0.0
  0
LINE
  5
1A0
330
169
100
AcDbEntity
  8
AM_4
100
AcDbLine
 10
-4.9109375
 20
1.5390625
 30
0.0
 11
-5.21875
 21
1.23125
 31
0.0
  0
LINE
  5
1A1
330
169
100
AcDbEntity
  8
AM_4
100
AcDbLine
 10
-5.21875
 20
-1.23125
 30
0.0
 11
-5.21875
 21
1.23125
 31
0.0
  0
LINE
  5
1A2
330
169
100
AcDbEntity
  8
AM_4
100
AcDbLine
 10
-5.21875
 20
-1.23125
 30
0.0
 11
-4.9109375
 21
-1.5390625
 31
0.0
  0
LINE
  5
1A3
330
169
100
AcDbEntity
  8
AM_4
100
AcDbLine
 10
4.9109375
 20
1.5390625
 30
0.0
 11
3.459077380952381
 21
1.5390625
 31
0.0
  0
LINE
  5
1A4
330
169
100
AcDbEntity
  8
AM_4
100
AcDbLine
 10
4.910937500000001
 20
-1.5390625
 30
0.0
 11
3.459077380952382
 21
-1.5390625
 31
0.0
  0
ARC
  5
1A5
330
169
100
AcDbEntity
  8
AM_4
100
AcDbCircle
 10
3.96875
 20
-0.0000000000000001
 30
0.0
 40
0.4374999999999999
100
AcDbArc
 50
90.0
 51
270.0
  0
LINE
  5
1A6
330
169
100
AcDbEntity
  8
AM_4
100
AcDbLine
 10
4.15625
 20
0.4374999999999998
 30
0.0
 11
3.96875
 21
0.4374999999999998
 31
0.0
  0
ARC
  5
1A7
330
169
100
AcDbEntity
  8
AM_4
100
AcDbCircle
 10
4.15625
 20
-0.0000000000000002
 30
0.0
 40
0.4374999999999998
100
AcDbArc
 50
270.0
 51
90.0
  0
LINE
  5
1A8
330
169
100
AcDbEntity
  8
AM_4
100
AcDbLine
 10
3.96875
 20
-0.4375
 30
0.0
 11
4.15625
 21
-0.4375000000000001
 31
0.0
  0
LINE
  5
1A9
330
169
100
AcDbEntity
  8
AM_4
100
AcDbLine
 10
5.112500000000001
 20
-1.3375
 30
0.0
 11
5.112500000000001
 21
1.337499999999999
 31
0.0
  0
LINE
  5
1AA
330
169
100
AcDbEntity
  8
AM_4
100
AcDbLine
 10
-3.45907738095238
 20
-1.5390625
 30
0.0
 11
-4.9109375
 21
-1.5390625
 31
0.0
  0
LINE
  5
1AB
330
169
100
AcDbEntity
  8
AM_4
100
AcDbLine
 10
-3.459077380952382
 20
1.5390625
 30
0.0
 11
-4.9109375
 21
1.5390625
 31
0.0
  0
LINE
  5
1AC
330
169
100
AcDbEntity
  8
AM_4
100
AcDbLine
 10
-3.96875
 20
0.4375000000000005
 30
0.0
 11
-4.15625
 21
0.4375000000000004
 31
0.0
  0
ARC
  5
1AD
330
169
100
AcDbEntity
  8
AM_4
100
AcDbCircle
 10
-3.96875
 20
0.0000000000000005
 30
0.0
 40
0.4375
100
AcDbArc
 50
270.0
 51
90.0
  0
LINE
  5
1AE
330
169
100
AcDbEntity
  8
AM_4
100
AcDbLine
 10
-4.15625
 20
-0.4374999999999997
 30
0.0
 11
-3.96875
 21
-0.4374999999999996
 31
0.0
  0
ARC
  5
1AF
330
169
100
AcDbEntity
  8
AM_4
100
AcDbCircle
 10
-4.15625
 20
0.0000000000000004
 30
0.0
 40
0.4375
100
AcDbArc
 50
90.0
 51
270.0
  0
LINE
  5
1B0
330
169
100
AcDbEntity
  8
AM_4
100
AcDbLine
 10
-5.1125
 20
-1.3375
 30
0.0
 11
-5.1125
 21
1.337500000000001
 31
0.0
  0
LINE
  5
1B1
330
169
100
AcDbEntity
  8
AM_4
100
AcDbLine
 10
3.21875
 20
-0.9234375000000001
 30
0.0
 11
3.21875
 21
0.9234374999999998
 31
0.0
  0
LINE
  5
1B2
330
169
100
AcDbEntity
  8
AM_4
100
AcDbLine
 10
-3.218750000000001
 20
-0.9234375000000001
 30
0.0
 11
-3.218750000000001
 21
0.9234374999999998
 31
0.0
  0
LINE
  5
1B3
330
169
100
AcDbEntity
  8
AM_4
100
AcDbLine
 10
3.124999999999998
 20
0.9234375000000001
 30
0.0
 11
3.4945472332928
 21
0.9234374999999998
 31
0.0
  0
LWPOLYLINE
  5
1B4
330
169
100
AcDbEntity
  8
AM_4
100
AcDbPolyline
 90
        6
 70
     0
 43
0.0
 10
3.3125
 20
1.377827380952381
 10
3.310287217646319
 20
1.352454338598422
 10
3.304680153916753
 20
1.330591005944336
 10
3.298317140346899
 20
1.314925716929926
 10
3.292387159484409
 20
1.303721722470916
 10
3.290801741555287
 20
1.301080176647766
  0
LINE
  5
1B5
330
169
100
AcDbEntity
  8
AM_4
100
AcDbLine
 10
3.4945472332928
 20
0.9234374999999998
 30
0.0
 11
3.4945472332928
 21
1.5390625
 31
0.0
  0
LWPOLYLINE
  5
1B6
330
169
100
AcDbEntity
  8
AM_4
100
AcDbPolyline
 90
       11
 70
     0
 43
0.0
 10
3.3125
 20
1.392485119047619
 10
3.314869185790752
 20
1.418732500918676
 10
3.3190650874511
 20
1.435863908174467
 10
3.324942138305566
 20
1.451583894728165
 10
3.338705290067267
 20
1.476154251531887
 10
3.356685144988431
 20
1.497369620386769
 10
3.379671428329392
 20
1.51567657914332
 10
3.407030169390973
 20
1.529510723864901
 10
3.426925019802345
 20
1.535481069747778
 10
3.448109098328205
 20
1.538651549472446
 10
3.459077380952382
 20
1.5390625
  0
LINE
  5
1B7
330
169
100
AcDbEntity
  8
AM_4
100
AcDbLine
 10
3.3125
 20
1.377827380952381
 30
0.0
 11
3.3125
 21
1.392485119047619
 31
0.0
  0
LINE
  5
1B8
330
169
100
AcDbEntity
  8
AM_4
100
AcDbLine
 10
3.124999999999998
 20
-0.9234375
 30
0.0
 11
3.4945472332928
 21
-0.9234375000000001
 31
0.0
  0
LWPOLYLINE
  5
1B9
330
169
100
AcDbEntity
  8
AM_4
100
AcDbPolyline
 90
        7
 70
     0
 43
0.0
 10
3.290801741555287
 20
-1.301080176647766
 10
3.296139269929905
 20
-1.310532860819875
 10
3.299852617602072
 20
-1.318264919696851
 10
3.303784506304592
 20
-1.328037536116143
 10
3.307372524212111
 20
-1.339427133999339
 10
3.310273470876309
 20
-1.352376247712274
 10
3.312500000000003
 20
-1.377827380952368
  0
LINE
  5
1BA
330
169
100
AcDbEntity
  8
AM_4
100
AcDbLine
 10
3.3125
 20
-1.392485119047619
 30
0.0
 11
3.3125
 21
-1.377827380952381
 31
0.0
  0
LWPOLYLINE
  5
1BB
330
169
100
AcDbEntity
  8
AM_4
100
AcDbPolyline
 90
       11
 70
     0
 43
0.0
 10
3.459077380952382
 20
-1.5390625
 10
3.436476013851227
 20
-1.537293177489406
 10
3.415030857815977
 20
-1.532287953090615
 10
3.395431893089887
 20
-1.524517915539646
 10
3.377730046932483
 20
-1.514417640774657
 10
3.356036362370861
 20
-1.496732311319365
 10
3.337987910157919
 20
-1.475082144838966
 10
3.327130570711033
 20
-1.456343533756375
 10
3.318918508440995
 20
-1.435385224679149
 10
3.31343847026029
 20
-1.40904520054744
 10
3.3125
 20
-1.392485119047619
  0
LINE
  5
1BC
330
169
100
AcDbEntity
  8
AM_4
100
AcDbLine
 10
3.4945472332928
 20
-1.5390625
 30
0.0
 11
3.4945472332928
 21
-0.9234375000000001
 31
0.0
  0
LINE
  5
1BD
330
169
100
AcDbEntity
  8
AM_4
100
AcDbLine
 10
-3.4945472332928
 20
0.9234374999999998
 30
0.0
 11
-3.125000000000001
 21
0.9234375000000001
 31
0.0
  0
LWPOLYLINE
  5
1BE
330
169
100
AcDbEntity
  8
AM_4
100
AcDbPolyline
 90
        7
 70
     0
 43
0.0
 10
-3.290801741555287
 20
1.301080176647766
 10
-3.296139269929904
 20
1.310532860819875
 10
-3.299852617602072
 20
1.318264919696851
 10
-3.303784506304592
 20
1.328037536116143
 10
-3.307372524212111
 20
1.339427133999338
 10
-3.310273470876309
 20
1.352376247712273
 10
-3.312500000000003
 20
1.377827380952367
  0
LINE
  5
1BF
330
169
100
AcDbEntity
  8
AM_4
100
AcDbLine
 10
-3.4945472332928
 20
0.9234374999999998
 30
0.0
 11
-3.494547233292801
 21
1.5390625
 31
0.0
  0
LINE
  5
1C0
330
169
100
AcDbEntity
  8
AM_4
100
AcDbLine
 10
-3.3125
 20
1.392485119047619
 30
0.0
 11
-3.3125
 21
1.377827380952381
 31
0.0
  0
LWPOLYLINE
  5
1C1
330
169
100
AcDbEntity
  8
AM_4
100
AcDbPolyline
 90
       11
 70
     0
 43
0.0
 10
-3.459077380952382
 20
1.5390625
 10
-3.436476013851227
 20
1.537293177489405
 10
-3.415030857815977
 20
1.532287953090615
 10
-3.395431893089887
 20
1.524517915539646
 10
-3.377730046932483
 20
1.514417640774657
 10
-3.355766443093669
 20
1.496471241248737
 10
-3.337987910157919
 20
1.475082144838966
 10
-3.327130570711033
 20
1.456343533756375
 10
-3.318918508440995
 20
1.435385224679149
 10
-3.31343847026029
 20
1.40904520054744
 10
-3.3125
 20
1.392485119047619
  0
LINE
  5
1C2
330
169
100
AcDbEntity
  8
AM_4
100
AcDbLine
 10
-3.4945472332928
 20
-0.9234375000000001
 30
0.0
 11
-3.125000000000001
 21
-0.9234375
 31
0.0
  0
LWPOLYLINE
  5
1C3
330
169
100
AcDbEntity
  8
AM_4
100
AcDbPolyline
 90
        6
 70
     0
 43
0.0
 10
-3.3125
 20
-1.377827380952381
 10
-3.310287217646319
 20
-1.352454338598422
 10
-3.304680153916753
 20
-1.330591005944336
 10
-3.298317140346899
 20
-1.314925716929926
 10
-3.292387159484409
 20
-1.303721722470916
 10
-3.290801741555287
 20
-1.301080176647766
  0
LINE
  5
1C4
330
169
100
AcDbEntity
  8
AM_4
100
AcDbLine
 10
-3.494547233292801
 20
-1.5390625
 30
0.0
 11
-3.4945472332928
 21
-0.9234375000000001
 31
0.0
  0
LWPOLYLINE
  5
1C5
330
169
100
AcDbEntity
  8
AM_4
100
AcDbPolyline
 90
       11
 70
     0
 43
0.0
 10
-3.312499999999999
 20
-1.392485119047619
 10
-3.314869185790752
 20
-1.418732500918676
 10
-3.319065087451099
 20
-1.435863908174467
 10
-3.324942138305565
 20
-1.451583894728166
 10
-3.338495512991479
 20
-1.475821436016389
 10
-3.356685144988432
 20
-1.49736962038677
 10
-3.379167971002353
 20
-1.515364795187727
 10
-3.407030169390975
 20
-1.529510723864902
 10
-3.426925019802347
 20
-1.535481069747778
 10
-3.448109098328207
 20
-1.538651549472446
 10
-3.459077380952382
 20
-1.5390625
  0
LINE
  5
1C6
330
169
100
AcDbEntity
  8
AM_4
100
AcDbLine
 10
-3.3125
 20
-1.377827380952381
 30
0.0
 11
-3.312499999999999
 21
-1.392485119047619
 31
0.0
  0
LINE
  5
1C7
330
169
100
AcDbEntity
  8
AM_4
100
AcDbLine
 10
3.290801741555287
 20
-1.301080176647766
 30
0.0
 11
3.290801741555287
 21
-0.9234375000000001
 31
0.0
  0
LINE
  5
1C8
330
169
100
AcDbEntity
  8
AM_4
100
AcDbLine
 10
3.124999999999998
 20
0.9234375000000001
 30
0.0
 11
3.124999999999998
 21
-0.9234375
 31
0.0
  0
LINE
  5
1C9
330
169
100
AcDbEntity
  8
AM_4
100
AcDbLine
 10
3.290801741555287
 20
0.923437499999999
 30
0.0
 11
3.290801741555287
 21
1.301080176647764
 31
0.0
  0
LWPOLYLINE
  5
1CA
330
169
100
AcDbEntity
  8
AM_4
100
AcDbPolyline
 90
       13
 70
     0
 43
0.0
 10
3.165922619047618
 20
1.23125
 10
3.17869767955453
 20
1.231807771187445
 10
3.19137551413719
 20
1.233476839774252
 10
3.203859636819342
 20
1.236244503140664
 10
3.216055035889253
 20
1.240089697697303
 10
3.227868896996218
 20
1.2449831591918
 10
3.239211309523809
 20
1.250887645427429
 10
3.249995950863955
 20
1.257758219698711
 10
3.260140743384113
 20
1.265542592786876
 10
3.269568479087611
 20
1.274181520912388
 10
3.278207407213124
 20
1.283609256615886
 10
3.285991780301288
 20
1.293754049136044
 10
3.290801741555287
 20
1.301080176647766
  0
LWPOLYLINE
  5
1CB
330
169
100
AcDbEntity
  8
AM_4
100
AcDbPolyline
 90
       13
 70
     0
 43
0.0
 10
3.290801741555287
 20
-1.301080176647766
 10
3.283637579197132
 20
-1.290488290254928
 10
3.275577534914003
 20
-1.280561107079082
 10
3.266682950509683
 20
-1.271374178978394
 10
3.257021519142185
 20
-1.262997424022929
 10
3.246666770137947
 20
-1.255494594375921
 10
3.23569750938926
 20
-1.248922791101316
 10
3.224197219593843
 20
-1.243332029590197
 10
3.212253424901104
 20
-1.238764858913457
 10
3.199957024800514
 20
-1.23525603799768
 10
3.187401602321608
 20
-1.23283227108872
 10
3.174682711810622
 20
-1.231512004516262
 10
3.16592261904762
 20
-1.23125
  0
LINE
  5
1CC
330
169
100
AcDbEntity
  8
AM_4
100
AcDbLine
 10
-3.165922619047618
 20
-1.23125
 30
0.0
 11
3.16592261904762
 21
-1.23125
 31
0.0
  0
LINE
  5
1CD
330
169
100
AcDbEntity
  8
AM_4
100
AcDbLine
 10
3.165922619047618
 20
1.23125
 30
0.0
 11
-3.165922619047616
 21
1.23125
 31
0.0
  0
LINE
  5
1CE
330
169
100
AcDbEntity
  8
AM_4
100
AcDbLine
 10
-3.125000000000001
 20
-0.9234375
 30
0.0
 11
-3.125000000000001
 21
0.9234375000000001
 31
0.0
  0
LINE
  5
1CF
330
169
100
AcDbEntity
  8
AM_4
100
AcDbLine
 10
-3.290801741555287
 20
-1.301080176647766
 30
0.0
 11
-3.290801741555287
 21
-0.9234375000000001
 31
0.0
  0
LWPOLYLINE
  5
1D0
330
169
100
AcDbEntity
  8
AM_4
100
AcDbPolyline
 90
       13
 70
     0
 43
0.0
 10
-3.165922619047618
 20
-1.23125
 10
-3.17869767955453
 20
-1.231807771187445
 10
-3.19137551413719
 20
-1.233476839774252
 10
-3.203859636819342
 20
-1.236244503140664
 10
-3.216055035889253
 20
-1.240089697697303
 10
-3.227868896996218
 20
-1.2449831591918
 10
-3.239211309523809
 20
-1.250887645427429
 10
-3.249995950863955
 20
-1.257758219698711
 10
-3.260140743384113
 20
-1.265542592786876
 10
-3.269568479087611
 20
-1.274181520912388
 10
-3.278207407213124
 20
-1.283609256615886
 10
-3.285991780301288
 20
-1.293754049136044
 10
-3.290801741555287
 20
-1.301080176647766
  0
LWPOLYLINE
  5
1D1
330
169
100
AcDbEntity
  8
AM_4
100
AcDbPolyline
 90
       13
 70
     0
 43
0.0
 10
-3.290801741555287
 20
1.301080176647766
 10
-3.283637579197132
 20
1.290488290254928
 10
-3.275577534914004
 20
1.280561107079083
 10
-3.266682950509684
 20
1.271374178978395
 10
-3.257021519142185
 20
1.26299742402293
 10
-3.246666770137947
 20
1.255494594375921
 10
-3.235697509389261
 20
1.248922791101316
 10
-3.224197219593844
 20
1.243332029590197
 10
-3.212253424901105
 20
1.238764858913457
 10
-3.199957024800514
 20
1.235256037997681
 10
-3.187401602321608
 20
1.23283227108872
 10
-3.174682711810623
 20
1.231512004516262
 10
-3.165922619047615
 20
1.23125
  0
LINE
  5
1D2
330
169
100
AcDbEntity
  8
AM_4
100
AcDbLine
 10
-3.290801741555287
 20
0.923437499999999
 30
0.0
 11
-3.290801741555287
 21
1.301080176647766
 31
0.0
  0
LINE
  5
1D3
330
169
100
AcDbEntity
  8
AM_4
100
AcDbLine
 10
1.5875
 20
0.4999999999999998
 30
0.0
 11
1.562489132142691
 21
0.4999999999999998
 31
0.0
  0
LINE
  5
1D4
330
169
100
AcDbEntity
  8
AM_4
100
AcDbLine
 10
1.562480572817108
 20
-0.4999999999999996
 30
0.0
 11
1.5875
 21
-0.4999999999999996
 31
0.0
  0
LWPOLYLINE
  5
1D5
330
169
100
AcDbEntity
  8
AM_4
100
AcDbPolyline
 90
       30
 70
     0
 43
0.0
 10
1.56250456945629
 20
0.4999999999721599
 10
1.514772637527094
 20
0.496984242256738
 10
1.466681871531385
 20
0.487816767640632
 10
1.419189807009746
 20
0.4726377843936981
 10
1.373217875395151
 20
0.4517394866893877
 10
1.329080030139363
 20
0.4251245092994818
 10
1.287420163984611
 20
0.3931981886887113
 10
1.249068090018149
 20
0.3565477269598612
 10
1.214132055448512
 20
0.3149608117458863
 10
1.183417052860228
 20
0.2692621449580866
 10
1.157579704280602
 20
0.2202960202325794
 10
1.137003542950117
 20
0.1684218728704576
 10
1.12190504899762
 20
0.1142118031130741
 10
1.112631422092915
 20
0.0587013661848505
 10
1.109408016519645
 20
0.0030398471027183
 10
1.112050224722172
 20
-0.0528372728196012
 10
1.120497005207037
 20
-0.1078678597611225
 10
1.134624694883902
 20
-0.1612053745037861
 10
1.154193873627485
 20
-0.2126983089682015
 10
1.178777491625278
 20
-0.2614058022108831
 10
1.208413906905031
 20
-0.3072218898900551
 10
1.242492755462359
 20
-0.3493494148341897
 10
1.280308715913554
 20
-0.3870225551566884
 10
1.32189088127591
 20
-0.4201235770586672
 10
1.366389563756164
 20
-0.4480234645252889
 10
1.412900413363464
 20
-0.4701877986450961
 10
1.46073986603981
 20
-0.4862563204909797
 10
1.509582016719142
 20
-0.4962531591494458
 10
1.558460827328059
 20
-0.4999782650308073
 10
1.562490195188678
 20
-0.4999999998718208
  0
ELLIPSE
  5
1D6
330
169
100
AcDbEntity
  8
AM_4
100
AcDbEllipse
 10
1.587500000001757
 20
0.0000000000280139
 30
0.0
 11
3.061616998039916E-17
 21
0.5000000000280135
 31
0.0
210
0.0
220
0.0
230
1.0
 40
0.8660254037844854
 41
3.131559351095364
 42
3.141592653589793
  0
ELLIPSE
  5
1D7
330
169
100
AcDbEntity
  8
AM_4
100
AcDbEllipse
 10
1.587499999999505
 20
-0.0000000000172237
 30
0.0
 11
3.061616997973846E-17
 21
0.5000000000172234
 31
0.0
210
0.0
220
0.0
230
1.0
 40
0.8660254037844115
 41
6.270267891495725
 42
6.283185307179586
  0
LINE
  5
1D8
330
169
100
AcDbEntity
  8
AM_4
100
AcDbLine
 10
3.102723224429153
 20
-1.23125
 30
0.0
 11
3.102723224429153
 21
1.23125
 31
0.0
  0
LINE
  5
1D9
330
169
100
AcDbEntity
  8
AM_4
100
AcDbLine
 10
-3.102723224429153
 20
-1.23125
 30
0.0
 11
-3.102723224429153
 21
1.23125
 31
0.0
  0
ELLIPSE
  5
1DA
330
169
100
AcDbEntity
  8
AM_4
100
AcDbEllipse
 10
1.6125
 20
0.0000000000000002
 30
0.0
 11
-8.266365894244634E-17
 21
-0.4500000000000001
 31
0.0
210
0.0
220
0.0
230
1.0
 40
0.8660254037844387
 41
0.0
 42
6.283185307179586
  0
LWPOLYLINE
  5
1DB
330
169
100
AcDbEntity
  8
AM_4
100
AcDbPolyline
 90
       23
 70
     0
 43
0.0
 10
2.027211431702997
 20
0.0000000000000002
 10
2.02686566310899
 20
0.0198432410102213
 10
2.024432888657727
 20
0.0561723546941033
 10
2.019681896500477
 20
0.0922168622057114
 10
2.012635928891393
 20
0.1277805195750461
 10
2.003329859815541
 20
0.1626747547059655
 10
1.991810372305487
 20
0.1967138744720278
 10
1.978135933645202
 20
0.2297159397571678
 10
1.962376753033928
 20
0.2615036874581104
 10
1.944614704267144
 20
0.2919055105654338
 10
1.924943187326169
 20
0.3207565068332968
 10
1.903466894321759
 20
0.3478995989617013
 10
1.880301438850497
 20
0.373186716589125
 10
1.855572806420253
 20
0.3964800128863731
 10
1.829416590326289
 20
0.4176530680559864
 10
1.80197699448061
 20
0.4365920125869399
 10
1.773405612205628
 20
0.4531964904448046
 10
1.743860024474596
 20
0.4673803825874603
 10
1.713502295555777
 20
0.4790722284698426
 10
1.682497469443042
 20
0.4882153175082496
 10
1.651012178497316
 20
0.4947674684107032
 10
1.619213461878359
 20
0.4987005619379838
 10
1.593285678504693
 20
0.4999568057609668
  0
LWPOLYLINE
  5
1DC
330
169
100
AcDbEntity
  8
AM_4
100
AcDbPolyline
 90
       23
 70
     0
 43
0.0
 10
1.585363144260175
 20
-0.4999941081553435
 10
1.61513362380153
 20
-0.499013705665411
 10
1.646912460562837
 20
-0.4954242356596043
 10
1.678365328505583
 20
-0.4892293775317441
 10
1.709332193227558
 20
-0.4804625171047215
 10
1.739655306711464
 20
-0.469168622284327
 10
1.769179387901083
 20
-0.4554043891889942
 10
1.797751990531838
 20
-0.4392385093969783
 10
1.825224101987607
 20
-0.4207519498822441
 10
1.851450969752411
 20
-0.4000381345080509
 10
1.876293108514808
 20
-0.3772029355107683
 10
1.899617411087549
 20
-0.3523644188218138
 10
1.921298274803177
 20
-0.325652328704963
 10
1.941218661643628
 20
-0.2972073350471302
 10
1.959271030353391
 20
-0.2671800933081444
 10
1.975358105112978
 20
-0.2357301794467429
 10
1.989393471093852
 20
-0.2030249611827811
 10
2.001302007486732
 20
-0.1692384566675292
 10
2.011020181261602
 20
-0.1345502168837515
 10
2.018496230261324
 20
-0.099144253088247
 10
2.02369026400625
 20
-0.0632080180439597
 10
2.02657430702269
 20
-0.0269314407785298
 10
2.027211431702997
 20
0.0000000000000002
  0
LINE
  5
1DD
330
169
100
AcDbEntity
  8
AM_4
100
AcDbLine
 10
1.583001293574528
 20
-0.4999738852993736
 30
0.0
 11
1.585363144260175
 21
-0.4999941081553435
 31
0.0
  0
ELLIPSE
  5
1DE
330
169
100
AcDbEntity
  8
AM_4
100
AcDbEllipse
 10
1.5875
 20
0.0000000000000006
 30
0.0
 11
3.061616997868379E-17
 21
0.4999999999999993
 31
0.0
210
0.0
220
0.0
230
1.0
 40
0.8660254037844515
 41
0.0
 42
3.131559351098849
  0
LINE
  5
1DF
330
169
100
AcDbEntity
  8
AM_4
100
AcDbLine
 10
0.8088095159453773
 20
-1.23125
 30
0.0
 11
0.8088095159453773
 21
1.23125
 31
0.0
  0
LINE
  5
1E0
330
169
100
AcDbEntity
  8
AM_4
100
AcDbLine
 10
-0.8088095159453773
 20
-1.23125
 30
0.0
 11
-0.8088095159453773
 21
1.23125
 31
0.0
  0
ENDBLK
  5
16C
330
169
100
AcDbEntity
  8
0
100
AcDbBlockEnd
  0
ENDSEC
  0
SECTION
  2
ENTITIES
  0
INSERT
  5
6F
330
1F
100
AcDbEntity
  8
0
100
AcDbBlockReference
  2
1_070308_4
 10
0.0
 20
0.0
 30
0.0
  0
POINT
  5
1E2
330
1F
100
AcDbEntity
  8
ConnectionPoints
100
AcDbPoint
 10
0.0
 20
-2.109375
 30
0.0000000000000001
  0
POINT
  5
1E3
330
1F
100
AcDbEntity
  8
ConnectionPoints
100
AcDbPoint
 10
0.0
 20
2.640124999999999
 30
-0.0000000000000002
  0
POINT
  5
1E4
330
1F
100
AcDbEntity
  8
ConnectionPoints
100
AcDbPoint
 10
0.0
 20
-2.109375
 30
0.0000000000000001
  0
POINT
  5
1E5
330
1F
100
AcDbEntity
  8
ConnectionPoints
100
AcDbPoint
 10
1.6125
 20
0.0000000000000002
 30
2.792931927204815
  0
POINT
  5
1E6
330
1F
100
AcDbEntity
  8
ConnectionPoints
100
AcDbPoint
 10
0.0
 20
-2.109375
 30
0.0000000000000001
  0
POINT
  5
1E7
330
1F
100
AcDbEntity
  8
ConnectionPoints
100
AcDbPoint
 10
0.0
 20
-2.359375
 30
0.0000000000000001
  0
POINT
  5
1E8
330
1F
100
AcDbEntity
  8
ConnectionPoints
100
AcDbPoint
 10
1.6125
 20
0.0000000000000002
 30
2.792931927204815
  0
ENDSEC
  0
SECTION
  2
OBJECTS
  0
DICTIONARY
  5
C
330
0
100
AcDbDictionary
281
     1
  3
ACAD_DETAILVIEWSTYLE
350
1F0
  3
ACAD_GROUP
350
D
  3
ACAD_LAYOUT
350
1A
  3
ACAD_MATERIAL
350
43
  3
ACAD_MLEADERSTYLE
350
6B
  3
ACAD_MLINESTYLE
350
17
  3
ACAD_PLOTSETTINGS
350
19
  3
ACAD_PLOTSTYLENAME
350
E
  3
ACAD_SCALELIST
350
47
  3
ACAD_SECTIONVIEWSTYLE
350
1F1
  3
ACAD_TABLESTYLE
350
69
  3
ACAD_VISUALSTYLE
350
2A
  3
ACDB_RECOMPOSE_DATA
350
1ED
  3
AcDbVariableDictionary
350
1E9
  0
SUN
  5
6D
330
29
100
AcDbSun
 90
        1
290
     0
 63
     7
421
 16777215
 40
1.0
291
     1
 91
  2455826
 92
 54000000
292
     0
 70
     2
 71
   256
280
     1
  0
DICTIONARY
  5
1F0
102
{ACAD_REACTORS
330
C
102
}
330
C
100
AcDbDictionary
281
     1
  0
DICTIONARY
  5
D
102
{ACAD_REACTORS
330
C
102
}
330
C
100
AcDbDictionary
281
     1
  0
DICTIONARY
  5
1A
102
{ACAD_REACTORS
330
C
102
}
330
C
100
AcDbDictionary
281
     1
  3
Layout1
350
1E
  3
Layout2
350
26
  3
Model
350
22
  0
DICTIONARY
  5
43
102
{ACAD_REACTORS
330
C
102
}
330
C
100
AcDbDictionary
281
     1
  3
ByBlock
350
45
  3
ByLayer
350
44
  3
Global
350
46
  0
DICTIONARY
  5
6B
102
{ACAD_REACTORS
330
C
102
}
330
C
100
AcDbDictionary
281
     1
  3
Standard
350
6C
  0
DICTIONARY
  5
17
102
{ACAD_REACTORS
330
C
102
}
330
C
100
AcDbDictionary
281
     1
  3
Standard
350
18
  0
DICTIONARY
  5
19
102
{ACAD_REACTORS
330
C
102
}
330
C
100
AcDbDictionary
281
     1
  0
ACDBDICTIONARYWDFLT
  5
E
102
{ACAD_REACTORS
330
C
102
}
330
C
100
AcDbDictionary
281
     1
  3
Normal
350
F
100
AcDbDictionaryWithDefault
340
F
  0
DICTIONARY
  5
47
102
{ACAD_REACTORS
330
C
102
}
330
C
100
AcDbDictionary
281
     1
  3
A0
350
48
  3
A1
350
49
  3
A2
350
4A
  3
A3
350
4B
  3
A4
350
4C
  3
A5
350
4D
  3
A6
350
4E
  3
A7
350
4F
  3
A8
350
50
  3
A9
350
51
  3
B0
350
52
  3
B1
350
53
  3
B2
350
54
  3
B3
350
55
  3
B4
350
56
  3
B5
350
57
  3
B6
350
58
  3
B7
350
59
  3
B8
350
5A
  3
B9
350
5B
  3
C0
350
5C
  3
C1
350
5D
  3
C2
350
5E
  3
C3
350
5F
  3
C4
350
60
  3
C5
350
61
  3
C6
350
62
  3
C7
350
63
  3
C8
350
64
  3
C9
350
65
  3
D0
350
66
  3
D1
350
67
  3
D2
350
68
  0
DICTIONARY
  5
1F1
102
{ACAD_REACTORS
330
C
102
}
330
C
100
AcDbDictionary
281
     1
  0
DICTIONARY
  5
69
102
{ACAD_REACTORS
330
C
102
}
330
C
100
AcDbDictionary
281
     1
  3
Standard
350
6A
  0
DICTIONARY
  5
2A
102
{ACAD_REACTORS
330
C
102
}
330
C
100
AcDbDictionary
281
     1
  3
2dWireframe
350
2F
  3
Basic
350
32
  3
Brighten
350
36
  3
ColorChange
350
3A
  3
Conceptual
350
34
  3
Dim
350
35
  3
EdgeColorOff
350
3D
  3
Facepattern
350
39
  3
Flat
350
2B
  3
FlatWithEdges
350
2C
  3
Gouraud
350
2D
  3
GouraudWithEdges
350
2E
  3
Hidden
350
31
  3
JitterOff
350
3B
  3
Linepattern
350
38
  3
OverhangOff
350
3C
  3
Realistic
350
33
  3
Shaded
350
42
  3
Shaded with edges
350
41
  3
Shades of Gray
350
3E
  3
Sketchy
350
3F
  3
Thicken
350
37
  3
Wireframe
350
30
  3
X-Ray
350
40
  0
XRECORD
  5
1ED
102
{ACAD_REACTORS
330
C
102
}
330
C
100
AcDbXrecord
280
     1
 90
        1
330
6A
  0
DICTIONARY
  5
1E9
102
{ACAD_REACTORS
330
C
102
}
330
C
100
AcDbDictionary
281
     1
  3
CANNOSCALE
350
1EA
  3
CMLEADERSTYLE
350
1EF
  3
CTABLESTYLE
350
1EE
  0
LAYOUT
  5
1E
102
{ACAD_REACTORS
330
1A
102
}
330
1A
100
AcDbPlotSettings
  1

  2
none_device
  4

  6

 40
0.0
 41
0.0
 42
0.0
 43
0.0
 44
0.0
 45
0.0
 46
0.0
 47
0.0
 48
0.0
 49
0.0
140
0.0
141
0.0
142
1.0
143
1.0
 70
   688
 72
     0
 73
     0
 74
     5
  7

 75
    16
 76
     0
 77
     2
 78
   300
147
1.0
148
0.0
149
0.0
100
AcDbLayout
  1
Layout1
 70
     1
 71
     1
 10
0.0
 20
0.0
 11
12.0
 21
9.0
 12
0.0
 22
0.0
 32
0.0
 14
1.000000000000000E+20
 24
1.000000000000000E+20
 34
1.000000000000000E+20
 15
-1.000000000000000E+20
 25
-1.000000000000000E+20
 35
-1.000000000000000E+20
146
0.0
 13
0.0
 23
0.0
 33
0.0
 16
1.0
 26
0.0
 36
0.0
 17
0.0
 27
1.0
 37
0.0
 76
     0
330
1B
  0
LAYOUT
  5
26
102
{ACAD_REACTORS
330
1A
102
}
330
1A
100
AcDbPlotSettings
  1

  2
none_device
  4

  6

 40
0.0
 41
0.0
 42
0.0
 43
0.0
 44
0.0
 45
0.0
 46
0.0
 47
0.0
 48
0.0
 49
0.0
140
0.0
141
0.0
142
1.0
143
1.0
 70
   688
 72
     0
 73
     0
 74
     5
  7

 75
    16
 76
     0
 77
     2
 78
   300
147
1.0
148
0.0
149
0.0
100
AcDbLayout
  1
Layout2
 70
     1
 71
     2
 10
0.0
 20
0.0
 11
0.0
 21
0.0
 12
0.0
 22
0.0
 32
0.0
 14
0.0
 24
0.0
 34
0.0
 15
0.0
 25
0.0
 35
0.0
146
0.0
 13
0.0
 23
0.0
 33
0.0
 16
1.0
 26
0.0
 36
0.0
 17
0.0
 27
1.0
 37
0.0
 76
     0
330
23
  0
LAYOUT
  5
22
102
{ACAD_REACTORS
330
1A
102
}
330
1A
100
AcDbPlotSettings
  1

  2
none_device
  4
Letter_(8.50_x_11.00_Inches)
  6

 40
6.35
 41
6.35
 42
6.35000508
 43
6.35000508
 44
215.9
 45
279.4
 46
0.0
 47
0.0
 48
0.0
 49
0.0
140
0.0
141
0.0
142
1.0
143
1.0
 70
  1712
 72
     0
 73
     0
 74
     0
  7

 75
     0
 76
     0
 77
     2
 78
   300
147
1.0
148
0.0
149
0.0
100
AcDbLayout
  1
Model
 70
     1
 71
     0
 10
0.0
 20
0.0
 11
12.0
 21
9.0
 12
0.0
 22
0.0
 32
0.0
 14
1.000000000000000E+20
 24
1.000000000000000E+20
 34
1.000000000000000E+20
 15
-1.000000000000000E+20
 25
-1.000000000000000E+20
 35
-1.000000000000000E+20
146
0.0
 13
0.0
 23
0.0
 33
0.0
 16
1.0
 26
0.0
 36
0.0
 17
0.0
 27
1.0
 37
0.0
 76
     0
330
1F
331
29
  0
MATERIAL
  5
45
102
{ACAD_REACTORS
330
43
102
}
330
43
100
AcDbMaterial
  1
ByBlock
 72
     1
 94
      127
  0
MATERIAL
  5
44
102
{ACAD_REACTORS
330
43
102
}
330
43
100
AcDbMaterial
  1
ByLayer
 72
     1
 94
      127
  0
MATERIAL
  5
46
102
{ACAD_REACTORS
330
43
102
}
330
43
100
AcDbMaterial
  1
Global
 72
     1
 94
      127
  0
MLEADERSTYLE
  5
6C
102
{ACAD_REACTORS
330
6B
102
}
330
6B
100
AcDbMLeaderStyle
179
     2
170
     2
171
     1
172
     0
 90
        2
 40
0.0
 41
0.0
173
     1
 91
-1056964608
340
14
 92
       -2
290
     1
 42
0.09
291
     1
 43
0.36
  3
Standard
341
0
 44
0.18
300

342
11
174
     1
178
     6
175
     1
176
     0
 93
-1056964608
 45
0.18
292
     0
297
     0
 46
0.18
343
0
 94
-1056964608
 47
1.0
 49
1.0
140
1.0
293
     1
141
0.0
294
     1
177
     0
142
1.0
295
     0
296
     0
143
0.125
271
     0
272
     9
273
     9
298
     0
  0
MLINESTYLE
  5
18
102
{ACAD_REACTORS
330
17
102
}
330
17
100
AcDbMlineStyle
  2
Standard
 70
     0
  3

 62
   256
 51
90.0
 52
90.0
 71
     2
 49
0.5
 62
   256
  6
BYLAYER
 49
-0.5
 62
   256
  6
BYLAYER
  0
ACDBPLACEHOLDER
  5
F
102
{ACAD_REACTORS
330
E
102
}
330
E
  0
SCALE
  5
48
102
{ACAD_REACTORS
330
47
102
}
330
47
100
AcDbScale
 70
     0
300
1:1
140
1.0
141
1.0
290
     1
  0
SCALE
  5
49
102
{ACAD_REACTORS
330
47
102
}
330
47
100
AcDbScale
 70
     0
300
1:2
140
1.0
141
2.0
290
     0
  0
SCALE
  5
4A
102
{ACAD_REACTORS
330
47
102
}
330
47
100
AcDbScale
 70
     0
300
1:4
140
1.0
141
4.0
290
     0
  0
SCALE
  5
4B
102
{ACAD_REACTORS
330
47
102
}
330
47
100
AcDbScale
 70
     0
300
1:5
140
1.0
141
5.0
290
     0
  0
SCALE
  5
4C
102
{ACAD_REACTORS
330
47
102
}
330
47
100
AcDbScale
 70
     0
300
1:8
140
1.0
141
8.0
290
     0
  0
SCALE
  5
4D
102
{ACAD_REACTORS
330
47
102
}
330
47
100
AcDbScale
 70
     0
300
1:10
140
1.0
141
10.0
290
     0
  0
SCALE
  5
4E
102
{ACAD_REACTORS
330
47
102
}
330
47
100
AcDbScale
 70
     0
300
1:16
140
1.0
141
16.0
290
     0
  0
SCALE
  5
4F
102
{ACAD_REACTORS
330
47
102
}
330
47
100
AcDbScale
 70
     0
300
1:20
140
1.0
141
20.0
290
     0
  0
SCALE
  5
50
102
{ACAD_REACTORS
330
47
102
}
330
47
100
AcDbScale
 70
     0
300
1:30
140
1.0
141
30.0
290
     0
  0
SCALE
  5
51
102
{ACAD_REACTORS
330
47
102
}
330
47
100
AcDbScale
 70
     0
300
1:40
140
1.0
141
40.0
290
     0
  0
SCALE
  5
52
102
{ACAD_REACTORS
330
47
102
}
330
47
100
AcDbScale
 70
     0
300
1:50
140
1.0
141
50.0
290
     0
  0
SCALE
  5
53
102
{ACAD_REACTORS
330
47
102
}
330
47
100
AcDbScale
 70
     0
300
1:100
140
1.0
141
100.0
290
     0
  0
SCALE
  5
54
102
{ACAD_REACTORS
330
47
102
}
330
47
100
AcDbScale
 70
     0
300
2:1
140
2.0
141
1.0
290
     0
  0
SCALE
  5
55
102
{ACAD_REACTORS
330
47
102
}
330
47
100
AcDbScale
 70
     0
300
4:1
140
4.0
141
1.0
290
     0
  0
SCALE
  5
56
102
{ACAD_REACTORS
330
47
102
}
330
47
100
AcDbScale
 70
     0
300
8:1
140
8.0
141
1.0
290
     0
  0
SCALE
  5
57
102
{ACAD_REACTORS
330
47
102
}
330
47
100
AcDbScale
 70
     0
300
10:1
140
10.0
141
1.0
290
     0
  0
SCALE
  5
58
102
{ACAD_REACTORS
330
47
102
}
330
47
100
AcDbScale
 70
     0
300
100:1
140
100.0
141
1.0
290
     0
  0
SCALE
  5
59
102
{ACAD_REACTORS
330
47
102
}
330
47
100
AcDbScale
 70
     0
300
1/128" = 1'-0"
140
0.0078125
141
12.0
290
     0
  0
SCALE
  5
5A
102
{ACAD_REACTORS
330
47
102
}
330
47
100
AcDbScale
 70
     0
300
1/64" = 1'-0"
140
0.015625
141
12.0
290
     0
  0
SCALE
  5
5B
102
{ACAD_REACTORS
330
47
102
}
330
47
100
AcDbScale
 70
     0
300
1/32" = 1'-0"
140
0.03125
141
12.0
290
     0
  0
SCALE
  5
5C
102
{ACAD_REACTORS
330
47
102
}
330
47
100
AcDbScale
 70
     0
300
1/16" = 1'-0"
140
0.0625
141
12.0
290
     0
  0
SCALE
  5
5D
102
{ACAD_REACTORS
330
47
102
}
330
47
100
AcDbScale
 70
     0
300
3/32" = 1'-0"
140
0.09375
141
12.0
290
     0
  0
SCALE
  5
5E
102
{ACAD_REACTORS
330
47
102
}
330
47
100
AcDbScale
 70
     0
300
1/8" = 1'-0"
140
0.125
141
12.0
290
     0
  0
SCALE
  5
5F
102
{ACAD_REACTORS
330
47
102
}
330
47
100
AcDbScale
 70
     0
300
3/16" = 1'-0"
140
0.1875
141
12.0
290
     0
  0
SCALE
  5
60
102
{ACAD_REACTORS
330
47
102
}
330
47
100
AcDbScale
 70
     0
300
1/4" = 1'-0"
140
0.25
141
12.0
290
     0
  0
SCALE
  5
61
102
{ACAD_REACTORS
330
47
102
}
330
47
100
AcDbScale
 70
     0
300
3/8" = 1'-0"
140
0.375
141
12.0
290
     0
  0
SCALE
  5
62
102
{ACAD_REACTORS
330
47
102
}
330
47
100
AcDbScale
 70
     0
300
1/2" = 1'-0"
140
0.5
141
12.0
290
     0
  0
SCALE
  5
63
102
{ACAD_REACTORS
330
47
102
}
330
47
100
AcDbScale
 70
     0
300
3/4" = 1'-0"
140
0.75
141
12.0
290
     0
  0
SCALE
  5
64
102
{ACAD_REACTORS
330
47
102
}
330
47
100
AcDbScale
 70
     0
300
1" = 1'-0"
140
1.0
141
12.0
290
     0
  0
SCALE
  5
65
102
{ACAD_REACTORS
330
47
102
}
330
47
100
AcDbScale
 70
     0
300
1-1/2" = 1'-0"
140
1.5
141
12.0
290
     0
  0
SCALE
  5
66
102
{ACAD_REACTORS
330
47
102
}
330
47
100
AcDbScale
 70
     0
300
3" = 1'-0"
140
3.0
141
12.0
290
     0
  0
SCALE
  5
67
102
{ACAD_REACTORS
330
47
102
}
330
47
100
AcDbScale
 70
     0
300
6" = 1'-0"
140
6.0
141
12.0
290
     0
  0
SCALE
  5
68
102
{ACAD_REACTORS
330
47
102
}
330
47
100
AcDbScale
 70
     0
300
1'-0" = 1'-0"
140
12.0
141
12.0
290
     0
  0
TABLESTYLE
  5
6A
102
{ACAD_REACTORS
330
69
102
}
102
{ACAD_XDICTIONARY
360
1EB
102
}
330
69
100
AcDbTableStyle
  3
Standard
 70
     0
 71
     0
 40
0.06
 41
0.06
280
     0
281
     0
  7
Standard
140
0.18
170
     2
 62
     0
 63
   257
283
     0
 90
        4
 91
        0
  1

274
    -2
284
     1
 64
     0
275
    -2
285
     1
 65
     0
276
    -2
286
     1
 66
     0
277
    -2
287
     1
 67
     0
278
    -2
288
     1
 68
     0
279
    -2
289
     1
 69
     0
  7
Standard
140
0.25
170
     5
 62
     0
 63
   257
283
     0
 90
        4
 91
        0
  1

274
    -2
284
     1
 64
     0
275
    -2
285
     1
 65
     0
276
    -2
286
     1
 66
     0
277
    -2
287
     1
 67
     0
278
    -2
288
     1
 68
     0
279
    -2
289
     1
 69
     0
  7
Standard
140
0.18
170
     5
 62
     0
 63
   257
283
     0
 90
        4
 91
        0
  1

274
    -2
284
     1
 64
     0
275
    -2
285
     1
 65
     0
276
    -2
286
     1
 66
     0
277
    -2
287
     1
 67
     0
278
    -2
288
     1
 68
     0
279
    -2
289
     1
 69
     0
  0
VISUALSTYLE
  5
2F
102
{ACAD_REACTORS
330
2A
102
}
330
2A
100
AcDbVisualStyle
  2
2dWireframe
 70
     4
177
     3
291
     0
 70
    58
 90
        0
176
     1
 90
        2
176
     1
 90
        0
176
     1
 90
        0
176
     1
 40
0.6
176
     1
 40
30.0
176
     1
 62
     7
420
 16777215
176
     1
 90
        1
176
     1
 90
        4
176
     1
 62
     7
176
     1
 62
   257
176
     1
 90
        1
176
     1
 90
        1
176
     1
 40
1.0
176
     1
 90
        0
176
     1
 62
   257
176
     1
 40
1.0
176
     1
 90
        1
176
     1
 90
        6
176
     1
 90
        2
176
     1
 62
     7
176
     1
 90
        5
176
     1
 90
        0
176
     1
 90
        0
176
     1
290
     0
176
     1
 90
        1
176
     1
 40
0.0
176
     1
 90
        0
176
     1
290
     1
176
     1
290
     1
176
     1
290
     0
176
     1
290
     0
176
     1
290
     0
176
     1
290
     0
176
     1
290
     0
176
     1
290
     0
176
     1
290
     0
176
     1
 90
       50
176
     1
 40
0.0
176
     1
 40
1.0
176
     1
 90
        0
176
     1
 62
    18
420
        0
176
     1
 90
       50
176
     1
 90
        3
176
     1
 62
     5
420
      255
176
     1
290
     0
176
     1
 90
       50
176
     1
 90
       50
176
     1
 90
       50
176
     1
290
     0
176
     1
 90
       50
176
     1
 62
   256
176
     0
 40
1.0
176
     0
 90
        2
176
     1
  1
strokes_ogs.tif
176
     1
290
     0
176
     1
 40
1.0
176
     1
 40
1.0
176
     1
  0
VISUALSTYLE
  5
32
102
{ACAD_REACTORS
330
2A
102
}
330
2A
100
AcDbVisualStyle
  2
Basic
 70
     7
177
     3
291
     1
 70
    58
 90
        1
176
     1
 90
        0
176
     1
 90
        1
176
     1
 90
        0
176
     1
 40
0.6
176
     1
 40
30.0
176
     1
 62
     7
420
 16777215
176
     1
 90
        0
176
     1
 90
        4
176
     1
 62
     7
176
     1
 62
   257
176
     1
 90
        1
176
     1
 90
        1
176
     1
 40
1.0
176
     1
 90
        8
176
     1
 62
     7
176
     1
 40
1.0
176
     1
 90
        1
176
     1
 90
        6
176
     1
 90
        2
176
     1
 62
     7
176
     1
 90
        5
176
     1
 90
        0
176
     1
 90
        0
176
     1
290
     0
176
     1
 90
        1
176
     1
 40
0.0
176
     1
 90
        0
176
     1
290
     0
176
     1
290
     1
176
     1
290
     1
176
     1
290
     0
176
     1
290
     0
176
     1
290
     0
176
     1
290
     0
176
     1
290
     0
176
     1
290
     0
176
     1
 90
       50
176
     1
 40
0.0
176
     1
 40
1.0
176
     1
 90
        0
176
     1
 62
    18
420
        0
176
     1
 90
       50
176
     1
 90
        3
176
     1
 62
     5
420
      255
176
     1
290
     0
176
     1
 90
       50
176
     1
 90
       50
176
     1
 90
       50
176
     1
290
     0
176
     1
 90
       50
176
     1
 62
   256
176
     0
 40
1.0
176
     0
 90
        2
176
     1
  1
strokes_ogs.tif
176
     1
290
     0
176
     1
 40
1.0
176
     1
 40
1.0
176
     1
  0
VISUALSTYLE
  5
36
102
{ACAD_REACTORS
330
2A
102
}
330
2A
100
AcDbVisualStyle
  2
Brighten
 70
    12
177
     3
291
     1
 70
    58
 90
        2
176
     1
 90
        2
176
     1
 90
        0
176
     1
 90
        0
176
     1
 40
0.6
176
     1
 40
30.0
176
     1
 62
     7
420
 16777215
176
     1
 90
        1
176
     1
 90
        4
176
     1
 62
     7
176
     1
 62
   257
176
     1
 90
        1
176
     1
 90
        1
176
     1
 40
1.0
176
     1
 90
        8
176
     1
 62
     7
176
     1
 40
1.0
176
     1
 90
        1
176
     1
 90
        6
176
     1
 90
        2
176
     1
 62
     7
176
     1
 90
        5
176
     1
 90
        0
176
     1
 90
        0
176
     1
290
     0
176
     1
 90
        1
176
     1
 40
50.0
176
     1
 90
        0
176
     1
290
     0
176
     1
290
     1
176
     1
290
     1
176
     1
290
     0
176
     1
290
     0
176
     1
290
     0
176
     1
290
     0
176
     1
290
     0
176
     1
290
     0
176
     1
 90
       50
176
     1
 40
0.0
176
     1
 40
1.0
176
     1
 90
        0
176
     1
 62
    18
420
        0
176
     1
 90
       50
176
     1
 90
        3
176
     1
 62
     5
420
      255
176
     1
290
     0
176
     1
 90
       50
176
     1
 90
       50
176
     1
 90
       50
176
     1
290
     0
176
     1
 90
       50
176
     1
 62
   256
176
     0
 40
1.0
176
     0
 90
        2
176
     1
  1
strokes_ogs.tif
176
     1
290
     0
176
     1
 40
1.0
176
     1
 40
1.0
176
     1
  0
VISUALSTYLE
  5
3A
102
{ACAD_REACTORS
330
2A
102
}
330
2A
100
AcDbVisualStyle
  2
ColorChange
 70
    16
177
     3
291
     1
 70
    58
 90
        2
176
     1
 90
        2
176
     1
 90
        3
176
     1
 90
        0
176
     1
 40
0.6
176
     1
 40
30.0
176
     1
 62
     8
420
  8421504
176
     1
 90
        1
176
     1
 90
        4
176
     1
 62
     7
176
     1
 62
   257
176
     1
 90
        1
176
     1
 90
        1
176
     1
 40
1.0
176
     1
 90
        8
176
     1
 62
     8
420
  8421504
176
     1
 40
1.0
176
     1
 90
        1
176
     1
 90
        6
176
     1
 90
        2
176
     1
 62
     7
176
     1
 90
        5
176
     1
 90
        0
176
     1
 90
        0
176
     1
290
     0
176
     1
 90
        1
176
     1
 40
0.0
176
     1
 90
        0
176
     1
290
     0
176
     1
290
     1
176
     1
290
     1
176
     1
290
     0
176
     1
290
     0
176
     1
290
     0
176
     1
290
     0
176
     1
290
     0
176
     1
290
     0
176
     1
 90
       50
176
     1
 40
0.0
176
     1
 40
1.0
176
     1
 90
        0
176
     1
 62
    18
420
        0
176
     1
 90
       50
176
     1
 90
        3
176
     1
 62
     5
420
      255
176
     1
290
     0
176
     1
 90
       50
176
     1
 90
       50
176
     1
 90
       50
176
     1
290
     0
176
     1
 90
       50
176
     1
 62
   256
176
     0
 40
1.0
176
     0
 90
        2
176
     1
  1
strokes_ogs.tif
176
     1
290
     0
176
     1
 40
1.0
176
     1
 40
1.0
176
     1
  0
VISUALSTYLE
  5
34
102
{ACAD_REACTORS
330
2A
102
}
330
2A
100
AcDbVisualStyle
  2
Conceptual
 70
     9
177
     3
291
     0
 70
    58
 90
        3
176
     1
 90
        2
176
     1
 90
        0
176
     1
 90
        0
176
     1
 40
0.6
176
     1
 40
30.0
176
     1
 62
     7
420
 16777215
176
     1
 90
        2
176
     1
 90
        2
176
     1
 62
     7
176
     1
 62
   257
176
     1
 90
        1
176
     1
 90
        1
176
     1
 40
179.0
176
     1
 90
        8
176
     1
 62
     7
176
     1
 40
1.0
176
     1
 90
        1
176
     1
 90
        6
176
     1
 90
        2
176
     1
 62
     7
176
     1
 90
        3
176
     1
 90
        0
176
     1
 90
        0
176
     1
290
     0
176
     1
 90
        1
176
     1
 40
0.0
176
     1
 90
        0
176
     1
290
     0
176
     1
290
     1
176
     1
290
     1
176
     1
290
     0
176
     1
290
     0
176
     1
290
     0
176
     1
290
     0
176
     1
290
     0
176
     1
290
     0
176
     1
 90
       50
176
     1
 40
0.0
176
     1
 40
1.0
176
     1
 90
        0
176
     1
 62
    18
420
        0
176
     1
 90
       50
176
     1
 90
        3
176
     1
 62
     5
420
      255
176
     1
290
     0
176
     1
 90
       50
176
     1
 90
       50
176
     1
 90
       50
176
     1
290
     0
176
     1
 90
       50
176
     1
 62
   256
176
     0
 40
1.0
176
     0
 90
        2
176
     1
  1
strokes_ogs.tif
176
     1
290
     0
176
     1
 40
1.0
176
     1
 40
1.0
176
     1
  0
VISUALSTYLE
  5
35
102
{ACAD_REACTORS
330
2A
102
}
330
2A
100
AcDbVisualStyle
  2
Dim
 70
    11
177
     3
291
     1
 70
    58
 90
        2
176
     1
 90
        2
176
     1
 90
        0
176
     1
 90
        0
176
     1
 40
0.6
176
     1
 40
30.0
176
     1
 62
     7
420
 16777215
176
     1
 90
        1
176
     1
 90
        4
176
     1
 62
     7
176
     1
 62
   257
176
     1
 90
        1
176
     1
 90
        1
176
     1
 40
1.0
176
     1
 90
        8
176
     1
 62
     7
176
     1
 40
1.0
176
     1
 90
        1
176
     1
 90
        6
176
     1
 90
        2
176
     1
 62
     7
176
     1
 90
        5
176
     1
 90
        0
176
     1
 90
        0
176
     1
290
     0
176
     1
 90
        1
176
     1
 40
-50.0
176
     1
 90
        0
176
     1
290
     0
176
     1
290
     1
176
     1
290
     1
176
     1
290
     0
176
     1
290
     0
176
     1
290
     0
176
     1
290
     0
176
     1
290
     0
176
     1
290
     0
176
     1
 90
       50
176
     1
 40
0.0
176
     1
 40
1.0
176
     1
 90
        0
176
     1
 62
    18
420
        0
176
     1
 90
       50
176
     1
 90
        3
176
     1
 62
     5
420
      255
176
     1
290
     0
176
     1
 90
       50
176
     1
 90
       50
176
     1
 90
       50
176
     1
290
     0
176
     1
 90
       50
176
     1
 62
   256
176
     0
 40
1.0
176
     0
 90
        2
176
     1
  1
strokes_ogs.tif
176
     1
290
     0
176
     1
 40
1.0
176
     1
 40
1.0
176
     1
  0
VISUALSTYLE
  5
3D
102
{ACAD_REACTORS
330
2A
102
}
330
2A
100
AcDbVisualStyle
  2
EdgeColorOff
 70
    22
177
     3
291
     1
 70
    58
 90
        2
176
     0
 90
        2
176
     0
 90
        0
176
     0
 90
        0
176
     0
 40
0.6
176
     0
 40
30.0
176
     0
 62
     7
420
 16777215
176
     0
 90
        1
176
     0
 90
        4
176
     0
 62
     7
176
     0
 62
   257
176
     0
 90
        1
176
     0
 90
        1
176
     0
 40
1.0
176
     0
 90
        8
176
     2
 62
     7
176
     0
 40
1.0
176
     0
 90
        1
176
     0
 90
        6
176
     0
 90
        2
176
     0
 62
     7
176
     0
 90
        5
176
     0
 90
        0
176
     0
 90
        0
176
     0
290
     0
176
     0
 90
        1
176
     0
 40
0.0
176
     0
 90
        0
176
     0
290
     0
176
     0
290
     1
176
     0
290
     1
176
     0
290
     0
176
     0
290
     0
176
     0
290
     0
176
     0
290
     0
176
     0
290
     0
176
     0
290
     0
176
     0
 90
       50
176
     0
 40
0.0
176
     0
 40
1.0
176
     0
 90
        0
176
     0
 62
    18
420
        0
176
     0
 90
       50
176
     0
 90
        3
176
     0
 62
     5
420
      255
176
     0
290
     0
176
     0
 90
       50
176
     0
 90
       50
176
     0
 90
       50
176
     0
290
     0
176
     0
 90
       50
176
     0
 62
   256
176
     0
 40
1.0
176
     0
 90
        2
176
     0
  1
strokes_ogs.tif
176
     0
290
     0
176
     0
 40
1.0
176
     0
 40
1.0
176
     0
  0
VISUALSTYLE
  5
39
102
{ACAD_REACTORS
330
2A
102
}
330
2A
100
AcDbVisualStyle
  2
Facepattern
 70
    15
177
     3
291
     1
 70
    58
 90
        2
176
     1
 90
        2
176
     1
 90
        0
176
     1
 90
        0
176
     1
 40
0.6
176
     1
 40
30.0
176
     1
 62
     7
420
 16777215
176
     1
 90
        1
176
     1
 90
        4
176
     1
 62
     7
176
     1
 62
   257
176
     1
 90
        1
176
     1
 90
        1
176
     1
 40
1.0
176
     1
 90
        8
176
     1
 62
     7
176
     1
 40
1.0
176
     1
 90
        1
176
     1
 90
        6
176
     1
 90
        2
176
     1
 62
     7
176
     1
 90
        5
176
     1
 90
        0
176
     1
 90
        0
176
     1
290
     0
176
     1
 90
        1
176
     1
 40
0.0
176
     1
 90
        0
176
     1
290
     0
176
     1
290
     1
176
     1
290
     1
176
     1
290
     0
176
     1
290
     0
176
     1
290
     0
176
     1
290
     0
176
     1
290
     0
176
     1
290
     0
176
     1
 90
       50
176
     1
 40
0.0
176
     1
 40
1.0
176
     1
 90
        0
176
     1
 62
    18
420
        0
176
     1
 90
       50
176
     1
 90
        3
176
     1
 62
     5
420
      255
176
     1
290
     0
176
     1
 90
       50
176
     1
 90
       50
176
     1
 90
       50
176
     1
290
     0
176
     1
 90
       50
176
     1
 62
   256
176
     0
 40
1.0
176
     0
 90
        2
176
     1
  1
strokes_ogs.tif
176
     1
290
     0
176
     1
 40
1.0
176
     1
 40
1.0
176
     1
  0
VISUALSTYLE
  5
2B
102
{ACAD_REACTORS
330
2A
102
}
330
2A
100
AcDbVisualStyle
  2
Flat
 70
     0
177
     3
291
     1
 70
    58
 90
        2
176
     1
 90
        1
176
     1
 90
        1
176
     1
 90
        2
176
     1
 40
0.6
176
     1
 40
30.0
176
     1
 62
     7
420
 16777215
176
     1
 90
        0
176
     1
 90
        0
176
     1
 62
     7
176
     1
 62
   257
176
     1
 90
        1
176
     1
 90
        1
176
     1
 40
1.0
176
     1
 90
        8
176
     1
 62
     7
176
     1
 40
1.0
176
     1
 90
        1
176
     1
 90
        6
176
     1
 90
        2
176
     1
 62
     7
176
     1
 90
        5
176
     1
 90
        0
176
     1
 90
        0
176
     1
290
     0
176
     1
 90
       13
176
     1
 40
0.0
176
     1
 90
        0
176
     1
290
     0
176
     1
290
     1
176
     1
290
     1
176
     1
290
     0
176
     1
290
     0
176
     1
290
     0
176
     1
290
     0
176
     1
290
     0
176
     1
290
     0
176
     1
 90
       50
176
     1
 40
0.0
176
     1
 40
1.0
176
     1
 90
        0
176
     1
 62
    18
420
        0
176
     1
 90
       50
176
     1
 90
        3
176
     1
 62
     5
420
      255
176
     1
290
     0
176
     1
 90
       50
176
     1
 90
       50
176
     1
 90
       50
176
     1
290
     0
176
     1
 90
       50
176
     1
 62
   256
176
     0
 40
1.0
176
     0
 90
        2
176
     1
  1
strokes_ogs.tif
176
     1
290
     0
176
     1
 40
1.0
176
     1
 40
1.0
176
     1
  0
VISUALSTYLE
  5
2C
102
{ACAD_REACTORS
330
2A
102
}
330
2A
100
AcDbVisualStyle
  2
FlatWithEdges
 70
     1
177
     3
291
     1
 70
    58
 90
        2
176
     1
 90
        1
176
     1
 90
        1
176
     1
 90
        2
176
     1
 40
0.6
176
     1
 40
30.0
176
     1
 62
     7
420
 16777215
176
     1
 90
        1
176
     1
 90
        0
176
     1
 62
     7
176
     1
 62
   257
176
     1
 90
        1
176
     1
 90
        1
176
     1
 40
1.0
176
     1
 90
        0
176
     1
 62
   257
176
     1
 40
1.0
176
     1
 90
        1
176
     1
 90
        6
176
     1
 90
        2
176
     1
 62
     7
176
     1
 90
        5
176
     1
 90
        0
176
     1
 90
        0
176
     1
290
     0
176
     1
 90
       13
176
     1
 40
0.0
176
     1
 90
        0
176
     1
290
     0
176
     1
290
     1
176
     1
290
     1
176
     1
290
     0
176
     1
290
     0
176
     1
290
     0
176
     1
290
     0
176
     1
290
     0
176
     1
290
     0
176
     1
 90
       50
176
     1
 40
0.0
176
     1
 40
1.0
176
     1
 90
        0
176
     1
 62
    18
420
        0
176
     1
 90
       50
176
     1
 90
        3
176
     1
 62
     5
420
      255
176
     1
290
     0
176
     1
 90
       50
176
     1
 90
       50
176
     1
 90
       50
176
     1
290
     0
176
     1
 90
       50
176
     1
 62
   256
176
     0
 40
1.0
176
     0
 90
        2
176
     1
  1
strokes_ogs.tif
176
     1
290
     0
176
     1
 40
1.0
176
     1
 40
1.0
176
     1
  0
VISUALSTYLE
  5
2D
102
{ACAD_REACTORS
330
2A
102
}
330
2A
100
AcDbVisualStyle
  2
Gouraud
 70
     2
177
     3
291
     1
 70
    58
 90
        2
176
     1
 90
        2
176
     1
 90
        1
176
     1
 90
        2
176
     1
 40
0.6
176
     1
 40
30.0
176
     1
 62
     7
420
 16777215
176
     1
 90
        0
176
     1
 90
        0
176
     1
 62
     7
176
     1
 62
   257
176
     1
 90
        1
176
     1
 90
        1
176
     1
 40
1.0
176
     1
 90
        0
176
     1
 62
     7
176
     1
 40
1.0
176
     1
 90
        1
176
     1
 90
        6
176
     1
 90
        2
176
     1
 62
     7
176
     1
 90
        5
176
     1
 90
        0
176
     1
 90
        0
176
     1
290
     0
176
     1
 90
       13
176
     1
 40
0.0
176
     1
 90
        0
176
     1
290
     0
176
     1
290
     1
176
     1
290
     1
176
     1
290
     0
176
     1
290
     0
176
     1
290
     0
176
     1
290
     0
176
     1
290
     0
176
     1
290
     0
176
     1
 90
       50
176
     1
 40
0.0
176
     1
 40
1.0
176
     1
 90
        0
176
     1
 62
    18
420
        0
176
     1
 90
       50
176
     1
 90
        3
176
     1
 62
     5
420
      255
176
     1
290
     0
176
     1
 90
       50
176
     1
 90
       50
176
     1
 90
       50
176
     1
290
     0
176
     1
 90
       50
176
     1
 62
   256
176
     0
 40
1.0
176
     0
 90
        2
176
     1
  1
strokes_ogs.tif
176
     1
290
     0
176
     1
 40
1.0
176
     1
 40
1.0
176
     1
  0
VISUALSTYLE
  5
2E
102
{ACAD_REACTORS
330
2A
102
}
330
2A
100
AcDbVisualStyle
  2
GouraudWithEdges
 70
     3
177
     3
291
     1
 70
    58
 90
        2
176
     1
 90
        2
176
     1
 90
        1
176
     1
 90
        2
176
     1
 40
0.6
176
     1
 40
30.0
176
     1
 62
     7
420
 16777215
176
     1
 90
        1
176
     1
 90
        0
176
     1
 62
     7
176
     1
 62
   257
176
     1
 90
        1
176
     1
 90
        1
176
     1
 40
1.0
176
     1
 90
        0
176
     1
 62
   257
176
     1
 40
1.0
176
     1
 90
        1
176
     1
 90
        6
176
     1
 90
        2
176
     1
 62
     7
176
     1
 90
        5
176
     1
 90
        0
176
     1
 90
        0
176
     1
290
     0
176
     1
 90
       13
176
     1
 40
0.0
176
     1
 90
        0
176
     1
290
     0
176
     1
290
     1
176
     1
290
     1
176
     1
290
     0
176
     1
290
     0
176
     1
290
     0
176
     1
290
     0
176
     1
290
     0
176
     1
290
     0
176
     1
 90
       50
176
     1
 40
0.0
176
     1
 40
1.0
176
     1
 90
        0
176
     1
 62
    18
420
        0
176
     1
 90
       50
176
     1
 90
        3
176
     1
 62
     5
420
      255
176
     1
290
     0
176
     1
 90
       50
176
     1
 90
       50
176
     1
 90
       50
176
     1
290
     0
176
     1
 90
       50
176
     1
 62
   256
176
     0
 40
1.0
176
     0
 90
        2
176
     1
  1
strokes_ogs.tif
176
     1
290
     0
176
     1
 40
1.0
176
     1
 40
1.0
176
     1
  0
VISUALSTYLE
  5
31
102
{ACAD_REACTORS
330
2A
102
}
330
2A
100
AcDbVisualStyle
  2
Hidden
 70
     6
177
     3
291
     0
 70
    58
 90
        1
176
     1
 90
        2
176
     1
 90
        2
176
     1
 90
        0
176
     1
 40
0.6
176
     1
 40
30.0
176
     1
 62
     7
420
 16777215
176
     1
 90
        2
176
     1
 90
        2
176
     1
 62
     7
176
     1
 62
   257
176
     1
 90
        2
176
     1
 90
        1
176
     1
 40
40.0
176
     1
 90
        0
176
     1
 62
   257
176
     1
 40
1.0
176
     1
 90
        1
176
     1
 90
        6
176
     1
 90
        2
176
     1
 62
     7
176
     1
 90
        3
176
     1
 90
        0
176
     1
 90
        0
176
     1
290
     0
176
     1
 90
        1
176
     1
 40
0.0
176
     1
 90
        0
176
     1
290
     0
176
     1
290
     1
176
     1
290
     1
176
     1
290
     0
176
     1
290
     0
176
     1
290
     0
176
     1
290
     0
176
     1
290
     0
176
     1
290
     0
176
     1
 90
       50
176
     1
 40
0.0
176
     1
 40
1.0
176
     1
 90
        0
176
     1
 62
    18
420
        0
176
     1
 90
       50
176
     1
 90
        3
176
     1
 62
     5
420
      255
176
     1
290
     0
176
     1
 90
       50
176
     1
 90
       50
176
     1
 90
       50
176
     1
290
     0
176
     1
 90
       50
176
     1
 62
   256
176
     0
 40
1.0
176
     0
 90
        2
176
     1
  1
strokes_ogs.tif
176
     1
290
     0
176
     1
 40
1.0
176
     1
 40
1.0
176
     1
  0
VISUALSTYLE
  5
3B
102
{ACAD_REACTORS
330
2A
102
}
330
2A
100
AcDbVisualStyle
  2
JitterOff
 70
    20
177
     3
291
     1
 70
    58
 90
        2
176
     0
 90
        2
176
     0
 90
        0
176
     0
 90
        0
176
     0
 40
0.6
176
     0
 40
30.0
176
     0
 62
     7
420
 16777215
176
     0
 90
        1
176
     0
 90
        4
176
     0
 62
     7
176
     0
 62
   257
176
     0
 90
        1
176
     0
 90
        1
176
     0
 40
1.0
176
     0
 90
       10
176
     2
 62
     7
176
     0
 40
1.0
176
     0
 90
        1
176
     0
 90
        6
176
     0
 90
        2
176
     0
 62
     7
176
     0
 90
        5
176
     0
 90
        0
176
     0
 90
        0
176
     0
290
     0
176
     0
 90
        1
176
     0
 40
0.0
176
     0
 90
        0
176
     0
290
     0
176
     0
290
     1
176
     0
290
     1
176
     0
290
     0
176
     0
290
     0
176
     0
290
     0
176
     0
290
     0
176
     0
290
     0
176
     0
290
     0
176
     0
 90
       50
176
     0
 40
0.0
176
     0
 40
1.0
176
     0
 90
        0
176
     0
 62
    18
420
        0
176
     0
 90
       50
176
     0
 90
        3
176
     0
 62
     5
420
      255
176
     0
290
     0
176
     0
 90
       50
176
     0
 90
       50
176
     0
 90
       50
176
     0
290
     0
176
     0
 90
       50
176
     0
 62
   256
176
     0
 40
1.0
176
     0
 90
        2
176
     0
  1
strokes_ogs.tif
176
     0
290
     0
176
     0
 40
1.0
176
     0
 40
1.0
176
     0
  0
VISUALSTYLE
  5
38
102
{ACAD_REACTORS
330
2A
102
}
330
2A
100
AcDbVisualStyle
  2
Linepattern
 70
    14
177
     3
291
     1
 70
    58
 90
        2
176
     1
 90
        2
176
     1
 90
        0
176
     1
 90
        0
176
     1
 40
0.6
176
     1
 40
30.0
176
     1
 62
     7
420
 16777215
176
     1
 90
        1
176
     1
 90
        4
176
     1
 62
     7
176
     1
 62
   257
176
     1
 90
        7
176
     1
 90
        7
176
     1
 40
1.0
176
     1
 90
        8
176
     1
 62
     7
176
     1
 40
1.0
176
     1
 90
        1
176
     1
 90
        6
176
     1
 90
        2
176
     1
 62
     7
176
     1
 90
        5
176
     1
 90
        0
176
     1
 90
        0
176
     1
290
     0
176
     1
 90
        1
176
     1
 40
0.0
176
     1
 90
        0
176
     1
290
     0
176
     1
290
     1
176
     1
290
     1
176
     1
290
     0
176
     1
290
     0
176
     1
290
     0
176
     1
290
     0
176
     1
290
     0
176
     1
290
     0
176
     1
 90
       50
176
     1
 40
0.0
176
     1
 40
1.0
176
     1
 90
        0
176
     1
 62
    18
420
        0
176
     1
 90
       50
176
     1
 90
        3
176
     1
 62
     5
420
      255
176
     1
290
     0
176
     1
 90
       50
176
     1
 90
       50
176
     1
 90
       50
176
     1
290
     0
176
     1
 90
       50
176
     1
 62
   256
176
     0
 40
1.0
176
     0
 90
        2
176
     1
  1
strokes_ogs.tif
176
     1
290
     0
176
     1
 40
1.0
176
     1
 40
1.0
176
     1
  0
VISUALSTYLE
  5
3C
102
{ACAD_REACTORS
330
2A
102
}
330
2A
100
AcDbVisualStyle
  2
OverhangOff
 70
    21
177
     3
291
     1
 70
    58
 90
        2
176
     0
 90
        2
176
     0
 90
        0
176
     0
 90
        0
176
     0
 40
0.6
176
     0
 40
30.0
176
     0
 62
     7
420
 16777215
176
     0
 90
        1
176
     0
 90
        4
176
     0
 62
     7
176
     0
 62
   257
176
     0
 90
        1
176
     0
 90
        1
176
     0
 40
1.0
176
     0
 90
        9
176
     2
 62
     7
176
     0
 40
1.0
176
     0
 90
        1
176
     0
 90
        6
176
     0
 90
        2
176
     0
 62
     7
176
     0
 90
        5
176
     0
 90
        0
176
     0
 90
        0
176
     0
290
     0
176
     0
 90
        1
176
     0
 40
0.0
176
     0
 90
        0
176
     0
290
     0
176
     0
290
     1
176
     0
290
     1
176
     0
290
     0
176
     0
290
     0
176
     0
290
     0
176
     0
290
     0
176
     0
290
     0
176
     0
290
     0
176
     0
 90
       50
176
     0
 40
0.0
176
     0
 40
1.0
176
     0
 90
        0
176
     0
 62
    18
420
        0
176
     0
 90
       50
176
     0
 90
        3
176
     0
 62
     5
420
      255
176
     0
290
     0
176
     0
 90
       50
176
     0
 90
       50
176
     0
 90
       50
176
     0
290
     0
176
     0
 90
       50
176
     0
 62
   256
176
     0
 40
1.0
176
     0
 90
        2
176
     0
  1
strokes_ogs.tif
176
     0
290
     0
176
     0
 40
1.0
176
     0
 40
1.0
176
     0
  0
VISUALSTYLE
  5
33
102
{ACAD_REACTORS
330
2A
102
}
330
2A
100
AcDbVisualStyle
  2
Realistic
 70
     8
177
     3
291
     0
 70
    58
 90
        2
176
     1
 90
        3
176
     1
 90
        0
176
     1
 90
        2
176
     1
 40
0.6
176
     1
 40
30.0
176
     1
 62
     7
420
 16777215
176
     1
 90
        0
176
     1
 90
        0
176
     1
 62
     7
176
     1
 62
   257
176
     1
 90
        1
176
     1
 90
        1
176
     1
 40
1.0
176
     1
 90
        8
176
     1
 62
   257
176
     1
 40
1.0
176
     1
 90
        1
176
     1
 90
        6
176
     1
 90
        2
176
     1
 62
     7
176
     1
 90
        3
176
     1
 90
        0
176
     1
 90
        0
176
     1
290
     0
176
     1
 90
       13
176
     1
 40
0.0
176
     1
 90
        0
176
     1
290
     0
176
     1
290
     1
176
     1
290
     1
176
     1
290
     0
176
     1
290
     0
176
     1
290
     0
176
     1
290
     0
176
     1
290
     0
176
     1
290
     0
176
     1
 90
       50
176
     1
 40
0.0
176
     1
 40
1.0
176
     1
 90
        0
176
     1
 62
    18
420
        0
176
     1
 90
       50
176
     1
 90
        3
176
     1
 62
     5
420
      255
176
     1
290
     0
176
     1
 90
       50
176
     1
 90
       50
176
     1
 90
       50
176
     1
290
     0
176
     1
 90
       50
176
     1
 62
   256
176
     0
 40
1.0
176
     0
 90
        2
176
     1
  1
strokes_ogs.tif
176
     1
290
     0
176
     1
 40
1.0
176
     1
 40
1.0
176
     1
  0
VISUALSTYLE
  5
42
102
{ACAD_REACTORS
330
2A
102
}
330
2A
100
AcDbVisualStyle
  2
Shaded
 70
    27
177
     3
291
     0
 70
    58
 90
        2
176
     1
 90
        2
176
     1
 90
        1
176
     1
 90
        2
176
     1
 40
0.6
176
     1
 40
30.0
176
     1
 62
     7
420
 16777215
176
     1
 90
        0
176
     1
 90
        4
176
     1
 62
     7
176
     1
 62
   257
176
     1
 90
        1
176
     1
 90
        1
176
     1
 40
1.0
176
     1
 90
        8
176
     1
 62
   257
176
     1
 40
1.0
176
     1
 90
        1
176
     1
 90
        6
176
     1
 90
        2
176
     1
 62
     8
420
  7895160
176
     1
 90
        3
176
     1
 90
        0
176
     1
 90
        0
176
     1
290
     0
176
     1
 90
        5
176
     1
 40
0.0
176
     1
 90
        0
176
     1
290
     0
176
     1
290
     1
176
     1
290
     1
176
     1
290
     0
176
     1
290
     0
176
     1
290
     0
176
     1
290
     0
176
     1
290
     0
176
     1
290
     0
176
     1
 90
       50
176
     1
 40
0.0
176
     1
 40
1.0
176
     1
 90
        0
176
     1
 62
    18
420
        0
176
     1
 90
       50
176
     1
 90
        3
176
     1
 62
     5
420
      255
176
     1
290
     0
176
     1
 90
       50
176
     1
 90
       50
176
     1
 90
       50
176
     1
290
     0
176
     1
 90
       50
176
     1
 62
   256
176
     0
 40
1.0
176
     0
 90
        2
176
     1
  1
strokes_ogs.tif
176
     1
290
     0
176
     1
 40
1.0
176
     1
 40
1.0
176
     1
  0
VISUALSTYLE
  5
41
102
{ACAD_REACTORS
330
2A
102
}
330
2A
100
AcDbVisualStyle
  2
Shaded with edges
 70
    26
177
     3
291
     0
 70
    58
 90
        2
176
     1
 90
        2
176
     1
 90
        1
176
     1
 90
        2
176
     1
 40
0.6
176
     1
 40
30.0
176
     1
 62
     7
420
 16777215
176
     1
 90
        1
176
     1
 90
       10
176
     1
 62
     7
176
     1
 62
   257
176
     1
 90
        2
176
     1
 90
        1
176
     1
 40
1.0
176
     1
 90
        8
176
     1
 62
   257
176
     1
 40
1.0
176
     1
 90
        1
176
     1
 90
        6
176
     1
 90
        2
176
     1
 62
     7
176
     1
 90
        3
176
     1
 90
        0
176
     1
 90
        0
176
     1
290
     0
176
     1
 90
        5
176
     1
 40
0.0
176
     1
 90
        0
176
     1
290
     0
176
     1
290
     1
176
     1
290
     1
176
     1
290
     0
176
     1
290
     0
176
     1
290
     0
176
     1
290
     0
176
     1
290
     0
176
     1
290
     0
176
     1
 90
       50
176
     1
 40
0.0
176
     1
 40
1.0
176
     1
 90
        0
176
     1
 62
    18
420
        0
176
     1
 90
       50
176
     1
 90
        3
176
     1
 62
     5
420
      255
176
     1
290
     0
176
     1
 90
       50
176
     1
 90
       50
176
     1
 90
       50
176
     1
290
     0
176
     1
 90
       50
176
     1
 62
   256
176
     0
 40
1.0
176
     0
 90
        2
176
     1
  1
strokes_ogs.tif
176
     1
290
     0
176
     1
 40
1.0
176
     1
 40
1.0
176
     1
  0
VISUALSTYLE
  5
3E
102
{ACAD_REACTORS
330
2A
102
}
330
2A
100
AcDbVisualStyle
  2
Shades of Gray
 70
    23
177
     3
291
     0
 70
    58
 90
        2
176
     1
 90
        2
176
     1
 90
        3
176
     1
 90
        0
176
     1
 40
0.6
176
     1
 40
30.0
176
     1
 62
     7
420
 16777215
176
     1
 90
        2
176
     1
 90
        2
176
     1
 62
     7
176
     1
 62
     7
176
     1
 90
        1
176
     1
 90
        1
176
     1
 40
40.0
176
     1
 90
        8
176
     1
 62
     7
176
     1
 40
1.0
176
     1
 90
        1
176
     1
 90
        6
176
     1
 90
        2
176
     1
 62
     7
176
     1
 90
        3
176
     1
 90
        0
176
     1
 90
        0
176
     1
290
     0
176
     1
 90
        1
176
     1
 40
0.0
176
     1
 90
        0
176
     1
290
     0
176
     1
290
     1
176
     1
290
     1
176
     1
290
     0
176
     1
290
     0
176
     1
290
     0
176
     1
290
     0
176
     1
290
     0
176
     1
290
     0
176
     1
 90
       50
176
     1
 40
0.0
176
     1
 40
1.0
176
     1
 90
        0
176
     1
 62
    18
420
        0
176
     1
 90
       50
176
     1
 90
        3
176
     1
 62
     5
420
      255
176
     1
290
     0
176
     1
 90
       50
176
     1
 90
       50
176
     1
 90
       50
176
     1
290
     0
176
     1
 90
       50
176
     1
 62
   256
176
     0
 40
1.0
176
     0
 90
        2
176
     1
  1
strokes_ogs.tif
176
     1
290
     0
176
     1
 40
1.0
176
     1
 40
1.0
176
     1
  0
VISUALSTYLE
  5
3F
102
{ACAD_REACTORS
330
2A
102
}
330
2A
100
AcDbVisualStyle
  2
Sketchy
 70
    24
177
     3
291
     0
 70
    58
 90
        1
176
     1
 90
        2
176
     1
 90
        2
176
     1
 90
        0
176
     1
 40
0.6
176
     1
 40
30.0
176
     1
 62
     7
420
 16777215
176
     1
 90
        2
176
     1
 90
        2
176
     1
 62
     7
176
     1
 62
     7
176
     1
 90
        1
176
     1
 90
        1
176
     1
 40
40.0
176
     1
 90
       11
176
     1
 62
     7
176
     1
 40
1.0
176
     1
 90
        1
176
     1
 90
        6
176
     1
 90
        2
176
     1
 62
     7
176
     1
 90
        6
176
     1
 90
        0
176
     1
 90
        0
176
     1
290
     0
176
     1
 90
        1
176
     1
 40
0.0
176
     1
 90
        0
176
     1
290
     0
176
     1
290
     1
176
     1
290
     1
176
     1
290
     0
176
     1
290
     0
176
     1
290
     0
176
     1
290
     0
176
     1
290
     0
176
     1
290
     0
176
     1
 90
       50
176
     1
 40
0.0
176
     1
 40
1.0
176
     1
 90
        0
176
     1
 62
    18
420
        0
176
     1
 90
       50
176
     1
 90
        3
176
     1
 62
     5
420
      255
176
     1
290
     0
176
     1
 90
       50
176
     1
 90
       50
176
     1
 90
       50
176
     1
290
     0
176
     1
 90
       50
176
     1
 62
   256
176
     0
 40
1.0
176
     0
 90
        2
176
     1
  1
strokes_ogs.tif
176
     1
290
     0
176
     1
 40
1.0
176
     1
 40
1.0
176
     1
  0
VISUALSTYLE
  5
37
102
{ACAD_REACTORS
330
2A
102
}
330
2A
100
AcDbVisualStyle
  2
Thicken
 70
    13
177
     3
291
     1
 70
    58
 90
        2
176
     1
 90
        2
176
     1
 90
        0
176
     1
 90
        0
176
     1
 40
0.6
176
     1
 40
30.0
176
     1
 62
     7
420
 16777215
176
     1
 90
        1
176
     1
 90
        4
176
     1
 62
     7
176
     1
 62
   257
176
     1
 90
        1
176
     1
 90
        1
176
     1
 40
1.0
176
     1
 90
       12
176
     1
 62
     7
176
     1
 40
1.0
176
     1
 90
        1
176
     1
 90
        6
176
     1
 90
        2
176
     1
 62
     7
176
     1
 90
        5
176
     1
 90
        0
176
     1
 90
        0
176
     1
290
     0
176
     1
 90
        1
176
     1
 40
0.0
176
     1
 90
        0
176
     1
290
     0
176
     1
290
     1
176
     1
290
     1
176
     1
290
     0
176
     1
290
     0
176
     1
290
     0
176
     1
290
     0
176
     1
290
     0
176
     1
290
     0
176
     1
 90
       50
176
     1
 40
0.0
176
     1
 40
1.0
176
     1
 90
        0
176
     1
 62
    18
420
        0
176
     1
 90
       50
176
     1
 90
        3
176
     1
 62
     5
420
      255
176
     1
290
     0
176
     1
 90
       50
176
     1
 90
       50
176
     1
 90
       50
176
     1
290
     0
176
     1
 90
       50
176
     1
 62
   256
176
     0
 40
1.0
176
     0
 90
        2
176
     1
  1
strokes_ogs.tif
176
     1
290
     0
176
     1
 40
1.0
176
     1
 40
1.0
176
     1
  0
VISUALSTYLE
  5
30
102
{ACAD_REACTORS
330
2A
102
}
330
2A
100
AcDbVisualStyle
  2
Wireframe
 70
     5
177
     3
291
     0
 70
    58
 90
        0
176
     1
 90
        2
176
     1
 90
        0
176
     1
 90
        0
176
     1
 40
0.6
176
     1
 40
30.0
176
     1
 62
     7
420
 16777215
176
     1
 90
        1
176
     1
 90
        4
176
     1
 62
     7
176
     1
 62
   257
176
     1
 90
        1
176
     1
 90
        1
176
     1
 40
1.0
176
     1
 90
        0
176
     1
 62
   257
176
     1
 40
1.0
176
     1
 90
        1
176
     1
 90
        6
176
     1
 90
        2
176
     1
 62
     7
176
     1
 90
        3
176
     1
 90
        0
176
     1
 90
        0
176
     1
290
     0
176
     1
 90
        1
176
     1
 40
0.0
176
     1
 90
        0
176
     1
290
     0
176
     1
290
     1
176
     1
290
     1
176
     1
290
     0
176
     1
290
     0
176
     1
290
     0
176
     1
290
     0
176
     1
290
     0
176
     1
290
     0
176
     1
 90
       50
176
     1
 40
0.0
176
     1
 40
1.0
176
     1
 90
        0
176
     1
 62
    18
420
        0
176
     1
 90
       50
176
     1
 90
        3
176
     1
 62
     5
420
      255
176
     1
290
     0
176
     1
 90
       50
176
     1
 90
       50
176
     1
 90
       50
176
     1
290
     0
176
     1
 90
       50
176
     1
 62
   256
176
     0
 40
1.0
176
     0
 90
        2
176
     1
  1
strokes_ogs.tif
176
     1
290
     0
176
     1
 40
1.0
176
     1
 40
1.0
176
     1
  0
VISUALSTYLE
  5
40
102
{ACAD_REACTORS
330
2A
102
}
330
2A
100
AcDbVisualStyle
  2
X-Ray
 70
    25
177
     3
291
     0
 70
    58
 90
        2
176
     1
 90
        2
176
     1
 90
        1
176
     1
 90
        1
176
     1
 40
0.5
176
     1
 40
30.0
176
     1
 62
     7
420
 16777215
176
     1
 90
        1
176
     1
 90
        0
176
     1
 62
     7
176
     1
 62
   257
176
     1
 90
        1
176
     1
 90
        1
176
     1
 40
1.0
176
     1
 90
        8
176
     1
 62
     7
176
     1
 40
1.0
176
     1
 90
        1
176
     1
 90
        6
176
     1
 90
        2
176
     1
 62
     7
176
     1
 90
        3
176
     1
 90
        0
176
     1
 90
        0
176
     1
290
     0
176
     1
 90
       13
176
     1
 40
0.0
176
     1
 90
        0
176
     1
290
     0
176
     1
290
     1
176
     1
290
     1
176
     1
290
     0
176
     1
290
     0
176
     1
290
     0
176
     1
290
     0
176
     1
290
     0
176
     1
290
     0
176
     1
 90
       50
176
     1
 40
0.0
176
     1
 40
1.0
176
     1
 90
        0
176
     1
 62
    18
420
        0
176
     1
 90
       50
176
     1
 90
        3
176
     1
 62
     5
420
      255
176
     1
290
     0
176
     1
 90
       50
176
     1
 90
       50
176
     1
 90
       50
176
     1
290
     0
176
     1
 90
       50
176
     1
 62
   256
176
     0
 40
1.0
176
     0
 90
        2
176
     1
  1
strokes_ogs.tif
176
     1
290
     0
176
     1
 40
1.0
176
     1
 40
1.0
176
     1
  0
DICTIONARYVAR
  5
1EA
102
{ACAD_REACTORS
330
1E9
102
}
330
1E9
100
DictionaryVariables
280
     0
  1
1:1
  0
DICTIONARYVAR
  5
1EF
102
{ACAD_REACTORS
330
1E9
102
}
330
1E9
100
DictionaryVariables
280
     0
  1
Standard
  0
DICTIONARYVAR
  5
1EE
102
{ACAD_REACTORS
330
1E9
102
}
330
1E9
100
DictionaryVariables
280
     0
  1
Standard
  0
DICTIONARY
  5
1EB
330
6A
100
AcDbDictionary
280
     1
281
     1
  3
ACAD_ROUNDTRIP_2008_TABLESTYLE_CELLSTYLEMAP
360
1EC
  0
CELLSTYLEMAP
  5
1EC
102
{ACAD_REACTORS
330
1EB
102
}
330
1EB
100
AcDbCellStyleMap
 90
        3
300
CELLSTYLE
  1
TABLEFORMAT_BEGIN
 90
        5
170
     1
 91
        0
 92
    32768
 62
   257
 93
        1
300
CONTENTFORMAT
  1
CONTENTFORMAT_BEGIN
 90
        0
 91
        0
 92
        4
 93
        0
300

 40
0.0
140
1.0
 94
        5
 62
     0
340
11
144
0.25
309
CONTENTFORMAT_END
171
     1
301
MARGIN
  1
CELLMARGIN_BEGIN
 40
0.06
 40
0.06
 40
0.06
 40
0.06
 40
0.06
 40
0.06
309
CELLMARGIN_END
 94
        6
 95
        1
302
GRIDFORMAT
  1
GRIDFORMAT_BEGIN
 90
        0
 91
        1
 62
     0
 92
       -2
340
14
 93
        0
 40
0.045
309
GRIDFORMAT_END
 95
        2
302
GRIDFORMAT
  1
GRIDFORMAT_BEGIN
 90
        0
 91
        1
 62
     0
 92
       -2
340
14
 93
        0
 40
0.045
309
GRIDFORMAT_END
 95
        4
302
GRIDFORMAT
  1
GRIDFORMAT_BEGIN
 90
        0
 91
        1
 62
     0
 92
       -2
340
14
 93
        0
 40
0.045
309
GRIDFORMAT_END
 95
        8
302
GRIDFORMAT
  1
GRIDFORMAT_BEGIN
 90
        0
 91
        1
 62
     0
 92
       -2
340
14
 93
        0
 40
0.045
309
GRIDFORMAT_END
 95
       16
302
GRIDFORMAT
  1
GRIDFORMAT_BEGIN
 90
        0
 91
        1
 62
     0
 92
       -2
340
14
 93
        0
 40
0.045
309
GRIDFORMAT_END
 95
       32
302
GRIDFORMAT
  1
GRIDFORMAT_BEGIN
 90
        0
 91
        1
 62
     0
 92
       -2
340
14
 93
        0
 40
0.045
309
GRIDFORMAT_END
309
TABLEFORMAT_END
  1
CELLSTYLE_BEGIN
 90
        1
 91
        1
300
_TITLE
309
CELLSTYLE_END
300
CELLSTYLE
  1
TABLEFORMAT_BEGIN
 90
        5
170
     1
 91
        0
 92
        0
 62
   257
 93
        1
300
CONTENTFORMAT
  1
CONTENTFORMAT_BEGIN
 90
        0
 91
        0
 92
        4
 93
        0
300

 40
0.0
140
1.0
 94
        5
 62
     0
340
11
144
0.18
309
CONTENTFORMAT_END
171
     1
301
MARGIN
  1
CELLMARGIN_BEGIN
 40
0.06
 40
0.06
 40
0.06
 40
0.06
 40
0.06
 40
0.06
309
CELLMARGIN_END
 94
        6
 95
        1
302
GRIDFORMAT
  1
GRIDFORMAT_BEGIN
 90
        0
 91
        1
 62
     0
 92
       -2
340
14
 93
        0
 40
0.045
309
GRIDFORMAT_END
 95
        2
302
GRIDFORMAT
  1
GRIDFORMAT_BEGIN
 90
        0
 91
        1
 62
     0
 92
       -2
340
14
 93
        0
 40
0.045
309
GRIDFORMAT_END
 95
        4
302
GRIDFORMAT
  1
GRIDFORMAT_BEGIN
 90
        0
 91
        1
 62
     0
 92
       -2
340
14
 93
        0
 40
0.045
309
GRIDFORMAT_END
 95
        8
302
GRIDFORMAT
  1
GRIDFORMAT_BEGIN
 90
        0
 91
        1
 62
     0
 92
       -2
340
14
 93
        0
 40
0.045
309
GRIDFORMAT_END
 95
       16
302
GRIDFORMAT
  1
GRIDFORMAT_BEGIN
 90
        0
 91
        1
 62
     0
 92
       -2
340
14
 93
        0
 40
0.045
309
GRIDFORMAT_END
 95
       32
302
GRIDFORMAT
  1
GRIDFORMAT_BEGIN
 90
        0
 91
        1
 62
     0
 92
       -2
340
14
 93
        0
 40
0.045
309
GRIDFORMAT_END
309
TABLEFORMAT_END
  1
CELLSTYLE_BEGIN
 90
        2
 91
        1
300
_HEADER
309
CELLSTYLE_END
300
CELLSTYLE
  1
TABLEFORMAT_BEGIN
 90
        5
170
     1
 91
        0
 92
        0
 62
   257
 93
        1
300
CONTENTFORMAT
  1
CONTENTFORMAT_BEGIN
 90
        0
 91
        0
 92
        4
 93
        0
300

 40
0.0
140
1.0
 94
        2
 62
     0
340
11
144
0.18
309
CONTENTFORMAT_END
171
     1
301
MARGIN
  1
CELLMARGIN_BEGIN
 40
0.06
 40
0.06
 40
0.06
 40
0.06
 40
0.06
 40
0.06
309
CELLMARGIN_END
 94
        6
 95
        1
302
GRIDFORMAT
  1
GRIDFORMAT_BEGIN
 90
        0
 91
        1
 62
     0
 92
       -2
340
14
 93
        0
 40
0.045
309
GRIDFORMAT_END
 95
        2
302
GRIDFORMAT
  1
GRIDFORMAT_BEGIN
 90
        0
 91
        1
 62
     0
 92
       -2
340
14
 93
        0
 40
0.045
309
GRIDFORMAT_END
 95
        4
302
GRIDFORMAT
  1
GRIDFORMAT_BEGIN
 90
        0
 91
        1
 62
     0
 92
       -2
340
14
 93
        0
 40
0.045
309
GRIDFORMAT_END
 95
        8
302
GRIDFORMAT
  1
GRIDFORMAT_BEGIN
 90
        0
 91
        1
 62
     0
 92
       -2
340
14
 93
        0
 40
0.045
309
GRIDFORMAT_END
 95
       16
302
GRIDFORMAT
  1
GRIDFORMAT_BEGIN
 90
        0
 91
        1
 62
     0
 92
       -2
340
14
 93
        0
 40
0.045
309
GRIDFORMAT_END
 95
       32
302
GRIDFORMAT
  1
GRIDFORMAT_BEGIN
 90
        0
 91
        1
 62
     0
 92
       -2
340
14
 93
        0
 40
0.045
309
GRIDFORMAT_END
309
TABLEFORMAT_END
  1
CELLSTYLE_BEGIN
 90
        3
 91
        2
300
_DATA
309
CELLSTYLE_END
  0
ENDSEC
  0
EOF