0
SECTION
  2
HEADER
  9
$ACADVER
  1
AC1027
  9
$ACADMAINTVER
 70
     8
  9
$DWGCODEPAGE
  3
ANSI_1252
  9
$REQUIREDVERSIONS
160
                 0
  9
$COMMENTS
  1
File was created by Cadenas
  9
$CUSTOMPROPERTYTAG
  1
NN
  9
$CUSTOMPROPERTY
  1
S-2000 Pillow Block 2-Bolt Inch Bore (Contact Seal)
  9
$CUSTOMPROPERTYTAG
  1
NT
  9
$CUSTOMPROPERTY
  1
S-2000 Pillow Block Bearing -Inch (2-Bolt Base)
  9
$CUSTOMPROPERTYTAG
  1
NB
  9
$CUSTOMPROPERTY
  1
070277
  9
$CUSTOMPROPERTYTAG
  1
NBSYN
  9
$CUSTOMPROPERTY
  1
$PN.
  9
$CUSTOMPROPERTYTAG
  1
LINA
  9
$CUSTOMPROPERTY
  1
070277
  9
$CUSTOMPROPERTYTAG
  1
SS
  9
$CUSTOMPROPERTY
  1
1-3/4
  9
$CUSTOMPROPERTYTAG
  1
PN
  9
$CUSTOMPROPERTY
  1
070277
  9
$CUSTOMPROPERTYTAG
  1
DESCRIPTION
  9
$CUSTOMPROPERTY
  1
P2B-S2-112R
  9
$CUSTOMPROPERTYTAG
  1
EF
  9
$CUSTOMPROPERTY
  1
Non-Expansion Type
  9
$CUSTOMPROPERTYTAG
  1
ST
  9
$CUSTOMPROPERTY
  1
Contact Seal
  9
$CUSTOMPROPERTYTAG
  1
A
  9
$CUSTOMPROPERTY
  1
2-43/64
  9
$CUSTOMPROPERTYTAG
  1
B
  9
$CUSTOMPROPERTY
  1
7-3/8
  9
$CUSTOMPROPERTYTAG
  1
C
  9
$CUSTOMPROPERTY
  1
2-1/16
  9
$CUSTOMPROPERTYTAG
  1
DMIN
  9
$CUSTOMPROPERTY
  1
5-5/16
  9
$CUSTOMPROPERTYTAG
  1
DMAX
  9
$CUSTOMPROPERTY
  1
5-45/64
  9
$CUSTOMPROPERTYTAG
  1
F
  9
$CUSTOMPROPERTY
  1
1/2
  9
$CUSTOMPROPERTYTAG
  1
G
  9
$CUSTOMPROPERTY
  1
13/16
  9
$CUSTOMPROPERTYTAG
  1
H
  9
$CUSTOMPROPERTY
  1
1-1/4
  9
$CUSTOMPROPERTYTAG
  1
J
  9
$CUSTOMPROPERTY
  1
4-17/64
  9
$CUSTOMPROPERTYTAG
  1
L
  9
$CUSTOMPROPERTY
  1
3-3/16
  9
$CUSTOMPROPERTYTAG
  1
M
  9
$CUSTOMPROPERTY
  1
2-1/8
  9
$CUSTOMPROPERTYTAG
  1
R
  9
$CUSTOMPROPERTY
  1
13/16
  9
$CUSTOMPROPERTYTAG
  1
S
  9
$CUSTOMPROPERTY
  1
1-55/64
  9
$CUSTOMPROPERTYTAG
  1
X
  9
$CUSTOMPROPERTY
  1
1/4
  9
$CUSTOMPROPERTYTAG
  1
Y
  9
$CUSTOMPROPERTY
  1
0.020
  9
$CUSTOMPROPERTYTAG
  1
Z
  9
$CUSTOMPROPERTY
  1
2-5/64
  9
$CUSTOMPROPERTYTAG
  1
COMPANY
  9
$CUSTOMPROPERTY
  1
baldor
  9
$INSBASE
 10
0.0
 20
0.0
 30
0.0
  9
$EXTMIN
 10
1.000000000000000E+20
 20
1.000000000000000E+20
 30
1.000000000000000E+20
  9
$EXTMAX
 10
-1.000000000000000E+20
 20
-1.000000000000000E+20
 30
-1.000000000000000E+20
  9
$LIMMIN
 10
0.0
 20
0.0
  9
$LIMMAX
 10
12.0
 20
9.0
  9
$ORTHOMODE
 70
     0
  9
$REGENMODE
 70
     1
  9
$FILLMODE
 70
     1
  9
$QTEXTMODE
 70
     0
  9
$MIRRTEXT
 70
     1
  9
$LTSCALE
 40
1.0
  9
$ATTMODE
 70
     1
  9
$TEXTSIZE
 40
0.2
  9
$TRACEWID
 40
0.05
  9
$TEXTSTYLE
  7
Standard
  9
$CLAYER
  8
0
  9
$CELTYPE
  6
ByLayer
  9
$CECOLOR
 62
   256
  9
$CELTSCALE
 40
1.0
  9
$DISPSILH
 70
     0
  9
$DIMSCALE
 40
1.0
  9
$DIMASZ
 40
0.18
  9
$DIMEXO
 40
0.0625
  9
$DIMDLI
 40
0.38
  9
$DIMRND
 40
0.0
  9
$DIMDLE
 40
0.0
  9
$DIMEXE
 40
0.18
  9
$DIMTP
 40
0.0
  9
$DIMTM
 40
0.0
  9
$DIMTXT
 40
0.18
  9
$DIMCEN
 40
0.09
  9
$DIMTSZ
 40
0.0
  9
$DIMTOL
 70
     0
  9
$DIMLIM
 70
     0
  9
$DIMTIH
 70
     1
  9
$DIMTOH
 70
     1
  9
$DIMSE1
 70
     0
  9
$DIMSE2
 70
     0
  9
$DIMTAD
 70
     0
  9
$DIMZIN
 70
     0
  9
$DIMBLK
  1

  9
$DIMASO
 70
     1
  9
$DIMSHO
 70
     1
  9
$DIMPOST
  1

  9
$DIMAPOST
  1

  9
$DIMALT
 70
     0
  9
$DIMALTD
 70
     2
  9
$DIMALTF
 40
25.4
  9
$DIMLFAC
 40
1.0
  9
$DIMTOFL
 70
     0
  9
$DIMTVP
 40
0.0
  9
$DIMTIX
 70
     0
  9
$DIMSOXD
 70
     0
  9
$DIMSAH
 70
     0
  9
$DIMBLK1
  1

  9
$DIMBLK2
  1

  9
$DIMSTYLE
  2
Standard
  9
$DIMCLRD
 70
     0
  9
$DIMCLRE
 70
     0
  9
$DIMCLRT
 70
     0
  9
$DIMTFAC
 40
1.0
  9
$DIMGAP
 40
0.09
  9
$DIMJUST
 70
     0
  9
$DIMSD1
 70
     0
  9
$DIMSD2
 70
     0
  9
$DIMTOLJ
 70
     1
  9
$DIMTZIN
 70
     0
  9
$DIMALTZ
 70
     0
  9
$DIMALTTZ
 70
     0
  9
$DIMUPT
 70
     0
  9
$DIMDEC
 70
     4
  9
$DIMTDEC
 70
     4
  9
$DIMALTU
 70
     2
  9
$DIMALTTD
 70
     2
  9
$DIMTXSTY
  7
Standard
  9
$DIMAUNIT
 70
     0
  9
$DIMADEC
 70
     0
  9
$DIMALTRND
 40
0.0
  9
$DIMAZIN
 70
     0
  9
$DIMDSEP
 70
    46
  9
$DIMATFIT
 70
     3
  9
$DIMFRAC
 70
     0
  9
$DIMLDRBLK
  1

  9
$DIMLUNIT
 70
     2
  9
$DIMLWD
 70
    -2
  9
$DIMLWE
 70
    -2
  9
$DIMTMOVE
 70
     0
  9
$DIMFXL
 40
1.0
  9
$DIMFXLON
 70
     0
  9
$DIMJOGANG
 40
0.7853981633974483
  9
$DIMTFILL
 70
     0
  9
$DIMTFILLCLR
 70
     0
  9
$DIMARCSYM
 70
     0
  9
$DIMLTYPE
  6

  9
$DIMLTEX1
  6

  9
$DIMLTEX2
  6

  9
$DIMTXTDIRECTION
 70
     0
  9
$LUNITS
 70
     2
  9
$LUPREC
 70
     4
  9
$SKETCHINC
 40
0.1
  9
$FILLETRAD
 40
0.5
  9
$AUNITS
 70
     0
  9
$AUPREC
 70
     0
  9
$MENU
  1
.
  9
$ELEVATION
 40
0.0
  9
$PELEVATION
 40
0.0
  9
$THICKNESS
 40
0.0
  9
$LIMCHECK
 70
     0
  9
$CHAMFERA
 40
0.0
  9
$CHAMFERB
 40
0.0
  9
$CHAMFERC
 40
0.0
  9
$CHAMFERD
 40
0.0
  9
$SKPOLY
 70
     0
  9
$TDCREATE
 40
2458168.985050717
  9
$TDUCREATE
 40
2458168.943384051
  9
$TDUPDATE
 40
2458168.985050891
  9
$TDUUPDATE
 40
2458168.943384225
  9
$TDINDWG
 40
0.0000000116
  9
$TDUSRTIMER
 40
0.0000000116
  9
$USRTIMER
 70
     1
  9
$ANGBASE
 50
0.0
  9
$ANGDIR
 70
     0
  9
$PDMODE
 70
     0
  9
$PDSIZE
 40
0.0
  9
$PLINEWID
 40
0.0
  9
$SPLFRAME
 70
     0
  9
$SPLINETYPE
 70
     6
  9
$SPLINESEGS
 70
     8
  9
$HANDSEED
  5
1E9
  9
$SURFTAB1
 70
     6
  9
$SURFTAB2
 70
     6
  9
$SURFTYPE
 70
     6
  9
$SURFU
 70
     6
  9
$SURFV
 70
     6
  9
$UCSBASE
  2

  9
$UCSNAME
  2

  9
$UCSORG
 10
0.0
 20
0.0
 30
0.0
  9
$UCSXDIR
 10
1.0
 20
0.0
 30
0.0
  9
$UCSYDIR
 10
0.0
 20
1.0
 30
0.0
  9
$UCSORTHOREF
  2

  9
$UCSORTHOVIEW
 70
     0
  9
$UCSORGTOP
 10
0.0
 20
0.0
 30
0.0
  9
$UCSORGBOTTOM
 10
0.0
 20
0.0
 30
0.0
  9
$UCSORGLEFT
 10
0.0
 20
0.0
 30
0.0
  9
$UCSORGRIGHT
 10
0.0
 20
0.0
 30
0.0
  9
$UCSORGFRONT
 10
0.0
 20
0.0
 30
0.0
  9
$UCSORGBACK
 10
0.0
 20
0.0
 30
0.0
  9
$PUCSBASE
  2

  9
$PUCSNAME
  2

  9
$PUCSORG
 10
0.0
 20
0.0
 30
0.0
  9
$PUCSXDIR
 10
1.0
 20
0.0
 30
0.0
  9
$PUCSYDIR
 10
0.0
 20
1.0
 30
0.0
  9
$PUCSORTHOREF
  2

  9
$PUCSORTHOVIEW
 70
     0
  9
$PUCSORGTOP
 10
0.0
 20
0.0
 30
0.0
  9
$PUCSORGBOTTOM
 10
0.0
 20
0.0
 30
0.0
  9
$PUCSORGLEFT
 10
0.0
 20
0.0
 30
0.0
  9
$PUCSORGRIGHT
 10
0.0
 20
0.0
 30
0.0
  9
$PUCSORGFRONT
 10
0.0
 20
0.0
 30
0.0
  9
$PUCSORGBACK
 10
0.0
 20
0.0
 30
0.0
  9
$USERI1
 70
     0
  9
$USERI2
 70
     0
  9
$USERI3
 70
     0
  9
$USERI4
 70
     0
  9
$USERI5
 70
     0
  9
$USERR1
 40
0.0
  9
$USERR2
 40
0.0
  9
$USERR3
 40
0.0
  9
$USERR4
 40
0.0
  9
$USERR5
 40
0.0
  9
$WORLDVIEW
 70
     1
  9
$SHADEDGE
 70
     3
  9
$SHADEDIF
 70
    70
  9
$TILEMODE
 70
     1
  9
$MAXACTVP
 70
    64
  9
$PINSBASE
 10
0.0
 20
0.0
 30
0.0
  9
$PLIMCHECK
 70
     0
  9
$PEXTMIN
 10
1.000000000000000E+20
 20
1.000000000000000E+20
 30
1.000000000000000E+20
  9
$PEXTMAX
 10
-1.000000000000000E+20
 20
-1.000000000000000E+20
 30
-1.000000000000000E+20
  9
$PLIMMIN
 10
0.0
 20
0.0
  9
$PLIMMAX
 10
12.0
 20
9.0
  9
$UNITMODE
 70
     0
  9
$VISRETAIN
 70
     1
  9
$PLINEGEN
 70
     0
  9
$PSLTSCALE
 70
     1
  9
$TREEDEPTH
 70
  3020
  9
$CMLSTYLE
  2
Standard
  9
$CMLJUST
 70
     0
  9
$CMLSCALE
 40
1.0
  9
$PROXYGRAPHICS
 70
     1
  9
$MEASUREMENT
 70
     0
  9
$CELWEIGHT
370
    -1
  9
$ENDCAPS
280
     0
  9
$JOINSTYLE
280
     0
  9
$LWDISPLAY
290
     0
  9
$INSUNITS
 70
     1
  9
$HYPERLINKBASE
  1

  9
$STYLESHEET
  1

  9
$XEDIT
290
     1
  9
$CEPSNTYPE
380
     0
  9
$PSTYLEMODE
290
     1
  9
$FINGERPRINTGUID
  2
{B7B6AD20-AC38-421E-B46A-A677E6193A4B}
  9
$VERSIONGUID
  2
{FAEB1C32-E019-11D5-929B-00C0DF256EC4}
  9
$EXTNAMES
290
     1
  9
$PSVPSCALE
 40
0.0
  9
$OLESTARTUP
290
     0
  9
$SORTENTS
280
   127
  9
$INDEXCTL
280
     0
  9
$HIDETEXT
280
     1
  9
$XCLIPFRAME
280
     2
  9
$HALOGAP
280
     0
  9
$OBSCOLOR
 70
   257
  9
$OBSLTYPE
280
     0
  9
$INTERSECTIONDISPLAY
280
     0
  9
$INTERSECTIONCOLOR
 70
   257
  9
$DIMASSOC
280
     2
  9
$PROJECTNAME
  1

  9
$CAMERADISPLAY
290
     0
  9
$LENSLENGTH
 40
50.0
  9
$CAMERAHEIGHT
 40
0.0
  9
$STEPSPERSEC
 40
2.0
  9
$STEPSIZE
 40
6.0
  9
$3DDWFPREC
 40
2.0
  9
$PSOLWIDTH
 40
0.25
  9
$PSOLHEIGHT
 40
4.0
  9
$LOFTANG1
 40
1.570796326794897
  9
$LOFTANG2
 40
1.570796326794897
  9
$LOFTMAG1
 40
0.0
  9
$LOFTMAG2
 40
0.0
  9
$LOFTPARAM
 70
     7
  9
$LOFTNORMALS
280
     1
  9
$LATITUDE
 40
37.795
  9
$LONGITUDE
 40
-122.394
  9
$NORTHDIRECTION
 40
0.0
  9
$TIMEZONE
 70
 -8000
  9
$LIGHTGLYPHDISPLAY
280
     1
  9
$TILEMODELIGHTSYNCH
280
     1
  9
$CMATERIAL
347
44
  9
$SOLIDHIST
280
     0
  9
$SHOWHIST
280
     1
  9
$DWFFRAME
280
     2
  9
$DGNFRAME
280
     2
  9
$REALWORLDSCALE
290
     1
  9
$INTERFERECOLOR
 62
   256
  9
$CSHADOW
280
     0
  9
$SHADOWPLANELOCATION
 40
0.0
  0
ENDSEC
  0
SECTION
  2
CLASSES
  0
CLASS
  1
ACDBDICTIONARYWDFLT
  2
AcDbDictionaryWithDefault
  3
ObjectDBX Classes
 90
        0
 91
        4
280
     0
281
     0
  0
CLASS
  1
VISUALSTYLE
  2
AcDbVisualStyle
  3
ObjectDBX Classes
 90
     4095
 91
        4
280
     0
281
     0
  0
CLASS
  1
MATERIAL
  2
AcDbMaterial
  3
ObjectDBX Classes
 90
     1153
 91
        4
280
     0
281
     0
  0
CLASS
  1
SCALE
  2
AcDbScale
  3
ObjectDBX Classes
 90
     1153
 91
        4
280
     0
281
     0
  0
CLASS
  1
TABLESTYLE
  2
AcDbTableStyle
  3
ObjectDBX Classes
 90
     4095
 91
        4
280
     0
281
     0
  0
CLASS
  1
MLEADERSTYLE
  2
AcDbMLeaderStyle
  3
ACDB_MLEADERSTYLE_CLASS
 90
     4095
 91
        4
280
     0
281
     0
  0
CLASS
  1
SUN
  2
AcDbSun
  3
SCENEOE
 90
     1153
 91
        4
280
     0
281
     0
  0
CLASS
  1
DICTIONARYVAR
  2
AcDbDictionaryVar
  3
ObjectDBX Classes
 90
        0
 91
        4
280
     0
281
     0
  0
CLASS
  1
CELLSTYLEMAP
  2
AcDbCellStyleMap
  3
ObjectDBX Classes
 90
     1152
 91
        4
280
     0
281
     0
  0
ENDSEC
  0
SECTION
  2
TABLES
  0
TABLE
  2
VPORT
  5
8
330
0
100
AcDbSymbolTable
 70
     1
  0
VPORT
  5
29
330
8
100
AcDbSymbolTableRecord
100
AcDbViewportTableRecord
  2
*Active
 70
     0
 10
0.0
 20
0.0
 11
1.0
 21
1.0
 12
0.0
 22
-0.2235312499999997
 13
0.0
 23
0.0
 14
0.5
 24
0.5
 15
0.5
 25
0.5
 16
0.0
 26
0.0
 36
1.0
 17
0.0
 27
0.0
 37
0.0
 40
3.608058750000001
 41
2.084916161634009
 42
50.0
 43
0.0
 44
0.0
 50
0.0
 51
0.0
 71
     0
 72
   100
 73
     1
 74
     3
 75
     0
 76
     0
 77
     0
 78
     0
281
     0
 65
     1
110
0.0
120
0.0
130
0.0
111
1.0
121
0.0
131
0.0
112
0.0
122
1.0
132
0.0
 79
     0
146
0.0
348
2F
 60
     3
 61
     5
292
     1
282
     1
141
0.0
142
0.0
 63
   250
361
6D
  0
ENDTAB
  0
TABLE
  2
LTYPE
  5
5
330
0
100
AcDbSymbolTable
 70
     3
  0
LTYPE
  5
14
330
5
100
AcDbSymbolTableRecord
100
AcDbLinetypeTableRecord
  2
ByBlock
 70
     0
  3

 72
    65
 73
     0
 40
0.0
  0
LTYPE
  5
15
330
5
100
AcDbSymbolTableRecord
100
AcDbLinetypeTableRecord
  2
ByLayer
 70
     0
  3

 72
    65
 73
     0
 40
0.0
  0
LTYPE
  5
16
330
5
100
AcDbSymbolTableRecord
100
AcDbLinetypeTableRecord
  2
Continuous
 70
     0
  3
Solid line
 72
    65
 73
     0
 40
0.0
  0
LTYPE
  5
A7
330
5
100
AcDbSymbolTableRecord
100
AcDbLinetypeTableRecord
  2
Dashed
 70
     0
  3

 72
    65
 73
     2
 40
2.0
 49
1.0
 74
     0
 49
-1.0
 74
     0
  0
LTYPE
  5
BB
330
5
100
AcDbSymbolTableRecord
100
AcDbLinetypeTableRecord
  2
Center
 70
     0
  3

 72
    65
 73
     4
 40
1.5
 49
0.45
 74
     0
 49
-0.5
 74
     0
 49
0.05
 74
     0
 49
-0.5
 74
     0
  0
ENDTAB
  0
TABLE
  2
LAYER
  5
2
330
0
100
AcDbSymbolTable
 70
     7
  0
LAYER
  5
10
330
2
100
AcDbSymbolTableRecord
100
AcDbLayerTableRecord
  2
0
 70
     0
 62
     7
  6
Continuous
370
    -3
390
F
347
46
348
0
  0
LAYER
  5
72
330
2
100
AcDbSymbolTableRecord
100
AcDbLayerTableRecord
  2
AM_6
 70
     0
 62
    -2
  6
Continuous
370
    35
390
F
347
46
348
0
  0
LAYER
  5
A8
330
2
100
AcDbSymbolTableRecord
100
AcDbLayerTableRecord
  2
AM_9
 70
     0
 62
     6
  6
Dashed
370
    25
390
F
347
46
348
0
  0
LAYER
  5
BC
330
2
100
AcDbSymbolTableRecord
100
AcDbLayerTableRecord
  2
AM_7
 70
     0
 62
     7
  6
Center
370
    25
390
F
347
46
348
0
  0
LAYER
  5
BE
330
2
100
AcDbSymbolTableRecord
100
AcDbLayerTableRecord
  2
AM_4
 70
     0
 62
     7
  6
Continuous
370
    50
390
F
347
46
348
0
  0
LAYER
  5
D3
330
2
100
AcDbSymbolTableRecord
100
AcDbLayerTableRecord
  2
AM_5
 70
     0
 62
     3
  6
Continuous
370
    25
390
F
347
46
348
0
  0
LAYER
  5
1D8
330
2
100
AcDbSymbolTableRecord
100
AcDbLayerTableRecord
  2
ConnectionPoints
 70
     0
 62
     7
  6
Continuous
370
    50
390
F
347
46
348
0
  0
ENDTAB
  0
TABLE
  2
STYLE
  5
3
330
0
100
AcDbSymbolTable
 70
     1
  0
STYLE
  5
11
330
3
100
AcDbSymbolTableRecord
100
AcDbTextStyleTableRecord
  2
Standard
 70
     0
 40
0.0
 41
1.0
 50
0.0
 71
     0
 42
0.2
  3
txt
  4

  0
ENDTAB
  0
TABLE
  2
VIEW
  5
6
330
0
100
AcDbSymbolTable
 70
     0
  0
ENDTAB
  0
TABLE
  2
UCS
  5
7
330
0
100
AcDbSymbolTable
 70
     0
  0
ENDTAB
  0
TABLE
  2
APPID
  5
9
330
0
100
AcDbSymbolTable
 70
     1
  0
APPID
  5
12
330
9
100
AcDbSymbolTableRecord
100
AcDbRegAppTableRecord
  2
ACAD
 70
     0
  0
ENDTAB
  0
TABLE
  2
DIMSTYLE
  5
A
330
0
100
AcDbSymbolTable
 70
     1
100
AcDbDimStyleTable
  0
DIMSTYLE
105
27
330
A
100
AcDbSymbolTableRecord
100
AcDbDimStyleTableRecord
  2
Standard
 70
     0
178
     0
340
11
  0
ENDTAB
  0
TABLE
  2
BLOCK_RECORD
  5
1
330
0
100
AcDbSymbolTable
 70
     6
  0
BLOCK_RECORD
  5
1F
330
1
100
AcDbSymbolTableRecord
100
AcDbBlockTableRecord
  2
*Model_Space
340
22
 70
     0
280
     1
281
     0
  0
BLOCK_RECORD
  5
1B
330
1
100
AcDbSymbolTableRecord
100
AcDbBlockTableRecord
  2
*Paper_Space
340
1E
 70
     0
280
     1
281
     0
  0
BLOCK_RECORD
  5
23
330
1
100
AcDbSymbolTableRecord
100
AcDbBlockTableRecord
  2
*Paper_Space0
340
26
 70
     0
280
     1
281
     0
  0
BLOCK_RECORD
  5
6E
330
1
100
AcDbSymbolTableRecord
100
AcDbBlockTableRecord
  2
1_070277_4
340
0
102
{BLKREFS
331
6F
102
}
 70
     0
280
     1
281
     0
  0
BLOCK_RECORD
  5
8E
330
1
100
AcDbSymbolTableRecord
100
AcDbBlockTableRecord
  2
2_1_3_4CS2i_0_in_070277_4
340
0
102
{BLKREFS
331
8F
102
}
 70
     0
280
     1
281
     0
  0
BLOCK_RECORD
  5
D5
330
1
100
AcDbSymbolTableRecord
100
AcDbBlockTableRecord
  2
3_070004i_0_in_070277_4
340
0
102
{BLKREFS
331
D6
102
}
 70
     0
280
     1
281
     0
  0
BLOCK_RECORD
  5
127
330
1
100
AcDbSymbolTableRecord
100
AcDbBlockTableRecord
  2
4_405015E_Inch_0_in_070277_4
340
0
102
{BLKREFS
331
128
102
}
 70
     0
280
     1
281
     0
  0
BLOCK_RECORD
  5
166
330
1
100
AcDbSymbolTableRecord
100
AcDbBlockTableRecord
  2
5_070277H_0_in_070277_4
340
0
102
{BLKREFS
331
167
102
}
 70
     0
280
     1
281
     0
  0
ENDTAB
  0
ENDSEC
  0
SECTION
  2
BLOCKS
  0
BLOCK
  5
20
330
1F
100
AcDbEntity
  8
0
100
AcDbBlockBegin
  2
*Model_Space
 70
     0
 10
0.0
 20
0.0
 30
0.0
  3
*Model_Space
  1

  0
ENDBLK
  5
21
330
1F
100
AcDbEntity
  8
0
100
AcDbBlockEnd
  0
BLOCK
  5
1C
330
1B
100
AcDbEntity
 67
     1
  8
0
100
AcDbBlockBegin
  2
*Paper_Space
 70
     0
 10
0.0
 20
0.0
 30
0.0
  3
*Paper_Space
  1

  0
ENDBLK
  5
1D
330
1B
100
AcDbEntity
 67
     1
  8
0
100
AcDbBlockEnd
  0
BLOCK
  5
24
330
23
100
AcDbEntity
  8
0
100
AcDbBlockBegin
  2
*Paper_Space0
 70
     0
 10
0.0
 20
0.0
 30
0.0
  3
*Paper_Space0
  1

  0
ENDBLK
  5
25
330
23
100
AcDbEntity
  8
0
100
AcDbBlockEnd
  0
BLOCK
  5
70
330
6E
100
AcDbEntity
  8
0
100
AcDbBlockBegin
  2
1_070277_4
 70
     2
 10
0.0
 20
0.0
 30
0.0
  3
1_070277_4
  1

  0
ATTDEF
  5
73
330
6E
100
AcDbEntity
  8
AM_6
100
AcDbText
 10
8.6875
 20
1.163461538461539
 30
0.0
 40
0.5
  1
S-2000 Pillow Block 2-Bolt Inch Bore (Contact Seal)
100
AcDbAttributeDefinition
  3

  2
NN
 70
     8
280
     0
  0
ATTDEF
  5
74
330
6E
100
AcDbEntity
  8
AM_6
100
AcDbText
 10
8.6875
 20
0.6634615384615385
 30
0.0
 40
0.5
  1
S-2000 Pillow Block Bearing -Inch (2-Bolt Base)
100
AcDbAttributeDefinition
  3

  2
NT
 70
     8
280
     0
  0
ATTDEF
  5
75
330
6E
100
AcDbEntity
  8
AM_6
100
AcDbText
 10
8.6875
 20
0.1634615384615385
 30
0.0
 40
0.5
  1
070277
100
AcDbAttributeDefinition
  3

  2
NB
 70
     8
280
     0
  0
ATTDEF
  5
76
330
6E
100
AcDbEntity
  8
AM_6
100
AcDbText
 10
8.6875
 20
-0.3365384615384615
 30
0.0
 40
0.5
  1
$PN.
100
AcDbAttributeDefinition
  3

  2
NBSYN
 70
     8
280
     0
  0
ATTDEF
  5
77
330
6E
100
AcDbEntity
  8
AM_6
100
AcDbText
 10
8.6875
 20
-0.8365384615384615
 30
0.0
 40
0.5
  1
070277
100
AcDbAttributeDefinition
  3

  2
LINA
 70
     8
280
     0
  0
ATTDEF
  5
78
330
6E
100
AcDbEntity
  8
AM_6
100
AcDbText
 10
8.6875
 20
-1.336538461538461
 30
0.0
 40
0.5
  1
1-3/4
100
AcDbAttributeDefinition
  3

  2
SS
 70
     8
280
     0
  0
ATTDEF
  5
79
330
6E
100
AcDbEntity
  8
AM_6
100
AcDbText
 10
8.6875
 20
-1.836538461538461
 30
0.0
 40
0.5
  1
070277
100
AcDbAttributeDefinition
  3

  2
PN
 70
     8
280
     0
  0
ATTDEF
  5
7A
330
6E
100
AcDbEntity
  8
AM_6
100
AcDbText
 10
8.6875
 20
-2.336538461538462
 30
0.0
 40
0.5
  1
P2B-S2-112R
100
AcDbAttributeDefinition
  3

  2
DESCRIPTION
 70
     8
280
     0
  0
ATTDEF
  5
7B
330
6E
100
AcDbEntity
  8
AM_6
100
AcDbText
 10
8.6875
 20
-2.836538461538462
 30
0.0
 40
0.5
  1
Non-Expansion Type
100
AcDbAttributeDefinition
  3

  2
EF
 70
     8
280
     0
  0
ATTDEF
  5
7C
330
6E
100
AcDbEntity
  8
AM_6
100
AcDbText
 10
8.6875
 20
-3.336538461538462
 30
0.0
 40
0.5
  1
Contact Seal
100
AcDbAttributeDefinition
  3

  2
ST
 70
     8
280
     0
  0
ATTDEF
  5
7D
330
6E
100
AcDbEntity
  8
AM_6
100
AcDbText
 10
8.6875
 20
-3.836538461538462
 30
0.0
 40
0.5
  1
2-43/64
100
AcDbAttributeDefinition
  3

  2
A
 70
     8
280
     0
  0
ATTDEF
  5
7E
330
6E
100
AcDbEntity
  8
AM_6
100
AcDbText
 10
8.6875
 20
-4.336538461538462
 30
0.0
 40
0.5
  1
7-3/8
100
AcDbAttributeDefinition
  3

  2
B
 70
     8
280
     0
  0
ATTDEF
  5
7F
330
6E
100
AcDbEntity
  8
AM_6
100
AcDbText
 10
8.6875
 20
-4.836538461538462
 30
0.0
 40
0.5
  1
2-1/16
100
AcDbAttributeDefinition
  3

  2
C
 70
     8
280
     0
  0
ATTDEF
  5
80
330
6E
100
AcDbEntity
  8
AM_6
100
AcDbText
 10
8.6875
 20
-5.336538461538462
 30
0.0
 40
0.5
  1
5-5/16
100
AcDbAttributeDefinition
  3

  2
DMIN
 70
     8
280
     0
  0
ATTDEF
  5
81
330
6E
100
AcDbEntity
  8
AM_6
100
AcDbText
 10
8.6875
 20
-5.836538461538462
 30
0.0
 40
0.5
  1
5-45/64
100
AcDbAttributeDefinition
  3

  2
DMAX
 70
     8
280
     0
  0
ATTDEF
  5
82
330
6E
100
AcDbEntity
  8
AM_6
100
AcDbText
 10
8.6875
 20
-6.336538461538462
 30
0.0
 40
0.5
  1
1/2
100
AcDbAttributeDefinition
  3

  2
F
 70
     8
280
     0
  0
ATTDEF
  5
83
330
6E
100
AcDbEntity
  8
AM_6
100
AcDbText
 10
8.6875
 20
-6.836538461538462
 30
0.0
 40
0.5
  1
13/16
100
AcDbAttributeDefinition
  3

  2
G
 70
     8
280
     0
  0
ATTDEF
  5
84
330
6E
100
AcDbEntity
  8
AM_6
100
AcDbText
 10
8.6875
 20
-7.336538461538462
 30
0.0
 40
0.5
  1
1-1/4
100
AcDbAttributeDefinition
  3

  2
H
 70
     8
280
     0
  0
ATTDEF
  5
85
330
6E
100
AcDbEntity
  8
AM_6
100
AcDbText
 10
8.6875
 20
-7.836538461538462
 30
0.0
 40
0.5
  1
4-17/64
100
AcDbAttributeDefinition
  3

  2
J
 70
     8
280
     0
  0
ATTDEF
  5
86
330
6E
100
AcDbEntity
  8
AM_6
100
AcDbText
 10
8.6875
 20
-8.336538461538462
 30
0.0
 40
0.5
  1
3-3/16
100
AcDbAttributeDefinition
  3

  2
L
 70
     8
280
     0
  0
ATTDEF
  5
87
330
6E
100
AcDbEntity
  8
AM_6
100
AcDbText
 10
8.6875
 20
-8.836538461538462
 30
0.0
 40
0.5
  1
2-1/8
100
AcDbAttributeDefinition
  3

  2
M
 70
     8
280
     0
  0
ATTDEF
  5
88
330
6E
100
AcDbEntity
  8
AM_6
100
AcDbText
 10
8.6875
 20
-9.336538461538462
 30
0.0
 40
0.5
  1
13/16
100
AcDbAttributeDefinition
  3

  2
R
 70
     8
280
     0
  0
ATTDEF
  5
89
330
6E
100
AcDbEntity
  8
AM_6
100
AcDbText
 10
8.6875
 20
-9.836538461538462
 30
0.0
 40
0.5
  1
1-55/64
100
AcDbAttributeDefinition
  3

  2
S
 70
     8
280
     0
  0
ATTDEF
  5
8A
330
6E
100
AcDbEntity
  8
AM_6
100
AcDbText
 10
8.6875
 20
-10.33653846153846
 30
0.0
 40
0.5
  1
1/4
100
AcDbAttributeDefinition
  3

  2
X
 70
     8
280
     0
  0
ATTDEF
  5
8B
330
6E
100
AcDbEntity
  8
AM_6
100
AcDbText
 10
8.6875
 20
-10.83653846153846
 30
0.0
 40
0.5
  1
0.020
100
AcDbAttributeDefinition
  3

  2
Y
 70
     8
280
     0
  0
ATTDEF
  5
8C
330
6E
100
AcDbEntity
  8
AM_6
100
AcDbText
 10
8.6875
 20
-11.33653846153846
 30
0.0
 40
0.5
  1
2-5/64
100
AcDbAttributeDefinition
  3

  2
Z
 70
     8
280
     0
  0
ATTDEF
  5
8D
330
6E
100
AcDbEntity
  8
AM_6
100
AcDbText
 10
8.6875
 20
-11.83653846153846
 30
0.0
 40
0.5
  1
baldor
100
AcDbAttributeDefinition
  3

  2
COMPANY
 70
     8
280
     0
  0
INSERT
  5
8F
330
6E
100
AcDbEntity
  8
0
100
AcDbBlockReference
  2
2_1_3_4CS2i_0_in_070277_4
 10
0.0
 20
0.0
 30
0.0
  0
INSERT
  5
D6
330
6E
100
AcDbEntity
  8
0
100
AcDbBlockReference
  2
3_070004i_0_in_070277_4
 10
0.0
 20
0.0
 30
0.0
  0
INSERT
  5
128
330
6E
100
AcDbEntity
  8
0
100
AcDbBlockReference
  2
4_405015E_Inch_0_in_070277_4
 10
0.0
 20
0.0
 30
0.0
  0
INSERT
  5
167
330
6E
100
AcDbEntity
  8
0
100
AcDbBlockReference
  2
5_070277H_0_in_070277_4
 10
0.0
 20
0.0
 30
0.0
  0
ENDBLK
  5
71
330
6E
100
AcDbEntity
  8
0
100
AcDbBlockEnd
  0
BLOCK
  5
90
330
8E
100
AcDbEntity
  8
0
100
AcDbBlockBegin
  2
2_1_3_4CS2i_0_in_070277_4
 70
     2
 10
0.0
 20
0.0
 30
0.0
  3
2_1_3_4CS2i_0_in_070277_4
  1

  0
ATTDEF
  5
92
330
8E
100
AcDbEntity
  8
AM_6
100
AcDbText
 10
6.59375
 20
-1.225375
 30
0.0
 40
0.5
  1
S-2000 Collar -Inch
100
AcDbAttributeDefinition
  3

  2
NN
 70
     8
280
     0
  0
ATTDEF
  5
93
330
8E
100
AcDbEntity
  8
AM_6
100
AcDbText
 10
6.59375
 20
-1.725375
 30
0.0
 40
0.5
  1
S-2000 Bearings
100
AcDbAttributeDefinition
  3

  2
NT
 70
     8
280
     0
  0
ATTDEF
  5
94
330
8E
100
AcDbEntity
  8
AM_6
100
AcDbText
 10
6.59375
 20
-2.225375
 30
0.0
 40
0.5
  1
1-3/4CS2i
100
AcDbAttributeDefinition
  3

  2
NB
 70
     8
280
     0
  0
ATTDEF
  5
95
330
8E
100
AcDbEntity
  8
AM_6
100
AcDbText
 10
6.59375
 20
-2.725375
 30
0.0
 40
0.5
  1
$BORE.CS2i
100
AcDbAttributeDefinition
  3

  2
NBSYN
 70
     8
280
     0
  0
ATTDEF
  5
96
330
8E
100
AcDbEntity
  8
AM_6
100
AcDbText
 10
6.59375
 20
-3.225375
 30
0.0
 40
0.5
  1
1-3/4CS2i
100
AcDbAttributeDefinition
  3

  2
LINA
 70
     8
280
     0
  0
ATTDEF
  5
97
330
8E
100
AcDbEntity
  8
AM_6
100
AcDbText
 10
6.59375
 20
-3.725375
 30
0.0
 40
0.5
  1
1-3/4
100
AcDbAttributeDefinition
  3

  2
BORE
 70
     8
280
     0
  0
ATTDEF
  5
98
330
8E
100
AcDbEntity
  8
AM_6
100
AcDbText
 10
6.59375
 20
-4.225375
 30
0.0
 40
0.5
  1
1.750000
100
AcDbAttributeDefinition
  3

  2
BORE1
 70
     8
280
     0
  0
ATTDEF
  5
99
330
8E
100
AcDbEntity
  8
AM_6
100
AcDbText
 10
6.59375
 20
-4.725375
 30
0.0
 40
0.5
  1
3-3/16
100
AcDbAttributeDefinition
  3

  2
L1
 70
     8
280
     0
  0
ATTDEF
  5
9A
330
8E
100
AcDbEntity
  8
AM_6
100
AcDbText
 10
6.59375
 20
-5.225375
 30
0.0
 40
0.5
  1
3.18750
100
AcDbAttributeDefinition
  3

  2
L
 70
     8
280
     0
  0
ATTDEF
  5
9B
330
8E
100
AcDbEntity
  8
AM_6
100
AcDbText
 10
6.59375
 20
-5.725375
 30
0.0
 40
0.5
  1
3.09375
100
AcDbAttributeDefinition
  3

  2
L2
 70
     8
280
     0
  0
ATTDEF
  5
9C
330
8E
100
AcDbEntity
  8
AM_6
100
AcDbText
 10
6.59375
 20
-6.225375
 30
0.0
 40
0.5
  1
3.50
100
AcDbAttributeDefinition
  3

  2
A
 70
     8
280
     0
  0
ATTDEF
  5
9D
330
8E
100
AcDbEntity
  8
AM_6
100
AcDbText
 10
6.59375
 20
-6.725375
 30
0.0
 40
0.5
  1
1.62
100
AcDbAttributeDefinition
  3

  2
B
 70
     8
280
     0
  0
ATTDEF
  5
9E
330
8E
100
AcDbEntity
  8
AM_6
100
AcDbText
 10
6.59375
 20
-7.225375
 30
0.0
 40
0.5
  1
2.31
100
AcDbAttributeDefinition
  3

  2
C
 70
     8
280
     0
  0
ATTDEF
  5
9F
330
8E
100
AcDbEntity
  8
AM_6
100
AcDbText
 10
6.59375
 20
-7.725375
 30
0.0
 40
0.5
  1
3.50
100
AcDbAttributeDefinition
  3

  2
D
 70
     8
280
     0
  0
ATTDEF
  5
A0
330
8E
100
AcDbEntity
  8
AM_6
100
AcDbText
 10
6.59375
 20
-8.225375
 30
0.0
 40
0.5
  1
0.41
100
AcDbAttributeDefinition
  3

  2
E
 70
     8
280
     0
  0
ATTDEF
  5
A1
330
8E
100
AcDbEntity
  8
AM_6
100
AcDbText
 10
6.59375
 20
-8.725375
 30
0.0
 40
0.5
  1
0.317
100
AcDbAttributeDefinition
  3

  2
F
 70
     8
280
     0
  0
ATTDEF
  5
A2
330
8E
100
AcDbEntity
  8
AM_6
100
AcDbText
 10
6.59375
 20
-9.225375
 30
0.0
 40
0.5
  1
3/8-16
100
AcDbAttributeDefinition
  3

  2
CS
 70
     8
280
     0
  0
ATTDEF
  5
A3
330
8E
100
AcDbEntity
  8
AM_6
100
AcDbText
 10
6.59375
 20
-9.725375
 30
0.0
 40
0.5
  1
0.3750
100
AcDbAttributeDefinition
  3

  2
NDM
 70
     8
280
     0
  0
ATTDEF
  5
A4
330
8E
100
AcDbEntity
  8
AM_6
100
AcDbText
 10
6.59375
 20
-10.225375
 30
0.0
 40
0.5
  1
0.3070
100
AcDbAttributeDefinition
  3

  2
KDM
 70
     8
280
     0
  0
ATTDEF
  5
A5
330
8E
100
AcDbEntity
  8
AM_6
100
AcDbText
 10
6.59375
 20
-10.725375
 30
0.0
 40
0.5
  1
1
100
AcDbAttributeDefinition
  3

  2
DD
 70
     8
280
     0
  0
ATTDEF
  5
A6
330
8E
100
AcDbEntity
  8
AM_6
100
AcDbText
 10
6.59375
 20
-11.225375
 30
0.0
 40
0.5
  1
baldor
100
AcDbAttributeDefinition
  3

  2
COMPANY
 70
     8
280
     0
  0
LINE
  5
A9
330
8E
100
AcDbEntity
  8
AM_9
100
AcDbLine
 10
-1.08508614371301
 20
-1.678297264532177
 30
0.0
 11
-1.077092739097836
 21
-1.688267330882735
 31
0.0
  0
LINE
  5
AA
330
8E
100
AcDbEntity
  8
AM_9
100
AcDbLine
 10
-1.076988382957427
 20
-1.396352507103196
 30
0.0
 11
-1.08508614371301
 21
-1.406452735467822
 31
0.0
  0
LWPOLYLINE
  5
AB
330
8E
100
AcDbEntity
  8
AM_9
100
AcDbPolyline
 90
       26
 70
     0
 43
0.0
 10
-1.076986127648579
 20
-1.688400305765704
 10
-1.068310697911633
 20
-1.697080300166075
 10
-1.056898951620869
 20
-1.70328201089962
 10
-1.043993695837162
 20
-1.704745400849552
 10
-1.030424441279982
 20
-1.70113212012805
 10
-1.016443080223679
 20
-1.692323809723748
 10
-1.0027288709559
 20
-1.678573885410673
 10
-0.9900599421768708
 20
-1.660418662879092
 10
-0.9788443545821656
 20
-1.638146329989636
 10
-0.9701925226609638
 20
-1.613732422602607
 10
-0.9639676996277848
 20
-1.586798654001466
 10
-0.9608388169573298
 20
-1.56070081949939
 10
-0.9603199787352963
 20
-1.534016036554752
 10
-0.9622840402198003
 20
-1.509275731524421
 10
-0.9664522292030701
 20
-1.485453803751199
 10
-0.9726773543646955
 20
-1.463010942857075
 10
-0.9805855825620217
 20
-1.442617928870743
 10
-0.9905099586016545
 20
-1.423568821315147
 10
-1.001517582085058
 20
-1.407662017588642
 10
-1.014169927029047
 20
-1.39433740582493
 10
-1.027129409055896
 20
-1.385233838042087
 10
-1.040662359945055
 20
-1.380430980551541
 10
-1.053639867319774
 20
-1.380593821511385
 10
-1.065929021952275
 20
-1.385940971943095
 10
-1.076987132281369
 20
-1.396350947194301
 10
-1.076988289465086
 20
-1.396352390491457
  0
LWPOLYLINE
  5
AC
330
8E
100
AcDbEntity
  8
AM_9
100
AcDbPolyline
 90
        3
 70
     0
 43
0.0
 10
-1.082151541612169
 20
-1.403691880770693
 10
-1.085292902453229
 20
-1.409174013814314
 10
-1.09244524671989
 20
-1.425363104473679
  0
LINE
  5
AD
330
8E
100
AcDbEntity
  8
AM_9
100
AcDbLine
 10
-1.076988289465086
 20
-1.396352390491457
 30
0.0
 11
-1.082151541612169
 21
-1.403691880770693
 31
0.0
  0
LINE
  5
AE
330
8E
100
AcDbEntity
  8
AM_9
100
AcDbLine
 10
-1.054806317942603
 20
-1.388725
 30
0.0
 11
-1.41374951699847
 21
-1.388725
 31
0.0
  0
LINE
  5
AF
330
8E
100
AcDbEntity
  8
AM_9
100
AcDbLine
 10
-1.401900044268623
 20
-1.696025
 30
0.0
 11
-1.054806317942603
 21
-1.696025
 31
0.0
  0
ELLIPSE
  5
B0
330
8E
100
AcDbEntity
  8
AM_9
100
AcDbEllipse
 10
-1.41374951699847
 20
-1.542375
 30
0.0
 11
9.408349034449585E-18
 21
0.1536500000000007
 31
0.0
210
0.0
220
0.0
230
1.0
 40
0.4226182617406971
 41
4.71238898038469
 42
5.971727221705655
  0
LINE
  5
B1
330
8E
100
AcDbEntity
  8
AM_9
100
AcDbLine
 10
-1.383469691228065
 20
-1.40645273546782
 30
0.0
 11
-1.405657847766648
 21
-1.378777745455894
 31
0.0
  0
LWPOLYLINE
  5
B2
330
8E
100
AcDbEntity
  8
AM_9
100
AcDbPolyline
 90
        3
 70
     0
 43
0.0
 10
-1.080474175492813
 20
-1.683649955478721
 10
-1.078567914501438
 20
-1.686347487909666
 10
-1.076986127648579
 20
-1.688400305765704
  0
LWPOLYLINE
  5
B3
330
8E
100
AcDbEntity
  8
AM_9
100
AcDbPolyline
 90
        8
 70
     0
 43
0.0
 10
-1.108937853387737
 20
-1.542375
 10
-1.108321883288283
 20
-1.567719761521261
 10
-1.106534267177704
 20
-1.591751574143368
 10
-1.103599092198015
 20
-1.614461348440226
 10
-1.099376630988477
 20
-1.635939603107277
 10
-1.093987065729107
 20
-1.655004049811224
 10
-1.086898007715919
 20
-1.672435003272028
 10
-1.080474175492813
 20
-1.683649955478721
  0
LWPOLYLINE
  5
B4
330
8E
100
AcDbEntity
  8
AM_9
100
AcDbPolyline
 90
        7
 70
     0
 43
0.0
 10
-1.09244524671989
 20
-1.425363104473679
 10
-1.098010238052178
 20
-1.443313956474839
 10
-1.102469333734644
 20
-1.463671829177464
 10
-1.106104977632782
 20
-1.48895388862037
 10
-1.108272920976422
 20
-1.516051700585799
 10
-1.108933746851196
 20
-1.541878171450743
 10
-1.108937853387737
 20
-1.542375
  0
LWPOLYLINE
  5
B5
330
8E
100
AcDbEntity
  8
AM_9
100
AcDbPolyline
 90
       39
 70
     0
 43
0.0
 10
0.1187317569481084
 20
-1.422645700757612
 10
0.0988093129354458
 20
-1.408072940871768
 10
0.076596700657357
 20
-1.396183271443683
 10
0.0486929159834086
 20
-1.386265951590958
 10
0.0187452594991336
 20
-1.380806658753938
 10
-0.011957116338211
 20
-1.380253450119003
 10
-0.043189565494469
 20
-1.38488184088404
 10
-0.0725887540041667
 20
-1.394441241238509
 10
-0.100718437160832
 20
-1.409291029846858
 10
-0.1246034943862083
 20
-1.427847928206744
 10
-0.1454306783523134
 20
-1.451115925088391
 10
-0.1602456493408156
 20
-1.475421936794463
 10
-0.1706990524282839
 20
-1.502990795223777
 10
-0.1753491861785986
 20
-1.528616475393425
 10
-0.1754045820948186
 20
-1.555522638067584
 10
-0.1712338540992508
 20
-1.579742107552379
 10
-0.1629304049987799
 20
-1.603587472618771
 10
-0.1510478852404978
 20
-1.625519407544131
 10
-0.1355107603855406
 20
-1.645812085965838
 10
-0.1161573804342053
 20
-1.664240204321786
 10
-0.0936196247523193
 20
-1.679820301954541
 10
-0.0675725437073435
 20
-1.692331911315492
 10
-0.0391159540775235
 20
-1.700779421512373
 10
-0.0089374802884982
 20
-1.704663666070024
 10
0.0223277887966553
 20
-1.703551650013289
 10
0.05264586410082
 20
-1.697379028025169
 10
0.082315454181054
 20
-1.685879583658788
 10
0.1085195608354869
 20
-1.670110662291486
 10
0.1322479975842952
 20
-1.649347829888135
 10
0.1504122376658806
 20
-1.626492593857732
 10
0.1645548205395242
 20
-1.599786069580451
 10
0.1725588225467349
 20
-1.574166914499065
 10
0.1759261883248075
 20
-1.546599615848441
 10
0.1745529404657273
 20
-1.52175954202744
 10
0.1688680273061904
 20
-1.496794242035971
 10
0.1595401269512451
 20
-1.474007726441654
 10
0.146407429073631
 20
-1.452453384257335
 10
0.1335774269081559
 20
-1.436818349544531
 10
0.1187317569481082
 20
-1.422645700757612
  0
LINE
  5
B6
330
8E
100
AcDbEntity
  8
AM_9
100
AcDbLine
 10
1.155
 20
-1.859375
 30
0.0
 11
1.155
 21
-1.225375
 31
0.0
  0
LINE
  5
B7
330
8E
100
AcDbEntity
  8
AM_9
100
AcDbLine
 10
-1.155
 20
-1.225375
 30
0.0
 11
-1.155
 21
-1.859375
 31
0.0
  0
LINE
  5
B8
330
8E
100
AcDbEntity
  8
AM_9
100
AcDbLine
 10
-1.360387117872622
 20
-1.542375
 30
0.0
 11
-1.45994700025129
 21
-1.542375
 31
0.0
  0
LINE
  5
B9
330
8E
100
AcDbEntity
  8
AM_9
100
AcDbLine
 10
0.15365
 20
-1.542375
 30
0.0
 11
-0.15365
 21
-1.542375
 31
0.0
  0
ELLIPSE
  5
BA
330
8E
100
AcDbEntity
  8
AM_9
100
AcDbEllipse
 10
-1.054806317942603
 20
-1.542375
 30
0.0
 11
9.408349034449545E-18
 21
0.1536500000000001
 31
0.0
210
0.0
220
0.0
230
1.0
 40
0.4226182617406989
 41
0.0
 42
6.283185307179586
  0
LINE
  5
BD
330
8E
100
AcDbEntity
  8
AM_7
100
AcDbLine
 10
-0.1613325000000001
 20
-1.542375
 30
0.0
 11
0.1613325
 21
-1.542375
 31
0.0
  0
LWPOLYLINE
  5
BF
330
8E
100
AcDbEntity
  8
AM_4
100
AcDbPolyline
 90
       11
 70
     0
 43
0.0
 10
-1.401938885045305
 20
-1.696024999349988
 10
-1.409220786015961
 20
-1.695033534076903
 10
-1.41944809757596
 20
-1.689960901088831
 10
-1.428846357032701
 20
-1.680771532813431
 10
-1.437212760773956
 20
-1.667646578952377
 10
-1.444399117470421
 20
-1.651020976773056
 10
-1.450305213737468
 20
-1.631223421808836
 10
-1.454845059054251
 20
-1.608914226919943
 10
-1.457959003202045
 20
-1.584685712241371
 10
-1.459637904776319
 20
-1.55925308327275
 10
-1.459947000251289
 20
-1.542375
  0
ELLIPSE
  5
C0
330
8E
100
AcDbEntity
  8
AM_4
100
AcDbEllipse
 10
-1.41374951699847
 20
-1.542375
 30
0.0
 11
9.408349034449545E-18
 21
0.1536500000000001
 31
0.0
210
0.0
220
0.0
230
1.0
 40
0.4226182617406974
 41
5.971727221705655
 42
7.853981633974483
  0
LWPOLYLINE
  5
C1
330
8E
100
AcDbEntity
  8
AM_4
100
AcDbPolyline
 90
        8
 70
     0
 43
0.0
 10
-1.405805588061051
 20
-1.378593473550103
 10
-1.403160744273119
 20
-1.382040296806328
 10
-1.392268446374936
 20
-1.399200130476645
 10
-1.382184448768891
 20
-1.420672976494898
 10
-1.373724097738573
 20
-1.445116430863774
 10
-1.366895348631062
 20
-1.473392228803297
 10
-1.362415717865403
 20
-1.503450362996881
 10
-1.360387117872622
 20
-1.542375
  0
LINE
  5
C2
330
8E
100
AcDbEntity
  8
AM_4
100
AcDbLine
 10
1.59375
 20
-1.542375
 30
0.0
 11
0.15365
 21
-1.542375
 31
0.0
  0
LINE
  5
C3
330
8E
100
AcDbEntity
  8
AM_4
100
AcDbLine
 10
-0.15365
 20
-1.542375
 30
0.0
 11
-1.360387117872622
 21
-1.542375
 31
0.0
  0
ARC
  5
C4
330
8E
100
AcDbEntity
  8
AM_4
100
AcDbCircle
 10
-0.0000000000000001
 20
-1.542375
 30
0.0
 40
0.15365
100
AcDbArc
 50
0.0
 51
179.9999991462263
  0
LWPOLYLINE
  5
C5
330
8E
100
AcDbEntity
  8
AM_4
100
AcDbPolyline
 90
       20
 70
     0
 43
0.0
 10
0.15365
 20
-1.542375
 10
0.1515429857412937
 20
-1.56773335114147
 10
0.1450384039127005
 20
-1.593091702282939
 10
0.1346874892830125
 20
-1.616318239925218
 10
0.1201966104825361
 20
-1.638088621436603
 10
0.1027162293125786
 20
-1.656645288070897
 10
0.0817817384961612
 20
-1.672452168436838
 10
0.059093102092448
 20
-1.684207040756281
 10
0.0340302300031545
 20
-1.692209128108159
 10
0.0087950505958283
 20
-1.695773075558388
 10
-0.0174268319981304
 20
-1.695033534076903
 10
-0.0423356869206394
 20
-1.690077444505694
 10
-0.0667437053602878
 20
-1.680771532813431
 10
-0.0886518342549671
 20
-1.667870716194736
 10
-0.1086479370767273
 20
-1.651020976773056
 10
-0.1251351603917479
 20
-1.631535047856265
 10
-0.1384949594060965
 20
-1.608914226919943
 10
-0.1476045895415114
 20
-1.585050609501001
 10
-0.1527201781201099
 20
-1.55925308327275
 10
-0.15365
 20
-1.542375
  0
LWPOLYLINE
  5
C6
330
8E
100
AcDbEntity
  8
AM_4
100
AcDbPolyline
 90
       11
 70
     0
 43
0.0
 10
-1.330076408418372
 20
-1.542375
 10
-1.331196844094395
 20
-1.56809672922563
 10
-1.334472881763846
 20
-1.593091702282939
 10
-1.339795043849185
 20
-1.616632803082138
 10
-1.346908882462033
 20
-1.638088621436603
 10
-1.355577676354478
 20
-1.656880596223206
 10
-1.365421720780967
 20
-1.672452168436838
 10
-1.376106419038715
 20
-1.684336270949998
 10
-1.38722377004651
 20
-1.692209128108159
 10
-1.39836239293619
 20
-1.695778338142889
 10
-1.401938885045305
 20
-1.696024999349988
  0
LINE
  5
C7
330
8E
100
AcDbEntity
  8
AM_4
100
AcDbLine
 10
1.546875
 20
-1.753708333333333
 30
0.0
 11
1.546875
 21
-1.542375
 31
0.0
  0
LINE
  5
C8
330
8E
100
AcDbEntity
  8
AM_4
100
AcDbLine
 10
-1.546875
 20
-1.542375
 30
0.0
 11
-1.546875
 21
-1.753708333333333
 31
0.0
  0
LINE
  5
C9
330
8E
100
AcDbEntity
  8
AM_4
100
AcDbLine
 10
-1.441208333333333
 20
-1.859375
 30
0.0
 11
1.441208333333333
 21
-1.859375
 31
0.0
  0
ARC
  5
CA
330
8E
100
AcDbEntity
  8
AM_4
100
AcDbCircle
 10
1.441208333333334
 20
-1.753708333333334
 30
0.0
 40
0.1056666666666655
100
AcDbArc
 50
270.0
 51
0.0
  0
ARC
  5
CB
330
8E
100
AcDbEntity
  8
AM_4
100
AcDbCircle
 10
-1.441208333333334
 20
-1.753708333333334
 30
0.0
 40
0.1056666666666657
100
AcDbArc
 50
180.0
 51
270.0
  0
LINE
  5
CC
330
8E
100
AcDbEntity
  8
AM_4
100
AcDbLine
 10
-1.546874999999999
 20
-1.753708333333333
 30
0.0
 11
1.546874999999999
 21
-1.753708333333333
 31
0.0
  0
LWPOLYLINE
  5
CD
330
8E
100
AcDbEntity
  8
AM_4
100
AcDbPolyline
 90
       14
 70
     0
 43
0.0
 10
-1.510481085524808
 20
-1.542375
 10
-1.510024026998413
 20
-1.518747918002793
 10
-1.508654659977954
 20
-1.49546476840654
 10
-1.50519592747098
 20
-1.464189533082157
 10
-1.49993256346431
 20
-1.43517909400446
 10
-1.492971343870738
 20
-1.40980890600323
 10
-1.484280333521782
 20
-1.388361520263102
 10
-1.474400534782339
 20
-1.372326417442977
 10
-1.463167558171216
 20
-1.36121946029423
 10
-1.451527248620605
 20
-1.355760263356014
 10
-1.439203386771126
 20
-1.355323610984433
 10
-1.427010015394743
 20
-1.359754306305625
 10
-1.414894575172607
 20
-1.368708662700012
 10
-1.405805588061051
 20
-1.378593473550103
  0
LWPOLYLINE
  5
CE
330
8E
100
AcDbEntity
  8
AM_4
100
AcDbPolyline
 90
       20
 70
     0
 43
0.0
 10
-0.1775762919401219
 20
-1.542375
 10
-0.1761779760191285
 20
-1.51891988420327
 10
-0.1719154792278824
 20
-1.49546476840654
 10
-0.1615586229274692
 20
-1.464633094221129
 10
-0.145634147686655
 20
-1.435179094004459
 10
-0.1258401168910072
 20
-1.410165569531892
 10
-0.1011951738397488
 20
-1.388361520263102
 10
-0.0751425386490345
 20
-1.372527014308103
 10
-0.0457499599081761
 20
-1.36121946029423
 10
-0.0174532274234995
 20
-1.355785059662535
 10
0.0122614224205757
 20
-1.355323610984433
 10
0.0397424632460689
 20
-1.359642451963367
 10
0.0668721701800026
 20
-1.368708662700012
 10
0.0916444673633974
 20
-1.381827205658949
 10
0.1145764756623944
 20
-1.399200130476645
 10
0.1347683681486583
 20
-1.42036794464296
 10
0.1517678614477455
 20
-1.445116430863774
 10
0.1649457585127662
 20
-1.47299962812713
 10
0.1736983237963721
 20
-1.503450362996881
 10
0.177576291940122
 20
-1.542375
  0
LINE
  5
CF
330
8E
100
AcDbEntity
  8
AM_4
100
AcDbLine
 10
1.59375
 20
-1.542375
 30
0.0
 11
1.59375
 21
-1.225375
 31
0.0
  0
LINE
  5
D0
330
8E
100
AcDbEntity
  8
AM_4
100
AcDbLine
 10
-1.59375
 20
-1.225375
 30
0.0
 11
-1.59375
 21
-1.542375
 31
0.0
  0
LINE
  5
D1
330
8E
100
AcDbEntity
  8
AM_4
100
AcDbLine
 10
-1.59375
 20
-1.542375
 30
0.0
 11
-1.45994700025129
 21
-1.542375
 31
0.0
  0
LINE
  5
D2
330
8E
100
AcDbEntity
  8
AM_4
100
AcDbLine
 10
-1.59375
 20
-1.225375
 30
0.0
 11
1.59375
 21
-1.225375
 31
0.0
  0
CIRCLE
  5
D4
330
8E
100
AcDbEntity
  8
AM_5
100
AcDbCircle
 10
0.0000000000000049
 20
-1.542375000000004
 30
0.0
 40
0.1874999999999992
  0
ENDBLK
  5
91
330
8E
100
AcDbEntity
  8
0
100
AcDbBlockEnd
  0
BLOCK
  5
D7
330
D5
100
AcDbEntity
  8
0
100
AcDbBlockBegin
  2
3_070004i_0_in_070277_4
 70
     2
 10
0.0
 20
0.0
 30
0.0
  3
3_070004i_0_in_070277_4
  1

  0
ATTDEF
  5
D9
330
D5
100
AcDbEntity
  8
AM_6
100
AcDbText
 10
6.673249999999999
 20
0.7968749999999997
 30
0.0
 40
0.5
  1
S-2000 Insert -Inch
100
AcDbAttributeDefinition
  3

  2
NN
 70
     8
280
     0
  0
ATTDEF
  5
DA
330
D5
100
AcDbEntity
  8
AM_6
100
AcDbText
 10
6.673249999999999
 20
0.2968749999999997
 30
0.0
 40
0.5
  1
S-2000 Bearings
100
AcDbAttributeDefinition
  3

  2
NT
 70
     8
280
     0
  0
ATTDEF
  5
DB
330
D5
100
AcDbEntity
  8
AM_6
100
AcDbText
 10
6.673249999999999
 20
-0.2031250000000003
 30
0.0
 40
0.5
  1
070004i
100
AcDbAttributeDefinition
  3

  2
NB
 70
     8
280
     0
  0
ATTDEF
  5
DC
330
D5
100
AcDbEntity
  8
AM_6
100
AcDbText
 10
6.673249999999999
 20
-0.7031250000000003
 30
0.0
 40
0.5
  1
$PN.i
100
AcDbAttributeDefinition
  3

  2
NBSYN
 70
     8
280
     0
  0
ATTDEF
  5
DD
330
D5
100
AcDbEntity
  8
AM_6
100
AcDbText
 10
6.673249999999999
 20
-1.203125
 30
0.0
 40
0.5
  1
070004i
100
AcDbAttributeDefinition
  3

  2
LINA
 70
     8
280
     0
  0
ATTDEF
  5
DE
330
D5
100
AcDbEntity
  8
AM_6
100
AcDbText
 10
6.673249999999999
 20
-1.703125
 30
0.0
 40
0.5
  1
1-3/4
100
AcDbAttributeDefinition
  3

  2
SS
 70
     8
280
     0
  0
ATTDEF
  5
DF
330
D5
100
AcDbEntity
  8
AM_6
100
AcDbText
 10
6.673249999999999
 20
-2.203125
 30
0.0
 40
0.5
  1
2.31
100
AcDbAttributeDefinition
  3

  2
CC
 70
     8
280
     0
  0
ATTDEF
  5
E0
330
D5
100
AcDbEntity
  8
AM_6
100
AcDbText
 10
6.673249999999999
 20
-2.703125
 30
0.0
 40
0.5
  1
1.750000
100
AcDbAttributeDefinition
  3

  2
SS1
 70
     8
280
     0
  0
ATTDEF
  5
E1
330
D5
100
AcDbEntity
  8
AM_6
100
AcDbText
 10
6.673249999999999
 20
-3.203125
 30
0.0
 40
0.5
  1
070004
100
AcDbAttributeDefinition
  3

  2
PN
 70
     8
280
     0
  0
ATTDEF
  5
E2
330
D5
100
AcDbEntity
  8
AM_6
100
AcDbText
 10
6.673249999999999
 20
-3.703125
 30
0.0
 40
0.5
  1
INS-S2-112R
100
AcDbAttributeDefinition
  3

  2
DESCRIPTION
 70
     8
280
     0
  0
ATTDEF
  5
E3
330
D5
100
AcDbEntity
  8
AM_6
100
AcDbText
 10
6.673249999999999
 20
-4.203125
 30
0.0
 40
0.5
  1
Contact Seal
100
AcDbAttributeDefinition
  3

  2
ST
 70
     8
280
     0
  0
ATTDEF
  5
E4
330
D5
100
AcDbEntity
  8
AM_6
100
AcDbText
 10
6.673249999999999
 20
-4.703125
 30
0.0
 40
0.5
  1
1
100
AcDbAttributeDefinition
  3

  2
ST1
 70
     8
280
     0
  0
ATTDEF
  5
E5
330
D5
100
AcDbEntity
  8
AM_6
100
AcDbText
 10
6.673249999999999
 20
-5.203125
 30
0.0
 40
0.5
  1
3.3465
100
AcDbAttributeDefinition
  3

  2
A
 70
     8
280
     0
  0
ATTDEF
  5
E6
330
D5
100
AcDbEntity
  8
AM_6
100
AcDbText
 10
6.673249999999999
 20
-5.703125
 30
0.0
 40
0.5
  1
61/64
100
AcDbAttributeDefinition
  3

  2
B
 70
     8
280
     0
  0
ATTDEF
  5
E7
330
D5
100
AcDbEntity
  8
AM_6
100
AcDbText
 10
6.673249999999999
 20
-6.203125
 30
0.0
 40
0.5
  1
2-21/32
100
AcDbAttributeDefinition
  3

  2
C
 70
     8
280
     0
  0
ATTDEF
  5
E8
330
D5
100
AcDbEntity
  8
AM_6
100
AcDbText
 10
6.673249999999999
 20
-6.703125
 30
0.0
 40
0.5
  1
0.954
100
AcDbAttributeDefinition
  3

  2
D
 70
     8
280
     0
  0
ATTDEF
  5
E9
330
D5
100
AcDbEntity
  8
AM_6
100
AcDbText
 10
6.673249999999999
 20
-7.203125
 30
0.0
 40
0.5
  1
3-3/32
100
AcDbAttributeDefinition
  3

  2
E
 70
     8
280
     0
  0
ATTDEF
  5
EA
330
D5
100
AcDbEntity
  8
AM_6
100
AcDbText
 10
6.673249999999999
 20
-7.703125
 30
0.0
 40
0.5
  1
0.43750
100
AcDbAttributeDefinition
  3

  2
F
 70
     8
280
     0
  0
ATTDEF
  5
EB
330
D5
100
AcDbEntity
  8
AM_6
100
AcDbText
 10
6.673249999999999
 20
-8.203125
 30
0.0
 40
0.5
  1
1
100
AcDbAttributeDefinition
  3

  2
DD
 70
     8
280
     0
  0
ATTDEF
  5
EC
330
D5
100
AcDbEntity
  8
AM_6
100
AcDbText
 10
6.673249999999999
 20
-8.703125
 30
0.0
 40
0.5
  1
baldor
100
AcDbAttributeDefinition
  3

  2
COMPANY
 70
     8
280
     0
  0
LINE
  5
ED
330
D5
100
AcDbEntity
  8
AM_9
100
AcDbLine
 10
-1.046674873701558
 20
-1.747375
 30
0.0
 11
-0.792925254951795
 21
-1.747375
 31
0.0
  0
LINE
  5
EE
330
D5
100
AcDbEntity
  8
AM_9
100
AcDbLine
 10
-0.7928690515927608
 20
-1.337375
 30
0.0
 11
-1.046750214531095
 21
-1.337375
 31
0.0
  0
LWPOLYLINE
  5
EF
330
D5
100
AcDbEntity
  8
AM_9
100
AcDbPolyline
 90
       12
 70
     0
 43
0.0
 10
-0.8575845740478434
 20
-1.542375
 10
-0.8575592127969293
 20
-1.549506175064668
 10
-0.8567301305704225
 20
-1.583351616006929
 10
-0.8547217570234443
 20
-1.615556533153509
 10
-0.8514341649165847
 20
-1.645753817250371
 10
-0.8466255189343087
 20
-1.673577826845427
 10
-0.84020288030338
 20
-1.697800372334274
 10
-0.8318140613398742
 20
-1.718121559178011
 10
-0.8215408238965294
 20
-1.733453244620993
 10
-0.8094749978507796
 20
-1.743205910443485
 10
-0.7957731252103848
 20
-1.747269726283833
 10
-0.7930289058957944
 20
-1.747374998743439
  0
LWPOLYLINE
  5
F0
330
D5
100
AcDbEntity
  8
AM_9
100
AcDbPolyline
 90
       11
 70
     0
 43
0.0
 10
-0.7930138722097944
 20
-1.337375000404329
 10
-0.8016922900131391
 20
-1.338460243870969
 10
-0.8143749959276603
 20
-1.344674946916135
 10
-0.8254310360466157
 20
-1.35615644024101
 10
-0.8347796159799048
 20
-1.37278604759553
 10
-0.8423587566348171
 20
-1.393961703523211
 10
-0.8483526243789071
 20
-1.419826651611344
 10
-0.852727809928153
 20
-1.449183645768286
 10
-0.85564062160876
 20
-1.481412173249019
 10
-0.8572202882406873
 20
-1.515454855212846
 10
-0.8575845740478434
 20
-1.542375
  0
LWPOLYLINE
  5
F1
330
D5
100
AcDbEntity
  8
AM_9
100
AcDbPolyline
 90
       11
 70
     0
 43
0.0
 10
-0.7930289058957944
 20
-1.747374998743439
 10
-0.7811062513568107
 20
-1.745533574870382
 10
-0.7656433077205452
 20
-1.738301574539399
 10
-0.7499845398237328
 20
-1.725789969582889
 10
-0.7346854993877204
 20
-1.708415722800625
 10
-0.7200983081782956
 20
-1.686080056527176
 10
-0.707227187551851
 20
-1.659761850912133
 10
-0.6966081617878143
 20
-1.629616101982319
 10
-0.6890138163900967
 20
-1.596899555685125
 10
-0.6855065994847879
 20
-1.569897712911754
 10
-0.6843110867341566
 20
-1.542375
  0
LWPOLYLINE
  5
F2
330
D5
100
AcDbEntity
  8
AM_9
100
AcDbPolyline
 90
       10
 70
     0
 43
0.0
 10
-1.114559675518978
 20
-1.483831272650279
 10
-1.112920375537656
 20
-1.466335575943977
 10
-1.108721238931604
 20
-1.435967745364522
 10
-1.102835348992787
 20
-1.408293559939227
 10
-1.095259849504384
 20
-1.384344404785717
 10
-1.085824965560984
 20
-1.364620335435469
 10
-1.074680025544875
 20
-1.349930624917102
 10
-1.061992181102972
 20
-1.340816907098632
 10
-1.047988665063692
 20
-1.337394874684364
 10
-1.046791992629226
 20
-1.337375000576729
  0
LWPOLYLINE
  5
F3
330
D5
100
AcDbEntity
  8
AM_9
100
AcDbPolyline
 90
       10
 70
     0
 43
0.0
 10
-1.04677866823709
 20
-1.747374999363773
 10
-1.055972038225604
 20
-1.746169998115517
 10
-1.069060019171033
 20
-1.739673212665202
 10
-1.080732157964696
 20
-1.727795443226722
 10
-1.090831317735965
 20
-1.710711514271011
 10
-1.099244570893189
 20
-1.689014899355452
 10
-1.106023897095501
 20
-1.662856352391879
 10
-1.111108223622637
 20
-1.633275303144283
 10
-1.114549740888796
 20
-1.60100000327932
 10
-1.114610369464456
 20
-1.600275573943444
  0
LWPOLYLINE
  5
F4
330
D5
100
AcDbEntity
  8
AM_9
100
AcDbPolyline
 90
       11
 70
     0
 43
0.0
 10
-1.046791992629226
 20
-1.337375000576729
 10
-1.033215459292243
 20
-1.339782761293979
 10
-1.017960831214176
 20
-1.347738953789169
 10
-1.002763610741049
 20
-1.361077571434621
 10
-0.9881791309465713
 20
-1.379351360126783
 10
-0.9746424501945968
 20
-1.402441196985514
 10
-0.9629300341404768
 20
-1.429448889191245
 10
-0.9535635119841858
 20
-1.459935959345697
 10
-0.94707801273384
 20
-1.492810264890734
 10
-0.9444269665313502
 20
-1.517401989680055
 10
-0.943528677941797
 20
-1.542375
  0
LWPOLYLINE
  5
F5
330
D5
100
AcDbEntity
  8
AM_9
100
AcDbPolyline
 90
       11
 70
     0
 43
0.0
 10
-0.6843110867341566
 20
-1.542375
 10
-0.6861313215415558
 20
-1.508494444254735
 10
-0.6914116108929858
 20
-1.475582142944052
 10
-0.6998866284707818
 20
-1.444610507777246
 10
-0.7110364078859459
 20
-1.416337824048849
 10
-0.7245653052781718
 20
-1.391134995897258
 10
-0.7396072392015459
 20
-1.370139809448745
 10
-0.7556771944105579
 20
-1.353824269584921
 10
-0.7718916089363033
 20
-1.34289554827736
 10
-0.7873032885006876
 20
-1.337828454993401
 10
-0.7930138722097944
 20
-1.337375000404329
  0
LINE
  5
F6
330
D5
100
AcDbEntity
  8
AM_9
100
AcDbLine
 10
-0.8750000000000001
 20
0.7968749999999997
 30
0.0
 11
-0.8750000000000001
 21
-1.859375
 31
0.0
  0
LINE
  5
F7
330
D5
100
AcDbEntity
  8
AM_9
100
AcDbLine
 10
0.8750000000000001
 20
-1.859375
 30
0.0
 11
0.8750000000000001
 21
0.7968749999999997
 31
0.0
  0
LWPOLYLINE
  5
F8
330
D5
100
AcDbEntity
  8
AM_9
100
AcDbPolyline
 90
       21
 70
     0
 43
0.0
 10
-0.205
 20
-1.542375
 10
-0.2047980003563593
 20
-1.533276700706359
 10
-0.2003180306965243
 20
-1.498812555419073
 10
-0.1905491950960181
 20
-1.46677073921888
 10
-0.1752212777060493
 20
-1.435967745364522
 10
-0.1553738176201075
 20
-1.408644013320945
 10
-0.1305807450438982
 20
-1.384344404785717
 10
-0.1025237405266752
 20
-1.364853500940255
 10
-0.0706410822323171
 20
-1.349930624917102
 10
-0.0377943961290885
 20
-1.340889060983806
 10
-0.0028545096927902
 20
-1.337394874684364
 10
0.0307098913801233
 20
-1.339688289603336
 10
0.0643568917476234
 20
-1.347738953789169
 10
0.0952363020739341
 20
-1.360839750620486
 10
0.1242911615622267
 20
-1.379351360126783
 10
0.1494672277504475
 20
-1.402073368403657
 10
0.1710926459483536
 20
-1.429448889191245
 10
0.1874844207229778
 20
-1.459461840693594
 10
0.1989179153157107
 20
-1.492810264890734
 10
0.2034495371294953
 20
-1.517209828794659
 10
0.205
 20
-1.542375
  0
LWPOLYLINE
  5
F9
330
D5
100
AcDbEntity
  8
AM_9
100
AcDbPolyline
 90
       20
 70
     0
 43
0.0
 10
0.205
 20
-1.542375
 10
0.2022237042195513
 20
-1.575999001126033
 10
0.1936561545448693
 20
-1.609623002252065
 10
0.1800385435420809
 20
-1.640411334280951
 10
0.1609971172265528
 20
-1.669280193923415
 10
0.1378522813137548
 20
-1.694104194740477
 10
0.1101005671944506
 20
-1.715299449120014
 10
0.0798223260686158
 20
-1.731196069430812
 10
0.0462892384124773
 20
-1.742080549264894
 10
0.0127289676164412
 20
-1.746979431485292
 10
-0.0221945656208092
 20
-1.746169998115517
 10
-0.0551308921996137
 20
-1.739822675917633
 10
-0.0874314544863927
 20
-1.727795443226722
 10
-0.11658182869536
 20
-1.710997884621412
 10
-0.1432541095990721
 20
-1.689014899355452
 10
-0.1655592266691508
 20
-1.663268103462161
 10
-0.1837447547231687
 20
-1.633275303144283
 10
-0.1962895823481186
 20
-1.601496906782522
 10
-0.2035131518736895
 20
-1.567020425831918
 10
-0.205
 20
-1.542375
  0
LWPOLYLINE
  5
FA
330
D5
100
AcDbEntity
  8
AM_9
100
AcDbPolyline
 90
       11
 70
     0
 43
0.0
 10
-0.943528677941797
 20
-1.542375
 10
-0.9452153431479755
 20
-1.57648343538501
 10
-0.9501241259187788
 20
-1.609623002252065
 10
-0.9580427208321585
 20
-1.640822523479572
 10
-0.9685257803314875
 20
-1.669280193923415
 10
-0.9812407056063133
 20
-1.69441695531181
 10
-0.9954881190678889
 20
-1.715299449120014
 10
-1.010774897566598
 20
-1.73137430775001
 10
-1.02638181209548
 20
-1.742080549264894
 10
-1.041554544877543
 20
-1.746988652474625
 10
-1.04677866823709
 20
-1.747374999363773
  0
LINE
  5
FB
330
D5
100
AcDbEntity
  8
AM_9
100
AcDbLine
 10
-1.155
 20
-1.225375
 30
0.0
 11
-1.155
 21
-1.859375
 31
0.0
  0
LINE
  5
FC
330
D5
100
AcDbEntity
  8
AM_9
100
AcDbLine
 10
-1.155
 20
-0.7878750000000001
 30
0.0
 11
-1.155
 21
-0.8249999999999998
 31
0.0
  0
LINE
  5
FD
330
D5
100
AcDbEntity
  8
AM_9
100
AcDbLine
 10
1.155
 20
-0.8249999999999998
 30
0.0
 11
1.155
 21
-0.7878750000000001
 31
0.0
  0
LINE
  5
FE
330
D5
100
AcDbEntity
  8
AM_9
100
AcDbLine
 10
1.155
 20
-1.859375
 30
0.0
 11
1.155
 21
-1.225375
 31
0.0
  0
LINE
  5
FF
330
D5
100
AcDbEntity
  8
AM_9
100
AcDbLine
 10
1.155
 20
0.7968749999999997
 30
0.0
 11
-1.155
 21
0.7968749999999997
 31
0.0
  0
LINE
  5
100
330
D5
100
AcDbEntity
  8
AM_9
100
AcDbLine
 10
-1.155
 20
0.7968749999999997
 30
0.0
 11
-1.155
 21
0.4736250000000001
 31
0.0
  0
LINE
  5
101
330
D5
100
AcDbEntity
  8
AM_9
100
AcDbLine
 10
1.155
 20
0.4736250000000001
 30
0.0
 11
1.155
 21
0.7968749999999997
 31
0.0
  0
LINE
  5
102
330
D5
100
AcDbEntity
  8
AM_9
100
AcDbLine
 10
-1.3386
 20
0.3783125000000002
 30
0.0
 11
-1.3386
 21
0.3194375000000002
 31
0.0
  0
LINE
  5
103
330
D5
100
AcDbEntity
  8
AM_9
100
AcDbLine
 10
1.3386
 20
0.3194375000000002
 30
0.0
 11
1.3386
 21
0.3783125000000002
 31
0.0
  0
LINE
  5
104
330
D5
100
AcDbEntity
  8
AM_9
100
AcDbLine
 10
1.2432875
 20
0.4736250000000001
 30
0.0
 11
-1.243287499997249
 21
0.4736250000000001
 31
0.0
  0
LINE
  5
105
330
D5
100
AcDbEntity
  8
AM_9
100
AcDbLine
 10
1.3386
 20
0.3783125000000002
 30
0.0
 11
-1.3386
 21
0.3783125000000002
 31
0.0
  0
ARC
  5
106
330
D5
100
AcDbEntity
  8
AM_9
100
AcDbCircle
 10
-1.243287499999999
 20
0.3783124999999994
 30
0.0
 40
0.0953125000000007
100
AcDbArc
 50
90.0
 51
180.0
  0
ARC
  5
107
330
D5
100
AcDbEntity
  8
AM_9
100
AcDbCircle
 10
1.2432875
 20
0.3783125000000001
 30
0.0
 40
0.0953124999999999
100
AcDbArc
 50
0.0
 51
90.0
  0
LINE
  5
108
330
D5
100
AcDbEntity
  8
AM_9
100
AcDbLine
 10
-1.3386
 20
-0.6336874999999998
 30
0.0
 11
-1.3386
 21
-0.6925625000000002
 31
0.0
  0
LINE
  5
109
330
D5
100
AcDbEntity
  8
AM_9
100
AcDbLine
 10
1.3386
 20
-0.6925625000000002
 30
0.0
 11
1.3386
 21
-0.6336874999999998
 31
0.0
  0
LINE
  5
10A
330
D5
100
AcDbEntity
  8
AM_9
100
AcDbLine
 10
1.3386
 20
-0.6925625000000002
 30
0.0
 11
-1.3386
 21
-0.6925625000000002
 31
0.0
  0
LINE
  5
10B
330
D5
100
AcDbEntity
  8
AM_9
100
AcDbLine
 10
1.2432875
 20
-0.7878750000000001
 30
0.0
 11
-1.243287499997249
 21
-0.7878750000000001
 31
0.0
  0
ARC
  5
10C
330
D5
100
AcDbEntity
  8
AM_9
100
AcDbCircle
 10
-1.243287500000001
 20
-0.6925625000000006
 30
0.0
 40
0.0953124999999995
100
AcDbArc
 50
179.9999991462263
 51
270.0
  0
ARC
  5
10D
330
D5
100
AcDbEntity
  8
AM_9
100
AcDbCircle
 10
1.2432875
 20
-0.6925625000000003
 30
0.0
 40
0.0953124999999998
100
AcDbArc
 50
270.0
 51
0.0
  0
LINE
  5
10E
330
D5
100
AcDbEntity
  8
AM_9
100
AcDbLine
 10
-1.60632
 20
-0.1094687499999981
 30
0.0
 11
-1.60632
 21
-0.2047812500000018
 31
0.0
  0
LINE
  5
10F
330
D5
100
AcDbEntity
  8
AM_9
100
AcDbLine
 10
1.60632
 20
-0.2047812500000018
 30
0.0
 11
1.60632
 21
-0.1094687499999981
 31
0.0
  0
LINE
  5
110
330
D5
100
AcDbEntity
  8
AM_9
100
AcDbLine
 10
1.5779375
 20
-0.6336874999999998
 30
0.0
 11
-1.577937499999193
 21
-0.6336874999999998
 31
0.0
  0
ARC
  5
111
330
D5
100
AcDbEntity
  8
AM_9
100
AcDbCircle
 10
-1.5779375
 20
-0.5383749999999999
 30
0.0
 40
0.0953124999999999
100
AcDbArc
 50
180.0
 51
270.0
  0
ARC
  5
112
330
D5
100
AcDbEntity
  8
AM_9
100
AcDbCircle
 10
1.5779375
 20
-0.5383749999999999
 30
0.0
 40
0.0953124999999999
100
AcDbArc
 50
270.0
 51
0.0
  0
LINE
  5
113
330
D5
100
AcDbEntity
  8
AM_9
100
AcDbLine
 10
1.577937501420267
 20
0.3194375000000002
 30
0.0
 11
-1.57793750141946
 21
0.3194375000000002
 31
0.0
  0
ARC
  5
114
330
D5
100
AcDbEntity
  8
AM_9
100
AcDbCircle
 10
-1.577937499999999
 20
0.2241249999999998
 30
0.0
 40
0.0953125000000003
100
AcDbArc
 50
90.0
 51
180.0
  0
ARC
  5
115
330
D5
100
AcDbEntity
  8
AM_9
100
AcDbCircle
 10
1.5779375
 20
0.2241249999999998
 30
0.0
 40
0.0953125000000004
100
AcDbArc
 50
0.0000008537736463
 51
90.0
  0
LINE
  5
116
330
D5
100
AcDbEntity
  8
AM_9
100
AcDbLine
 10
1.33519872701753
 20
-0.109468749999998
 30
0.0
 11
-1.60632
 21
-0.1094687499999981
 31
0.0
  0
LINE
  5
117
330
D5
100
AcDbEntity
  8
AM_9
100
AcDbLine
 10
1.60632
 20
-0.1094687499999981
 30
0.0
 11
1.336231755915849
 21
-0.109468749999998
 31
0.0
  0
LINE
  5
118
330
D5
100
AcDbEntity
  8
AM_9
100
AcDbLine
 10
1.60632
 20
-0.1094687499999981
 30
0.0
 11
1.67325
 21
-0.0708266964831365
 31
0.0
  0
LINE
  5
119
330
D5
100
AcDbEntity
  8
AM_9
100
AcDbLine
 10
-1.67325
 20
-0.0708266964831365
 30
0.0
 11
-1.60632
 21
-0.1094687499999981
 31
0.0
  0
LINE
  5
11A
330
D5
100
AcDbEntity
  8
AM_9
100
AcDbLine
 10
1.67325
 20
0.224125
 30
0.0
 11
-1.67325
 21
0.224125
 31
0.0
  0
LINE
  5
11B
330
D5
100
AcDbEntity
  8
AM_9
100
AcDbLine
 10
1.67325
 20
-0.0708266964831365
 30
0.0
 11
-1.67325
 21
-0.0708266964831365
 31
0.0
  0
LINE
  5
11C
330
D5
100
AcDbEntity
  8
AM_9
100
AcDbLine
 10
-1.67325
 20
0.224125
 30
0.0
 11
-1.67325
 21
-0.0708266964831365
 31
0.0
  0
LINE
  5
11D
330
D5
100
AcDbEntity
  8
AM_9
100
AcDbLine
 10
1.67325
 20
-0.0708266964831365
 30
0.0
 11
1.67325
 21
0.224125
 31
0.0
  0
LINE
  5
11E
330
D5
100
AcDbEntity
  8
AM_9
100
AcDbLine
 10
1.60632
 20
-0.2047812500000018
 30
0.0
 11
-1.60632
 21
-0.2047812500000018
 31
0.0
  0
LINE
  5
11F
330
D5
100
AcDbEntity
  8
AM_9
100
AcDbLine
 10
-1.60632
 20
-0.2047812500000018
 30
0.0
 11
-1.67325
 21
-0.2434233035168635
 31
0.0
  0
LINE
  5
120
330
D5
100
AcDbEntity
  8
AM_9
100
AcDbLine
 10
1.67325
 20
-0.2434233035168635
 30
0.0
 11
1.60632
 21
-0.2047812500000018
 31
0.0
  0
LINE
  5
121
330
D5
100
AcDbEntity
  8
AM_9
100
AcDbLine
 10
1.67325
 20
-0.2434233035168635
 30
0.0
 11
-1.67325
 21
-0.2434233035168635
 31
0.0
  0
LINE
  5
122
330
D5
100
AcDbEntity
  8
AM_9
100
AcDbLine
 10
1.67325
 20
-0.5383749999999999
 30
0.0
 11
-1.67325
 21
-0.5383749999999999
 31
0.0
  0
LINE
  5
123
330
D5
100
AcDbEntity
  8
AM_9
100
AcDbLine
 10
-1.67325
 20
-0.2434233035168635
 30
0.0
 11
-1.67325
 21
-0.5383749999999999
 31
0.0
  0
LINE
  5
124
330
D5
100
AcDbEntity
  8
AM_9
100
AcDbLine
 10
1.67325
 20
-0.5383749999999999
 30
0.0
 11
1.67325
 21
-0.2434233035168635
 31
0.0
  0
LINE
  5
125
330
D5
100
AcDbEntity
  8
AM_4
100
AcDbLine
 10
-1.155
 20
-0.8249999999999998
 30
0.0
 11
-1.155
 21
-1.225375
 31
0.0
  0
LINE
  5
126
330
D5
100
AcDbEntity
  8
AM_4
100
AcDbLine
 10
1.155
 20
-1.225375
 30
0.0
 11
1.155
 21
-0.8249999999999998
 31
0.0
  0
ENDBLK
  5
D8
330
D5
100
AcDbEntity
  8
0
100
AcDbBlockEnd
  0
BLOCK
  5
129
330
127
100
AcDbEntity
  8
0
100
AcDbBlockBegin
  2
4_405015E_Inch_0_in_070277_4
 70
     2
 10
0.0
 20
0.0
 30
0.0
  3
4_405015E_Inch_0_in_070277_4
  1

  0
ATTDEF
  5
12B
330
127
100
AcDbEntity
  8
AM_6
100
AcDbText
 10
6.396734171481428
 20
0.2187500000000001
 30
0.0
 40
0.5
  1
405015E -Inch
100
AcDbAttributeDefinition
  3

  2
NN
 70
     8
280
     0
  0
ATTDEF
  5
12C
330
127
100
AcDbEntity
  8
AM_6
100
AcDbText
 10
6.396734171481428
 20
-0.2812499999999999
 30
0.0
 40
0.5
  1
Grease Fitting
100
AcDbAttributeDefinition
  3

  2
NT
 70
     8
280
     0
  0
ATTDEF
  5
12D
330
127
100
AcDbEntity
  8
AM_6
100
AcDbText
 10
6.396734171481428
 20
-0.7812499999999999
 30
0.0
 40
0.5
  1
405015E-Inch
100
AcDbAttributeDefinition
  3

  2
NB
 70
     8
280
     0
  0
ATTDEF
  5
12E
330
127
100
AcDbEntity
  8
AM_6
100
AcDbText
 10
6.396734171481428
 20
-1.28125
 30
0.0
 40
0.5
  1
$MN.-Inch
100
AcDbAttributeDefinition
  3

  2
NBSYN
 70
     8
280
     0
  0
ATTDEF
  5
12F
330
127
100
AcDbEntity
  8
AM_6
100
AcDbText
 10
6.396734171481428
 20
-1.78125
 30
0.0
 40
0.5
  1
405015E
100
AcDbAttributeDefinition
  3

  2
LINA
 70
     8
280
     0
  0
ATTDEF
  5
130
330
127
100
AcDbEntity
  8
AM_6
100
AcDbText
 10
6.396734171481428
 20
-2.28125
 30
0.0
 40
0.5
  1
405015E
100
AcDbAttributeDefinition
  3

  2
MN
 70
     8
280
     0
  0
ATTDEF
  5
131
330
127
100
AcDbEntity
  8
AM_6
100
AcDbText
 10
6.396734171481428
 20
-2.78125
 30
0.0
 40
0.5
  1
1/8 x 27PTF
100
AcDbAttributeDefinition
  3

  2
T
 70
     8
280
     0
  0
ATTDEF
  5
132
330
127
100
AcDbEntity
  8
AM_6
100
AcDbText
 10
6.396734171481428
 20
-3.28125
 30
0.0
 40
0.5
  1
baldor
100
AcDbAttributeDefinition
  3

  2
COMPANY
 70
     8
280
     0
  0
ELLIPSE
  5
133
330
127
100
AcDbEntity
  8
AM_9
100
AcDbEllipse
 10
0.9878125000000003
 20
0.0000000000000001
 30
0.0
 11
9.913691727296317E-18
 21
0.161902872472269
 31
0.0
210
0.0
220
0.0
230
1.0
 40
0.866025403784439
 41
0.0
 42
6.283185307179586
  0
LINE
  5
134
330
127
100
AcDbEntity
  8
AM_9
100
AcDbLine
 10
1.30553464140968
 20
-0.0684104087427983
 30
0.0
 11
1.284375
 21
-0.1093749999999999
 31
0.0
  0
LINE
  5
135
330
127
100
AcDbEntity
  8
AM_9
100
AcDbLine
 10
1.343596299848308
 20
0.0000000000000001
 30
0.0
 11
1.321590180850795
 21
-0.038872127408362
 31
0.0
  0
LINE
  5
136
330
127
100
AcDbEntity
  8
AM_9
100
AcDbLine
 10
1.320135011323008
 20
0.0415032072450218
 30
0.0
 11
1.343596299848308
 21
0.0000000000000001
 31
0.0
  0
LINE
  5
137
330
127
100
AcDbEntity
  8
AM_9
100
AcDbLine
 10
1.284375
 20
0.1093750000000001
 30
0.0
 11
1.306031830963937
 21
0.0674776855021826
 31
0.0
  0
LWPOLYLINE
  5
138
330
127
100
AcDbEntity
  8
AM_9
100
AcDbPolyline
 90
        3
 70
     0
 43
0.0
 10
1.334375000000001
 20
-0.1093749999999999
 10
1.360522059607483
 20
-0.0546874999999999
 10
1.384528700151693
 20
0.0000000000000001
  0
LWPOLYLINE
  5
139
330
127
100
AcDbEntity
  8
AM_9
100
AcDbPolyline
 90
        3
 70
     0
 43
0.0
 10
1.384528700151693
 20
0.0000000000000001
 10
1.360634432388115
 20
0.0544416102741497
 10
1.334375000000001
 20
0.109375
  0
LWPOLYLINE
  5
13A
330
127
100
AcDbEntity
  8
AM_9
100
AcDbPolyline
 90
        3
 70
     0
 43
0.0
 10
1.234221299848308
 20
0.2187500000000001
 10
1.258115567611885
 20
0.1643083897258505
 10
1.284375
 20
0.1093750000000001
  0
LWPOLYLINE
  5
13B
330
127
100
AcDbEntity
  8
AM_9
100
AcDbPolyline
 90
        3
 70
     0
 43
0.0
 10
1.284375
 20
-0.1093749999999999
 10
1.258227940392518
 20
-0.1640624999999999
 10
1.234221299848308
 20
-0.2187499999999999
  0
LINE
  5
13C
330
127
100
AcDbEntity
  8
AM_9
100
AcDbLine
 10
1.384528700151693
 20
0.0000000000000001
 30
0.0
 11
1.343596299848308
 21
0.0000000000000001
 31
0.0
  0
LINE
  5
13D
330
127
100
AcDbEntity
  8
AM_9
100
AcDbLine
 10
0.9968592106261549
 20
-0.1983264404626879
 30
0.0
 11
1.110667397832291
 21
-0.2054502516015134
 31
0.0
  0
LINE
  5
13E
330
127
100
AcDbEntity
  8
AM_9
100
AcDbLine
 10
1.110667397832291
 20
0.2054502516015136
 30
0.0
 11
0.9968592106261549
 21
0.198326440462688
 31
0.0
  0
ELLIPSE
  5
13F
330
127
100
AcDbEntity
  8
AM_9
100
AcDbEllipse
 10
1.170312499995668
 20
-0.0000000000025246
 30
0.0
 11
-4.018372309793547E-17
 21
-0.2187500000049699
 31
0.0
210
0.0
220
0.0
230
1.0
 40
0.8660254037868999
 41
1.032970329635392
 42
2.108622323974227
  0
ELLIPSE
  5
140
330
127
100
AcDbEntity
  8
AM_9
100
AcDbEllipse
 10
1.1703125
 20
0.0000000000000003
 30
0.0
 11
-3.926523799766211E-17
 21
-0.2137500000000006
 31
0.0
210
0.0
220
0.0
230
1.0
 40
0.8660254037844398
 41
0.9862868522353399
 42
2.155305801354452
  0
ELLIPSE
  5
141
330
127
100
AcDbEntity
  8
AM_9
100
AcDbEllipse
 10
1.179471599270441
 20
-0.0000000000000002
 30
0.0
 11
-3.169399141454445E-17
 21
-0.1725340532830148
 31
0.0
210
0.0
220
0.0
230
1.0
 40
0.8660254037844419
 41
0.6732704101474818
 42
2.468322243442314
  0
LINE
  5
142
330
127
100
AcDbEntity
  8
AM_9
100
AcDbLine
 10
1.2903125
 20
0.0703562363973517
 30
0.0
 11
1.283073404853149
 21
0.0796165180238022
 31
0.0
  0
LINE
  5
143
330
127
100
AcDbEntity
  8
AM_9
100
AcDbLine
 10
1.283073404853149
 20
-0.0796165180238018
 30
0.0
 11
1.2903125
 21
-0.0703562363973514
 31
0.0
  0
ELLIPSE
  5
144
330
127
100
AcDbEntity
  8
AM_9
100
AcDbEllipse
 10
1.206689060809287
 20
-0.000000000000002
 30
0.0
 11
-2.182689656893313E-17
 21
-0.1188200907348952
 31
0.0
210
0.0
220
0.0
230
1.0
 40
0.8660254037844417
 41
0.0521714424105859
 42
3.089421211179207
  0
LINE
  5
145
330
127
100
AcDbEntity
  8
AM_9
100
AcDbLine
 10
1.2228125
 20
-0.1049999999999999
 30
0.0
 11
1.2378125
 21
-0.1049999999999999
 31
0.0
  0
LINE
  5
146
330
127
100
AcDbEntity
  8
AM_9
100
AcDbLine
 10
1.2378125
 20
0.1050000000000001
 30
0.0
 11
1.2228125
 21
0.1050000000000001
 31
0.0
  0
ELLIPSE
  5
147
330
127
100
AcDbEntity
  8
AM_9
100
AcDbEllipse
 10
1.237812500000001
 20
-0.0000000000000001
 30
0.0
 11
-1.928818708657085E-17
 21
-0.1050000000000002
 31
0.0
210
0.0
220
0.0
230
1.0
 40
0.8660254037844431
 41
5.235987755982985
 42
10.47197551196598
  0
ELLIPSE
  5
148
330
127
100
AcDbEntity
  8
AM_9
100
AcDbEllipse
 10
1.222812500000005
 20
0.0000000000000025
 30
0.0
 11
-1.928818708657126E-17
 21
-0.1050000000000024
 31
0.0
210
0.0
220
0.0
230
1.0
 40
0.8660254037844481
 41
5.858105981271366
 42
9.84985728667762
  0
ELLIPSE
  5
149
330
127
100
AcDbEntity
  8
AM_9
100
AcDbEllipse
 10
1.267812500000002
 20
0.0000000000000002
 30
0.0
 11
-2.479909768273378E-17
 21
-0.1349999999999993
 31
0.0
210
0.0
220
0.0
230
1.0
 40
0.8660254037844338
 41
0.7751090107151155
 42
2.366483642874676
  0
ELLIPSE
  5
14A
330
127
100
AcDbEntity
  8
AM_9
100
AcDbEllipse
 10
1.1203125
 20
0.0000000000000002
 30
0.0
 11
-3.779601035290908E-17
 21
-0.2057518972230695
 31
0.0
210
0.0
220
0.0
230
1.0
 40
0.8660254037844382
 41
0.0
 42
6.283185307179586
  0
ELLIPSE
  5
14B
330
127
100
AcDbEntity
  8
AM_9
100
AcDbEllipse
 10
1.006169877154473
 20
-0.0000000000000002
 30
0.0
 11
-3.648546613377894E-17
 21
-0.1986176267812159
 31
0.0
210
0.0
220
0.0
230
1.0
 40
0.8660254037844388
 41
0.0
 42
6.283185307179586
  0
ELLIPSE
  5
14C
330
127
100
AcDbEntity
  8
AM_9
100
AcDbEllipse
 10
1.120312499999998
 20
0.0000000000000001
 30
0.0
 11
-4.018372309702234E-17
 21
-0.218749999999999
 31
0.0
210
0.0
220
0.0
230
1.0
 40
0.8660254037844338
 41
0.0
 42
6.283185307179586
  0
LWPOLYLINE
  5
14D
330
127
100
AcDbEntity
  8
AM_4
100
AcDbPolyline
 90
        3
 70
     0
 43
0.0
 10
1.275153700151693
 20
-0.2187499999999999
 10
1.305701042662265
 20
-0.1643083897258503
 10
1.334375000000001
 20
-0.1093749999999999
  0
LWPOLYLINE
  5
14E
330
127
100
AcDbEntity
  8
AM_4
100
AcDbPolyline
 90
        3
 70
     0
 43
0.0
 10
1.334375000000001
 20
0.109375
 10
1.305834559607483
 20
0.1640625000000001
 10
1.275153700151693
 20
0.2187500000000001
  0
ELLIPSE
  5
14F
330
127
100
AcDbEntity
  8
AM_4
100
AcDbEllipse
 10
1.170312499999999
 20
-0.0000000000000009
 30
0.0
 11
-4.018372309702272E-17
 21
-0.2187500000000011
 31
0.0
210
0.0
220
0.0
230
1.0
 40
0.8660254037844398
 41
2.108622323974782
 42
7.316155636794608
  0
ELLIPSE
  5
150
330
127
100
AcDbEntity
  8
AM_4
100
AcDbEllipse
 10
1.1703125
 20
0.0000000000000001
 30
0.0
 11
-3.926523799766200E-17
 21
-0.21375
 31
0.0
210
0.0
220
0.0
230
1.0
 40
0.866025403784439
 41
2.155305801354455
 42
7.269472159414924
  0
LWPOLYLINE
  5
151
330
127
100
AcDbEntity
  8
AM_4
100
AcDbPolyline
 90
        3
 70
     0
 43
0.0
 10
1.056403700151693
 20
0.2187500000000001
 10
1.032509432388116
 20
0.1643083897258505
 10
1.00625
 20
0.109375
  0
LINE
  5
152
330
127
100
AcDbEntity
  8
AM_4
100
AcDbLine
 10
1.275153700151693
 20
0.2187500000000001
 30
0.0
 11
1.015471299848308
 21
0.2187500000000001
 31
0.0
  0
LWPOLYLINE
  5
153
330
127
100
AcDbEntity
  8
AM_4
100
AcDbPolyline
 90
        3
 70
     0
 43
0.0
 10
0.9562500000000004
 20
0.1093750000000001
 10
0.9847904403925176
 20
0.1640625000000001
 10
1.015471299848308
 20
0.2187500000000001
  0
LWPOLYLINE
  5
154
330
127
100
AcDbEntity
  8
AM_4
100
AcDbPolyline
 90
        3
 70
     0
 43
0.0
 10
0.9060962998483076
 20
0.0000000000000001
 10
0.9299905676118851
 20
0.0544416102741497
 10
0.9562500000000004
 20
0.1093750000000001
  0
LINE
  5
155
330
127
100
AcDbEntity
  8
AM_4
100
AcDbLine
 10
1.275153700151693
 20
-0.2187499999999999
 30
0.0
 11
1.015471299848308
 21
-0.2187499999999999
 31
0.0
  0
LWPOLYLINE
  5
156
330
127
100
AcDbEntity
  8
AM_4
100
AcDbPolyline
 90
        3
 70
     0
 43
0.0
 10
1.00625
 20
-0.1093749999999999
 10
1.032397059607483
 20
-0.1640624999999999
 10
1.056403700151693
 20
-0.2187499999999999
  0
LINE
  5
157
330
127
100
AcDbEntity
  8
AM_4
100
AcDbLine
 10
0.9470287001516932
 20
0.0000000000000001
 30
0.0
 11
0.9060962998483076
 21
0.0000000000000001
 31
0.0
  0
LWPOLYLINE
  5
158
330
127
100
AcDbEntity
  8
AM_4
100
AcDbPolyline
 90
        3
 70
     0
 43
0.0
 10
0.9562500000000004
 20
-0.1093749999999999
 10
0.9301029403925177
 20
-0.0546874999999999
 10
0.9060962998483076
 20
0.0000000000000001
  0
LWPOLYLINE
  5
159
330
127
100
AcDbEntity
  8
AM_4
100
AcDbPolyline
 90
        3
 70
     0
 43
0.0
 10
1.015471299848308
 20
-0.2187499999999999
 10
0.9849239573377355
 20
-0.1643083897258503
 10
0.9562500000000004
 20
-0.1093749999999999
  0
LWPOLYLINE
  5
15A
330
127
100
AcDbEntity
  8
AM_4
100
AcDbPolyline
 90
        3
 70
     0
 43
0.0
 10
1.00625
 20
0.109375
 10
0.977709559607483
 20
0.0546875000000001
 10
0.9470287001516932
 20
0.0000000000000001
  0
LWPOLYLINE
  5
15B
330
127
100
AcDbEntity
  8
AM_4
100
AcDbPolyline
 90
        3
 70
     0
 43
0.0
 10
0.9470287001516932
 20
0.0000000000000001
 10
0.977576042662265
 20
-0.0544416102741494
 10
1.00625
 20
-0.1093749999999999
  0
ELLIPSE
  5
15C
330
127
100
AcDbEntity
  8
AM_4
100
AcDbEllipse
 10
1.179471599270441
 20
0.0000000000000001
 30
0.0
 11
-3.169399141454455E-17
 21
-0.1725340532830154
 31
0.0
210
0.0
220
0.0
230
1.0
 40
0.8660254037844392
 41
2.468322243442313
 42
6.956455717327067
  0
ELLIPSE
  5
15D
330
127
100
AcDbEntity
  8
AM_4
100
AcDbEllipse
 10
1.206689060809286
 20
0.0000000000000001
 30
0.0
 11
-2.182689656893351E-17
 21
-0.1188200907348973
 31
0.0
210
0.0
220
0.0
230
1.0
 40
0.8660254037844324
 41
3.089421211179199
 42
6.335356749590181
  0
ELLIPSE
  5
15E
330
127
100
AcDbEntity
  8
AM_4
100
AcDbEllipse
 10
1.2228125
 20
0.0000000000000002
 30
0.0
 11
-1.928818708657084E-17
 21
-0.1050000000000001
 31
0.0
210
0.0
220
0.0
230
1.0
 40
0.8660254037844352
 41
3.566671979497983
 42
5.8581059812714
  0
LINE
  5
15F
330
127
100
AcDbEntity
  8
AM_4
100
AcDbLine
 10
1.1590625
 20
-0.0524999999999999
 30
0.0
 11
1.1665625
 21
-0.0674999999999999
 31
0.0
  0
LINE
  5
160
330
127
100
AcDbEntity
  8
AM_4
100
AcDbLine
 10
1.1665625
 20
0.0675000000000002
 30
0.0
 11
1.1590625
 21
0.0525000000000002
 31
0.0
  0
ELLIPSE
  5
161
330
127
100
AcDbEntity
  8
AM_4
100
AcDbEllipse
 10
1.267812500000002
 20
0.0000000000000001
 30
0.0
 11
-2.479909768273421E-17
 21
-0.1350000000000017
 31
0.0
210
0.0
220
0.0
230
1.0
 40
0.866025403784437
 41
2.36648364287468
 42
7.058294317894701
  0
ELLIPSE
  5
162
330
127
100
AcDbEntity
  8
AM_4
100
AcDbEllipse
 10
1.237812499999999
 20
0.0000000000000001
 30
0.0
 11
-1.928818708657065E-17
 21
-0.1049999999999991
 31
0.0
210
0.0
220
0.0
230
1.0
 40
0.8660254037844375
 41
4.188790204786386
 42
5.235987755982995
  0
LINE
  5
163
330
127
100
AcDbEntity
  8
AM_4
100
AcDbLine
 10
1.370039347792108
 20
0.0733474205218688
 30
0.0
 11
1.34962781073162
 21
0.0964365416902992
 31
0.0
  0
LINE
  5
164
330
127
100
AcDbEntity
  8
AM_4
100
AcDbLine
 10
1.34962781073162
 20
-0.0964365416902989
 30
0.0
 11
1.370039347792108
 21
-0.0733474205218686
 31
0.0
  0
ELLIPSE
  5
165
330
127
100
AcDbEntity
  8
AM_4
100
AcDbEllipse
 10
1.307812500000002
 20
0.0000000000000013
 30
0.0
 11
-1.886162459184615E-17
 21
-0.1026779019331852
 31
0.0
210
0.0
220
0.0
230
1.0
 40
0.8660254037844445
 41
0.0
 42
6.283185307179586
  0
ENDBLK
  5
12A
330
127
100
AcDbEntity
  8
0
100
AcDbBlockEnd
  0
BLOCK
  5
168
330
166
100
AcDbEntity
  8
0
100
AcDbBlockBegin
  2
5_070277H_0_in_070277_4
 70
     2
 10
0.0
 20
0.0
 30
0.0
  3
5_070277H_0_in_070277_4
  1

  0
ATTDEF
  5
16A
330
166
100
AcDbEntity
  8
AM_6
100
AcDbText
 10
8.6875
 20
1.163461538461539
 30
0.0
 40
0.5
  1
P2B-S2-(Contact Seal)-Housing
100
AcDbAttributeDefinition
  3

  2
NN
 70
     8
280
     0
  0
ATTDEF
  5
16B
330
166
100
AcDbEntity
  8
AM_6
100
AcDbText
 10
8.6875
 20
0.6634615384615385
 30
0.0
 40
0.5
  1
S-2000 Pillow Block Bearing -Inch (2-Bolt Base)
100
AcDbAttributeDefinition
  3

  2
NT
 70
     8
280
     0
  0
ATTDEF
  5
16C
330
166
100
AcDbEntity
  8
AM_6
100
AcDbText
 10
8.6875
 20
0.1634615384615385
 30
0.0
 40
0.5
  1
070277H
100
AcDbAttributeDefinition
  3

  2
NB
 70
     8
280
     0
  0
ATTDEF
  5
16D
330
166
100
AcDbEntity
  8
AM_6
100
AcDbText
 10
8.6875
 20
-0.3365384615384615
 30
0.0
 40
0.5
  1
$PN.H
100
AcDbAttributeDefinition
  3

  2
NBSYN
 70
     8
280
     0
  0
ATTDEF
  5
16E
330
166
100
AcDbEntity
  8
AM_6
100
AcDbText
 10
8.6875
 20
-0.8365384615384615
 30
0.0
 40
0.5
  1
070277
100
AcDbAttributeDefinition
  3

  2
LINA
 70
     8
280
     0
  0
ATTDEF
  5
16F
330
166
100
AcDbEntity
  8
AM_6
100
AcDbText
 10
8.6875
 20
-1.336538461538461
 30
0.0
 40
0.5
  1
1-3/4
100
AcDbAttributeDefinition
  3

  2
SS
 70
     8
280
     0
  0
ATTDEF
  5
170
330
166
100
AcDbEntity
  8
AM_6
100
AcDbText
 10
8.6875
 20
-1.836538461538461
 30
0.0
 40
0.5
  1
070277
100
AcDbAttributeDefinition
  3

  2
PN
 70
     8
280
     0
  0
ATTDEF
  5
171
330
166
100
AcDbEntity
  8
AM_6
100
AcDbText
 10
8.6875
 20
-2.336538461538462
 30
0.0
 40
0.5
  1
P2B-S2-112R
100
AcDbAttributeDefinition
  3

  2
DESCRIPTION
 70
     8
280
     0
  0
ATTDEF
  5
172
330
166
100
AcDbEntity
  8
AM_6
100
AcDbText
 10
8.6875
 20
-2.836538461538462
 30
0.0
 40
0.5
  1
Non-Expansion Type
100
AcDbAttributeDefinition
  3

  2
EF
 70
     8
280
     0
  0
ATTDEF
  5
173
330
166
100
AcDbEntity
  8
AM_6
100
AcDbText
 10
8.6875
 20
-3.336538461538462
 30
0.0
 40
0.5
  1
1
100
AcDbAttributeDefinition
  3

  2
EF1
 70
     8
280
     0
  0
ATTDEF
  5
174
330
166
100
AcDbEntity
  8
AM_6
100
AcDbText
 10
8.6875
 20
-3.836538461538462
 30
0.0
 40
0.5
  1
2-43/64
100
AcDbAttributeDefinition
  3

  2
A
 70
     8
280
     0
  0
ATTDEF
  5
175
330
166
100
AcDbEntity
  8
AM_6
100
AcDbText
 10
8.6875
 20
-4.336538461538462
 30
0.0
 40
0.5
  1
7-3/8
100
AcDbAttributeDefinition
  3

  2
B
 70
     8
280
     0
  0
ATTDEF
  5
176
330
166
100
AcDbEntity
  8
AM_6
100
AcDbText
 10
8.6875
 20
-4.836538461538462
 30
0.0
 40
0.5
  1
2-1/16
100
AcDbAttributeDefinition
  3

  2
C
 70
     8
280
     0
  0
ATTDEF
  5
177
330
166
100
AcDbEntity
  8
AM_6
100
AcDbText
 10
8.6875
 20
-5.336538461538462
 30
0.0
 40
0.5
  1
5-5/16
100
AcDbAttributeDefinition
  3

  2
DMIN
 70
     8
280
     0
  0
ATTDEF
  5
178
330
166
100
AcDbEntity
  8
AM_6
100
AcDbText
 10
8.6875
 20
-5.836538461538462
 30
0.0
 40
0.5
  1
5-45/64
100
AcDbAttributeDefinition
  3

  2
DMAX
 70
     8
280
     0
  0
ATTDEF
  5
179
330
166
100
AcDbEntity
  8
AM_6
100
AcDbText
 10
8.6875
 20
-6.336538461538462
 30
0.0
 40
0.5
  1
1/2
100
AcDbAttributeDefinition
  3

  2
F
 70
     8
280
     0
  0
ATTDEF
  5
17A
330
166
100
AcDbEntity
  8
AM_6
100
AcDbText
 10
8.6875
 20
-6.836538461538462
 30
0.0
 40
0.5
  1
13/16
100
AcDbAttributeDefinition
  3

  2
G
 70
     8
280
     0
  0
ATTDEF
  5
17B
330
166
100
AcDbEntity
  8
AM_6
100
AcDbText
 10
8.6875
 20
-7.336538461538462
 30
0.0
 40
0.5
  1
1-1/4
100
AcDbAttributeDefinition
  3

  2
H
 70
     8
280
     0
  0
ATTDEF
  5
17C
330
166
100
AcDbEntity
  8
AM_6
100
AcDbText
 10
8.6875
 20
-7.836538461538462
 30
0.0
 40
0.5
  1
4-17/64
100
AcDbAttributeDefinition
  3

  2
J
 70
     8
280
     0
  0
ATTDEF
  5
17D
330
166
100
AcDbEntity
  8
AM_6
100
AcDbText
 10
8.6875
 20
-8.336538461538462
 30
0.0
 40
0.5
  1
3-3/16
100
AcDbAttributeDefinition
  3

  2
L
 70
     8
280
     0
  0
ATTDEF
  5
17E
330
166
100
AcDbEntity
  8
AM_6
100
AcDbText
 10
8.6875
 20
-8.836538461538462
 30
0.0
 40
0.5
  1
2-1/8
100
AcDbAttributeDefinition
  3

  2
M
 70
     8
280
     0
  0
ATTDEF
  5
17F
330
166
100
AcDbEntity
  8
AM_6
100
AcDbText
 10
8.6875
 20
-9.336538461538462
 30
0.0
 40
0.5
  1
13/16
100
AcDbAttributeDefinition
  3

  2
R
 70
     8
280
     0
  0
ATTDEF
  5
180
330
166
100
AcDbEntity
  8
AM_6
100
AcDbText
 10
8.6875
 20
-9.836538461538462
 30
0.0
 40
0.5
  1
1-55/64
100
AcDbAttributeDefinition
  3

  2
S
 70
     8
280
     0
  0
ATTDEF
  5
181
330
166
100
AcDbEntity
  8
AM_6
100
AcDbText
 10
8.6875
 20
-10.33653846153846
 30
0.0
 40
0.5
  1
1/4
100
AcDbAttributeDefinition
  3

  2
X
 70
     8
280
     0
  0
ATTDEF
  5
182
330
166
100
AcDbEntity
  8
AM_6
100
AcDbText
 10
8.6875
 20
-10.83653846153846
 30
0.0
 40
0.5
  1
0.020
100
AcDbAttributeDefinition
  3

  2
Y
 70
     8
280
     0
  0
ATTDEF
  5
183
330
166
100
AcDbEntity
  8
AM_6
100
AcDbText
 10
8.6875
 20
-11.33653846153846
 30
0.0
 40
0.5
  1
2-5/64
100
AcDbAttributeDefinition
  3

  2
Z
 70
     8
280
     0
  0
ATTDEF
  5
184
330
166
100
AcDbEntity
  8
AM_6
100
AcDbText
 10
8.6875
 20
-11.83653846153846
 30
0.0
 40
0.5
  1
1
100
AcDbAttributeDefinition
  3

  2
ST1
 70
     8
280
     0
  0
ATTDEF
  5
185
330
166
100
AcDbEntity
  8
AM_6
100
AcDbText
 10
8.6875
 20
-12.33653846153846
 30
0.0
 40
0.5
  1
baldor
100
AcDbAttributeDefinition
  3

  2
COMPANY
 70
     8
280
     0
  0
LINE
  5
186
330
166
100
AcDbEntity
  8
AM_9
100
AcDbLine
 10
1.67325
 20
-0.825
 30
0.0
 11
1.67325
 21
0.825
 31
0.0
  0
LINE
  5
187
330
166
100
AcDbEntity
  8
AM_9
100
AcDbLine
 10
-1.67325
 20
0.825
 30
0.0
 11
-1.67325
 21
-0.825
 31
0.0
  0
LWPOLYLINE
  5
188
330
166
100
AcDbEntity
  8
AM_9
100
AcDbPolyline
 90
       11
 70
     0
 43
0.0
 10
1.365247723181269
 20
0.3490864513845439
 10
1.349862852191402
 20
0.3681466951395029
 10
1.324197413563021
 20
0.3955482805391783
 10
1.296492308208604
 20
0.4201099298924796
 10
1.267384809698594
 20
0.4413127150069019
 10
1.236587468180975
 20
0.4594453031109152
 10
1.203267722555571
 20
0.4747584664882248
 10
1.168544677086454
 20
0.4865431846040419
 10
1.13434360168736
 20
0.4943867121076131
 10
1.099301313788926
 20
0.4988680181716179
 10
1.070306024607975
 20
0.4999999999440928
  0
LWPOLYLINE
  5
189
330
166
100
AcDbEntity
  8
AM_9
100
AcDbPolyline
 90
       11
 70
     0
 43
0.0
 10
1.473718639059991
 20
0.0000000000000001
 10
1.472467946384016
 20
0.0408753406677592
 10
1.468729675068059
 20
0.0814626041766074
 10
1.462292499911073
 20
0.1226467745859772
 10
1.453268811546321
 20
0.1629252083532148
 10
1.442063407992542
 20
0.2008956143011649
 10
1.428507111353015
 20
0.2374925531269265
 10
1.412171593771323
 20
0.2734338176719301
 10
1.393481504652705
 20
0.3074379133745511
 10
1.372742581390839
 20
0.3389504615224663
 10
1.365247723181269
 20
0.3490864513845439
  0
LWPOLYLINE
  5
18A
330
166
100
AcDbEntity
  8
AM_9
100
AcDbPolyline
 90
       20
 70
     0
 43
0.0
 10
1.070309389449223
 20
-0.4999999999870994
 10
1.091770872797412
 20
-0.499378437636036
 10
1.126488801412194
 20
-0.495698511360147
 10
1.161417051460943
 20
-0.4884710699862224
 10
1.195295955406341
 20
-0.4778270413855685
 10
1.226885511111878
 20
-0.4643367522827397
 10
1.257110488575475
 20
-0.4478234028185918
 10
1.286582292407276
 20
-0.427812670588274
 10
1.314292223862753
 20
-0.4048758742056905
 10
1.339941863529668
 20
-0.3793347394663028
 10
1.363603748209424
 20
-0.3512307101231096
 10
1.38574559995165
 20
-0.3198462767710478
 10
1.405580846040325
 20
-0.2861566315695351
 10
1.422802049497405
 20
-0.2508639894297984
 10
1.437618660879843
 20
-0.2137800170131776
 10
1.450288831437016
 20
-0.1739701983001264
 10
1.460279168527237
 20
-0.1328154438603932
 10
1.470283514917812
 20
-0.0676791796687603
 10
1.472858218616674
 20
-0.0339219913326626
 10
1.473718639059991
 20
0.0000000000000001
  0
ELLIPSE
  5
18B
330
166
100
AcDbEntity
  8
AM_9
100
AcDbEllipse
 10
1.095312499999948
 20
0.000000000000426
 30
0.0
 11
3.061616997870994E-17
 21
0.5000000000004263
 31
0.0
210
0.0
220
0.0
230
1.0
 40
0.8660254037844451
 41
3.151865156319781
 42
3.212095934419165
  0
ELLIPSE
  5
18C
330
166
100
AcDbEntity
  8
AM_9
100
AcDbEllipse
 10
1.095312499999999
 20
0.0000000000000007
 30
0.0
 11
3.061616997868389E-17
 21
0.5000000000000009
 31
0.0
210
0.0
220
0.0
230
1.0
 40
0.866025403784439
 41
3.221590582389219
 42
6.231095992785377
  0
ELLIPSE
  5
18D
330
166
100
AcDbEntity
  8
AM_9
100
AcDbEllipse
 10
1.095312500000144
 20
-0.0000000000006434
 30
0.0
 11
3.061616997872326E-17
 21
0.5000000000006439
 31
0.0
210
0.0
220
0.0
230
1.0
 40
0.866025403784423
 41
6.235575092977887
 42
6.271566790085672
  0
LINE
  5
18E
330
166
100
AcDbEntity
  8
AM_7
100
AcDbLine
 10
0.0
 20
1.163461538461539
 30
0.0
 11
0.0
 21
-1.9921875
 31
0.0
  0
LINE
  5
18F
330
166
100
AcDbEntity
  8
AM_7
100
AcDbLine
 10
2.3322265625
 20
-0.0000000000000001
 30
0.0
 11
3.1755859375
 21
-0.0000000000000001
 31
0.0
  0
LINE
  5
190
330
166
100
AcDbEntity
  8
AM_7
100
AcDbLine
 10
2.65625
 20
-0.3240234375000001
 30
0.0
 11
2.65625
 21
0.3240234375
 31
0.0
  0
LINE
  5
191
330
166
100
AcDbEntity
  8
AM_7
100
AcDbLine
 10
2.8515625
 20
-0.3240234374999997
 30
0.0
 11
2.8515625
 21
0.3240234374999995
 31
0.0
  0
LINE
  5
192
330
166
100
AcDbEntity
  8
AM_7
100
AcDbLine
 10
-3.1755859375
 20
0.0000000000000004
 30
0.0
 11
-2.332226562499999
 21
0.0000000000000003
 31
0.0
  0
LINE
  5
193
330
166
100
AcDbEntity
  8
AM_7
100
AcDbLine
 10
-2.65625
 20
-0.3240234375000002
 30
0.0
 11
-2.65625
 21
0.3240234375000007
 31
0.0
  0
LINE
  5
194
330
166
100
AcDbEntity
  8
AM_7
100
AcDbLine
 10
-2.8515625
 20
-0.3240234374999992
 30
0.0
 11
-2.8515625
 21
0.3240234375
 31
0.0
  0
LINE
  5
195
330
166
100
AcDbEntity
  8
AM_4
100
AcDbLine
 10
3.6875
 20
0.8249999999999998
 30
0.0
 11
3.48125
 21
1.03125
 31
0.0
  0
LINE
  5
196
330
166
100
AcDbEntity
  8
AM_4
100
AcDbLine
 10
3.481250000000001
 20
-1.03125
 30
0.0
 11
3.6875
 21
-0.825
 31
0.0
  0
LINE
  5
197
330
166
100
AcDbEntity
  8
AM_4
100
AcDbLine
 10
3.6875
 20
-0.825
 30
0.0
 11
3.6875
 21
0.825
 31
0.0
  0
LINE
  5
198
330
166
100
AcDbEntity
  8
AM_4
100
AcDbLine
 10
-3.48125
 20
1.03125
 30
0.0
 11
-3.6875
 21
0.825
 31
0.0
  0
LINE
  5
199
330
166
100
AcDbEntity
  8
AM_4
100
AcDbLine
 10
-3.6875
 20
-0.825
 30
0.0
 11
-3.48125
 21
-1.03125
 31
0.0
  0
LINE
  5
19A
330
166
100
AcDbEntity
  8
AM_4
100
AcDbLine
 10
-3.6875
 20
-0.825
 30
0.0
 11
-3.6875
 21
0.825
 31
0.0
  0
LINE
  5
19B
330
166
100
AcDbEntity
  8
AM_4
100
AcDbLine
 10
3.481250000000001
 20
-1.03125
 30
0.0
 11
2.363839285714286
 21
-1.03125
 31
0.0
  0
LINE
  5
19C
330
166
100
AcDbEntity
  8
AM_4
100
AcDbLine
 10
3.48125
 20
1.03125
 30
0.0
 11
2.363839285714286
 21
1.03125
 31
0.0
  0
LINE
  5
19D
330
166
100
AcDbEntity
  8
AM_4
100
AcDbLine
 10
2.8515625
 20
0.3085937499999999
 30
0.0
 11
2.65625
 21
0.3085937499999999
 31
0.0
  0
ARC
  5
19E
330
166
100
AcDbEntity
  8
AM_4
100
AcDbCircle
 10
2.8515625
 20
-0.0000000000000001
 30
0.0
 40
0.30859375
100
AcDbArc
 50
270.0
 51
90.0
  0
LINE
  5
19F
330
166
100
AcDbEntity
  8
AM_4
100
AcDbLine
 10
2.65625
 20
-0.3085937500000001
 30
0.0
 11
2.8515625
 21
-0.3085937500000001
 31
0.0
  0
ARC
  5
1A0
330
166
100
AcDbEntity
  8
AM_4
100
AcDbCircle
 10
2.65625
 20
-0.0000000000000001
 30
0.0
 40
0.30859375
100
AcDbArc
 50
90.0
 51
270.0
  0
LINE
  5
1A1
330
166
100
AcDbEntity
  8
AM_4
100
AcDbLine
 10
3.60625
 20
-0.9062500000000001
 30
0.0
 11
3.60625
 21
0.9062500000000001
 31
0.0
  0
LINE
  5
1A2
330
166
100
AcDbEntity
  8
AM_4
100
AcDbLine
 10
-2.363839285714285
 20
1.03125
 30
0.0
 11
-3.48125
 21
1.03125
 31
0.0
  0
LINE
  5
1A3
330
166
100
AcDbEntity
  8
AM_4
100
AcDbLine
 10
-2.363839285714286
 20
-1.03125
 30
0.0
 11
-3.48125
 21
-1.03125
 31
0.0
  0
LINE
  5
1A4
330
166
100
AcDbEntity
  8
AM_4
100
AcDbLine
 10
-2.65625
 20
0.3085937500000003
 30
0.0
 11
-2.8515625
 21
0.3085937500000003
 31
0.0
  0
ARC
  5
1A5
330
166
100
AcDbEntity
  8
AM_4
100
AcDbCircle
 10
-2.65625
 20
0.0000000000000002
 30
0.0
 40
0.30859375
100
AcDbArc
 50
270.0
 51
90.0
  0
LINE
  5
1A6
330
166
100
AcDbEntity
  8
AM_4
100
AcDbLine
 10
-2.8515625
 20
-0.3085937499999996
 30
0.0
 11
-2.65625
 21
-0.3085937499999998
 31
0.0
  0
ARC
  5
1A7
330
166
100
AcDbEntity
  8
AM_4
100
AcDbCircle
 10
-2.8515625
 20
0.0000000000000004
 30
0.0
 40
0.30859375
100
AcDbArc
 50
90.0
 51
270.0
  0
LINE
  5
1A8
330
166
100
AcDbEntity
  8
AM_4
100
AcDbLine
 10
-3.60625
 20
-0.9062499999999993
 30
0.0
 11
-3.60625
 21
0.9062499999999993
 31
0.0
  0
LINE
  5
1A9
330
166
100
AcDbEntity
  8
AM_4
100
AcDbLine
 10
2.203125
 20
-0.61875
 30
0.0
 11
2.203125
 21
0.61875
 31
0.0
  0
LINE
  5
1AA
330
166
100
AcDbEntity
  8
AM_4
100
AcDbLine
 10
-2.203125000000001
 20
-0.61875
 30
0.0
 11
-2.203125000000001
 21
0.61875
 31
0.0
  0
LINE
  5
1AB
330
166
100
AcDbEntity
  8
AM_4
100
AcDbLine
 10
-2.387116878236086
 20
-0.61875
 30
0.0
 11
-2.140625
 21
-0.61875
 31
0.0
  0
LWPOLYLINE
  5
1AC
330
166
100
AcDbEntity
  8
AM_4
100
AcDbPolyline
 90
        6
 70
     0
 43
0.0
 10
-2.265625
 20
-0.9232142857142855
 10
-2.264114017676515
 20
-0.9060527871878131
 10
-2.260275650590003
 20
-0.8912432124828801
 10
-2.255887707955453
 20
-0.8805778281980662
 10
-2.251780653332867
 20
-0.8729374590090583
 10
-2.250663488876326
 20
-0.8711084180856563
  0
LINE
  5
1AD
330
166
100
AcDbEntity
  8
AM_4
100
AcDbLine
 10
-2.387116878236083
 20
-1.03125
 30
0.0
 11
-2.387116878236086
 21
-0.61875
 31
0.0
  0
LWPOLYLINE
  5
1AE
330
166
100
AcDbEntity
  8
AM_4
100
AcDbPolyline
 90
       11
 70
     0
 43
0.0
 10
-2.265625
 20
-0.9330357142857143
 10
-2.267247621534817
 20
-0.9508148123901777
 10
-2.270114933080041
 20
-0.9623934709135652
 10
-2.274131666347926
 20
-0.9730180722200304
 10
-2.283277743298397
 20
-0.9892129677068301
 10
-2.295528688950501
 20
-1.003602762460786
 10
-2.310614927208022
 20
-1.015577907011399
 10
-2.329279199997174
 20
-1.024968550604374
 10
-2.342615861530878
 20
-1.028921655012585
 10
-2.356801307448459
 20
-1.030997506737145
 10
-2.363839285714286
 20
-1.03125
  0
LINE
  5
1AF
330
166
100
AcDbEntity
  8
AM_4
100
AcDbLine
 10
-2.265625
 20
-0.9232142857142855
 30
0.0
 11
-2.265625
 21
-0.9330357142857143
 31
0.0
  0
LINE
  5
1B0
330
166
100
AcDbEntity
  8
AM_4
100
AcDbLine
 10
2.140625
 20
0.61875
 30
0.0
 11
2.387116878236084
 21
0.61875
 31
0.0
  0
LWPOLYLINE
  5
1B1
330
166
100
AcDbEntity
  8
AM_4
100
AcDbPolyline
 90
        6
 70
     0
 43
0.0
 10
2.265625
 20
0.9232142857142855
 10
2.264114017676515
 20
0.9060527871878132
 10
2.260275650590003
 20
0.8912432124828803
 10
2.255887707955453
 20
0.8805778281980664
 10
2.251780653332867
 20
0.8729374590090584
 10
2.250663488876326
 20
0.8711084180856566
  0
LINE
  5
1B2
330
166
100
AcDbEntity
  8
AM_4
100
AcDbLine
 10
2.387116878236084
 20
0.61875
 30
0.0
 11
2.387116878236084
 21
1.03125
 31
0.0
  0
LWPOLYLINE
  5
1B3
330
166
100
AcDbEntity
  8
AM_4
100
AcDbPolyline
 90
       11
 70
     0
 43
0.0
 10
2.265625
 20
0.9330357142857144
 10
2.267247621534817
 20
0.9508148123901778
 10
2.270114933080041
 20
0.9623934709135653
 10
2.274131666347926
 20
0.9730180722200308
 10
2.283419909630956
 20
0.9894354544569898
 10
2.295528688950501
 20
1.003602762460787
 10
2.310953489838809
 20
1.015785454514655
 10
2.329279199997174
 20
1.024968550604374
 10
2.342615861530879
 20
1.028921655012585
 10
2.35680130744846
 20
1.030997506737145
 10
2.363839285714286
 20
1.03125
  0
LINE
  5
1B4
330
166
100
AcDbEntity
  8
AM_4
100
AcDbLine
 10
2.265625
 20
0.9232142857142855
 30
0.0
 11
2.265625
 21
0.9330357142857144
 31
0.0
  0
LINE
  5
1B5
330
166
100
AcDbEntity
  8
AM_4
100
AcDbLine
 10
2.140625
 20
-0.61875
 30
0.0
 11
2.387116878236084
 21
-0.61875
 31
0.0
  0
LWPOLYLINE
  5
1B6
330
166
100
AcDbEntity
  8
AM_4
100
AcDbPolyline
 90
        5
 70
     0
 43
0.0
 10
2.250663488876326
 20
-0.8711084180856569
 10
2.254383176694025
 20
-0.8775871369867565
 10
2.259673747877487
 20
-0.8895456274277398
 10
2.264117056278717
 20
-0.9060699182221302
 10
2.265625000000002
 20
-0.9232142857142779
  0
LINE
  5
1B7
330
166
100
AcDbEntity
  8
AM_4
100
AcDbLine
 10
2.265625
 20
-0.9330357142857144
 30
0.0
 11
2.265625
 21
-0.9232142857142854
 31
0.0
  0
LWPOLYLINE
  5
1B8
330
166
100
AcDbEntity
  8
AM_4
100
AcDbPolyline
 90
       11
 70
     0
 43
0.0
 10
2.363839285714286
 20
-1.03125
 10
2.348708776964713
 20
-1.030066574080727
 10
2.334345402888268
 20
-1.026716858568929
 10
2.321211702662389
 20
-1.021513085729076
 10
2.309344468469169
 20
-1.014744715086046
 10
2.294653810158855
 20
-1.002749322461467
 10
2.28274977818132
 20
-0.9884481468837196
 10
2.275453717212685
 20
-0.9758760399133654
 10
2.269936513305149
 20
-0.9618161807907125
 10
2.266236770786581
 20
-0.9439808044248846
 10
2.265625
 20
-0.9330357142857146
  0
LINE
  5
1B9
330
166
100
AcDbEntity
  8
AM_4
100
AcDbLine
 10
2.387116878236084
 20
-1.03125
 30
0.0
 11
2.387116878236084
 21
-0.61875
 31
0.0
  0
LINE
  5
1BA
330
166
100
AcDbEntity
  8
AM_4
100
AcDbLine
 10
-2.387116878236086
 20
0.61875
 30
0.0
 11
-2.140625
 21
0.61875
 31
0.0
  0
LWPOLYLINE
  5
1BB
330
166
100
AcDbEntity
  8
AM_4
100
AcDbPolyline
 90
        5
 70
     0
 43
0.0
 10
-2.250663488876326
 20
0.8711084180856566
 10
-2.254383176694025
 20
0.8775871369867563
 10
-2.259673747877487
 20
0.8895456274277395
 10
-2.264117056278717
 20
0.9060699182221299
 10
-2.265625000000002
 20
0.9232142857142779
  0
LINE
  5
1BC
330
166
100
AcDbEntity
  8
AM_4
100
AcDbLine
 10
-2.387116878236086
 20
0.61875
 30
0.0
 11
-2.387116878236083
 21
1.03125
 31
0.0
  0
LINE
  5
1BD
330
166
100
AcDbEntity
  8
AM_4
100
AcDbLine
 10
-2.265625
 20
0.9330357142857143
 30
0.0
 11
-2.265625
 21
0.9232142857142854
 31
0.0
  0
LWPOLYLINE
  5
1BE
330
166
100
AcDbEntity
  8
AM_4
100
AcDbPolyline
 90
       11
 70
     0
 43
0.0
 10
-2.363839285714285
 20
1.03125
 10
-2.348708776964712
 20
1.030066574080727
 10
-2.334345402888268
 20
1.026716858568929
 10
-2.321211702662389
 20
1.021513085729076
 10
-2.309344468469169
 20
1.014744715086046
 10
-2.294653810158855
 20
1.002749322461467
 10
-2.28274977818132
 20
0.98844814688372
 10
-2.275453717212685
 20
0.9758760399133657
 10
-2.269936513305149
 20
0.961816180790713
 10
-2.266236770786581
 20
0.9439808044248852
 10
-2.265625
 20
0.9330357142857144
  0
LINE
  5
1BF
330
166
100
AcDbEntity
  8
AM_4
100
AcDbLine
 10
-2.140625
 20
-0.61875
 30
0.0
 11
-2.140625
 21
0.61875
 31
0.0
  0
LINE
  5
1C0
330
166
100
AcDbEntity
  8
AM_4
100
AcDbLine
 10
-2.250663488876326
 20
-0.8711084180856563
 30
0.0
 11
-2.250663488876326
 21
-0.61875
 31
0.0
  0
LWPOLYLINE
  5
1C1
330
166
100
AcDbEntity
  8
AM_4
100
AcDbPolyline
 90
       13
 70
     0
 43
0.0
 10
-2.167410714285714
 20
-0.8250000000000001
 10
-2.175970653305574
 20
-0.8253737350088465
 10
-2.184465446020859
 20
-0.8264920956863011
 10
-2.192830441929712
 20
-0.8283465706323238
 10
-2.201001978362342
 20
-0.8309230461728125
 10
-2.20891786499239
 20
-0.8342019137731862
 10
-2.216517857142857
 20
-0.8381582192711712
 10
-2.223744114284478
 20
-0.8427618527930454
 10
-2.230541640237071
 20
-0.8479777779079574
 10
-2.236858701723679
 20
-0.8537662982763211
 10
-2.242647222092042
 20
-0.860083359762929
 10
-2.247863147206955
 20
-0.8668808857155221
 10
-2.250663488876326
 20
-0.8711084180856563
  0
LWPOLYLINE
  5
1C2
330
166
100
AcDbEntity
  8
AM_4
100
AcDbPolyline
 90
       13
 70
     0
 43
0.0
 10
-2.250663488876326
 20
0.8711084180856566
 10
-2.245805361339624
 20
0.864050739237927
 10
-2.24035060320286
 20
0.8574433307028084
 10
-2.234340728469128
 20
0.851336478848916
 10
-2.227821475914012
 20
0.8457766605062752
 10
-2.22084246098589
 20
0.8408061892495838
 10
-2.213456798202409
 20
0.836462893366358
 10
-2.205720696916936
 20
0.8327798279608228
 10
-2.197693033531439
 20
0.82978502338461
 10
-2.189434903411519
 20
0.827501271908857
 10
-2.181009155913781
 20
0.8259459542612613
 10
-2.172479916064291
 20
0.8251309073482473
 10
-2.167410714285715
 20
0.825
  0
LINE
  5
1C3
330
166
100
AcDbEntity
  8
AM_4
100
AcDbLine
 10
-2.250663488876326
 20
0.6187500000000002
 30
0.0
 11
-2.250663488876326
 21
0.8711084180856566
 31
0.0
  0
LINE
  5
1C4
330
166
100
AcDbEntity
  8
AM_4
100
AcDbLine
 10
2.167410714285714
 20
0.8249999999999998
 30
0.0
 11
-2.167410714285715
 21
0.825
 31
0.0
  0
LINE
  5
1C5
330
166
100
AcDbEntity
  8
AM_4
100
AcDbLine
 10
-2.167410714285714
 20
-0.8250000000000001
 30
0.0
 11
2.167410714285714
 21
-0.825
 31
0.0
  0
LINE
  5
1C6
330
166
100
AcDbEntity
  8
AM_4
100
AcDbLine
 10
2.250663488876326
 20
-0.8711084180856565
 30
0.0
 11
2.250663488876326
 21
-0.61875
 31
0.0
  0
LINE
  5
1C7
330
166
100
AcDbEntity
  8
AM_4
100
AcDbLine
 10
2.140625
 20
0.61875
 30
0.0
 11
2.140625
 21
-0.61875
 31
0.0
  0
LINE
  5
1C8
330
166
100
AcDbEntity
  8
AM_4
100
AcDbLine
 10
2.250663488876326
 20
0.6187500000000002
 30
0.0
 11
2.250663488876326
 21
0.8711084180856558
 31
0.0
  0
LWPOLYLINE
  5
1C9
330
166
100
AcDbEntity
  8
AM_4
100
AcDbPolyline
 90
       13
 70
     0
 43
0.0
 10
2.167410714285714
 20
0.8249999999999998
 10
2.175970653305574
 20
0.8253737350088463
 10
2.184465446020859
 20
0.8264920956863008
 10
2.192830441929712
 20
0.8283465706323234
 10
2.201001978362342
 20
0.8309230461728123
 10
2.20891786499239
 20
0.834201913773186
 10
2.216517857142857
 20
0.838158219271171
 10
2.223744114284478
 20
0.8427618527930452
 10
2.230541640237071
 20
0.8479777779079573
 10
2.236858701723679
 20
0.8537662982763209
 10
2.242647222092042
 20
0.8600833597629289
 10
2.247863147206954
 20
0.866880885715522
 10
2.250663488876326
 20
0.8711084180856563
  0
LWPOLYLINE
  5
1CA
330
166
100
AcDbEntity
  8
AM_4
100
AcDbPolyline
 90
       13
 70
     0
 43
0.0
 10
2.250663488876326
 20
-0.8711084180856565
 10
2.245805361339624
 20
-0.864050739237927
 10
2.24035060320286
 20
-0.8574433307028084
 10
2.234340728469128
 20
-0.851336478848916
 10
2.227821475914012
 20
-0.8457766605062752
 10
2.22084246098589
 20
-0.8408061892495838
 10
2.213456798202409
 20
-0.836462893366358
 10
2.205720696916936
 20
-0.8327798279608228
 10
2.197693033531439
 20
-0.82978502338461
 10
2.189434903411519
 20
-0.827501271908857
 10
2.181009155913781
 20
-0.8259459542612613
 10
2.172479916064291
 20
-0.8251309073482473
 10
2.167410714285713
 20
-0.825
  0
LINE
  5
1CB
330
166
100
AcDbEntity
  8
AM_4
100
AcDbLine
 10
-2.124331175259876
 20
-0.825
 30
0.0
 11
-2.124331175259876
 21
0.825
 31
0.0
  0
LINE
  5
1CC
330
166
100
AcDbEntity
  8
AM_4
100
AcDbLine
 10
2.124331175259876
 20
-0.825
 30
0.0
 11
2.124331175259876
 21
0.825
 31
0.0
  0
LINE
  5
1CD
330
166
100
AcDbEntity
  8
AM_4
100
AcDbLine
 10
0.5540345184225834
 20
-0.8249999999999998
 30
0.0
 11
0.5540345184225834
 21
0.8250000000000001
 31
0.0
  0
LINE
  5
1CE
330
166
100
AcDbEntity
  8
AM_4
100
AcDbLine
 10
-0.5540345184225834
 20
-0.8249999999999998
 30
0.0
 11
-0.5540345184225834
 21
0.8250000000000001
 31
0.0
  0
LINE
  5
1CF
330
166
100
AcDbEntity
  8
AM_4
100
AcDbLine
 10
1.0953125
 20
0.5000000000000002
 30
0.0
 11
1.070276827399221
 21
0.5000000000000002
 31
0.0
  0
LINE
  5
1D0
330
166
100
AcDbEntity
  8
AM_4
100
AcDbLine
 10
1.070266096578559
 20
-0.5
 30
0.0
 11
1.0953125
 21
-0.5
 31
0.0
  0
LWPOLYLINE
  5
1D1
330
166
100
AcDbEntity
  8
AM_4
100
AcDbPolyline
 90
       40
 70
     0
 43
0.0
 10
1.070306024607975
 20
0.4999999999440928
 10
1.062568266085908
 20
0.4999166002268642
 10
1.025473453383439
 20
0.4973490514618445
 10
0.99006760646216
 20
0.4915482986184649
 10
0.9548499314921082
 20
0.4825317699069376
 10
0.9190920662147876
 20
0.4699634436578491
 10
0.8840824423283609
 20
0.4541646103754317
 10
0.8507463136798379
 20
0.4356411529148581
 10
0.8186431126684233
 20
0.4142560455034835
 10
0.7871947099320128
 20
0.3894391289720822
 10
0.7575598894976877
 20
0.3619231349310449
 10
0.7301042782784101
 20
0.3320197375934298
 10
0.704919112339001
 20
0.2998180942708676
 10
0.6816160191806907
 20
0.2645018337074828
 10
0.6611692687372666
 20
0.2272168023607535
 10
0.6441914673851039
 20
0.1892154560466233
 10
0.6302902643614631
 20
0.1498478707417437
 10
0.6193490415015563
 20
0.1081363132535291
 10
0.6119504500181777
 20
0.0655805642211827
 10
0.6083011384041715
 20
0.0247510922818166
 10
0.6079538183040736
 20
-0.0162537890587117
 10
0.6110659459753669
 20
-0.0583613014346454
 10
0.6176485639185723
 20
-0.1000312743115137
 10
0.6271583815426091
 20
-0.1392640947959579
 10
0.6396930771618435
 20
-0.1775504513091628
 10
0.6556163773069745
 20
-0.2156588036376492
 10
0.6744511954272395
 20
-0.2522476864696597
 10
0.6957952560408551
 20
-0.2867246510937171
 10
0.7196282996605998
 20
-0.3192598125547998
 10
0.7465125927776555
 20
-0.3504554944722625
 10
0.7755780399554272
 20
-0.3791773362546835
 10
0.8063683011193403
 20
-0.4050554159240471
 10
0.8388172743878544
 20
-0.4281262518936662
 10
0.8736843641871765
 20
-0.4487628355318204
 10
0.909738388659543
 20
-0.466093087685943
 10
0.9453419261610551
 20
-0.4795282806110634
 10
0.9814902407051708
 20
-0.4896552450652248
 10
1.01901585359474
 20
-0.4965308290173905
 10
1.056518487256654
 20
-0.4997473205137544
 10
1.070309389449223
 20
-0.4999999999870994
  0
ELLIPSE
  5
1D2
330
166
100
AcDbEntity
  8
AM_4
100
AcDbEllipse
 10
1.095312499999999
 20
0.0000000000000001
 30
0.0
 11
3.061616997868384E-17
 21
0.5000000000000001
 31
0.0
210
0.0
220
0.0
230
1.0
 40
0.8660254037844387
 41
0.0
 42
3.141592653589793
  0
ELLIPSE
  5
1D3
330
166
100
AcDbEntity
  8
AM_4
100
AcDbEllipse
 10
1.095312500005377
 20
0.0000000000000025
 30
0.0
 11
3.061616997868369E-17
 21
0.4999999999999977
 31
0.0
210
0.0
220
0.0
230
1.0
 40
0.8660254037843867
 41
6.271566790097732
 42
6.283185307179586
  0
ELLIPSE
  5
1D4
330
166
100
AcDbEntity
  8
AM_4
100
AcDbEllipse
 10
1.1203125
 20
0.0000000000000001
 30
0.0
 11
-8.266365894244638E-17
 21
-0.4500000000000002
 31
0.0
210
0.0
220
0.0
230
1.0
 40
0.8660254037844388
 41
0.0
 42
6.283185307179586
  0
LWPOLYLINE
  5
1D5
330
166
100
AcDbEntity
  8
AM_4
100
AcDbPolyline
 90
       26
 70
     0
 43
0.0
 10
1.535023931702997
 20
0.0000000000000001
 10
1.534749883693566
 20
0.0176665194063728
 10
1.532821888556074
 20
0.0500231086789033
 10
1.529055138946432
 20
0.0821789171097259
 10
1.52346422659239
 20
0.113995321836264
 10
1.516071047697061
 20
0.1453388141326095
 10
1.506904916499832
 20
0.1760774913306312
 10
1.496002553325357
 20
0.2060815393707421
 10
1.483408066119155
 20
0.2352237357599943
 10
1.46917291935874
 20
0.2633799776336548
 10
1.453355881064968
 20
0.2904298404961738
 10
1.436022935315745
 20
0.316257171331865
 10
1.417247144514304
 20
0.3407507163300689
 10
1.397108443417368
 20
0.3638047782427682
 10
1.375693346519655
 20
0.3853198914966495
 10
1.353094552796322
 20
0.4052034952304052
 10
1.329410437765107
 20
0.4233705766259904
 10
1.304744432500469
 20
0.4397442509739994
 10
1.279204301869797
 20
0.4542562427999253
 10
1.252901348098257
 20
0.466847235721696
 10
1.225949578211547
 20
0.477467068238592
 10
1.198464882092892
 20
0.4860747677070407
 10
1.170564269474787
 20
0.4926384331792277
 10
1.142365208070492
 20
0.4971349962855592
 10
1.113985091793793
 20
0.4995499043131907
 10
1.100509670435172
 20
0.4999651464118751
  0
LWPOLYLINE
  5
1D6
330
166
100
AcDbEntity
  8
AM_4
100
AcDbPolyline
 90
       26
 70
     0
 43
0.0
 10
1.099910165424323
 20
-0.4999727237298714
 10
1.120152997450959
 20
-0.4992031651666026
 10
1.148469526886213
 20
-0.4963404583037651
 10
1.176554887063193
 20
-0.4914089686869921
 10
1.204295648144981
 20
-0.4844298026364277
 10
1.231579684693967
 20
-0.4754313966138628
 10
1.258296274965824
 20
-0.4644495870534205
 10
1.284336284141189
 20
-0.451527750312104
 10
1.309592456615746
 20
-0.4367169675832439
 10
1.333959824505774
 20
-0.4200761650403734
 10
1.357336221021538
 20
-0.4016721831513747
 10
1.379622872078714
 20
-0.3815797397858663
 10
1.400725029819638
 20
-0.3598812669352696
 10
1.420552608677643
 20
-0.3366666173841744
 10
1.439020787862527
 20
-0.3120326524206078
 10
1.456050552085103
 20
-0.2860827323733728
 10
1.471569152722869
 20
-0.2589261373684456
 10
1.485510482192768
 20
-0.2306774463949234
 10
1.497815363285272
 20
-0.2014558996700813
 10
1.508431761644913
 20
-0.1713847639228542
 10
1.517314933238888
 20
-0.1405907140690881
 10
1.524427519889219
 20
-0.1092032389796952
 10
1.529739605410022
 20
-0.0773540743271019
 10
1.533228743306134
 20
-0.0451766620843325
 10
1.5348799649685
 20
-0.0128056340711315
 10
1.535023931702997
 20
0.0000000000000001
  0
ELLIPSE
  5
1D7
330
166
100
AcDbEntity
  8
AM_4
100
AcDbEllipse
 10
1.095312500004577
 20
0.0000000000001136
 30
0.0
 11
3.061616997869078E-17
 21
0.5000000000001136
 31
0.0
210
0.0
220
0.0
230
1.0
 40
0.8660254037843722
 41
3.141592653589793
 42
3.151865156309104
  0
ENDBLK
  5
169
330
166
100
AcDbEntity
  8
0
100
AcDbBlockEnd
  0
ENDSEC
  0
SECTION
  2
ENTITIES
  0
INSERT
  5
6F
330
1F
100
AcDbEntity
  8
0
100
AcDbBlockReference
  2
1_070277_4
 10
0.0
 20
0.0
 30
0.0
  0
POINT
  5
1D9
330
1F
100
AcDbEntity
  8
ConnectionPoints
100
AcDbPoint
 10
0.0
 20
-1.859375
 30
0.0000000000000001
  0
POINT
  5
1DA
330
1F
100
AcDbEntity
  8
ConnectionPoints
100
AcDbPoint
 10
0.0
 20
1.545125
 30
-0.0000000000000001
  0
POINT
  5
1DB
330
1F
100
AcDbEntity
  8
ConnectionPoints
100
AcDbPoint
 10
0.0
 20
-1.859375
 30
0.0000000000000001
  0
POINT
  5
1DC
330
1F
100
AcDbEntity
  8
ConnectionPoints
100
AcDbPoint
 10
1.1203125
 20
0.0000000000000001
 30
1.940438170354508
  0
POINT
  5
1DD
330
1F
100
AcDbEntity
  8
ConnectionPoints
100
AcDbPoint
 10
0.0
 20
-1.609375
 30
0.0000000000000001
  0
POINT
  5
1DE
330
1F
100
AcDbEntity
  8
ConnectionPoints
100
AcDbPoint
 10
0.0
 20
-1.859375
 30
0.0000000000000001
  0
POINT
  5
1DF
330
1F
100
AcDbEntity
  8
ConnectionPoints
100
AcDbPoint
 10
1.1203125
 20
0.0000000000000001
 30
1.940438170354508
  0
ENDSEC
  0
SECTION
  2
OBJECTS
  0
DICTIONARY
  5
C
330
0
100
AcDbDictionary
281
     1
  3
ACAD_DETAILVIEWSTYLE
350
1E7
  3
ACAD_GROUP
350
D
  3
ACAD_LAYOUT
350
1A
  3
ACAD_MATERIAL
350
43
  3
ACAD_MLEADERSTYLE
350
6B
  3
ACAD_MLINESTYLE
350
17
  3
ACAD_PLOTSETTINGS
350
19
  3
ACAD_PLOTSTYLENAME
350
E
  3
ACAD_SCALELIST
350
47
  3
ACAD_SECTIONVIEWSTYLE
350
1E8
  3
ACAD_TABLESTYLE
350
69
  3
ACAD_VISUALSTYLE
350
2A
  3
ACDB_RECOMPOSE_DATA
350
1E4
  3
AcDbVariableDictionary
350
1E0
  0
SUN
  5
6D
330
29
100
AcDbSun
 90
        1
290
     0
 63
     7
421
 16777215
 40
1.0
291
     1
 91
  2455826
 92
 54000000
292
     0
 70
     2
 71
   256
280
     1
  0
DICTIONARY
  5
1E7
102
{ACAD_REACTORS
330
C
102
}
330
C
100
AcDbDictionary
281
     1
  0
DICTIONARY
  5
D
102
{ACAD_REACTORS
330
C
102
}
330
C
100
AcDbDictionary
281
     1
  0
DICTIONARY
  5
1A
102
{ACAD_REACTORS
330
C
102
}
330
C
100
AcDbDictionary
281
     1
  3
Layout1
350
1E
  3
Layout2
350
26
  3
Model
350
22
  0
DICTIONARY
  5
43
102
{ACAD_REACTORS
330
C
102
}
330
C
100
AcDbDictionary
281
     1
  3
ByBlock
350
45
  3
ByLayer
350
44
  3
Global
350
46
  0
DICTIONARY
  5
6B
102
{ACAD_REACTORS
330
C
102
}
330
C
100
AcDbDictionary
281
     1
  3
Standard
350
6C
  0
DICTIONARY
  5
17
102
{ACAD_REACTORS
330
C
102
}
330
C
100
AcDbDictionary
281
     1
  3
Standard
350
18
  0
DICTIONARY
  5
19
102
{ACAD_REACTORS
330
C
102
}
330
C
100
AcDbDictionary
281
     1
  0
ACDBDICTIONARYWDFLT
  5
E
102
{ACAD_REACTORS
330
C
102
}
330
C
100
AcDbDictionary
281
     1
  3
Normal
350
F
100
AcDbDictionaryWithDefault
340
F
  0
DICTIONARY
  5
47
102
{ACAD_REACTORS
330
C
102
}
330
C
100
AcDbDictionary
281
     1
  3
A0
350
48
  3
A1
350
49
  3
A2
350
4A
  3
A3
350
4B
  3
A4
350
4C
  3
A5
350
4D
  3
A6
350
4E
  3
A7
350
4F
  3
A8
350
50
  3
A9
350
51
  3
B0
350
52
  3
B1
350
53
  3
B2
350
54
  3
B3
350
55
  3
B4
350
56
  3
B5
350
57
  3
B6
350
58
  3
B7
350
59
  3
B8
350
5A
  3
B9
350
5B
  3
C0
350
5C
  3
C1
350
5D
  3
C2
350
5E
  3
C3
350
5F
  3
C4
350
60
  3
C5
350
61
  3
C6
350
62
  3
C7
350
63
  3
C8
350
64
  3
C9
350
65
  3
D0
350
66
  3
D1
350
67
  3
D2
350
68
  0
DICTIONARY
  5
1E8
102
{ACAD_REACTORS
330
C
102
}
330
C
100
AcDbDictionary
281
     1
  0
DICTIONARY
  5
69
102
{ACAD_REACTORS
330
C
102
}
330
C
100
AcDbDictionary
281
     1
  3
Standard
350
6A
  0
DICTIONARY
  5
2A
102
{ACAD_REACTORS
330
C
102
}
330
C
100
AcDbDictionary
281
     1
  3
2dWireframe
350
2F
  3
Basic
350
32
  3
Brighten
350
36
  3
ColorChange
350
3A
  3
Conceptual
350
34
  3
Dim
350
35
  3
EdgeColorOff
350
3D
  3
Facepattern
350
39
  3
Flat
350
2B
  3
FlatWithEdges
350
2C
  3
Gouraud
350
2D
  3
GouraudWithEdges
350
2E
  3
Hidden
350
31
  3
JitterOff
350
3B
  3
Linepattern
350
38
  3
OverhangOff
350
3C
  3
Realistic
350
33
  3
Shaded
350
42
  3
Shaded with edges
350
41
  3
Shades of Gray
350
3E
  3
Sketchy
350
3F
  3
Thicken
350
37
  3
Wireframe
350
30
  3
X-Ray
350
40
  0
XRECORD
  5
1E4
102
{ACAD_REACTORS
330
C
102
}
330
C
100
AcDbXrecord
280
     1
 90
        1
330
6A
  0
DICTIONARY
  5
1E0
102
{ACAD_REACTORS
330
C
102
}
330
C
100
AcDbDictionary
281
     1
  3
CANNOSCALE
350
1E1
  3
CMLEADERSTYLE
350
1E6
  3
CTABLESTYLE
350
1E5
  0
LAYOUT
  5
1E
102
{ACAD_REACTORS
330
1A
102
}
330
1A
100
AcDbPlotSettings
  1

  2
none_device
  4

  6

 40
0.0
 41
0.0
 42
0.0
 43
0.0
 44
0.0
 45
0.0
 46
0.0
 47
0.0
 48
0.0
 49
0.0
140
0.0
141
0.0
142
1.0
143
1.0
 70
   688
 72
     0
 73
     0
 74
     5
  7

 75
    16
 76
     0
 77
     2
 78
   300
147
1.0
148
0.0
149
0.0
100
AcDbLayout
  1
Layout1
 70
     1
 71
     1
 10
0.0
 20
0.0
 11
12.0
 21
9.0
 12
0.0
 22
0.0
 32
0.0
 14
1.000000000000000E+20
 24
1.000000000000000E+20
 34
1.000000000000000E+20
 15
-1.000000000000000E+20
 25
-1.000000000000000E+20
 35
-1.000000000000000E+20
146
0.0
 13
0.0
 23
0.0
 33
0.0
 16
1.0
 26
0.0
 36
0.0
 17
0.0
 27
1.0
 37
0.0
 76
     0
330
1B
  0
LAYOUT
  5
26
102
{ACAD_REACTORS
330
1A
102
}
330
1A
100
AcDbPlotSettings
  1

  2
none_device
  4

  6

 40
0.0
 41
0.0
 42
0.0
 43
0.0
 44
0.0
 45
0.0
 46
0.0
 47
0.0
 48
0.0
 49
0.0
140
0.0
141
0.0
142
1.0
143
1.0
 70
   688
 72
     0
 73
     0
 74
     5
  7

 75
    16
 76
     0
 77
     2
 78
   300
147
1.0
148
0.0
149
0.0
100
AcDbLayout
  1
Layout2
 70
     1
 71
     2
 10
0.0
 20
0.0
 11
0.0
 21
0.0
 12
0.0
 22
0.0
 32
0.0
 14
0.0
 24
0.0
 34
0.0
 15
0.0
 25
0.0
 35
0.0
146
0.0
 13
0.0
 23
0.0
 33
0.0
 16
1.0
 26
0.0
 36
0.0
 17
0.0
 27
1.0
 37
0.0
 76
     0
330
23
  0
LAYOUT
  5
22
102
{ACAD_REACTORS
330
1A
102
}
330
1A
100
AcDbPlotSettings
  1

  2
none_device
  4
Letter_(8.50_x_11.00_Inches)
  6

 40
6.35
 41
6.35
 42
6.35000508
 43
6.35000508
 44
215.9
 45
279.4
 46
0.0
 47
0.0
 48
0.0
 49
0.0
140
0.0
141
0.0
142
1.0
143
1.0
 70
  1712
 72
     0
 73
     0
 74
     0
  7

 75
     0
 76
     0
 77
     2
 78
   300
147
1.0
148
0.0
149
0.0
100
AcDbLayout
  1
Model
 70
     1
 71
     0
 10
0.0
 20
0.0
 11
12.0
 21
9.0
 12
0.0
 22
0.0
 32
0.0
 14
1.000000000000000E+20
 24
1.000000000000000E+20
 34
1.000000000000000E+20
 15
-1.000000000000000E+20
 25
-1.000000000000000E+20
 35
-1.000000000000000E+20
146
0.0
 13
0.0
 23
0.0
 33
0.0
 16
1.0
 26
0.0
 36
0.0
 17
0.0
 27
1.0
 37
0.0
 76
     0
330
1F
331
29
  0
MATERIAL
  5
45
102
{ACAD_REACTORS
330
43
102
}
330
43
100
AcDbMaterial
  1
ByBlock
 72
     1
 94
      127
  0
MATERIAL
  5
44
102
{ACAD_REACTORS
330
43
102
}
330
43
100
AcDbMaterial
  1
ByLayer
 72
     1
 94
      127
  0
MATERIAL
  5
46
102
{ACAD_REACTORS
330
43
102
}
330
43
100
AcDbMaterial
  1
Global
 72
     1
 94
      127
  0
MLEADERSTYLE
  5
6C
102
{ACAD_REACTORS
330
6B
102
}
330
6B
100
AcDbMLeaderStyle
179
     2
170
     2
171
     1
172
     0
 90
        2
 40
0.0
 41
0.0
173
     1
 91
-1056964608
340
14
 92
       -2
290
     1
 42
0.09
291
     1
 43
0.36
  3
Standard
341
0
 44
0.18
300

342
11
174
     1
178
     6
175
     1
176
     0
 93
-1056964608
 45
0.18
292
     0
297
     0
 46
0.18
343
0
 94
-1056964608
 47
1.0
 49
1.0
140
1.0
293
     1
141
0.0
294
     1
177
     0
142
1.0
295
     0
296
     0
143
0.125
271
     0
272
     9
273
     9
298
     0
  0
MLINESTYLE
  5
18
102
{ACAD_REACTORS
330
17
102
}
330
17
100
AcDbMlineStyle
  2
Standard
 70
     0
  3

 62
   256
 51
90.0
 52
90.0
 71
     2
 49
0.5
 62
   256
  6
BYLAYER
 49
-0.5
 62
   256
  6
BYLAYER
  0
ACDBPLACEHOLDER
  5
F
102
{ACAD_REACTORS
330
E
102
}
330
E
  0
SCALE
  5
48
102
{ACAD_REACTORS
330
47
102
}
330
47
100
AcDbScale
 70
     0
300
1:1
140
1.0
141
1.0
290
     1
  0
SCALE
  5
49
102
{ACAD_REACTORS
330
47
102
}
330
47
100
AcDbScale
 70
     0
300
1:2
140
1.0
141
2.0
290
     0
  0
SCALE
  5
4A
102
{ACAD_REACTORS
330
47
102
}
330
47
100
AcDbScale
 70
     0
300
1:4
140
1.0
141
4.0
290
     0
  0
SCALE
  5
4B
102
{ACAD_REACTORS
330
47
102
}
330
47
100
AcDbScale
 70
     0
300
1:5
140
1.0
141
5.0
290
     0
  0
SCALE
  5
4C
102
{ACAD_REACTORS
330
47
102
}
330
47
100
AcDbScale
 70
     0
300
1:8
140
1.0
141
8.0
290
     0
  0
SCALE
  5
4D
102
{ACAD_REACTORS
330
47
102
}
330
47
100
AcDbScale
 70
     0
300
1:10
140
1.0
141
10.0
290
     0
  0
SCALE
  5
4E
102
{ACAD_REACTORS
330
47
102
}
330
47
100
AcDbScale
 70
     0
300
1:16
140
1.0
141
16.0
290
     0
  0
SCALE
  5
4F
102
{ACAD_REACTORS
330
47
102
}
330
47
100
AcDbScale
 70
     0
300
1:20
140
1.0
141
20.0
290
     0
  0
SCALE
  5
50
102
{ACAD_REACTORS
330
47
102
}
330
47
100
AcDbScale
 70
     0
300
1:30
140
1.0
141
30.0
290
     0
  0
SCALE
  5
51
102
{ACAD_REACTORS
330
47
102
}
330
47
100
AcDbScale
 70
     0
300
1:40
140
1.0
141
40.0
290
     0
  0
SCALE
  5
52
102
{ACAD_REACTORS
330
47
102
}
330
47
100
AcDbScale
 70
     0
300
1:50
140
1.0
141
50.0
290
     0
  0
SCALE
  5
53
102
{ACAD_REACTORS
330
47
102
}
330
47
100
AcDbScale
 70
     0
300
1:100
140
1.0
141
100.0
290
     0
  0
SCALE
  5
54
102
{ACAD_REACTORS
330
47
102
}
330
47
100
AcDbScale
 70
     0
300
2:1
140
2.0
141
1.0
290
     0
  0
SCALE
  5
55
102
{ACAD_REACTORS
330
47
102
}
330
47
100
AcDbScale
 70
     0
300
4:1
140
4.0
141
1.0
290
     0
  0
SCALE
  5
56
102
{ACAD_REACTORS
330
47
102
}
330
47
100
AcDbScale
 70
     0
300
8:1
140
8.0
141
1.0
290
     0
  0
SCALE
  5
57
102
{ACAD_REACTORS
330
47
102
}
330
47
100
AcDbScale
 70
     0
300
10:1
140
10.0
141
1.0
290
     0
  0
SCALE
  5
58
102
{ACAD_REACTORS
330
47
102
}
330
47
100
AcDbScale
 70
     0
300
100:1
140
100.0
141
1.0
290
     0
  0
SCALE
  5
59
102
{ACAD_REACTORS
330
47
102
}
330
47
100
AcDbScale
 70
     0
300
1/128" = 1'-0"
140
0.0078125
141
12.0
290
     0
  0
SCALE
  5
5A
102
{ACAD_REACTORS
330
47
102
}
330
47
100
AcDbScale
 70
     0
300
1/64" = 1'-0"
140
0.015625
141
12.0
290
     0
  0
SCALE
  5
5B
102
{ACAD_REACTORS
330
47
102
}
330
47
100
AcDbScale
 70
     0
300
1/32" = 1'-0"
140
0.03125
141
12.0
290
     0
  0
SCALE
  5
5C
102
{ACAD_REACTORS
330
47
102
}
330
47
100
AcDbScale
 70
     0
300
1/16" = 1'-0"
140
0.0625
141
12.0
290
     0
  0
SCALE
  5
5D
102
{ACAD_REACTORS
330
47
102
}
330
47
100
AcDbScale
 70
     0
300
3/32" = 1'-0"
140
0.09375
141
12.0
290
     0
  0
SCALE
  5
5E
102
{ACAD_REACTORS
330
47
102
}
330
47
100
AcDbScale
 70
     0
300
1/8" = 1'-0"
140
0.125
141
12.0
290
     0
  0
SCALE
  5
5F
102
{ACAD_REACTORS
330
47
102
}
330
47
100
AcDbScale
 70
     0
300
3/16" = 1'-0"
140
0.1875
141
12.0
290
     0
  0
SCALE
  5
60
102
{ACAD_REACTORS
330
47
102
}
330
47
100
AcDbScale
 70
     0
300
1/4" = 1'-0"
140
0.25
141
12.0
290
     0
  0
SCALE
  5
61
102
{ACAD_REACTORS
330
47
102
}
330
47
100
AcDbScale
 70
     0
300
3/8" = 1'-0"
140
0.375
141
12.0
290
     0
  0
SCALE
  5
62
102
{ACAD_REACTORS
330
47
102
}
330
47
100
AcDbScale
 70
     0
300
1/2" = 1'-0"
140
0.5
141
12.0
290
     0
  0
SCALE
  5
63
102
{ACAD_REACTORS
330
47
102
}
330
47
100
AcDbScale
 70
     0
300
3/4" = 1'-0"
140
0.75
141
12.0
290
     0
  0
SCALE
  5
64
102
{ACAD_REACTORS
330
47
102
}
330
47
100
AcDbScale
 70
     0
300
1" = 1'-0"
140
1.0
141
12.0
290
     0
  0
SCALE
  5
65
102
{ACAD_REACTORS
330
47
102
}
330
47
100
AcDbScale
 70
     0
300
1-1/2" = 1'-0"
140
1.5
141
12.0
290
     0
  0
SCALE
  5
66
102
{ACAD_REACTORS
330
47
102
}
330
47
100
AcDbScale
 70
     0
300
3" = 1'-0"
140
3.0
141
12.0
290
     0
  0
SCALE
  5
67
102
{ACAD_REACTORS
330
47
102
}
330
47
100
AcDbScale
 70
     0
300
6" = 1'-0"
140
6.0
141
12.0
290
     0
  0
SCALE
  5
68
102
{ACAD_REACTORS
330
47
102
}
330
47
100
AcDbScale
 70
     0
300
1'-0" = 1'-0"
140
12.0
141
12.0
290
     0
  0
TABLESTYLE
  5
6A
102
{ACAD_REACTORS
330
69
102
}
102
{ACAD_XDICTIONARY
360
1E2
102
}
330
69
100
AcDbTableStyle
  3
Standard
 70
     0
 71
     0
 40
0.06
 41
0.06
280
     0
281
     0
  7
Standard
140
0.18
170
     2
 62
     0
 63
   257
283
     0
 90
        4
 91
        0
  1

274
    -2
284
     1
 64
     0
275
    -2
285
     1
 65
     0
276
    -2
286
     1
 66
     0
277
    -2
287
     1
 67
     0
278
    -2
288
     1
 68
     0
279
    -2
289
     1
 69
     0
  7
Standard
140
0.25
170
     5
 62
     0
 63
   257
283
     0
 90
        4
 91
        0
  1

274
    -2
284
     1
 64
     0
275
    -2
285
     1
 65
     0
276
    -2
286
     1
 66
     0
277
    -2
287
     1
 67
     0
278
    -2
288
     1
 68
     0
279
    -2
289
     1
 69
     0
  7
Standard
140
0.18
170
     5
 62
     0
 63
   257
283
     0
 90
        4
 91
        0
  1

274
    -2
284
     1
 64
     0
275
    -2
285
     1
 65
     0
276
    -2
286
     1
 66
     0
277
    -2
287
     1
 67
     0
278
    -2
288
     1
 68
     0
279
    -2
289
     1
 69
     0
  0
VISUALSTYLE
  5
2F
102
{ACAD_REACTORS
330
2A
102
}
330
2A
100
AcDbVisualStyle
  2
2dWireframe
 70
     4
177
     3
291
     0
 70
    58
 90
        0
176
     1
 90
        2
176
     1
 90
        0
176
     1
 90
        0
176
     1
 40
0.6
176
     1
 40
30.0
176
     1
 62
     7
420
 16777215
176
     1
 90
        1
176
     1
 90
        4
176
     1
 62
     7
176
     1
 62
   257
176
     1
 90
        1
176
     1
 90
        1
176
     1
 40
1.0
176
     1
 90
        0
176
     1
 62
   257
176
     1
 40
1.0
176
     1
 90
        1
176
     1
 90
        6
176
     1
 90
        2
176
     1
 62
     7
176
     1
 90
        5
176
     1
 90
        0
176
     1
 90
        0
176
     1
290
     0
176
     1
 90
        1
176
     1
 40
0.0
176
     1
 90
        0
176
     1
290
     1
176
     1
290
     1
176
     1
290
     0
176
     1
290
     0
176
     1
290
     0
176
     1
290
     0
176
     1
290
     0
176
     1
290
     0
176
     1
290
     0
176
     1
 90
       50
176
     1
 40
0.0
176
     1
 40
1.0
176
     1
 90
        0
176
     1
 62
    18
420
        0
176
     1
 90
       50
176
     1
 90
        3
176
     1
 62
     5
420
      255
176
     1
290
     0
176
     1
 90
       50
176
     1
 90
       50
176
     1
 90
       50
176
     1
290
     0
176
     1
 90
       50
176
     1
 62
   256
176
     0
 40
1.0
176
     0
 90
        2
176
     1
  1
strokes_ogs.tif
176
     1
290
     0
176
     1
 40
1.0
176
     1
 40
1.0
176
     1
  0
VISUALSTYLE
  5
32
102
{ACAD_REACTORS
330
2A
102
}
330
2A
100
AcDbVisualStyle
  2
Basic
 70
     7
177
     3
291
     1
 70
    58
 90
        1
176
     1
 90
        0
176
     1
 90
        1
176
     1
 90
        0
176
     1
 40
0.6
176
     1
 40
30.0
176
     1
 62
     7
420
 16777215
176
     1
 90
        0
176
     1
 90
        4
176
     1
 62
     7
176
     1
 62
   257
176
     1
 90
        1
176
     1
 90
        1
176
     1
 40
1.0
176
     1
 90
        8
176
     1
 62
     7
176
     1
 40
1.0
176
     1
 90
        1
176
     1
 90
        6
176
     1
 90
        2
176
     1
 62
     7
176
     1
 90
        5
176
     1
 90
        0
176
     1
 90
        0
176
     1
290
     0
176
     1
 90
        1
176
     1
 40
0.0
176
     1
 90
        0
176
     1
290
     0
176
     1
290
     1
176
     1
290
     1
176
     1
290
     0
176
     1
290
     0
176
     1
290
     0
176
     1
290
     0
176
     1
290
     0
176
     1
290
     0
176
     1
 90
       50
176
     1
 40
0.0
176
     1
 40
1.0
176
     1
 90
        0
176
     1
 62
    18
420
        0
176
     1
 90
       50
176
     1
 90
        3
176
     1
 62
     5
420
      255
176
     1
290
     0
176
     1
 90
       50
176
     1
 90
       50
176
     1
 90
       50
176
     1
290
     0
176
     1
 90
       50
176
     1
 62
   256
176
     0
 40
1.0
176
     0
 90
        2
176
     1
  1
strokes_ogs.tif
176
     1
290
     0
176
     1
 40
1.0
176
     1
 40
1.0
176
     1
  0
VISUALSTYLE
  5
36
102
{ACAD_REACTORS
330
2A
102
}
330
2A
100
AcDbVisualStyle
  2
Brighten
 70
    12
177
     3
291
     1
 70
    58
 90
        2
176
     1
 90
        2
176
     1
 90
        0
176
     1
 90
        0
176
     1
 40
0.6
176
     1
 40
30.0
176
     1
 62
     7
420
 16777215
176
     1
 90
        1
176
     1
 90
        4
176
     1
 62
     7
176
     1
 62
   257
176
     1
 90
        1
176
     1
 90
        1
176
     1
 40
1.0
176
     1
 90
        8
176
     1
 62
     7
176
     1
 40
1.0
176
     1
 90
        1
176
     1
 90
        6
176
     1
 90
        2
176
     1
 62
     7
176
     1
 90
        5
176
     1
 90
        0
176
     1
 90
        0
176
     1
290
     0
176
     1
 90
        1
176
     1
 40
50.0
176
     1
 90
        0
176
     1
290
     0
176
     1
290
     1
176
     1
290
     1
176
     1
290
     0
176
     1
290
     0
176
     1
290
     0
176
     1
290
     0
176
     1
290
     0
176
     1
290
     0
176
     1
 90
       50
176
     1
 40
0.0
176
     1
 40
1.0
176
     1
 90
        0
176
     1
 62
    18
420
        0
176
     1
 90
       50
176
     1
 90
        3
176
     1
 62
     5
420
      255
176
     1
290
     0
176
     1
 90
       50
176
     1
 90
       50
176
     1
 90
       50
176
     1
290
     0
176
     1
 90
       50
176
     1
 62
   256
176
     0
 40
1.0
176
     0
 90
        2
176
     1
  1
strokes_ogs.tif
176
     1
290
     0
176
     1
 40
1.0
176
     1
 40
1.0
176
     1
  0
VISUALSTYLE
  5
3A
102
{ACAD_REACTORS
330
2A
102
}
330
2A
100
AcDbVisualStyle
  2
ColorChange
 70
    16
177
     3
291
     1
 70
    58
 90
        2
176
     1
 90
        2
176
     1
 90
        3
176
     1
 90
        0
176
     1
 40
0.6
176
     1
 40
30.0
176
     1
 62
     8
420
  8421504
176
     1
 90
        1
176
     1
 90
        4
176
     1
 62
     7
176
     1
 62
   257
176
     1
 90
        1
176
     1
 90
        1
176
     1
 40
1.0
176
     1
 90
        8
176
     1
 62
     8
420
  8421504
176
     1
 40
1.0
176
     1
 90
        1
176
     1
 90
        6
176
     1
 90
        2
176
     1
 62
     7
176
     1
 90
        5
176
     1
 90
        0
176
     1
 90
        0
176
     1
290
     0
176
     1
 90
        1
176
     1
 40
0.0
176
     1
 90
        0
176
     1
290
     0
176
     1
290
     1
176
     1
290
     1
176
     1
290
     0
176
     1
290
     0
176
     1
290
     0
176
     1
290
     0
176
     1
290
     0
176
     1
290
     0
176
     1
 90
       50
176
     1
 40
0.0
176
     1
 40
1.0
176
     1
 90
        0
176
     1
 62
    18
420
        0
176
     1
 90
       50
176
     1
 90
        3
176
     1
 62
     5
420
      255
176
     1
290
     0
176
     1
 90
       50
176
     1
 90
       50
176
     1
 90
       50
176
     1
290
     0
176
     1
 90
       50
176
     1
 62
   256
176
     0
 40
1.0
176
     0
 90
        2
176
     1
  1
strokes_ogs.tif
176
     1
290
     0
176
     1
 40
1.0
176
     1
 40
1.0
176
     1
  0
VISUALSTYLE
  5
34
102
{ACAD_REACTORS
330
2A
102
}
330
2A
100
AcDbVisualStyle
  2
Conceptual
 70
     9
177
     3
291
     0
 70
    58
 90
        3
176
     1
 90
        2
176
     1
 90
        0
176
     1
 90
        0
176
     1
 40
0.6
176
     1
 40
30.0
176
     1
 62
     7
420
 16777215
176
     1
 90
        2
176
     1
 90
        2
176
     1
 62
     7
176
     1
 62
   257
176
     1
 90
        1
176
     1
 90
        1
176
     1
 40
179.0
176
     1
 90
        8
176
     1
 62
     7
176
     1
 40
1.0
176
     1
 90
        1
176
     1
 90
        6
176
     1
 90
        2
176
     1
 62
     7
176
     1
 90
        3
176
     1
 90
        0
176
     1
 90
        0
176
     1
290
     0
176
     1
 90
        1
176
     1
 40
0.0
176
     1
 90
        0
176
     1
290
     0
176
     1
290
     1
176
     1
290
     1
176
     1
290
     0
176
     1
290
     0
176
     1
290
     0
176
     1
290
     0
176
     1
290
     0
176
     1
290
     0
176
     1
 90
       50
176
     1
 40
0.0
176
     1
 40
1.0
176
     1
 90
        0
176
     1
 62
    18
420
        0
176
     1
 90
       50
176
     1
 90
        3
176
     1
 62
     5
420
      255
176
     1
290
     0
176
     1
 90
       50
176
     1
 90
       50
176
     1
 90
       50
176
     1
290
     0
176
     1
 90
       50
176
     1
 62
   256
176
     0
 40
1.0
176
     0
 90
        2
176
     1
  1
strokes_ogs.tif
176
     1
290
     0
176
     1
 40
1.0
176
     1
 40
1.0
176
     1
  0
VISUALSTYLE
  5
35
102
{ACAD_REACTORS
330
2A
102
}
330
2A
100
AcDbVisualStyle
  2
Dim
 70
    11
177
     3
291
     1
 70
    58
 90
        2
176
     1
 90
        2
176
     1
 90
        0
176
     1
 90
        0
176
     1
 40
0.6
176
     1
 40
30.0
176
     1
 62
     7
420
 16777215
176
     1
 90
        1
176
     1
 90
        4
176
     1
 62
     7
176
     1
 62
   257
176
     1
 90
        1
176
     1
 90
        1
176
     1
 40
1.0
176
     1
 90
        8
176
     1
 62
     7
176
     1
 40
1.0
176
     1
 90
        1
176
     1
 90
        6
176
     1
 90
        2
176
     1
 62
     7
176
     1
 90
        5
176
     1
 90
        0
176
     1
 90
        0
176
     1
290
     0
176
     1
 90
        1
176
     1
 40
-50.0
176
     1
 90
        0
176
     1
290
     0
176
     1
290
     1
176
     1
290
     1
176
     1
290
     0
176
     1
290
     0
176
     1
290
     0
176
     1
290
     0
176
     1
290
     0
176
     1
290
     0
176
     1
 90
       50
176
     1
 40
0.0
176
     1
 40
1.0
176
     1
 90
        0
176
     1
 62
    18
420
        0
176
     1
 90
       50
176
     1
 90
        3
176
     1
 62
     5
420
      255
176
     1
290
     0
176
     1
 90
       50
176
     1
 90
       50
176
     1
 90
       50
176
     1
290
     0
176
     1
 90
       50
176
     1
 62
   256
176
     0
 40
1.0
176
     0
 90
        2
176
     1
  1
strokes_ogs.tif
176
     1
290
     0
176
     1
 40
1.0
176
     1
 40
1.0
176
     1
  0
VISUALSTYLE
  5
3D
102
{ACAD_REACTORS
330
2A
102
}
330
2A
100
AcDbVisualStyle
  2
EdgeColorOff
 70
    22
177
     3
291
     1
 70
    58
 90
        2
176
     0
 90
        2
176
     0
 90
        0
176
     0
 90
        0
176
     0
 40
0.6
176
     0
 40
30.0
176
     0
 62
     7
420
 16777215
176
     0
 90
        1
176
     0
 90
        4
176
     0
 62
     7
176
     0
 62
   257
176
     0
 90
        1
176
     0
 90
        1
176
     0
 40
1.0
176
     0
 90
        8
176
     2
 62
     7
176
     0
 40
1.0
176
     0
 90
        1
176
     0
 90
        6
176
     0
 90
        2
176
     0
 62
     7
176
     0
 90
        5
176
     0
 90
        0
176
     0
 90
        0
176
     0
290
     0
176
     0
 90
        1
176
     0
 40
0.0
176
     0
 90
        0
176
     0
290
     0
176
     0
290
     1
176
     0
290
     1
176
     0
290
     0
176
     0
290
     0
176
     0
290
     0
176
     0
290
     0
176
     0
290
     0
176
     0
290
     0
176
     0
 90
       50
176
     0
 40
0.0
176
     0
 40
1.0
176
     0
 90
        0
176
     0
 62
    18
420
        0
176
     0
 90
       50
176
     0
 90
        3
176
     0
 62
     5
420
      255
176
     0
290
     0
176
     0
 90
       50
176
     0
 90
       50
176
     0
 90
       50
176
     0
290
     0
176
     0
 90
       50
176
     0
 62
   256
176
     0
 40
1.0
176
     0
 90
        2
176
     0
  1
strokes_ogs.tif
176
     0
290
     0
176
     0
 40
1.0
176
     0
 40
1.0
176
     0
  0
VISUALSTYLE
  5
39
102
{ACAD_REACTORS
330
2A
102
}
330
2A
100
AcDbVisualStyle
  2
Facepattern
 70
    15
177
     3
291
     1
 70
    58
 90
        2
176
     1
 90
        2
176
     1
 90
        0
176
     1
 90
        0
176
     1
 40
0.6
176
     1
 40
30.0
176
     1
 62
     7
420
 16777215
176
     1
 90
        1
176
     1
 90
        4
176
     1
 62
     7
176
     1
 62
   257
176
     1
 90
        1
176
     1
 90
        1
176
     1
 40
1.0
176
     1
 90
        8
176
     1
 62
     7
176
     1
 40
1.0
176
     1
 90
        1
176
     1
 90
        6
176
     1
 90
        2
176
     1
 62
     7
176
     1
 90
        5
176
     1
 90
        0
176
     1
 90
        0
176
     1
290
     0
176
     1
 90
        1
176
     1
 40
0.0
176
     1
 90
        0
176
     1
290
     0
176
     1
290
     1
176
     1
290
     1
176
     1
290
     0
176
     1
290
     0
176
     1
290
     0
176
     1
290
     0
176
     1
290
     0
176
     1
290
     0
176
     1
 90
       50
176
     1
 40
0.0
176
     1
 40
1.0
176
     1
 90
        0
176
     1
 62
    18
420
        0
176
     1
 90
       50
176
     1
 90
        3
176
     1
 62
     5
420
      255
176
     1
290
     0
176
     1
 90
       50
176
     1
 90
       50
176
     1
 90
       50
176
     1
290
     0
176
     1
 90
       50
176
     1
 62
   256
176
     0
 40
1.0
176
     0
 90
        2
176
     1
  1
strokes_ogs.tif
176
     1
290
     0
176
     1
 40
1.0
176
     1
 40
1.0
176
     1
  0
VISUALSTYLE
  5
2B
102
{ACAD_REACTORS
330
2A
102
}
330
2A
100
AcDbVisualStyle
  2
Flat
 70
     0
177
     3
291
     1
 70
    58
 90
        2
176
     1
 90
        1
176
     1
 90
        1
176
     1
 90
        2
176
     1
 40
0.6
176
     1
 40
30.0
176
     1
 62
     7
420
 16777215
176
     1
 90
        0
176
     1
 90
        0
176
     1
 62
     7
176
     1
 62
   257
176
     1
 90
        1
176
     1
 90
        1
176
     1
 40
1.0
176
     1
 90
        8
176
     1
 62
     7
176
     1
 40
1.0
176
     1
 90
        1
176
     1
 90
        6
176
     1
 90
        2
176
     1
 62
     7
176
     1
 90
        5
176
     1
 90
        0
176
     1
 90
        0
176
     1
290
     0
176
     1
 90
       13
176
     1
 40
0.0
176
     1
 90
        0
176
     1
290
     0
176
     1
290
     1
176
     1
290
     1
176
     1
290
     0
176
     1
290
     0
176
     1
290
     0
176
     1
290
     0
176
     1
290
     0
176
     1
290
     0
176
     1
 90
       50
176
     1
 40
0.0
176
     1
 40
1.0
176
     1
 90
        0
176
     1
 62
    18
420
        0
176
     1
 90
       50
176
     1
 90
        3
176
     1
 62
     5
420
      255
176
     1
290
     0
176
     1
 90
       50
176
     1
 90
       50
176
     1
 90
       50
176
     1
290
     0
176
     1
 90
       50
176
     1
 62
   256
176
     0
 40
1.0
176
     0
 90
        2
176
     1
  1
strokes_ogs.tif
176
     1
290
     0
176
     1
 40
1.0
176
     1
 40
1.0
176
     1
  0
VISUALSTYLE
  5
2C
102
{ACAD_REACTORS
330
2A
102
}
330
2A
100
AcDbVisualStyle
  2
FlatWithEdges
 70
     1
177
     3
291
     1
 70
    58
 90
        2
176
     1
 90
        1
176
     1
 90
        1
176
     1
 90
        2
176
     1
 40
0.6
176
     1
 40
30.0
176
     1
 62
     7
420
 16777215
176
     1
 90
        1
176
     1
 90
        0
176
     1
 62
     7
176
     1
 62
   257
176
     1
 90
        1
176
     1
 90
        1
176
     1
 40
1.0
176
     1
 90
        0
176
     1
 62
   257
176
     1
 40
1.0
176
     1
 90
        1
176
     1
 90
        6
176
     1
 90
        2
176
     1
 62
     7
176
     1
 90
        5
176
     1
 90
        0
176
     1
 90
        0
176
     1
290
     0
176
     1
 90
       13
176
     1
 40
0.0
176
     1
 90
        0
176
     1
290
     0
176
     1
290
     1
176
     1
290
     1
176
     1
290
     0
176
     1
290
     0
176
     1
290
     0
176
     1
290
     0
176
     1
290
     0
176
     1
290
     0
176
     1
 90
       50
176
     1
 40
0.0
176
     1
 40
1.0
176
     1
 90
        0
176
     1
 62
    18
420
        0
176
     1
 90
       50
176
     1
 90
        3
176
     1
 62
     5
420
      255
176
     1
290
     0
176
     1
 90
       50
176
     1
 90
       50
176
     1
 90
       50
176
     1
290
     0
176
     1
 90
       50
176
     1
 62
   256
176
     0
 40
1.0
176
     0
 90
        2
176
     1
  1
strokes_ogs.tif
176
     1
290
     0
176
     1
 40
1.0
176
     1
 40
1.0
176
     1
  0
VISUALSTYLE
  5
2D
102
{ACAD_REACTORS
330
2A
102
}
330
2A
100
AcDbVisualStyle
  2
Gouraud
 70
     2
177
     3
291
     1
 70
    58
 90
        2
176
     1
 90
        2
176
     1
 90
        1
176
     1
 90
        2
176
     1
 40
0.6
176
     1
 40
30.0
176
     1
 62
     7
420
 16777215
176
     1
 90
        0
176
     1
 90
        0
176
     1
 62
     7
176
     1
 62
   257
176
     1
 90
        1
176
     1
 90
        1
176
     1
 40
1.0
176
     1
 90
        0
176
     1
 62
     7
176
     1
 40
1.0
176
     1
 90
        1
176
     1
 90
        6
176
     1
 90
        2
176
     1
 62
     7
176
     1
 90
        5
176
     1
 90
        0
176
     1
 90
        0
176
     1
290
     0
176
     1
 90
       13
176
     1
 40
0.0
176
     1
 90
        0
176
     1
290
     0
176
     1
290
     1
176
     1
290
     1
176
     1
290
     0
176
     1
290
     0
176
     1
290
     0
176
     1
290
     0
176
     1
290
     0
176
     1
290
     0
176
     1
 90
       50
176
     1
 40
0.0
176
     1
 40
1.0
176
     1
 90
        0
176
     1
 62
    18
420
        0
176
     1
 90
       50
176
     1
 90
        3
176
     1
 62
     5
420
      255
176
     1
290
     0
176
     1
 90
       50
176
     1
 90
       50
176
     1
 90
       50
176
     1
290
     0
176
     1
 90
       50
176
     1
 62
   256
176
     0
 40
1.0
176
     0
 90
        2
176
     1
  1
strokes_ogs.tif
176
     1
290
     0
176
     1
 40
1.0
176
     1
 40
1.0
176
     1
  0
VISUALSTYLE
  5
2E
102
{ACAD_REACTORS
330
2A
102
}
330
2A
100
AcDbVisualStyle
  2
GouraudWithEdges
 70
     3
177
     3
291
     1
 70
    58
 90
        2
176
     1
 90
        2
176
     1
 90
        1
176
     1
 90
        2
176
     1
 40
0.6
176
     1
 40
30.0
176
     1
 62
     7
420
 16777215
176
     1
 90
        1
176
     1
 90
        0
176
     1
 62
     7
176
     1
 62
   257
176
     1
 90
        1
176
     1
 90
        1
176
     1
 40
1.0
176
     1
 90
        0
176
     1
 62
   257
176
     1
 40
1.0
176
     1
 90
        1
176
     1
 90
        6
176
     1
 90
        2
176
     1
 62
     7
176
     1
 90
        5
176
     1
 90
        0
176
     1
 90
        0
176
     1
290
     0
176
     1
 90
       13
176
     1
 40
0.0
176
     1
 90
        0
176
     1
290
     0
176
     1
290
     1
176
     1
290
     1
176
     1
290
     0
176
     1
290
     0
176
     1
290
     0
176
     1
290
     0
176
     1
290
     0
176
     1
290
     0
176
     1
 90
       50
176
     1
 40
0.0
176
     1
 40
1.0
176
     1
 90
        0
176
     1
 62
    18
420
        0
176
     1
 90
       50
176
     1
 90
        3
176
     1
 62
     5
420
      255
176
     1
290
     0
176
     1
 90
       50
176
     1
 90
       50
176
     1
 90
       50
176
     1
290
     0
176
     1
 90
       50
176
     1
 62
   256
176
     0
 40
1.0
176
     0
 90
        2
176
     1
  1
strokes_ogs.tif
176
     1
290
     0
176
     1
 40
1.0
176
     1
 40
1.0
176
     1
  0
VISUALSTYLE
  5
31
102
{ACAD_REACTORS
330
2A
102
}
330
2A
100
AcDbVisualStyle
  2
Hidden
 70
     6
177
     3
291
     0
 70
    58
 90
        1
176
     1
 90
        2
176
     1
 90
        2
176
     1
 90
        0
176
     1
 40
0.6
176
     1
 40
30.0
176
     1
 62
     7
420
 16777215
176
     1
 90
        2
176
     1
 90
        2
176
     1
 62
     7
176
     1
 62
   257
176
     1
 90
        2
176
     1
 90
        1
176
     1
 40
40.0
176
     1
 90
        0
176
     1
 62
   257
176
     1
 40
1.0
176
     1
 90
        1
176
     1
 90
        6
176
     1
 90
        2
176
     1
 62
     7
176
     1
 90
        3
176
     1
 90
        0
176
     1
 90
        0
176
     1
290
     0
176
     1
 90
        1
176
     1
 40
0.0
176
     1
 90
        0
176
     1
290
     0
176
     1
290
     1
176
     1
290
     1
176
     1
290
     0
176
     1
290
     0
176
     1
290
     0
176
     1
290
     0
176
     1
290
     0
176
     1
290
     0
176
     1
 90
       50
176
     1
 40
0.0
176
     1
 40
1.0
176
     1
 90
        0
176
     1
 62
    18
420
        0
176
     1
 90
       50
176
     1
 90
        3
176
     1
 62
     5
420
      255
176
     1
290
     0
176
     1
 90
       50
176
     1
 90
       50
176
     1
 90
       50
176
     1
290
     0
176
     1
 90
       50
176
     1
 62
   256
176
     0
 40
1.0
176
     0
 90
        2
176
     1
  1
strokes_ogs.tif
176
     1
290
     0
176
     1
 40
1.0
176
     1
 40
1.0
176
     1
  0
VISUALSTYLE
  5
3B
102
{ACAD_REACTORS
330
2A
102
}
330
2A
100
AcDbVisualStyle
  2
JitterOff
 70
    20
177
     3
291
     1
 70
    58
 90
        2
176
     0
 90
        2
176
     0
 90
        0
176
     0
 90
        0
176
     0
 40
0.6
176
     0
 40
30.0
176
     0
 62
     7
420
 16777215
176
     0
 90
        1
176
     0
 90
        4
176
     0
 62
     7
176
     0
 62
   257
176
     0
 90
        1
176
     0
 90
        1
176
     0
 40
1.0
176
     0
 90
       10
176
     2
 62
     7
176
     0
 40
1.0
176
     0
 90
        1
176
     0
 90
        6
176
     0
 90
        2
176
     0
 62
     7
176
     0
 90
        5
176
     0
 90
        0
176
     0
 90
        0
176
     0
290
     0
176
     0
 90
        1
176
     0
 40
0.0
176
     0
 90
        0
176
     0
290
     0
176
     0
290
     1
176
     0
290
     1
176
     0
290
     0
176
     0
290
     0
176
     0
290
     0
176
     0
290
     0
176
     0
290
     0
176
     0
290
     0
176
     0
 90
       50
176
     0
 40
0.0
176
     0
 40
1.0
176
     0
 90
        0
176
     0
 62
    18
420
        0
176
     0
 90
       50
176
     0
 90
        3
176
     0
 62
     5
420
      255
176
     0
290
     0
176
     0
 90
       50
176
     0
 90
       50
176
     0
 90
       50
176
     0
290
     0
176
     0
 90
       50
176
     0
 62
   256
176
     0
 40
1.0
176
     0
 90
        2
176
     0
  1
strokes_ogs.tif
176
     0
290
     0
176
     0
 40
1.0
176
     0
 40
1.0
176
     0
  0
VISUALSTYLE
  5
38
102
{ACAD_REACTORS
330
2A
102
}
330
2A
100
AcDbVisualStyle
  2
Linepattern
 70
    14
177
     3
291
     1
 70
    58
 90
        2
176
     1
 90
        2
176
     1
 90
        0
176
     1
 90
        0
176
     1
 40
0.6
176
     1
 40
30.0
176
     1
 62
     7
420
 16777215
176
     1
 90
        1
176
     1
 90
        4
176
     1
 62
     7
176
     1
 62
   257
176
     1
 90
        7
176
     1
 90
        7
176
     1
 40
1.0
176
     1
 90
        8
176
     1
 62
     7
176
     1
 40
1.0
176
     1
 90
        1
176
     1
 90
        6
176
     1
 90
        2
176
     1
 62
     7
176
     1
 90
        5
176
     1
 90
        0
176
     1
 90
        0
176
     1
290
     0
176
     1
 90
        1
176
     1
 40
0.0
176
     1
 90
        0
176
     1
290
     0
176
     1
290
     1
176
     1
290
     1
176
     1
290
     0
176
     1
290
     0
176
     1
290
     0
176
     1
290
     0
176
     1
290
     0
176
     1
290
     0
176
     1
 90
       50
176
     1
 40
0.0
176
     1
 40
1.0
176
     1
 90
        0
176
     1
 62
    18
420
        0
176
     1
 90
       50
176
     1
 90
        3
176
     1
 62
     5
420
      255
176
     1
290
     0
176
     1
 90
       50
176
     1
 90
       50
176
     1
 90
       50
176
     1
290
     0
176
     1
 90
       50
176
     1
 62
   256
176
     0
 40
1.0
176
     0
 90
        2
176
     1
  1
strokes_ogs.tif
176
     1
290
     0
176
     1
 40
1.0
176
     1
 40
1.0
176
     1
  0
VISUALSTYLE
  5
3C
102
{ACAD_REACTORS
330
2A
102
}
330
2A
100
AcDbVisualStyle
  2
OverhangOff
 70
    21
177
     3
291
     1
 70
    58
 90
        2
176
     0
 90
        2
176
     0
 90
        0
176
     0
 90
        0
176
     0
 40
0.6
176
     0
 40
30.0
176
     0
 62
     7
420
 16777215
176
     0
 90
        1
176
     0
 90
        4
176
     0
 62
     7
176
     0
 62
   257
176
     0
 90
        1
176
     0
 90
        1
176
     0
 40
1.0
176
     0
 90
        9
176
     2
 62
     7
176
     0
 40
1.0
176
     0
 90
        1
176
     0
 90
        6
176
     0
 90
        2
176
     0
 62
     7
176
     0
 90
        5
176
     0
 90
        0
176
     0
 90
        0
176
     0
290
     0
176
     0
 90
        1
176
     0
 40
0.0
176
     0
 90
        0
176
     0
290
     0
176
     0
290
     1
176
     0
290
     1
176
     0
290
     0
176
     0
290
     0
176
     0
290
     0
176
     0
290
     0
176
     0
290
     0
176
     0
290
     0
176
     0
 90
       50
176
     0
 40
0.0
176
     0
 40
1.0
176
     0
 90
        0
176
     0
 62
    18
420
        0
176
     0
 90
       50
176
     0
 90
        3
176
     0
 62
     5
420
      255
176
     0
290
     0
176
     0
 90
       50
176
     0
 90
       50
176
     0
 90
       50
176
     0
290
     0
176
     0
 90
       50
176
     0
 62
   256
176
     0
 40
1.0
176
     0
 90
        2
176
     0
  1
strokes_ogs.tif
176
     0
290
     0
176
     0
 40
1.0
176
     0
 40
1.0
176
     0
  0
VISUALSTYLE
  5
33
102
{ACAD_REACTORS
330
2A
102
}
330
2A
100
AcDbVisualStyle
  2
Realistic
 70
     8
177
     3
291
     0
 70
    58
 90
        2
176
     1
 90
        3
176
     1
 90
        0
176
     1
 90
        2
176
     1
 40
0.6
176
     1
 40
30.0
176
     1
 62
     7
420
 16777215
176
     1
 90
        0
176
     1
 90
        0
176
     1
 62
     7
176
     1
 62
   257
176
     1
 90
        1
176
     1
 90
        1
176
     1
 40
1.0
176
     1
 90
        8
176
     1
 62
   257
176
     1
 40
1.0
176
     1
 90
        1
176
     1
 90
        6
176
     1
 90
        2
176
     1
 62
     7
176
     1
 90
        3
176
     1
 90
        0
176
     1
 90
        0
176
     1
290
     0
176
     1
 90
       13
176
     1
 40
0.0
176
     1
 90
        0
176
     1
290
     0
176
     1
290
     1
176
     1
290
     1
176
     1
290
     0
176
     1
290
     0
176
     1
290
     0
176
     1
290
     0
176
     1
290
     0
176
     1
290
     0
176
     1
 90
       50
176
     1
 40
0.0
176
     1
 40
1.0
176
     1
 90
        0
176
     1
 62
    18
420
        0
176
     1
 90
       50
176
     1
 90
        3
176
     1
 62
     5
420
      255
176
     1
290
     0
176
     1
 90
       50
176
     1
 90
       50
176
     1
 90
       50
176
     1
290
     0
176
     1
 90
       50
176
     1
 62
   256
176
     0
 40
1.0
176
     0
 90
        2
176
     1
  1
strokes_ogs.tif
176
     1
290
     0
176
     1
 40
1.0
176
     1
 40
1.0
176
     1
  0
VISUALSTYLE
  5
42
102
{ACAD_REACTORS
330
2A
102
}
330
2A
100
AcDbVisualStyle
  2
Shaded
 70
    27
177
     3
291
     0
 70
    58
 90
        2
176
     1
 90
        2
176
     1
 90
        1
176
     1
 90
        2
176
     1
 40
0.6
176
     1
 40
30.0
176
     1
 62
     7
420
 16777215
176
     1
 90
        0
176
     1
 90
        4
176
     1
 62
     7
176
     1
 62
   257
176
     1
 90
        1
176
     1
 90
        1
176
     1
 40
1.0
176
     1
 90
        8
176
     1
 62
   257
176
     1
 40
1.0
176
     1
 90
        1
176
     1
 90
        6
176
     1
 90
        2
176
     1
 62
     8
420
  7895160
176
     1
 90
        3
176
     1
 90
        0
176
     1
 90
        0
176
     1
290
     0
176
     1
 90
        5
176
     1
 40
0.0
176
     1
 90
        0
176
     1
290
     0
176
     1
290
     1
176
     1
290
     1
176
     1
290
     0
176
     1
290
     0
176
     1
290
     0
176
     1
290
     0
176
     1
290
     0
176
     1
290
     0
176
     1
 90
       50
176
     1
 40
0.0
176
     1
 40
1.0
176
     1
 90
        0
176
     1
 62
    18
420
        0
176
     1
 90
       50
176
     1
 90
        3
176
     1
 62
     5
420
      255
176
     1
290
     0
176
     1
 90
       50
176
     1
 90
       50
176
     1
 90
       50
176
     1
290
     0
176
     1
 90
       50
176
     1
 62
   256
176
     0
 40
1.0
176
     0
 90
        2
176
     1
  1
strokes_ogs.tif
176
     1
290
     0
176
     1
 40
1.0
176
     1
 40
1.0
176
     1
  0
VISUALSTYLE
  5
41
102
{ACAD_REACTORS
330
2A
102
}
330
2A
100
AcDbVisualStyle
  2
Shaded with edges
 70
    26
177
     3
291
     0
 70
    58
 90
        2
176
     1
 90
        2
176
     1
 90
        1
176
     1
 90
        2
176
     1
 40
0.6
176
     1
 40
30.0
176
     1
 62
     7
420
 16777215
176
     1
 90
        1
176
     1
 90
       10
176
     1
 62
     7
176
     1
 62
   257
176
     1
 90
        2
176
     1
 90
        1
176
     1
 40
1.0
176
     1
 90
        8
176
     1
 62
   257
176
     1
 40
1.0
176
     1
 90
        1
176
     1
 90
        6
176
     1
 90
        2
176
     1
 62
     7
176
     1
 90
        3
176
     1
 90
        0
176
     1
 90
        0
176
     1
290
     0
176
     1
 90
        5
176
     1
 40
0.0
176
     1
 90
        0
176
     1
290
     0
176
     1
290
     1
176
     1
290
     1
176
     1
290
     0
176
     1
290
     0
176
     1
290
     0
176
     1
290
     0
176
     1
290
     0
176
     1
290
     0
176
     1
 90
       50
176
     1
 40
0.0
176
     1
 40
1.0
176
     1
 90
        0
176
     1
 62
    18
420
        0
176
     1
 90
       50
176
     1
 90
        3
176
     1
 62
     5
420
      255
176
     1
290
     0
176
     1
 90
       50
176
     1
 90
       50
176
     1
 90
       50
176
     1
290
     0
176
     1
 90
       50
176
     1
 62
   256
176
     0
 40
1.0
176
     0
 90
        2
176
     1
  1
strokes_ogs.tif
176
     1
290
     0
176
     1
 40
1.0
176
     1
 40
1.0
176
     1
  0
VISUALSTYLE
  5
3E
102
{ACAD_REACTORS
330
2A
102
}
330
2A
100
AcDbVisualStyle
  2
Shades of Gray
 70
    23
177
     3
291
     0
 70
    58
 90
        2
176
     1
 90
        2
176
     1
 90
        3
176
     1
 90
        0
176
     1
 40
0.6
176
     1
 40
30.0
176
     1
 62
     7
420
 16777215
176
     1
 90
        2
176
     1
 90
        2
176
     1
 62
     7
176
     1
 62
     7
176
     1
 90
        1
176
     1
 90
        1
176
     1
 40
40.0
176
     1
 90
        8
176
     1
 62
     7
176
     1
 40
1.0
176
     1
 90
        1
176
     1
 90
        6
176
     1
 90
        2
176
     1
 62
     7
176
     1
 90
        3
176
     1
 90
        0
176
     1
 90
        0
176
     1
290
     0
176
     1
 90
        1
176
     1
 40
0.0
176
     1
 90
        0
176
     1
290
     0
176
     1
290
     1
176
     1
290
     1
176
     1
290
     0
176
     1
290
     0
176
     1
290
     0
176
     1
290
     0
176
     1
290
     0
176
     1
290
     0
176
     1
 90
       50
176
     1
 40
0.0
176
     1
 40
1.0
176
     1
 90
        0
176
     1
 62
    18
420
        0
176
     1
 90
       50
176
     1
 90
        3
176
     1
 62
     5
420
      255
176
     1
290
     0
176
     1
 90
       50
176
     1
 90
       50
176
     1
 90
       50
176
     1
290
     0
176
     1
 90
       50
176
     1
 62
   256
176
     0
 40
1.0
176
     0
 90
        2
176
     1
  1
strokes_ogs.tif
176
     1
290
     0
176
     1
 40
1.0
176
     1
 40
1.0
176
     1
  0
VISUALSTYLE
  5
3F
102
{ACAD_REACTORS
330
2A
102
}
330
2A
100
AcDbVisualStyle
  2
Sketchy
 70
    24
177
     3
291
     0
 70
    58
 90
        1
176
     1
 90
        2
176
     1
 90
        2
176
     1
 90
        0
176
     1
 40
0.6
176
     1
 40
30.0
176
     1
 62
     7
420
 16777215
176
     1
 90
        2
176
     1
 90
        2
176
     1
 62
     7
176
     1
 62
     7
176
     1
 90
        1
176
     1
 90
        1
176
     1
 40
40.0
176
     1
 90
       11
176
     1
 62
     7
176
     1
 40
1.0
176
     1
 90
        1
176
     1
 90
        6
176
     1
 90
        2
176
     1
 62
     7
176
     1
 90
        6
176
     1
 90
        0
176
     1
 90
        0
176
     1
290
     0
176
     1
 90
        1
176
     1
 40
0.0
176
     1
 90
        0
176
     1
290
     0
176
     1
290
     1
176
     1
290
     1
176
     1
290
     0
176
     1
290
     0
176
     1
290
     0
176
     1
290
     0
176
     1
290
     0
176
     1
290
     0
176
     1
 90
       50
176
     1
 40
0.0
176
     1
 40
1.0
176
     1
 90
        0
176
     1
 62
    18
420
        0
176
     1
 90
       50
176
     1
 90
        3
176
     1
 62
     5
420
      255
176
     1
290
     0
176
     1
 90
       50
176
     1
 90
       50
176
     1
 90
       50
176
     1
290
     0
176
     1
 90
       50
176
     1
 62
   256
176
     0
 40
1.0
176
     0
 90
        2
176
     1
  1
strokes_ogs.tif
176
     1
290
     0
176
     1
 40
1.0
176
     1
 40
1.0
176
     1
  0
VISUALSTYLE
  5
37
102
{ACAD_REACTORS
330
2A
102
}
330
2A
100
AcDbVisualStyle
  2
Thicken
 70
    13
177
     3
291
     1
 70
    58
 90
        2
176
     1
 90
        2
176
     1
 90
        0
176
     1
 90
        0
176
     1
 40
0.6
176
     1
 40
30.0
176
     1
 62
     7
420
 16777215
176
     1
 90
        1
176
     1
 90
        4
176
     1
 62
     7
176
     1
 62
   257
176
     1
 90
        1
176
     1
 90
        1
176
     1
 40
1.0
176
     1
 90
       12
176
     1
 62
     7
176
     1
 40
1.0
176
     1
 90
        1
176
     1
 90
        6
176
     1
 90
        2
176
     1
 62
     7
176
     1
 90
        5
176
     1
 90
        0
176
     1
 90
        0
176
     1
290
     0
176
     1
 90
        1
176
     1
 40
0.0
176
     1
 90
        0
176
     1
290
     0
176
     1
290
     1
176
     1
290
     1
176
     1
290
     0
176
     1
290
     0
176
     1
290
     0
176
     1
290
     0
176
     1
290
     0
176
     1
290
     0
176
     1
 90
       50
176
     1
 40
0.0
176
     1
 40
1.0
176
     1
 90
        0
176
     1
 62
    18
420
        0
176
     1
 90
       50
176
     1
 90
        3
176
     1
 62
     5
420
      255
176
     1
290
     0
176
     1
 90
       50
176
     1
 90
       50
176
     1
 90
       50
176
     1
290
     0
176
     1
 90
       50
176
     1
 62
   256
176
     0
 40
1.0
176
     0
 90
        2
176
     1
  1
strokes_ogs.tif
176
     1
290
     0
176
     1
 40
1.0
176
     1
 40
1.0
176
     1
  0
VISUALSTYLE
  5
30
102
{ACAD_REACTORS
330
2A
102
}
330
2A
100
AcDbVisualStyle
  2
Wireframe
 70
     5
177
     3
291
     0
 70
    58
 90
        0
176
     1
 90
        2
176
     1
 90
        0
176
     1
 90
        0
176
     1
 40
0.6
176
     1
 40
30.0
176
     1
 62
     7
420
 16777215
176
     1
 90
        1
176
     1
 90
        4
176
     1
 62
     7
176
     1
 62
   257
176
     1
 90
        1
176
     1
 90
        1
176
     1
 40
1.0
176
     1
 90
        0
176
     1
 62
   257
176
     1
 40
1.0
176
     1
 90
        1
176
     1
 90
        6
176
     1
 90
        2
176
     1
 62
     7
176
     1
 90
        3
176
     1
 90
        0
176
     1
 90
        0
176
     1
290
     0
176
     1
 90
        1
176
     1
 40
0.0
176
     1
 90
        0
176
     1
290
     0
176
     1
290
     1
176
     1
290
     1
176
     1
290
     0
176
     1
290
     0
176
     1
290
     0
176
     1
290
     0
176
     1
290
     0
176
     1
290
     0
176
     1
 90
       50
176
     1
 40
0.0
176
     1
 40
1.0
176
     1
 90
        0
176
     1
 62
    18
420
        0
176
     1
 90
       50
176
     1
 90
        3
176
     1
 62
     5
420
      255
176
     1
290
     0
176
     1
 90
       50
176
     1
 90
       50
176
     1
 90
       50
176
     1
290
     0
176
     1
 90
       50
176
     1
 62
   256
176
     0
 40
1.0
176
     0
 90
        2
176
     1
  1
strokes_ogs.tif
176
     1
290
     0
176
     1
 40
1.0
176
     1
 40
1.0
176
     1
  0
VISUALSTYLE
  5
40
102
{ACAD_REACTORS
330
2A
102
}
330
2A
100
AcDbVisualStyle
  2
X-Ray
 70
    25
177
     3
291
     0
 70
    58
 90
        2
176
     1
 90
        2
176
     1
 90
        1
176
     1
 90
        1
176
     1
 40
0.5
176
     1
 40
30.0
176
     1
 62
     7
420
 16777215
176
     1
 90
        1
176
     1
 90
        0
176
     1
 62
     7
176
     1
 62
   257
176
     1
 90
        1
176
     1
 90
        1
176
     1
 40
1.0
176
     1
 90
        8
176
     1
 62
     7
176
     1
 40
1.0
176
     1
 90
        1
176
     1
 90
        6
176
     1
 90
        2
176
     1
 62
     7
176
     1
 90
        3
176
     1
 90
        0
176
     1
 90
        0
176
     1
290
     0
176
     1
 90
       13
176
     1
 40
0.0
176
     1
 90
        0
176
     1
290
     0
176
     1
290
     1
176
     1
290
     1
176
     1
290
     0
176
     1
290
     0
176
     1
290
     0
176
     1
290
     0
176
     1
290
     0
176
     1
290
     0
176
     1
 90
       50
176
     1
 40
0.0
176
     1
 40
1.0
176
     1
 90
        0
176
     1
 62
    18
420
        0
176
     1
 90
       50
176
     1
 90
        3
176
     1
 62
     5
420
      255
176
     1
290
     0
176
     1
 90
       50
176
     1
 90
       50
176
     1
 90
       50
176
     1
290
     0
176
     1
 90
       50
176
     1
 62
   256
176
     0
 40
1.0
176
     0
 90
        2
176
     1
  1
strokes_ogs.tif
176
     1
290
     0
176
     1
 40
1.0
176
     1
 40
1.0
176
     1
  0
DICTIONARYVAR
  5
1E1
102
{ACAD_REACTORS
330
1E0
102
}
330
1E0
100
DictionaryVariables
280
     0
  1
1:1
  0
DICTIONARYVAR
  5
1E6
102
{ACAD_REACTORS
330
1E0
102
}
330
1E0
100
DictionaryVariables
280
     0
  1
Standard
  0
DICTIONARYVAR
  5
1E5
102
{ACAD_REACTORS
330
1E0
102
}
330
1E0
100
DictionaryVariables
280
     0
  1
Standard
  0
DICTIONARY
  5
1E2
330
6A
100
AcDbDictionary
280
     1
281
     1
  3
ACAD_ROUNDTRIP_2008_TABLESTYLE_CELLSTYLEMAP
360
1E3
  0
CELLSTYLEMAP
  5
1E3
102
{ACAD_REACTORS
330
1E2
102
}
330
1E2
100
AcDbCellStyleMap
 90
        3
300
CELLSTYLE
  1
TABLEFORMAT_BEGIN
 90
        5
170
     1
 91
        0
 92
    32768
 62
   257
 93
        1
300
CONTENTFORMAT
  1
CONTENTFORMAT_BEGIN
 90
        0
 91
        0
 92
        4
 93
        0
300

 40
0.0
140
1.0
 94
        5
 62
     0
340
11
144
0.25
309
CONTENTFORMAT_END
171
     1
301
MARGIN
  1
CELLMARGIN_BEGIN
 40
0.06
 40
0.06
 40
0.06
 40
0.06
 40
0.06
 40
0.06
309
CELLMARGIN_END
 94
        6
 95
        1
302
GRIDFORMAT
  1
GRIDFORMAT_BEGIN
 90
        0
 91
        1
 62
     0
 92
       -2
340
14
 93
        0
 40
0.045
309
GRIDFORMAT_END
 95
        2
302
GRIDFORMAT
  1
GRIDFORMAT_BEGIN
 90
        0
 91
        1
 62
     0
 92
       -2
340
14
 93
        0
 40
0.045
309
GRIDFORMAT_END
 95
        4
302
GRIDFORMAT
  1
GRIDFORMAT_BEGIN
 90
        0
 91
        1
 62
     0
 92
       -2
340
14
 93
        0
 40
0.045
309
GRIDFORMAT_END
 95
        8
302
GRIDFORMAT
  1
GRIDFORMAT_BEGIN
 90
        0
 91
        1
 62
     0
 92
       -2
340
14
 93
        0
 40
0.045
309
GRIDFORMAT_END
 95
       16
302
GRIDFORMAT
  1
GRIDFORMAT_BEGIN
 90
        0
 91
        1
 62
     0
 92
       -2
340
14
 93
        0
 40
0.045
309
GRIDFORMAT_END
 95
       32
302
GRIDFORMAT
  1
GRIDFORMAT_BEGIN
 90
        0
 91
        1
 62
     0
 92
       -2
340
14
 93
        0
 40
0.045
309
GRIDFORMAT_END
309
TABLEFORMAT_END
  1
CELLSTYLE_BEGIN
 90
        1
 91
        1
300
_TITLE
309
CELLSTYLE_END
300
CELLSTYLE
  1
TABLEFORMAT_BEGIN
 90
        5
170
     1
 91
        0
 92
        0
 62
   257
 93
        1
300
CONTENTFORMAT
  1
CONTENTFORMAT_BEGIN
 90
        0
 91
        0
 92
        4
 93
        0
300

 40
0.0
140
1.0
 94
        5
 62
     0
340
11
144
0.18
309
CONTENTFORMAT_END
171
     1
301
MARGIN
  1
CELLMARGIN_BEGIN
 40
0.06
 40
0.06
 40
0.06
 40
0.06
 40
0.06
 40
0.06
309
CELLMARGIN_END
 94
        6
 95
        1
302
GRIDFORMAT
  1
GRIDFORMAT_BEGIN
 90
        0
 91
        1
 62
     0
 92
       -2
340
14
 93
        0
 40
0.045
309
GRIDFORMAT_END
 95
        2
302
GRIDFORMAT
  1
GRIDFORMAT_BEGIN
 90
        0
 91
        1
 62
     0
 92
       -2
340
14
 93
        0
 40
0.045
309
GRIDFORMAT_END
 95
        4
302
GRIDFORMAT
  1
GRIDFORMAT_BEGIN
 90
        0
 91
        1
 62
     0
 92
       -2
340
14
 93
        0
 40
0.045
309
GRIDFORMAT_END
 95
        8
302
GRIDFORMAT
  1
GRIDFORMAT_BEGIN
 90
        0
 91
        1
 62
     0
 92
       -2
340
14
 93
        0
 40
0.045
309
GRIDFORMAT_END
 95
       16
302
GRIDFORMAT
  1
GRIDFORMAT_BEGIN
 90
        0
 91
        1
 62
     0
 92
       -2
340
14
 93
        0
 40
0.045
309
GRIDFORMAT_END
 95
       32
302
GRIDFORMAT
  1
GRIDFORMAT_BEGIN
 90
        0
 91
        1
 62
     0
 92
       -2
340
14
 93
        0
 40
0.045
309
GRIDFORMAT_END
309
TABLEFORMAT_END
  1
CELLSTYLE_BEGIN
 90
        2
 91
        1
300
_HEADER
309
CELLSTYLE_END
300
CELLSTYLE
  1
TABLEFORMAT_BEGIN
 90
        5
170
     1
 91
        0
 92
        0
 62
   257
 93
        1
300
CONTENTFORMAT
  1
CONTENTFORMAT_BEGIN
 90
        0
 91
        0
 92
        4
 93
        0
300

 40
0.0
140
1.0
 94
        2
 62
     0
340
11
144
0.18
309
CONTENTFORMAT_END
171
     1
301
MARGIN
  1
CELLMARGIN_BEGIN
 40
0.06
 40
0.06
 40
0.06
 40
0.06
 40
0.06
 40
0.06
309
CELLMARGIN_END
 94
        6
 95
        1
302
GRIDFORMAT
  1
GRIDFORMAT_BEGIN
 90
        0
 91
        1
 62
     0
 92
       -2
340
14
 93
        0
 40
0.045
309
GRIDFORMAT_END
 95
        2
302
GRIDFORMAT
  1
GRIDFORMAT_BEGIN
 90
        0
 91
        1
 62
     0
 92
       -2
340
14
 93
        0
 40
0.045
309
GRIDFORMAT_END
 95
        4
302
GRIDFORMAT
  1
GRIDFORMAT_BEGIN
 90
        0
 91
        1
 62
     0
 92
       -2
340
14
 93
        0
 40
0.045
309
GRIDFORMAT_END
 95
        8
302
GRIDFORMAT
  1
GRIDFORMAT_BEGIN
 90
        0
 91
        1
 62
     0
 92
       -2
340
14
 93
        0
 40
0.045
309
GRIDFORMAT_END
 95
       16
302
GRIDFORMAT
  1
GRIDFORMAT_BEGIN
 90
        0
 91
        1
 62
     0
 92
       -2
340
14
 93
        0
 40
0.045
309
GRIDFORMAT_END
 95
       32
302
GRIDFORMAT
  1
GRIDFORMAT_BEGIN
 90
        0
 91
        1
 62
     0
 92
       -2
340
14
 93
        0
 40
0.045
309
GRIDFORMAT_END
309
TABLEFORMAT_END
  1
CELLSTYLE_BEGIN
 90
        3
 91
        2
300
_DATA
309
CELLSTYLE_END
  0
ENDSEC
  0
EOF