0
SECTION
  2
HEADER
  9
$ACADVER
  1
AC1027
  9
$ACADMAINTVER
 70
     8
  9
$DWGCODEPAGE
  3
ANSI_1252
  9
$REQUIREDVERSIONS
160
                 0
  9
$COMMENTS
  1
File was created by Cadenas
  9
$CUSTOMPROPERTYTAG
  1
NN
  9
$CUSTOMPROPERTY
  1
S-2000 Pillow Block 2-Bolt Inch Bore (Contact Seal)
  9
$CUSTOMPROPERTYTAG
  1
NT
  9
$CUSTOMPROPERTY
  1
S-2000 Pillow Block Bearing -Inch (2-Bolt Base)
  9
$CUSTOMPROPERTYTAG
  1
NB
  9
$CUSTOMPROPERTY
  1
070277
  9
$CUSTOMPROPERTYTAG
  1
NBSYN
  9
$CUSTOMPROPERTY
  1
$PN.
  9
$CUSTOMPROPERTYTAG
  1
LINA
  9
$CUSTOMPROPERTY
  1
070277
  9
$CUSTOMPROPERTYTAG
  1
SS
  9
$CUSTOMPROPERTY
  1
1-3/4
  9
$CUSTOMPROPERTYTAG
  1
PN
  9
$CUSTOMPROPERTY
  1
070277
  9
$CUSTOMPROPERTYTAG
  1
DESCRIPTION
  9
$CUSTOMPROPERTY
  1
P2B-S2-112R
  9
$CUSTOMPROPERTYTAG
  1
EF
  9
$CUSTOMPROPERTY
  1
Non-Expansion Type
  9
$CUSTOMPROPERTYTAG
  1
ST
  9
$CUSTOMPROPERTY
  1
Contact Seal
  9
$CUSTOMPROPERTYTAG
  1
A
  9
$CUSTOMPROPERTY
  1
2-43/64
  9
$CUSTOMPROPERTYTAG
  1
B
  9
$CUSTOMPROPERTY
  1
7-3/8
  9
$CUSTOMPROPERTYTAG
  1
C
  9
$CUSTOMPROPERTY
  1
2-1/16
  9
$CUSTOMPROPERTYTAG
  1
DMIN
  9
$CUSTOMPROPERTY
  1
5-5/16
  9
$CUSTOMPROPERTYTAG
  1
DMAX
  9
$CUSTOMPROPERTY
  1
5-45/64
  9
$CUSTOMPROPERTYTAG
  1
F
  9
$CUSTOMPROPERTY
  1
1/2
  9
$CUSTOMPROPERTYTAG
  1
G
  9
$CUSTOMPROPERTY
  1
13/16
  9
$CUSTOMPROPERTYTAG
  1
H
  9
$CUSTOMPROPERTY
  1
1-1/4
  9
$CUSTOMPROPERTYTAG
  1
J
  9
$CUSTOMPROPERTY
  1
4-17/64
  9
$CUSTOMPROPERTYTAG
  1
L
  9
$CUSTOMPROPERTY
  1
3-3/16
  9
$CUSTOMPROPERTYTAG
  1
M
  9
$CUSTOMPROPERTY
  1
2-1/8
  9
$CUSTOMPROPERTYTAG
  1
R
  9
$CUSTOMPROPERTY
  1
13/16
  9
$CUSTOMPROPERTYTAG
  1
S
  9
$CUSTOMPROPERTY
  1
1-55/64
  9
$CUSTOMPROPERTYTAG
  1
X
  9
$CUSTOMPROPERTY
  1
1/4
  9
$CUSTOMPROPERTYTAG
  1
Y
  9
$CUSTOMPROPERTY
  1
0.020
  9
$CUSTOMPROPERTYTAG
  1
Z
  9
$CUSTOMPROPERTY
  1
2-5/64
  9
$CUSTOMPROPERTYTAG
  1
COMPANY
  9
$CUSTOMPROPERTY
  1
baldor
  9
$INSBASE
 10
0.0
 20
0.0
 30
0.0
  9
$EXTMIN
 10
1.000000000000000E+20
 20
1.000000000000000E+20
 30
1.000000000000000E+20
  9
$EXTMAX
 10
-1.000000000000000E+20
 20
-1.000000000000000E+20
 30
-1.000000000000000E+20
  9
$LIMMIN
 10
0.0
 20
0.0
  9
$LIMMAX
 10
12.0
 20
9.0
  9
$ORTHOMODE
 70
     0
  9
$REGENMODE
 70
     1
  9
$FILLMODE
 70
     1
  9
$QTEXTMODE
 70
     0
  9
$MIRRTEXT
 70
     1
  9
$LTSCALE
 40
1.0
  9
$ATTMODE
 70
     1
  9
$TEXTSIZE
 40
0.2
  9
$TRACEWID
 40
0.05
  9
$TEXTSTYLE
  7
Standard
  9
$CLAYER
  8
0
  9
$CELTYPE
  6
ByLayer
  9
$CECOLOR
 62
   256
  9
$CELTSCALE
 40
1.0
  9
$DISPSILH
 70
     0
  9
$DIMSCALE
 40
1.0
  9
$DIMASZ
 40
0.18
  9
$DIMEXO
 40
0.0625
  9
$DIMDLI
 40
0.38
  9
$DIMRND
 40
0.0
  9
$DIMDLE
 40
0.0
  9
$DIMEXE
 40
0.18
  9
$DIMTP
 40
0.0
  9
$DIMTM
 40
0.0
  9
$DIMTXT
 40
0.18
  9
$DIMCEN
 40
0.09
  9
$DIMTSZ
 40
0.0
  9
$DIMTOL
 70
     0
  9
$DIMLIM
 70
     0
  9
$DIMTIH
 70
     1
  9
$DIMTOH
 70
     1
  9
$DIMSE1
 70
     0
  9
$DIMSE2
 70
     0
  9
$DIMTAD
 70
     0
  9
$DIMZIN
 70
     0
  9
$DIMBLK
  1

  9
$DIMASO
 70
     1
  9
$DIMSHO
 70
     1
  9
$DIMPOST
  1

  9
$DIMAPOST
  1

  9
$DIMALT
 70
     0
  9
$DIMALTD
 70
     2
  9
$DIMALTF
 40
25.4
  9
$DIMLFAC
 40
1.0
  9
$DIMTOFL
 70
     0
  9
$DIMTVP
 40
0.0
  9
$DIMTIX
 70
     0
  9
$DIMSOXD
 70
     0
  9
$DIMSAH
 70
     0
  9
$DIMBLK1
  1

  9
$DIMBLK2
  1

  9
$DIMSTYLE
  2
Standard
  9
$DIMCLRD
 70
     0
  9
$DIMCLRE
 70
     0
  9
$DIMCLRT
 70
     0
  9
$DIMTFAC
 40
1.0
  9
$DIMGAP
 40
0.09
  9
$DIMJUST
 70
     0
  9
$DIMSD1
 70
     0
  9
$DIMSD2
 70
     0
  9
$DIMTOLJ
 70
     1
  9
$DIMTZIN
 70
     0
  9
$DIMALTZ
 70
     0
  9
$DIMALTTZ
 70
     0
  9
$DIMUPT
 70
     0
  9
$DIMDEC
 70
     4
  9
$DIMTDEC
 70
     4
  9
$DIMALTU
 70
     2
  9
$DIMALTTD
 70
     2
  9
$DIMTXSTY
  7
Standard
  9
$DIMAUNIT
 70
     0
  9
$DIMADEC
 70
     0
  9
$DIMALTRND
 40
0.0
  9
$DIMAZIN
 70
     0
  9
$DIMDSEP
 70
    46
  9
$DIMATFIT
 70
     3
  9
$DIMFRAC
 70
     0
  9
$DIMLDRBLK
  1

  9
$DIMLUNIT
 70
     2
  9
$DIMLWD
 70
    -2
  9
$DIMLWE
 70
    -2
  9
$DIMTMOVE
 70
     0
  9
$DIMFXL
 40
1.0
  9
$DIMFXLON
 70
     0
  9
$DIMJOGANG
 40
0.7853981633974483
  9
$DIMTFILL
 70
     0
  9
$DIMTFILLCLR
 70
     0
  9
$DIMARCSYM
 70
     0
  9
$DIMLTYPE
  6

  9
$DIMLTEX1
  6

  9
$DIMLTEX2
  6

  9
$DIMTXTDIRECTION
 70
     0
  9
$LUNITS
 70
     2
  9
$LUPREC
 70
     4
  9
$SKETCHINC
 40
0.1
  9
$FILLETRAD
 40
0.5
  9
$AUNITS
 70
     0
  9
$AUPREC
 70
     0
  9
$MENU
  1
.
  9
$ELEVATION
 40
0.0
  9
$PELEVATION
 40
0.0
  9
$THICKNESS
 40
0.0
  9
$LIMCHECK
 70
     0
  9
$CHAMFERA
 40
0.0
  9
$CHAMFERB
 40
0.0
  9
$CHAMFERC
 40
0.0
  9
$CHAMFERD
 40
0.0
  9
$SKPOLY
 70
     0
  9
$TDCREATE
 40
2458168.985043843
  9
$TDUCREATE
 40
2458168.943377176
  9
$TDUPDATE
 40
2458168.985044016
  9
$TDUUPDATE
 40
2458168.94337735
  9
$TDINDWG
 40
0.0000000116
  9
$TDUSRTIMER
 40
0.0000000116
  9
$USRTIMER
 70
     1
  9
$ANGBASE
 50
0.0
  9
$ANGDIR
 70
     0
  9
$PDMODE
 70
     0
  9
$PDSIZE
 40
0.0
  9
$PLINEWID
 40
0.0
  9
$SPLFRAME
 70
     0
  9
$SPLINETYPE
 70
     6
  9
$SPLINESEGS
 70
     8
  9
$HANDSEED
  5
1FF
  9
$SURFTAB1
 70
     6
  9
$SURFTAB2
 70
     6
  9
$SURFTYPE
 70
     6
  9
$SURFU
 70
     6
  9
$SURFV
 70
     6
  9
$UCSBASE
  2

  9
$UCSNAME
  2

  9
$UCSORG
 10
0.0
 20
0.0
 30
0.0
  9
$UCSXDIR
 10
1.0
 20
0.0
 30
0.0
  9
$UCSYDIR
 10
0.0
 20
1.0
 30
0.0
  9
$UCSORTHOREF
  2

  9
$UCSORTHOVIEW
 70
     0
  9
$UCSORGTOP
 10
0.0
 20
0.0
 30
0.0
  9
$UCSORGBOTTOM
 10
0.0
 20
0.0
 30
0.0
  9
$UCSORGLEFT
 10
0.0
 20
0.0
 30
0.0
  9
$UCSORGRIGHT
 10
0.0
 20
0.0
 30
0.0
  9
$UCSORGFRONT
 10
0.0
 20
0.0
 30
0.0
  9
$UCSORGBACK
 10
0.0
 20
0.0
 30
0.0
  9
$PUCSBASE
  2

  9
$PUCSNAME
  2

  9
$PUCSORG
 10
0.0
 20
0.0
 30
0.0
  9
$PUCSXDIR
 10
1.0
 20
0.0
 30
0.0
  9
$PUCSYDIR
 10
0.0
 20
1.0
 30
0.0
  9
$PUCSORTHOREF
  2

  9
$PUCSORTHOVIEW
 70
     0
  9
$PUCSORGTOP
 10
0.0
 20
0.0
 30
0.0
  9
$PUCSORGBOTTOM
 10
0.0
 20
0.0
 30
0.0
  9
$PUCSORGLEFT
 10
0.0
 20
0.0
 30
0.0
  9
$PUCSORGRIGHT
 10
0.0
 20
0.0
 30
0.0
  9
$PUCSORGFRONT
 10
0.0
 20
0.0
 30
0.0
  9
$PUCSORGBACK
 10
0.0
 20
0.0
 30
0.0
  9
$USERI1
 70
     0
  9
$USERI2
 70
     0
  9
$USERI3
 70
     0
  9
$USERI4
 70
     0
  9
$USERI5
 70
     0
  9
$USERR1
 40
0.0
  9
$USERR2
 40
0.0
  9
$USERR3
 40
0.0
  9
$USERR4
 40
0.0
  9
$USERR5
 40
0.0
  9
$WORLDVIEW
 70
     1
  9
$SHADEDGE
 70
     3
  9
$SHADEDIF
 70
    70
  9
$TILEMODE
 70
     1
  9
$MAXACTVP
 70
    64
  9
$PINSBASE
 10
0.0
 20
0.0
 30
0.0
  9
$PLIMCHECK
 70
     0
  9
$PEXTMIN
 10
1.000000000000000E+20
 20
1.000000000000000E+20
 30
1.000000000000000E+20
  9
$PEXTMAX
 10
-1.000000000000000E+20
 20
-1.000000000000000E+20
 30
-1.000000000000000E+20
  9
$PLIMMIN
 10
0.0
 20
0.0
  9
$PLIMMAX
 10
12.0
 20
9.0
  9
$UNITMODE
 70
     0
  9
$VISRETAIN
 70
     1
  9
$PLINEGEN
 70
     0
  9
$PSLTSCALE
 70
     1
  9
$TREEDEPTH
 70
  3020
  9
$CMLSTYLE
  2
Standard
  9
$CMLJUST
 70
     0
  9
$CMLSCALE
 40
1.0
  9
$PROXYGRAPHICS
 70
     1
  9
$MEASUREMENT
 70
     0
  9
$CELWEIGHT
370
    -1
  9
$ENDCAPS
280
     0
  9
$JOINSTYLE
280
     0
  9
$LWDISPLAY
290
     0
  9
$INSUNITS
 70
     1
  9
$HYPERLINKBASE
  1

  9
$STYLESHEET
  1

  9
$XEDIT
290
     1
  9
$CEPSNTYPE
380
     0
  9
$PSTYLEMODE
290
     1
  9
$FINGERPRINTGUID
  2
{F99E84E5-CA24-432D-97D4-CD1D9923BE74}
  9
$VERSIONGUID
  2
{FAEB1C32-E019-11D5-929B-00C0DF256EC4}
  9
$EXTNAMES
290
     1
  9
$PSVPSCALE
 40
0.0
  9
$OLESTARTUP
290
     0
  9
$SORTENTS
280
   127
  9
$INDEXCTL
280
     0
  9
$HIDETEXT
280
     1
  9
$XCLIPFRAME
280
     2
  9
$HALOGAP
280
     0
  9
$OBSCOLOR
 70
   257
  9
$OBSLTYPE
280
     0
  9
$INTERSECTIONDISPLAY
280
     0
  9
$INTERSECTIONCOLOR
 70
   257
  9
$DIMASSOC
280
     2
  9
$PROJECTNAME
  1

  9
$CAMERADISPLAY
290
     0
  9
$LENSLENGTH
 40
50.0
  9
$CAMERAHEIGHT
 40
0.0
  9
$STEPSPERSEC
 40
2.0
  9
$STEPSIZE
 40
6.0
  9
$3DDWFPREC
 40
2.0
  9
$PSOLWIDTH
 40
0.25
  9
$PSOLHEIGHT
 40
4.0
  9
$LOFTANG1
 40
1.570796326794897
  9
$LOFTANG2
 40
1.570796326794897
  9
$LOFTMAG1
 40
0.0
  9
$LOFTMAG2
 40
0.0
  9
$LOFTPARAM
 70
     7
  9
$LOFTNORMALS
280
     1
  9
$LATITUDE
 40
37.795
  9
$LONGITUDE
 40
-122.394
  9
$NORTHDIRECTION
 40
0.0
  9
$TIMEZONE
 70
 -8000
  9
$LIGHTGLYPHDISPLAY
280
     1
  9
$TILEMODELIGHTSYNCH
280
     1
  9
$CMATERIAL
347
44
  9
$SOLIDHIST
280
     0
  9
$SHOWHIST
280
     1
  9
$DWFFRAME
280
     2
  9
$DGNFRAME
280
     2
  9
$REALWORLDSCALE
290
     1
  9
$INTERFERECOLOR
 62
   256
  9
$CSHADOW
280
     0
  9
$SHADOWPLANELOCATION
 40
0.0
  0
ENDSEC
  0
SECTION
  2
CLASSES
  0
CLASS
  1
ACDBDICTIONARYWDFLT
  2
AcDbDictionaryWithDefault
  3
ObjectDBX Classes
 90
        0
 91
        4
280
     0
281
     0
  0
CLASS
  1
VISUALSTYLE
  2
AcDbVisualStyle
  3
ObjectDBX Classes
 90
     4095
 91
        4
280
     0
281
     0
  0
CLASS
  1
MATERIAL
  2
AcDbMaterial
  3
ObjectDBX Classes
 90
     1153
 91
        4
280
     0
281
     0
  0
CLASS
  1
SCALE
  2
AcDbScale
  3
ObjectDBX Classes
 90
     1153
 91
        4
280
     0
281
     0
  0
CLASS
  1
TABLESTYLE
  2
AcDbTableStyle
  3
ObjectDBX Classes
 90
     4095
 91
        4
280
     0
281
     0
  0
CLASS
  1
MLEADERSTYLE
  2
AcDbMLeaderStyle
  3
ACDB_MLEADERSTYLE_CLASS
 90
     4095
 91
        4
280
     0
281
     0
  0
CLASS
  1
SUN
  2
AcDbSun
  3
SCENEOE
 90
     1153
 91
        4
280
     0
281
     0
  0
CLASS
  1
DICTIONARYVAR
  2
AcDbDictionaryVar
  3
ObjectDBX Classes
 90
        0
 91
        4
280
     0
281
     0
  0
CLASS
  1
CELLSTYLEMAP
  2
AcDbCellStyleMap
  3
ObjectDBX Classes
 90
     1152
 91
        4
280
     0
281
     0
  0
ENDSEC
  0
SECTION
  2
TABLES
  0
TABLE
  2
VPORT
  5
8
330
0
100
AcDbSymbolTable
 70
     1
  0
VPORT
  5
29
330
8
100
AcDbSymbolTableRecord
100
AcDbViewportTableRecord
  2
*Active
 70
     0
 10
0.0
 20
0.0
 11
1.0
 21
1.0
 12
-0.2235312500000006
 22
0.095768323870133
 13
0.0
 23
0.0
 14
0.5
 24
0.5
 15
0.5
 25
0.5
 16
0.0
 26
0.0
 36
1.0
 17
0.0
 27
0.0
 37
0.0
 40
4.530367380695071
 41
0.7964163713024158
 42
50.0
 43
0.0
 44
0.0
 50
0.0
 51
0.0
 71
     0
 72
   100
 73
     1
 74
     3
 75
     0
 76
     0
 77
     0
 78
     0
281
     0
 65
     1
110
0.0
120
0.0
130
0.0
111
1.0
121
0.0
131
0.0
112
0.0
122
1.0
132
0.0
 79
     0
146
0.0
348
2F
 60
     3
 61
     5
292
     1
282
     1
141
0.0
142
0.0
 63
   250
361
6D
  0
ENDTAB
  0
TABLE
  2
LTYPE
  5
5
330
0
100
AcDbSymbolTable
 70
     3
  0
LTYPE
  5
14
330
5
100
AcDbSymbolTableRecord
100
AcDbLinetypeTableRecord
  2
ByBlock
 70
     0
  3

 72
    65
 73
     0
 40
0.0
  0
LTYPE
  5
15
330
5
100
AcDbSymbolTableRecord
100
AcDbLinetypeTableRecord
  2
ByLayer
 70
     0
  3

 72
    65
 73
     0
 40
0.0
  0
LTYPE
  5
16
330
5
100
AcDbSymbolTableRecord
100
AcDbLinetypeTableRecord
  2
Continuous
 70
     0
  3
Solid line
 72
    65
 73
     0
 40
0.0
  0
LTYPE
  5
A7
330
5
100
AcDbSymbolTableRecord
100
AcDbLinetypeTableRecord
  2
Dashed
 70
     0
  3

 72
    65
 73
     2
 40
2.0
 49
1.0
 74
     0
 49
-1.0
 74
     0
  0
LTYPE
  5
CC
330
5
100
AcDbSymbolTableRecord
100
AcDbLinetypeTableRecord
  2
Center
 70
     0
  3

 72
    65
 73
     4
 40
1.5
 49
0.45
 74
     0
 49
-0.5
 74
     0
 49
0.05
 74
     0
 49
-0.5
 74
     0
  0
ENDTAB
  0
TABLE
  2
LAYER
  5
2
330
0
100
AcDbSymbolTable
 70
     7
  0
LAYER
  5
10
330
2
100
AcDbSymbolTableRecord
100
AcDbLayerTableRecord
  2
0
 70
     0
 62
     7
  6
Continuous
370
    -3
390
F
347
46
348
0
  0
LAYER
  5
72
330
2
100
AcDbSymbolTableRecord
100
AcDbLayerTableRecord
  2
AM_6
 70
     0
 62
    -2
  6
Continuous
370
    35
390
F
347
46
348
0
  0
LAYER
  5
A8
330
2
100
AcDbSymbolTableRecord
100
AcDbLayerTableRecord
  2
AM_9
 70
     0
 62
     6
  6
Dashed
370
    25
390
F
347
46
348
0
  0
LAYER
  5
C7
330
2
100
AcDbSymbolTableRecord
100
AcDbLayerTableRecord
  2
AM_5
 70
     0
 62
     3
  6
Continuous
370
    25
390
F
347
46
348
0
  0
LAYER
  5
CD
330
2
100
AcDbSymbolTableRecord
100
AcDbLayerTableRecord
  2
AM_7
 70
     0
 62
     7
  6
Center
370
    25
390
F
347
46
348
0
  0
LAYER
  5
CF
330
2
100
AcDbSymbolTableRecord
100
AcDbLayerTableRecord
  2
AM_4
 70
     0
 62
     7
  6
Continuous
370
    50
390
F
347
46
348
0
  0
LAYER
  5
1EE
330
2
100
AcDbSymbolTableRecord
100
AcDbLayerTableRecord
  2
ConnectionPoints
 70
     0
 62
     7
  6
Continuous
370
    50
390
F
347
46
348
0
  0
ENDTAB
  0
TABLE
  2
STYLE
  5
3
330
0
100
AcDbSymbolTable
 70
     1
  0
STYLE
  5
11
330
3
100
AcDbSymbolTableRecord
100
AcDbTextStyleTableRecord
  2
Standard
 70
     0
 40
0.0
 41
1.0
 50
0.0
 71
     0
 42
0.2
  3
txt
  4

  0
ENDTAB
  0
TABLE
  2
VIEW
  5
6
330
0
100
AcDbSymbolTable
 70
     0
  0
ENDTAB
  0
TABLE
  2
UCS
  5
7
330
0
100
AcDbSymbolTable
 70
     0
  0
ENDTAB
  0
TABLE
  2
APPID
  5
9
330
0
100
AcDbSymbolTable
 70
     1
  0
APPID
  5
12
330
9
100
AcDbSymbolTableRecord
100
AcDbRegAppTableRecord
  2
ACAD
 70
     0
  0
ENDTAB
  0
TABLE
  2
DIMSTYLE
  5
A
330
0
100
AcDbSymbolTable
 70
     1
100
AcDbDimStyleTable
  0
DIMSTYLE
105
27
330
A
100
AcDbSymbolTableRecord
100
AcDbDimStyleTableRecord
  2
Standard
 70
     0
178
     0
340
11
  0
ENDTAB
  0
TABLE
  2
BLOCK_RECORD
  5
1
330
0
100
AcDbSymbolTable
 70
     6
  0
BLOCK_RECORD
  5
1F
330
1
100
AcDbSymbolTableRecord
100
AcDbBlockTableRecord
  2
*Model_Space
340
22
 70
     0
280
     1
281
     0
  0
BLOCK_RECORD
  5
1B
330
1
100
AcDbSymbolTableRecord
100
AcDbBlockTableRecord
  2
*Paper_Space
340
1E
 70
     0
280
     1
281
     0
  0
BLOCK_RECORD
  5
23
330
1
100
AcDbSymbolTableRecord
100
AcDbBlockTableRecord
  2
*Paper_Space0
340
26
 70
     0
280
     1
281
     0
  0
BLOCK_RECORD
  5
6E
330
1
100
AcDbSymbolTableRecord
100
AcDbBlockTableRecord
  2
1_070277_2
340
0
102
{BLKREFS
331
6F
102
}
 70
     0
280
     1
281
     0
  0
BLOCK_RECORD
  5
8E
330
1
100
AcDbSymbolTableRecord
100
AcDbBlockTableRecord
  2
2_1_3_4CS2i_0_in_070277_2
340
0
102
{BLKREFS
331
8F
102
}
 70
     0
280
     1
281
     0
  0
BLOCK_RECORD
  5
DC
330
1
100
AcDbSymbolTableRecord
100
AcDbBlockTableRecord
  2
3_070004i_0_in_070277_2
340
0
102
{BLKREFS
331
DD
102
}
 70
     0
280
     1
281
     0
  0
BLOCK_RECORD
  5
139
330
1
100
AcDbSymbolTableRecord
100
AcDbBlockTableRecord
  2
4_405015E_Inch_0_in_070277_2
340
0
102
{BLKREFS
331
13A
102
}
 70
     0
280
     1
281
     0
  0
BLOCK_RECORD
  5
197
330
1
100
AcDbSymbolTableRecord
100
AcDbBlockTableRecord
  2
5_070277H_0_in_070277_2
340
0
102
{BLKREFS
331
198
102
}
 70
     0
280
     1
281
     0
  0
ENDTAB
  0
ENDSEC
  0
SECTION
  2
BLOCKS
  0
BLOCK
  5
20
330
1F
100
AcDbEntity
  8
0
100
AcDbBlockBegin
  2
*Model_Space
 70
     0
 10
0.0
 20
0.0
 30
0.0
  3
*Model_Space
  1

  0
ENDBLK
  5
21
330
1F
100
AcDbEntity
  8
0
100
AcDbBlockEnd
  0
BLOCK
  5
1C
330
1B
100
AcDbEntity
 67
     1
  8
0
100
AcDbBlockBegin
  2
*Paper_Space
 70
     0
 10
0.0
 20
0.0
 30
0.0
  3
*Paper_Space
  1

  0
ENDBLK
  5
1D
330
1B
100
AcDbEntity
 67
     1
  8
0
100
AcDbBlockEnd
  0
BLOCK
  5
24
330
23
100
AcDbEntity
  8
0
100
AcDbBlockBegin
  2
*Paper_Space0
 70
     0
 10
0.0
 20
0.0
 30
0.0
  3
*Paper_Space0
  1

  0
ENDBLK
  5
25
330
23
100
AcDbEntity
  8
0
100
AcDbBlockEnd
  0
BLOCK
  5
70
330
6E
100
AcDbEntity
  8
0
100
AcDbBlockBegin
  2
1_070277_2
 70
     2
 10
0.0
 20
0.0
 30
0.0
  3
1_070277_2
  1

  0
ATTDEF
  5
73
330
6E
100
AcDbEntity
  8
AM_6
100
AcDbText
 10
6.163461538461538
 20
2.316536647740266
 30
0.0
 40
0.5
  1
S-2000 Pillow Block 2-Bolt Inch Bore (Contact Seal)
100
AcDbAttributeDefinition
  3

  2
NN
 70
     8
280
     0
  0
ATTDEF
  5
74
330
6E
100
AcDbEntity
  8
AM_6
100
AcDbText
 10
6.163461538461538
 20
1.816536647740266
 30
0.0
 40
0.5
  1
S-2000 Pillow Block Bearing -Inch (2-Bolt Base)
100
AcDbAttributeDefinition
  3

  2
NT
 70
     8
280
     0
  0
ATTDEF
  5
75
330
6E
100
AcDbEntity
  8
AM_6
100
AcDbText
 10
6.163461538461538
 20
1.316536647740266
 30
0.0
 40
0.5
  1
070277
100
AcDbAttributeDefinition
  3

  2
NB
 70
     8
280
     0
  0
ATTDEF
  5
76
330
6E
100
AcDbEntity
  8
AM_6
100
AcDbText
 10
6.163461538461538
 20
0.816536647740266
 30
0.0
 40
0.5
  1
$PN.
100
AcDbAttributeDefinition
  3

  2
NBSYN
 70
     8
280
     0
  0
ATTDEF
  5
77
330
6E
100
AcDbEntity
  8
AM_6
100
AcDbText
 10
6.163461538461538
 20
0.316536647740266
 30
0.0
 40
0.5
  1
070277
100
AcDbAttributeDefinition
  3

  2
LINA
 70
     8
280
     0
  0
ATTDEF
  5
78
330
6E
100
AcDbEntity
  8
AM_6
100
AcDbText
 10
6.163461538461538
 20
-0.183463352259734
 30
0.0
 40
0.5
  1
1-3/4
100
AcDbAttributeDefinition
  3

  2
SS
 70
     8
280
     0
  0
ATTDEF
  5
79
330
6E
100
AcDbEntity
  8
AM_6
100
AcDbText
 10
6.163461538461538
 20
-0.683463352259734
 30
0.0
 40
0.5
  1
070277
100
AcDbAttributeDefinition
  3

  2
PN
 70
     8
280
     0
  0
ATTDEF
  5
7A
330
6E
100
AcDbEntity
  8
AM_6
100
AcDbText
 10
6.163461538461538
 20
-1.183463352259734
 30
0.0
 40
0.5
  1
P2B-S2-112R
100
AcDbAttributeDefinition
  3

  2
DESCRIPTION
 70
     8
280
     0
  0
ATTDEF
  5
7B
330
6E
100
AcDbEntity
  8
AM_6
100
AcDbText
 10
6.163461538461538
 20
-1.683463352259734
 30
0.0
 40
0.5
  1
Non-Expansion Type
100
AcDbAttributeDefinition
  3

  2
EF
 70
     8
280
     0
  0
ATTDEF
  5
7C
330
6E
100
AcDbEntity
  8
AM_6
100
AcDbText
 10
6.163461538461538
 20
-2.183463352259734
 30
0.0
 40
0.5
  1
Contact Seal
100
AcDbAttributeDefinition
  3

  2
ST
 70
     8
280
     0
  0
ATTDEF
  5
7D
330
6E
100
AcDbEntity
  8
AM_6
100
AcDbText
 10
6.163461538461538
 20
-2.683463352259734
 30
0.0
 40
0.5
  1
2-43/64
100
AcDbAttributeDefinition
  3

  2
A
 70
     8
280
     0
  0
ATTDEF
  5
7E
330
6E
100
AcDbEntity
  8
AM_6
100
AcDbText
 10
6.163461538461538
 20
-3.183463352259734
 30
0.0
 40
0.5
  1
7-3/8
100
AcDbAttributeDefinition
  3

  2
B
 70
     8
280
     0
  0
ATTDEF
  5
7F
330
6E
100
AcDbEntity
  8
AM_6
100
AcDbText
 10
6.163461538461538
 20
-3.683463352259734
 30
0.0
 40
0.5
  1
2-1/16
100
AcDbAttributeDefinition
  3

  2
C
 70
     8
280
     0
  0
ATTDEF
  5
80
330
6E
100
AcDbEntity
  8
AM_6
100
AcDbText
 10
6.163461538461538
 20
-4.183463352259734
 30
0.0
 40
0.5
  1
5-5/16
100
AcDbAttributeDefinition
  3

  2
DMIN
 70
     8
280
     0
  0
ATTDEF
  5
81
330
6E
100
AcDbEntity
  8
AM_6
100
AcDbText
 10
6.163461538461538
 20
-4.683463352259734
 30
0.0
 40
0.5
  1
5-45/64
100
AcDbAttributeDefinition
  3

  2
DMAX
 70
     8
280
     0
  0
ATTDEF
  5
82
330
6E
100
AcDbEntity
  8
AM_6
100
AcDbText
 10
6.163461538461538
 20
-5.183463352259734
 30
0.0
 40
0.5
  1
1/2
100
AcDbAttributeDefinition
  3

  2
F
 70
     8
280
     0
  0
ATTDEF
  5
83
330
6E
100
AcDbEntity
  8
AM_6
100
AcDbText
 10
6.163461538461538
 20
-5.683463352259734
 30
0.0
 40
0.5
  1
13/16
100
AcDbAttributeDefinition
  3

  2
G
 70
     8
280
     0
  0
ATTDEF
  5
84
330
6E
100
AcDbEntity
  8
AM_6
100
AcDbText
 10
6.163461538461538
 20
-6.183463352259734
 30
0.0
 40
0.5
  1
1-1/4
100
AcDbAttributeDefinition
  3

  2
H
 70
     8
280
     0
  0
ATTDEF
  5
85
330
6E
100
AcDbEntity
  8
AM_6
100
AcDbText
 10
6.163461538461538
 20
-6.683463352259734
 30
0.0
 40
0.5
  1
4-17/64
100
AcDbAttributeDefinition
  3

  2
J
 70
     8
280
     0
  0
ATTDEF
  5
86
330
6E
100
AcDbEntity
  8
AM_6
100
AcDbText
 10
6.163461538461538
 20
-7.183463352259734
 30
0.0
 40
0.5
  1
3-3/16
100
AcDbAttributeDefinition
  3

  2
L
 70
     8
280
     0
  0
ATTDEF
  5
87
330
6E
100
AcDbEntity
  8
AM_6
100
AcDbText
 10
6.163461538461538
 20
-7.683463352259734
 30
0.0
 40
0.5
  1
2-1/8
100
AcDbAttributeDefinition
  3

  2
M
 70
     8
280
     0
  0
ATTDEF
  5
88
330
6E
100
AcDbEntity
  8
AM_6
100
AcDbText
 10
6.163461538461538
 20
-8.183463352259734
 30
0.0
 40
0.5
  1
13/16
100
AcDbAttributeDefinition
  3

  2
R
 70
     8
280
     0
  0
ATTDEF
  5
89
330
6E
100
AcDbEntity
  8
AM_6
100
AcDbText
 10
6.163461538461538
 20
-8.683463352259734
 30
0.0
 40
0.5
  1
1-55/64
100
AcDbAttributeDefinition
  3

  2
S
 70
     8
280
     0
  0
ATTDEF
  5
8A
330
6E
100
AcDbEntity
  8
AM_6
100
AcDbText
 10
6.163461538461538
 20
-9.183463352259734
 30
0.0
 40
0.5
  1
1/4
100
AcDbAttributeDefinition
  3

  2
X
 70
     8
280
     0
  0
ATTDEF
  5
8B
330
6E
100
AcDbEntity
  8
AM_6
100
AcDbText
 10
6.163461538461538
 20
-9.683463352259734
 30
0.0
 40
0.5
  1
0.020
100
AcDbAttributeDefinition
  3

  2
Y
 70
     8
280
     0
  0
ATTDEF
  5
8C
330
6E
100
AcDbEntity
  8
AM_6
100
AcDbText
 10
6.163461538461538
 20
-10.18346335225973
 30
0.0
 40
0.5
  1
2-5/64
100
AcDbAttributeDefinition
  3

  2
Z
 70
     8
280
     0
  0
ATTDEF
  5
8D
330
6E
100
AcDbEntity
  8
AM_6
100
AcDbText
 10
6.163461538461538
 20
-10.68346335225973
 30
0.0
 40
0.5
  1
baldor
100
AcDbAttributeDefinition
  3

  2
COMPANY
 70
     8
280
     0
  0
INSERT
  5
8F
330
6E
100
AcDbEntity
  8
0
100
AcDbBlockReference
  2
2_1_3_4CS2i_0_in_070277_2
 10
0.0
 20
0.0
 30
0.0
  0
INSERT
  5
DD
330
6E
100
AcDbEntity
  8
0
100
AcDbBlockReference
  2
3_070004i_0_in_070277_2
 10
0.0
 20
0.0
 30
0.0
  0
INSERT
  5
13A
330
6E
100
AcDbEntity
  8
0
100
AcDbBlockReference
  2
4_405015E_Inch_0_in_070277_2
 10
0.0
 20
0.0
 30
0.0
  0
INSERT
  5
198
330
6E
100
AcDbEntity
  8
0
100
AcDbBlockReference
  2
5_070277H_0_in_070277_2
 10
0.0
 20
0.0
 30
0.0
  0
ENDBLK
  5
71
330
6E
100
AcDbEntity
  8
0
100
AcDbBlockEnd
  0
BLOCK
  5
90
330
8E
100
AcDbEntity
  8
0
100
AcDbBlockBegin
  2
2_1_3_4CS2i_0_in_070277_2
 70
     2
 10
0.0
 20
0.0
 30
0.0
  3
2_1_3_4CS2i_0_in_070277_2
  1

  0
ATTDEF
  5
92
330
8E
100
AcDbEntity
  8
AM_6
100
AcDbText
 10
3.774625
 20
1.6169375
 30
0.0
 40
0.5
  1
S-2000 Collar -Inch
100
AcDbAttributeDefinition
  3

  2
NN
 70
     8
280
     0
  0
ATTDEF
  5
93
330
8E
100
AcDbEntity
  8
AM_6
100
AcDbText
 10
3.774625
 20
1.1169375
 30
0.0
 40
0.5
  1
S-2000 Bearings
100
AcDbAttributeDefinition
  3

  2
NT
 70
     8
280
     0
  0
ATTDEF
  5
94
330
8E
100
AcDbEntity
  8
AM_6
100
AcDbText
 10
3.774625
 20
0.6169374999999999
 30
0.0
 40
0.5
  1
1-3/4CS2i
100
AcDbAttributeDefinition
  3

  2
NB
 70
     8
280
     0
  0
ATTDEF
  5
95
330
8E
100
AcDbEntity
  8
AM_6
100
AcDbText
 10
3.774625
 20
0.1169374999999999
 30
0.0
 40
0.5
  1
$BORE.CS2i
100
AcDbAttributeDefinition
  3

  2
NBSYN
 70
     8
280
     0
  0
ATTDEF
  5
96
330
8E
100
AcDbEntity
  8
AM_6
100
AcDbText
 10
3.774625
 20
-0.3830625000000001
 30
0.0
 40
0.5
  1
1-3/4CS2i
100
AcDbAttributeDefinition
  3

  2
LINA
 70
     8
280
     0
  0
ATTDEF
  5
97
330
8E
100
AcDbEntity
  8
AM_6
100
AcDbText
 10
3.774625
 20
-0.8830625000000001
 30
0.0
 40
0.5
  1
1-3/4
100
AcDbAttributeDefinition
  3

  2
BORE
 70
     8
280
     0
  0
ATTDEF
  5
98
330
8E
100
AcDbEntity
  8
AM_6
100
AcDbText
 10
3.774625
 20
-1.3830625
 30
0.0
 40
0.5
  1
1.750000
100
AcDbAttributeDefinition
  3

  2
BORE1
 70
     8
280
     0
  0
ATTDEF
  5
99
330
8E
100
AcDbEntity
  8
AM_6
100
AcDbText
 10
3.774625
 20
-1.8830625
 30
0.0
 40
0.5
  1
3-3/16
100
AcDbAttributeDefinition
  3

  2
L1
 70
     8
280
     0
  0
ATTDEF
  5
9A
330
8E
100
AcDbEntity
  8
AM_6
100
AcDbText
 10
3.774625
 20
-2.3830625
 30
0.0
 40
0.5
  1
3.18750
100
AcDbAttributeDefinition
  3

  2
L
 70
     8
280
     0
  0
ATTDEF
  5
9B
330
8E
100
AcDbEntity
  8
AM_6
100
AcDbText
 10
3.774625
 20
-2.8830625
 30
0.0
 40
0.5
  1
3.09375
100
AcDbAttributeDefinition
  3

  2
L2
 70
     8
280
     0
  0
ATTDEF
  5
9C
330
8E
100
AcDbEntity
  8
AM_6
100
AcDbText
 10
3.774625
 20
-3.3830625
 30
0.0
 40
0.5
  1
3.50
100
AcDbAttributeDefinition
  3

  2
A
 70
     8
280
     0
  0
ATTDEF
  5
9D
330
8E
100
AcDbEntity
  8
AM_6
100
AcDbText
 10
3.774625
 20
-3.8830625
 30
0.0
 40
0.5
  1
1.62
100
AcDbAttributeDefinition
  3

  2
B
 70
     8
280
     0
  0
ATTDEF
  5
9E
330
8E
100
AcDbEntity
  8
AM_6
100
AcDbText
 10
3.774625
 20
-4.3830625
 30
0.0
 40
0.5
  1
2.31
100
AcDbAttributeDefinition
  3

  2
C
 70
     8
280
     0
  0
ATTDEF
  5
9F
330
8E
100
AcDbEntity
  8
AM_6
100
AcDbText
 10
3.774625
 20
-4.8830625
 30
0.0
 40
0.5
  1
3.50
100
AcDbAttributeDefinition
  3

  2
D
 70
     8
280
     0
  0
ATTDEF
  5
A0
330
8E
100
AcDbEntity
  8
AM_6
100
AcDbText
 10
3.774625
 20
-5.3830625
 30
0.0
 40
0.5
  1
0.41
100
AcDbAttributeDefinition
  3

  2
E
 70
     8
280
     0
  0
ATTDEF
  5
A1
330
8E
100
AcDbEntity
  8
AM_6
100
AcDbText
 10
3.774625
 20
-5.8830625
 30
0.0
 40
0.5
  1
0.317
100
AcDbAttributeDefinition
  3

  2
F
 70
     8
280
     0
  0
ATTDEF
  5
A2
330
8E
100
AcDbEntity
  8
AM_6
100
AcDbText
 10
3.774625
 20
-6.3830625
 30
0.0
 40
0.5
  1
3/8-16
100
AcDbAttributeDefinition
  3

  2
CS
 70
     8
280
     0
  0
ATTDEF
  5
A3
330
8E
100
AcDbEntity
  8
AM_6
100
AcDbText
 10
3.774625
 20
-6.8830625
 30
0.0
 40
0.5
  1
0.3750
100
AcDbAttributeDefinition
  3

  2
NDM
 70
     8
280
     0
  0
ATTDEF
  5
A4
330
8E
100
AcDbEntity
  8
AM_6
100
AcDbText
 10
3.774625
 20
-7.3830625
 30
0.0
 40
0.5
  1
0.3070
100
AcDbAttributeDefinition
  3

  2
KDM
 70
     8
280
     0
  0
ATTDEF
  5
A5
330
8E
100
AcDbEntity
  8
AM_6
100
AcDbText
 10
3.774625
 20
-7.8830625
 30
0.0
 40
0.5
  1
1
100
AcDbAttributeDefinition
  3

  2
DD
 70
     8
280
     0
  0
ATTDEF
  5
A6
330
8E
100
AcDbEntity
  8
AM_6
100
AcDbText
 10
3.774625
 20
-8.383062500000001
 30
0.0
 40
0.5
  1
baldor
100
AcDbAttributeDefinition
  3

  2
COMPANY
 70
     8
280
     0
  0
ELLIPSE
  5
A9
330
8E
100
AcDbEntity
  8
AM_9
100
AcDbEllipse
 10
-1.542375
 20
0.6592422264893176
 30
0.0
 11
0.1536499999999996
 21
0.0
 31
0.0
210
0.0
220
0.0
230
1.0
 40
0.9063077870366488
 41
5.638458659205863
 42
7.853981633974483
  0
LINE
  5
AA
330
8E
100
AcDbEntity
  8
AM_9
100
AcDbLine
 10
-1.388725
 20
0.4918642639269121
 30
0.0
 11
-1.388725
 21
0.6592422264893171
 31
0.0
  0
LINE
  5
AB
330
8E
100
AcDbEntity
  8
AM_9
100
AcDbLine
 10
-1.696025
 20
0.6537167266102905
 30
0.0
 11
-1.696025
 21
0.4918642639269121
 31
0.0
  0
LWPOLYLINE
  5
AC
330
8E
100
AcDbEntity
  8
AM_9
100
AcDbPolyline
 90
        5
 70
     0
 43
0.0
 10
-1.62102321590861
 20
0.5317248141623476
 10
-1.608914226919943
 20
0.525593112369665
 10
-1.584685712241371
 20
0.516895966391467
 10
-1.55925308327275
 20
0.5121322608127664
 10
-1.542375
 20
0.5112504494690071
  0
LWPOLYLINE
  5
AD
330
8E
100
AcDbEntity
  8
AM_9
100
AcDbPolyline
 90
        4
 70
     0
 43
0.0
 10
-1.667145199884273
 20
0.5713696318498114
 10
-1.651020976773056
 20
0.5536546351974918
 10
-1.631223421808836
 20
0.5379934539193827
 10
-1.62102321590861
 20
0.5317248141623476
  0
LWPOLYLINE
  5
AE
330
8E
100
AcDbEntity
  8
AM_9
100
AcDbPolyline
 90
        6
 70
     0
 43
0.0
 10
-1.696024999349988
 20
0.6537504326751359
 10
-1.695033534076903
 20
0.637902062926243
 10
-1.689960901088831
 20
0.6148017248731604
 10
-1.680771532813431
 20
0.5926384678869396
 10
-1.667646578952377
 20
0.5720464200818903
 10
-1.667145199884273
 20
0.5713696318498114
  0
ELLIPSE
  5
AF
330
8E
100
AcDbEntity
  8
AM_9
100
AcDbEllipse
 10
-1.542375
 20
0.6592422264893166
 30
0.0
 11
0.1536500000000016
 21
0.0
 31
0.0
210
0.0
220
0.0
230
1.0
 40
0.906307787036638
 41
4.71238898038469
 42
5.638458659205866
  0
ELLIPSE
  5
B0
330
8E
100
AcDbEntity
  8
AM_9
100
AcDbEllipse
 10
-1.542375000000863
 20
0.4918642639266766
 30
0.0
 11
0.1536499999991369
 21
2.289563417421832E-9
 31
0.0
210
0.0
220
0.0
230
1.0
 40
0.9063077870366368
 41
3.141592653589793
 42
3.171725309413422
  0
ELLIPSE
  5
B1
330
8E
100
AcDbEntity
  8
AM_9
100
AcDbEllipse
 10
-1.542375
 20
0.4918642639269118
 30
0.0
 11
0.1536500000000003
 21
0.0
 31
0.0
210
0.0
220
0.0
230
1.0
 40
0.9063077870366503
 41
3.171725325853888
 42
9.42477796076938
  0
LINE
  5
B2
330
8E
100
AcDbEntity
  8
AM_9
100
AcDbLine
 10
-1.388725
 20
1.5599
 30
0.0
 11
-1.354875
 21
1.59375
 31
0.0
  0
LINE
  5
B3
330
8E
100
AcDbEntity
  8
AM_9
100
AcDbLine
 10
-1.696025
 20
1.163849999999997
 30
0.0
 11
-1.70465377871529
 21
1.155221221284707
 31
0.0
  0
LINE
  5
B4
330
8E
100
AcDbEntity
  8
AM_9
100
AcDbLine
 10
-1.380123377273899
 20
1.155248377273897
 30
0.0
 11
-1.388725
 21
1.163849999999997
 31
0.0
  0
LINE
  5
B5
330
8E
100
AcDbEntity
  8
AM_9
100
AcDbLine
 10
-1.542375
 20
1.5599
 30
0.0
 11
-1.388725
 21
1.5599
 31
0.0
  0
LINE
  5
B6
330
8E
100
AcDbEntity
  8
AM_9
100
AcDbLine
 10
-1.388725
 20
1.163849999999997
 30
0.0
 11
-1.388725
 21
1.5599
 31
0.0
  0
LINE
  5
B7
330
8E
100
AcDbEntity
  8
AM_9
100
AcDbLine
 10
-1.696025
 20
1.546825496357723
 30
0.0
 11
-1.696025
 21
1.163849999999997
 31
0.0
  0
LINE
  5
B8
330
8E
100
AcDbEntity
  8
AM_9
100
AcDbLine
 10
-1.696025
 20
1.163849999999997
 30
0.0
 11
-1.388725
 21
1.163849999999997
 31
0.0
  0
LWPOLYLINE
  5
B9
330
8E
100
AcDbEntity
  8
AM_9
100
AcDbPolyline
 90
        6
 70
     0
 43
0.0
 10
-1.380143999822406
 20
0.4789676270945624
 10
-1.380593821511386
 20
0.4731469433425193
 10
-1.385940971943095
 20
0.4447555756102977
 10
-1.396350947194301
 20
0.4172813402254568
 10
-1.409174013814314
 20
0.3951699323106017
 10
-1.425363104473679
 20
0.3749511740468595
  0
LWPOLYLINE
  5
BA
330
8E
100
AcDbEntity
  8
AM_9
100
AcDbPolyline
 90
       12
 70
     0
 43
0.0
 10
-1.542375000000002
 20
0.6419222158764192
 10
-1.534016036554752
 20
0.6417246593686728
 10
-1.509275731524421
 20
0.6387784402379346
 10
-1.485453803751199
 20
0.6324516492732198
 10
-1.463010942857075
 20
0.62283533278113
 10
-1.442617928870743
 20
0.6103088687472107
 10
-1.423568821315147
 20
0.5940632681375132
 10
-1.407662017588642
 20
0.575315159520848
 10
-1.394337405824931
 20
0.5526986202749435
 10
-1.385233838042087
 20
0.5282330707675206
 10
-1.380430980551541
 20
0.501033232345342
 10
-1.380143999822406
 20
0.4789676270945624
  0
LWPOLYLINE
  5
BB
330
8E
100
AcDbEntity
  8
AM_9
100
AcDbPolyline
 90
       11
 70
     0
 43
0.0
 10
-1.704640959035961
 20
0.4795840273045521
 10
-1.704745400849552
 20
0.494053662896635
 10
-1.70113212012805
 20
0.5217762650915003
 10
-1.692323809723748
 20
0.548503943686375
 10
-1.678573885410673
 20
0.5732013706818088
 10
-1.660418662879092
 20
0.594810676745141
 10
-1.638146329989636
 20
0.6130976508702537
 10
-1.613732422602608
 20
0.6266999658807003
 10
-1.586798654001466
 20
0.636232091358426
 10
-1.56070081949939
 20
0.6409517262903567
 10
-1.542375000000002
 20
0.6419222158764192
  0
LWPOLYLINE
  5
BC
330
8E
100
AcDbEntity
  8
AM_9
100
AcDbPolyline
 90
       11
 70
     0
 43
0.0
 10
-1.542375
 20
0.3229269845085681
 10
-1.567719761521261
 20
0.3250347720234158
 10
-1.591751574143368
 20
0.3310729433067563
 10
-1.614461348440226
 20
0.3407257602526073
 10
-1.635939603107277
 20
0.3541113731768833
 10
-1.655004049811224
 20
0.3704285356413803
 10
-1.672435003272029
 20
0.3907330722035767
 10
-1.686347487909666
 20
0.4131782349156582
 10
-1.697080300166075
 20
0.4390069197056002
 10
-1.70328201089962
 20
0.4658214315193183
 10
-1.704640959035961
 20
0.4795840273045521
  0
LWPOLYLINE
  5
BD
330
8E
100
AcDbEntity
  8
AM_9
100
AcDbPolyline
 90
        7
 70
     0
 43
0.0
 10
-1.425363104473679
 20
0.3749511740468595
 10
-1.443313956474839
 20
0.3583253152627168
 10
-1.463671829177464
 20
0.3443637149507612
 10
-1.48895388862037
 20
0.3325059623806422
 10
-1.516051700585799
 20
0.3252016799316826
 10
-1.541878171450744
 20
0.3229489981591259
 10
-1.542375
 20
0.3229269845085681
  0
LWPOLYLINE
  5
BE
330
8E
100
AcDbEntity
  8
AM_9
100
AcDbPolyline
 90
        6
 70
     0
 43
0.0
 10
-1.422645700757612
 20
1.148881094757858
 10
-1.408072940871768
 20
1.150765710158773
 10
-1.396183271443683
 20
1.152457350815381
 10
-1.386265951590958
 20
1.153973136573392
 10
-1.380806658753938
 20
1.154847875369873
 10
-1.379875000000218
 20
1.154999999999964
  0
LINE
  5
BF
330
8E
100
AcDbEntity
  8
AM_9
100
AcDbLine
 10
-1.859375
 20
-1.155
 30
0.0
 11
-1.225375
 21
-1.155
 31
0.0
  0
LINE
  5
C0
330
8E
100
AcDbEntity
  8
AM_9
100
AcDbLine
 10
-1.225375
 20
1.155
 30
0.0
 11
-1.3804688934542
 21
1.155
 31
0.0
  0
LINE
  5
C1
330
8E
100
AcDbEntity
  8
AM_9
100
AcDbLine
 10
-1.704345803312184
 20
1.155
 30
0.0
 11
-1.859375
 21
1.155
 31
0.0
  0
LINE
  5
C2
330
8E
100
AcDbEntity
  8
AM_9
100
AcDbLine
 10
-1.699857371814701
 20
1.154190497149952
 30
0.0
 11
-1.704874999999332
 21
1.15499999999989
 31
0.0
  0
LINE
  5
C3
330
8E
100
AcDbEntity
  8
AM_9
100
AcDbLine
 10
-1.4115610926838
 20
1.150295599790768
 30
0.0
 11
-1.425552026733527
 21
1.148530298747724
 31
0.0
  0
LWPOLYLINE
  5
C4
330
8E
100
AcDbEntity
  8
AM_9
100
AcDbPolyline
 90
       16
 70
     0
 43
0.0
 10
-1.704874999999332
 20
1.15499999999989
 10
-1.703551650013289
 20
1.154784165914762
 10
-1.697379028025169
 20
1.153799554945779
 10
-1.685879583658788
 20
1.152063004354782
 10
-1.670110662291486
 20
1.149890649112372
 10
-1.649347829888135
 20
1.147403794282965
 10
-1.626492593857733
 20
1.14516424968663
 10
-1.599786069580451
 20
1.143217700631513
 10
-1.574166914499065
 20
1.142036975216339
 10
-1.546599615848441
 20
1.141523094931287
 10
-1.52175954202744
 20
1.141733887985623
 10
-1.496794242035971
 20
1.142588547708105
 10
-1.474007726441654
 20
1.14392829665691
 10
-1.452453384257335
 20
1.145683143243388
 10
-1.436818349544531
 20
1.147249785801068
 10
-1.422645700757612
 20
1.148881094757858
  0
LWPOLYLINE
  5
C5
330
8E
100
AcDbEntity
  8
AM_9
100
AcDbPolyline
 90
       11
 70
     0
 43
0.0
 10
-1.542375
 20
0.7897588324253696
 10
-1.56809672922563
 20
0.7878714959871064
 10
-1.59309170228294
 20
0.7823070966454886
 10
-1.616632803082138
 20
0.7731576928407307
 10
-1.638088621436604
 20
0.7606962126696026
 10
-1.656880596223206
 20
0.7451364004479248
 10
-1.672452168436838
 20
0.72694276944237
 10
-1.684336270949998
 20
0.7065026270562941
 10
-1.69220912810816
 20
0.6844212719100321
 10
-1.69577833814289
 20
0.6613588140886582
 10
-1.696024999349988
 20
0.6537504326751359
  0
LWPOLYLINE
  5
C6
330
8E
100
AcDbEntity
  8
AM_9
100
AcDbPolyline
 90
       20
 70
     0
 43
0.0
 10
-1.542375
 20
0.5084151382205258
 10
-1.518747918002793
 20
0.5097729414301795
 10
-1.49546476840654
 20
0.5138094777510452
 10
-1.464189533082157
 20
0.5238594445339233
 10
-1.43517909400446
 20
0.5387405382550887
 10
-1.40980890600323
 20
0.557739124631105
 10
-1.388361520263103
 20
0.5804747660497127
 10
-1.372326417442977
 20
0.6051213491435455
 10
-1.361219460294231
 20
0.6318067419830865
 10
-1.355760263356014
 20
0.6580995584128938
 10
-1.355323610984433
 20
0.6846405436479212
 10
-1.359754306305625
 20
0.7096982284748922
 10
-1.368708662700012
 20
0.7335614518546669
 10
-1.382040296806328
 20
0.755760259196697
 10
-1.399200130476645
 20
0.7756465920306239
 10
-1.420672976494898
 20
0.793476291756077
 10
-1.445116430863774
 20
0.8080353740971639
 10
-1.473392228803298
 20
0.8195366613142173
 10
-1.503450362996882
 20
0.8269597778690919
 10
-1.542375
 20
0.8302926905773779
  0
LINE
  5
C8
330
8E
100
AcDbEntity
  8
AM_5
100
AcDbLine
 10
-1.729875
 20
1.546874999999999
 30
0.0
 11
-1.729875
 21
1.155
 31
0.0
  0
LINE
  5
C9
330
8E
100
AcDbEntity
  8
AM_5
100
AcDbLine
 10
-1.636125
 20
1.13
 30
0.0
 11
-1.729875
 21
1.13
 31
0.0
  0
LINE
  5
CA
330
8E
100
AcDbEntity
  8
AM_5
100
AcDbLine
 10
-1.354875
 20
1.593749999999999
 30
0.0
 11
-1.354875
 21
1.155
 31
0.0
  0
LINE
  5
CB
330
8E
100
AcDbEntity
  8
AM_5
100
AcDbLine
 10
-1.448625
 20
1.13
 30
0.0
 11
-1.354875
 21
1.13
 31
0.0
  0
LINE
  5
CE
330
8E
100
AcDbEntity
  8
AM_7
100
AcDbLine
 10
-1.542375
 20
1.6169375
 30
0.0
 11
-1.542375
 21
-0.0592307692307692
 31
0.0
  0
LWPOLYLINE
  5
D0
330
8E
100
AcDbEntity
  8
AM_4
100
AcDbPolyline
 90
       11
 70
     0
 43
0.0
 10
-1.542375
 20
1.539225111257284
 10
-1.56773335114147
 20
1.539433983351548
 10
-1.593091702282939
 20
1.540060429663543
 10
-1.616318239925218
 20
1.541000177110839
 10
-1.638088621436604
 20
1.542198119715333
 10
-1.656645288070897
 20
1.543460929813517
 10
-1.672452168436838
 20
1.544711627739477
 10
-1.684207040756281
 20
1.545745862329928
 10
-1.692209128108159
 20
1.546500633388467
 10
-1.695773075558388
 20
1.546849996835509
 10
-1.696024999999937
 20
1.546874999999993
  0
LINE
  5
D1
330
8E
100
AcDbEntity
  8
AM_4
100
AcDbLine
 10
-1.753708333333333
 20
-1.546875
 30
0.0
 11
-1.542375
 21
-1.546875
 31
0.0
  0
LINE
  5
D2
330
8E
100
AcDbEntity
  8
AM_4
100
AcDbLine
 10
-1.695525030724261
 20
1.546875
 30
0.0
 11
-1.753708333333333
 21
1.546875
 31
0.0
  0
LINE
  5
D3
330
8E
100
AcDbEntity
  8
AM_4
100
AcDbLine
 10
-1.859375
 20
1.441208333333333
 30
0.0
 11
-1.859375
 21
-1.441208333333333
 31
0.0
  0
ARC
  5
D4
330
8E
100
AcDbEntity
  8
AM_4
100
AcDbCircle
 10
-1.753708333333334
 20
-1.441208333333334
 30
0.0
 40
0.1056666666666657
100
AcDbArc
 50
180.0
 51
270.0
  0
ARC
  5
D5
330
8E
100
AcDbEntity
  8
AM_4
100
AcDbCircle
 10
-1.753708333333334
 20
1.441208333333334
 30
0.0
 40
0.1056666666666655
100
AcDbArc
 50
90.0
 51
180.0
  0
LINE
  5
D6
330
8E
100
AcDbEntity
  8
AM_4
100
AcDbLine
 10
-1.753708333333333
 20
1.546874999999999
 30
0.0
 11
-1.753708333333333
 21
-1.546874999999999
 31
0.0
  0
LINE
  5
D7
330
8E
100
AcDbEntity
  8
AM_4
100
AcDbLine
 10
-1.542375
 20
1.583826291940122
 30
0.0
 11
-1.542375
 21
-1.59375
 31
0.0
  0
LINE
  5
D8
330
8E
100
AcDbEntity
  8
AM_4
100
AcDbLine
 10
-1.542375
 20
-1.59375
 30
0.0
 11
-1.225375
 21
-1.59375
 31
0.0
  0
LINE
  5
D9
330
8E
100
AcDbEntity
  8
AM_4
100
AcDbLine
 10
-1.225375
 20
1.59375
 30
0.0
 11
-1.354875
 21
1.59375
 31
0.0
  0
LWPOLYLINE
  5
DA
330
8E
100
AcDbEntity
  8
AM_4
100
AcDbPolyline
 90
       11
 70
     0
 43
0.0
 10
-1.354875000000036
 20
1.593749999999996
 10
-1.355323610984433
 20
1.593702833033883
 10
-1.359642451963367
 20
1.593254405019843
 10
-1.368708662700012
 20
1.59234643697765
 10
-1.381827205658949
 20
1.591112929399318
 10
-1.399200130476645
 20
1.589626149044103
 10
-1.420367944642961
 20
1.588041734163982
 10
-1.445116430863775
 20
1.586507352246304
 10
-1.47299962812713
 20
1.585191458231039
 10
-1.503450362996882
 20
1.584256278135053
 10
-1.542375
 20
1.583826291940122
  0
LINE
  5
DB
330
8E
100
AcDbEntity
  8
AM_4
100
AcDbLine
 10
-1.225375
 20
1.59375
 30
0.0
 11
-1.225375
 21
-1.59375
 31
0.0
  0
ENDBLK
  5
91
330
8E
100
AcDbEntity
  8
0
100
AcDbBlockEnd
  0
BLOCK
  5
DE
330
DC
100
AcDbEntity
  8
0
100
AcDbBlockBegin
  2
3_070004i_0_in_070277_2
 70
     2
 10
0.0
 20
0.0
 30
0.0
  3
3_070004i_0_in_070277_2
  1

  0
ATTDEF
  5
E0
330
DC
100
AcDbEntity
  8
AM_6
100
AcDbText
 10
5.796875
 20
1.67325
 30
0.0
 40
0.5
  1
S-2000 Insert -Inch
100
AcDbAttributeDefinition
  3

  2
NN
 70
     8
280
     0
  0
ATTDEF
  5
E1
330
DC
100
AcDbEntity
  8
AM_6
100
AcDbText
 10
5.796875
 20
1.17325
 30
0.0
 40
0.5
  1
S-2000 Bearings
100
AcDbAttributeDefinition
  3

  2
NT
 70
     8
280
     0
  0
ATTDEF
  5
E2
330
DC
100
AcDbEntity
  8
AM_6
100
AcDbText
 10
5.796875
 20
0.6732499999999999
 30
0.0
 40
0.5
  1
070004i
100
AcDbAttributeDefinition
  3

  2
NB
 70
     8
280
     0
  0
ATTDEF
  5
E3
330
DC
100
AcDbEntity
  8
AM_6
100
AcDbText
 10
5.796875
 20
0.1732499999999999
 30
0.0
 40
0.5
  1
$PN.i
100
AcDbAttributeDefinition
  3

  2
NBSYN
 70
     8
280
     0
  0
ATTDEF
  5
E4
330
DC
100
AcDbEntity
  8
AM_6
100
AcDbText
 10
5.796875
 20
-0.3267500000000001
 30
0.0
 40
0.5
  1
070004i
100
AcDbAttributeDefinition
  3

  2
LINA
 70
     8
280
     0
  0
ATTDEF
  5
E5
330
DC
100
AcDbEntity
  8
AM_6
100
AcDbText
 10
5.796875
 20
-0.8267500000000001
 30
0.0
 40
0.5
  1
1-3/4
100
AcDbAttributeDefinition
  3

  2
SS
 70
     8
280
     0
  0
ATTDEF
  5
E6
330
DC
100
AcDbEntity
  8
AM_6
100
AcDbText
 10
5.796875
 20
-1.32675
 30
0.0
 40
0.5
  1
2.31
100
AcDbAttributeDefinition
  3

  2
CC
 70
     8
280
     0
  0
ATTDEF
  5
E7
330
DC
100
AcDbEntity
  8
AM_6
100
AcDbText
 10
5.796875
 20
-1.82675
 30
0.0
 40
0.5
  1
1.750000
100
AcDbAttributeDefinition
  3

  2
SS1
 70
     8
280
     0
  0
ATTDEF
  5
E8
330
DC
100
AcDbEntity
  8
AM_6
100
AcDbText
 10
5.796875
 20
-2.32675
 30
0.0
 40
0.5
  1
070004
100
AcDbAttributeDefinition
  3

  2
PN
 70
     8
280
     0
  0
ATTDEF
  5
E9
330
DC
100
AcDbEntity
  8
AM_6
100
AcDbText
 10
5.796875
 20
-2.82675
 30
0.0
 40
0.5
  1
INS-S2-112R
100
AcDbAttributeDefinition
  3

  2
DESCRIPTION
 70
     8
280
     0
  0
ATTDEF
  5
EA
330
DC
100
AcDbEntity
  8
AM_6
100
AcDbText
 10
5.796875
 20
-3.32675
 30
0.0
 40
0.5
  1
Contact Seal
100
AcDbAttributeDefinition
  3

  2
ST
 70
     8
280
     0
  0
ATTDEF
  5
EB
330
DC
100
AcDbEntity
  8
AM_6
100
AcDbText
 10
5.796875
 20
-3.82675
 30
0.0
 40
0.5
  1
1
100
AcDbAttributeDefinition
  3

  2
ST1
 70
     8
280
     0
  0
ATTDEF
  5
EC
330
DC
100
AcDbEntity
  8
AM_6
100
AcDbText
 10
5.796875
 20
-4.326750000000001
 30
0.0
 40
0.5
  1
3.3465
100
AcDbAttributeDefinition
  3

  2
A
 70
     8
280
     0
  0
ATTDEF
  5
ED
330
DC
100
AcDbEntity
  8
AM_6
100
AcDbText
 10
5.796875
 20
-4.826750000000001
 30
0.0
 40
0.5
  1
61/64
100
AcDbAttributeDefinition
  3

  2
B
 70
     8
280
     0
  0
ATTDEF
  5
EE
330
DC
100
AcDbEntity
  8
AM_6
100
AcDbText
 10
5.796875
 20
-5.326750000000001
 30
0.0
 40
0.5
  1
2-21/32
100
AcDbAttributeDefinition
  3

  2
C
 70
     8
280
     0
  0
ATTDEF
  5
EF
330
DC
100
AcDbEntity
  8
AM_6
100
AcDbText
 10
5.796875
 20
-5.826750000000001
 30
0.0
 40
0.5
  1
0.954
100
AcDbAttributeDefinition
  3

  2
D
 70
     8
280
     0
  0
ATTDEF
  5
F0
330
DC
100
AcDbEntity
  8
AM_6
100
AcDbText
 10
5.796875
 20
-6.326750000000001
 30
0.0
 40
0.5
  1
3-3/32
100
AcDbAttributeDefinition
  3

  2
E
 70
     8
280
     0
  0
ATTDEF
  5
F1
330
DC
100
AcDbEntity
  8
AM_6
100
AcDbText
 10
5.796875
 20
-6.826750000000001
 30
0.0
 40
0.5
  1
0.43750
100
AcDbAttributeDefinition
  3

  2
F
 70
     8
280
     0
  0
ATTDEF
  5
F2
330
DC
100
AcDbEntity
  8
AM_6
100
AcDbText
 10
5.796875
 20
-7.326750000000001
 30
0.0
 40
0.5
  1
1
100
AcDbAttributeDefinition
  3

  2
DD
 70
     8
280
     0
  0
ATTDEF
  5
F3
330
DC
100
AcDbEntity
  8
AM_6
100
AcDbText
 10
5.796875
 20
-7.826750000000001
 30
0.0
 40
0.5
  1
baldor
100
AcDbAttributeDefinition
  3

  2
COMPANY
 70
     8
280
     0
  0
LINE
  5
F4
330
DC
100
AcDbEntity
  8
AM_9
100
AcDbLine
 10
-1.747375
 20
0.4880725092054526
 30
0.0
 11
-1.747375
 21
0.3697471187285267
 31
0.0
  0
LINE
  5
F5
330
DC
100
AcDbEntity
  8
AM_9
100
AcDbLine
 10
-1.337375
 20
0.3697209106717951
 30
0.0
 11
-1.337375
 21
0.4881076412112375
 31
0.0
  0
LWPOLYLINE
  5
F6
330
DC
100
AcDbEntity
  8
AM_9
100
AcDbPolyline
 90
       12
 70
     0
 43
0.0
 10
-1.542375
 20
0.173705781006791
 10
-1.549506175064668
 20
0.1738548595514567
 10
-1.583351616006929
 20
0.1778720983538086
 10
-1.615556533153509
 20
0.1872965414779834
 10
-1.645753817250371
 20
0.2017048904037728
 10
-1.673577826845427
 20
0.221015658273601
 10
-1.697800372334274
 20
0.2443033358959804
 10
-1.718121559178011
 20
0.2714774102543644
 10
-1.733453244620993
 20
0.3011572258329725
 10
-1.743205910443485
 20
0.3322031451355213
 10
-1.747269726283833
 20
0.3638270649538012
 10
-1.747374998743439
 20
0.3697704077041852
  0
LWPOLYLINE
  5
F7
330
DC
100
AcDbEntity
  8
AM_9
100
AcDbPolyline
 90
       11
 70
     0
 43
0.0
 10
-1.337375000404329
 20
0.3698026480203028
 10
-1.338460243870969
 20
0.3505916030561615
 10
-1.344674946916135
 20
0.3200073294006439
 10
-1.35615644024101
 20
0.2903249984603645
 10
-1.37278604759553
 20
0.2622210313678842
 10
-1.393961703523211
 20
0.236763014680598
 10
-1.419826651611344
 20
0.2142932720243773
 10
-1.449183645768286
 20
0.196163916598175
 10
-1.481412173249019
 20
0.1830582059338863
 10
-1.515454855212846
 20
0.175494664957523
 10
-1.542375
 20
0.173705781006791
  0
LWPOLYLINE
  5
F8
330
DC
100
AcDbEntity
  8
AM_9
100
AcDbPolyline
 90
       11
 70
     0
 43
0.0
 10
-1.747374998743439
 20
0.3697704077041852
 10
-1.745533574870382
 20
0.3943128015201943
 10
-1.738301574539399
 20
0.4235744625715087
 10
-1.725789969582889
 20
0.4507079758256167
 10
-1.708415722800625
 20
0.4752496364958275
 10
-1.686080056527176
 20
0.4970706208550817
 10
-1.659761850912133
 20
0.515222966479076
 10
-1.629616101982319
 20
0.5294955114769464
 10
-1.596899555685125
 20
0.5393375203187278
 10
-1.569897712911754
 20
0.5437913697525997
 10
-1.542375
 20
0.5452919736918176
  0
LWPOLYLINE
  5
F9
330
DC
100
AcDbEntity
  8
AM_9
100
AcDbPolyline
 90
        4
 70
     0
 43
0.0
 10
-1.348349073097868
 20
0.4273486893464915
 10
-1.340816907098632
 20
0.4540719850384658
 10
-1.337394874684364
 20
0.485535537214344
 10
-1.337375000576729
 20
0.4881101557715591
  0
LWPOLYLINE
  5
FA
330
DC
100
AcDbEntity
  8
AM_9
100
AcDbPolyline
 90
       10
 70
     0
 43
0.0
 10
-1.542375
 20
0.2945809289154055
 10
-1.532779582061244
 20
0.2948240869715161
 10
-1.498812555419073
 20
0.2991768908283282
 10
-1.466335575943977
 20
0.3089297927979094
 10
-1.435967745364522
 20
0.3236699157196555
 10
-1.408293559939227
 20
0.3431859475189812
 10
-1.384344404785717
 20
0.3666481447704777
 10
-1.364620335435469
 20
0.3936983893967251
 10
-1.349930624917102
 20
0.4231877156710325
 10
-1.348349073097868
 20
0.4273486893464915
  0
LWPOLYLINE
  5
FB
330
DC
100
AcDbEntity
  8
AM_9
100
AcDbPolyline
 90
        9
 70
     0
 43
0.0
 10
-1.736695066213096
 20
0.4281570179264151
 10
-1.727795443226722
 20
0.4074837453702558
 10
-1.710711514271011
 20
0.3796100978286911
 10
-1.689014899355452
 20
0.3545227402605505
 10
-1.662856352391879
 20
0.3327693832822598
 10
-1.633275303144283
 20
0.3153783686275087
 10
-1.60100000327932
 20
0.3030020108582966
 10
-1.567020425831918
 20
0.2960413747677834
 10
-1.542375
 20
0.2945809289154055
  0
LWPOLYLINE
  5
FC
330
DC
100
AcDbEntity
  8
AM_9
100
AcDbPolyline
 90
        4
 70
     0
 43
0.0
 10
-1.747374999363773
 20
0.4881387299977162
 10
-1.746169998115517
 20
0.4679188545951775
 10
-1.739673212665202
 20
0.4371744941705608
 10
-1.736695066213096
 20
0.4281570179264151
  0
LWPOLYLINE
  5
FD
330
DC
100
AcDbEntity
  8
AM_9
100
AcDbPolyline
 90
       11
 70
     0
 43
0.0
 10
-1.337375000576729
 20
0.4881101557715591
 10
-1.339782761293979
 20
0.5162123387929747
 10
-1.347738953789169
 20
0.5456929045843854
 10
-1.361077571434621
 20
0.5731313362391618
 10
-1.379351360126783
 20
0.597935619579298
 10
-1.402441196985514
 20
0.6197528055456032
 10
-1.429448889191245
 20
0.6378014968234395
 10
-1.459935959345697
 20
0.6517252120896531
 10
-1.492810264890734
 20
0.6611113656534129
 10
-1.517401989680055
 20
0.6648947039647004
 10
-1.542375
 20
0.6661671216004321
  0
LINE
  5
FE
330
DC
100
AcDbEntity
  8
AM_9
100
AcDbLine
 10
-1.747375
 20
1.155
 30
0.0
 11
-1.747375
 21
0.8750000000000001
 31
0.0
  0
LINE
  5
FF
330
DC
100
AcDbEntity
  8
AM_9
100
AcDbLine
 10
-1.337375
 20
0.8750000000000001
 30
0.0
 11
-1.337375
 21
1.155
 31
0.0
  0
LWPOLYLINE
  5
100
330
DC
100
AcDbEntity
  8
AM_9
100
AcDbPolyline
 90
       11
 70
     0
 43
0.0
 10
-1.542375
 20
0.8506468127254695
 10
-1.508978571472026
 20
0.8513021328755287
 10
-1.475582142944052
 20
0.8532650735578577
 10
-1.445012651122677
 20
0.8562005763715124
 10
-1.416337824048849
 20
0.859933351906845
 10
-1.391446291057514
 20
0.8639325640251362
 10
-1.370139809448745
 20
0.8679083827595095
 10
-1.354008956557062
 20
0.8712529864065588
 10
-1.34289554827736
 20
0.8737230978173607
 10
-1.337840137946529
 20
0.8748911416829138
 10
-1.337375000001169
 20
0.8749999999997262
  0
LWPOLYLINE
  5
101
330
DC
100
AcDbEntity
  8
AM_9
100
AcDbPolyline
 90
       11
 70
     0
 43
0.0
 10
-1.542375
 20
0.5452919736918176
 10
-1.508494444254735
 20
0.5430066393549253
 10
-1.475582142944052
 20
0.5362601834206665
 10
-1.444610507777246
 20
0.5251529286594431
 10
-1.416337824048849
 20
0.5099531612419428
 10
-1.391134995897258
 20
0.490535056734773
 10
-1.370139809448745
 20
0.4675533463901925
 10
-1.353824269584921
 20
0.4410935900979379
 10
-1.34289554827736
 20
0.4120780800451842
 10
-1.337828454993401
 20
0.3817876091901877
 10
-1.337375000404329
 20
0.3698026480203028
  0
LINE
  5
102
330
DC
100
AcDbEntity
  8
AM_9
100
AcDbLine
 10
0.7968749999999997
 20
0.8750000000000001
 30
0.0
 11
-1.337375
 21
0.8750000000000001
 31
0.0
  0
LINE
  5
103
330
DC
100
AcDbEntity
  8
AM_9
100
AcDbLine
 10
-1.747375
 20
0.8750000000000001
 30
0.0
 11
-1.859375
 21
0.8750000000000001
 31
0.0
  0
LINE
  5
104
330
DC
100
AcDbEntity
  8
AM_9
100
AcDbLine
 10
-1.859375
 20
-0.8750000000000001
 30
0.0
 11
-1.03125
 21
-0.8750000000000001
 31
0.0
  0
LINE
  5
105
330
DC
100
AcDbEntity
  8
AM_9
100
AcDbLine
 10
-1.74187523121659
 20
0.8737278422114482
 30
0.0
 11
-1.747374999996698
 21
0.8749999999992264
 31
0.0
  0
LINE
  5
106
330
DC
100
AcDbEntity
  8
AM_9
100
AcDbLine
 10
-1.528706251356977
 20
0.8507566248284326
 30
0.0
 11
-1.54609147085048
 21
0.8506549313062157
 31
0.0
  0
LWPOLYLINE
  5
107
330
DC
100
AcDbEntity
  8
AM_9
100
AcDbPolyline
 90
       11
 70
     0
 43
0.0
 10
-1.747374999996698
 20
0.8749999999992264
 10
-1.745618695190083
 20
0.874590189537088
 10
-1.738301574539399
 20
0.8729187949693504
 10
-1.72601139619391
 20
0.8702426822485132
 10
-1.708415722800626
 20
0.8667003643867667
 10
-1.686431858885328
 20
0.8627585865072034
 10
-1.659761850912133
 20
0.8587081417845457
 10
-1.630092541207085
 20
0.8551575100736803
 10
-1.596899555685125
 20
0.8523924724988253
 10
-1.570160795144082
 20
0.8511004937207998
 10
-1.542375
 20
0.8506468127254695
  0
LWPOLYLINE
  5
108
330
DC
100
AcDbEntity
  8
AM_9
100
AcDbPolyline
 90
       11
 70
     0
 43
0.0
 10
-1.542375
 20
1.136661779070626
 10
-1.575999001126033
 20
1.137158992160605
 10
-1.609623002252065
 20
1.13864932872544
 10
-1.640411334280951
 20
1.140881730434512
 10
-1.669280193923415
 20
1.1437241486673
 10
-1.694104194740477
 20
1.146743976891352
 10
-1.715299449120014
 20
1.149740346818994
 10
-1.731196069430812
 20
1.15223842856459
 10
-1.742080549264894
 20
1.154072054252763
 10
-1.746979431485292
 20
1.154929856477622
 10
-1.747374999999383
 20
1.154999999999891
  0
LWPOLYLINE
  5
109
330
DC
100
AcDbEntity
  8
AM_9
100
AcDbPolyline
 90
       11
 70
     0
 43
0.0
 10
-1.542375
 20
0.6661671216004321
 10
-1.57648343538501
 20
0.6637774144538403
 10
-1.609623002252065
 20
0.6567260809097475
 10
-1.640822523479572
 20
0.6451211240031777
 10
-1.669280193923415
 20
0.6292716526535127
 10
-1.69441695531181
 20
0.6092504519323207
 10
-1.715299449120014
 20
0.5856862682312746
 10
-1.73137430775001
 20
0.5588790456255526
 10
-1.742080549264894
 20
0.5296842227210452
 10
-1.746988652474625
 20
0.4991717065309168
 10
-1.747374999363773
 20
0.4881387299977162
  0
LINE
  5
10A
330
DC
100
AcDbEntity
  8
AM_9
100
AcDbLine
 10
-1.225375
 20
1.155
 30
0.0
 11
-1.337375
 21
1.155
 31
0.0
  0
LINE
  5
10B
330
DC
100
AcDbEntity
  8
AM_9
100
AcDbLine
 10
-0.7878750000000001
 20
1.155
 30
0.0
 11
-0.8249999999999998
 21
1.155
 31
0.0
  0
LINE
  5
10C
330
DC
100
AcDbEntity
  8
AM_9
100
AcDbLine
 10
-1.747375
 20
1.155
 30
0.0
 11
-1.859375
 21
1.155
 31
0.0
  0
LINE
  5
10D
330
DC
100
AcDbEntity
  8
AM_9
100
AcDbLine
 10
-1.03125
 20
-1.155
 30
0.0
 11
-0.7878750000000001
 21
-1.155
 31
0.0
  0
LINE
  5
10E
330
DC
100
AcDbEntity
  8
AM_9
100
AcDbLine
 10
-1.859375
 20
-1.155
 30
0.0
 11
-1.225375
 21
-1.155
 31
0.0
  0
LINE
  5
10F
330
DC
100
AcDbEntity
  8
AM_9
100
AcDbLine
 10
-1.342770680631504
 20
1.154054541306675
 30
0.0
 11
-1.337375000000512
 21
1.154999999999909
 31
0.0
  0
LINE
  5
110
330
DC
100
AcDbEntity
  8
AM_9
100
AcDbLine
 10
-1.554822183144444
 20
1.136729929388778
 30
0.0
 11
-1.536859740588999
 21
1.136675159439306
 31
0.0
  0
LWPOLYLINE
  5
111
330
DC
100
AcDbEntity
  8
AM_9
100
AcDbPolyline
 90
       11
 70
     0
 43
0.0
 10
-1.337375000000512
 20
1.154999999999909
 10
-1.339688289603336
 20
1.154591660532598
 10
-1.347738953789169
 20
1.153205615007395
 10
-1.360839750620486
 20
1.151066916719998
 10
-1.379351360126783
 20
1.148292953543438
 10
-1.402073368403657
 20
1.14528797593819
 10
-1.429448889191245
 20
1.14225754823612
 10
-1.459461840693594
 20
1.139681794180362
 10
-1.492810264890734
 20
1.13774191404134
 10
-1.517209828794659
 20
1.136940317625246
 10
-1.542375
 20
1.136661779070626
  0
LINE
  5
112
330
DC
100
AcDbEntity
  8
AM_9
100
AcDbLine
 10
0.7968749999999997
 20
1.155
 30
0.0
 11
0.4736250000000001
 21
1.155
 31
0.0
  0
LINE
  5
113
330
DC
100
AcDbEntity
  8
AM_9
100
AcDbLine
 10
0.4736250000000001
 20
-1.155
 30
0.0
 11
0.7968749999999997
 21
-1.155
 31
0.0
  0
LINE
  5
114
330
DC
100
AcDbEntity
  8
AM_9
100
AcDbLine
 10
0.7968749999999997
 20
-1.155
 30
0.0
 11
0.7968749999999997
 21
1.155
 31
0.0
  0
LINE
  5
115
330
DC
100
AcDbEntity
  8
AM_9
100
AcDbLine
 10
-0.7878750000000001
 20
-1.2432875
 30
0.0
 11
-0.7878750000000001
 21
1.2432875
 31
0.0
  0
ARC
  5
116
330
DC
100
AcDbEntity
  8
AM_9
100
AcDbCircle
 10
-0.6925625000000006
 20
1.243287500000001
 30
0.0
 40
0.0953124999999995
100
AcDbArc
 50
90.0
 51
179.9999991462263
  0
ARC
  5
117
330
DC
100
AcDbEntity
  8
AM_9
100
AcDbCircle
 10
-0.6925625000000003
 20
-1.2432875
 30
0.0
 40
0.0953124999999998
100
AcDbArc
 50
180.0
 51
270.0
  0
LINE
  5
118
330
DC
100
AcDbEntity
  8
AM_9
100
AcDbLine
 10
0.3783125000000002
 20
1.3386
 30
0.0
 11
0.3194375000000002
 21
1.3386
 31
0.0
  0
LINE
  5
119
330
DC
100
AcDbEntity
  8
AM_9
100
AcDbLine
 10
0.3194375000000002
 20
-1.3386
 30
0.0
 11
0.3783125000000002
 21
-1.3386
 31
0.0
  0
LINE
  5
11A
330
DC
100
AcDbEntity
  8
AM_9
100
AcDbLine
 10
-0.6336874999999998
 20
1.3386
 30
0.0
 11
-0.6925625000000002
 21
1.3386
 31
0.0
  0
LINE
  5
11B
330
DC
100
AcDbEntity
  8
AM_9
100
AcDbLine
 10
-0.6925625000000002
 20
-1.3386
 30
0.0
 11
-0.6336874999999998
 21
-1.3386
 31
0.0
  0
LINE
  5
11C
330
DC
100
AcDbEntity
  8
AM_9
100
AcDbLine
 10
-0.6925625000000002
 20
-1.3386
 30
0.0
 11
-0.6925625000000002
 21
1.3386
 31
0.0
  0
LINE
  5
11D
330
DC
100
AcDbEntity
  8
AM_9
100
AcDbLine
 10
0.4736250000000001
 20
-1.2432875
 30
0.0
 11
0.4736250000000001
 21
1.2432875
 31
0.0
  0
ARC
  5
11E
330
DC
100
AcDbEntity
  8
AM_9
100
AcDbCircle
 10
0.3783124999999994
 20
1.243287499999999
 30
0.0
 40
0.0953125000000007
100
AcDbArc
 50
0.0000008537736463
 51
90.0
  0
ARC
  5
11F
330
DC
100
AcDbEntity
  8
AM_9
100
AcDbCircle
 10
0.3783124999999993
 20
-1.243287499999999
 30
0.0
 40
0.0953125000000008
100
AcDbArc
 50
270.0
 51
0.0
  0
LINE
  5
120
330
DC
100
AcDbEntity
  8
AM_9
100
AcDbLine
 10
0.3783125000000002
 20
-1.3386
 30
0.0
 11
0.3783125000000002
 21
1.3386
 31
0.0
  0
LINE
  5
121
330
DC
100
AcDbEntity
  8
AM_9
100
AcDbLine
 10
-0.1094687499999981
 20
1.60632
 30
0.0
 11
-0.2047812500000018
 21
1.60632
 31
0.0
  0
LINE
  5
122
330
DC
100
AcDbEntity
  8
AM_9
100
AcDbLine
 10
-0.2047812500000018
 20
-1.60632
 30
0.0
 11
-0.1094687499999981
 21
-1.60632
 31
0.0
  0
LINE
  5
123
330
DC
100
AcDbEntity
  8
AM_9
100
AcDbLine
 10
0.3194375000000002
 20
-1.577937501420267
 30
0.0
 11
0.3194375000000002
 21
1.577937501420267
 31
0.0
  0
ARC
  5
124
330
DC
100
AcDbEntity
  8
AM_9
100
AcDbCircle
 10
0.2241249999999998
 20
1.5779375
 30
0.0
 40
0.0953125000000003
100
AcDbArc
 50
0.0
 51
90.0
  0
ARC
  5
125
330
DC
100
AcDbEntity
  8
AM_9
100
AcDbCircle
 10
0.2241249999999998
 20
-1.5779375
 30
0.0
 40
0.0953125000000004
100
AcDbArc
 50
270.0
 51
0.0
  0
LINE
  5
126
330
DC
100
AcDbEntity
  8
AM_9
100
AcDbLine
 10
-0.2434233035168635
 20
1.67325
 30
0.0
 11
-0.5383749999999999
 21
1.67325
 31
0.0
  0
LINE
  5
127
330
DC
100
AcDbEntity
  8
AM_9
100
AcDbLine
 10
-0.5383749999999999
 20
-1.67325
 30
0.0
 11
-0.2434233035168635
 21
-1.67325
 31
0.0
  0
LINE
  5
128
330
DC
100
AcDbEntity
  8
AM_9
100
AcDbLine
 10
-0.1094687499999981
 20
-1.60632
 30
0.0
 11
-0.0708266964831365
 21
-1.67325
 31
0.0
  0
LINE
  5
129
330
DC
100
AcDbEntity
  8
AM_9
100
AcDbLine
 10
-0.0708266964831365
 20
1.67325
 30
0.0
 11
-0.1094687499999981
 21
1.60632
 31
0.0
  0
LINE
  5
12A
330
DC
100
AcDbEntity
  8
AM_9
100
AcDbLine
 10
-0.1094687499999981
 20
-1.60632
 30
0.0
 11
-0.1094687499999981
 21
1.60632
 31
0.0
  0
LINE
  5
12B
330
DC
100
AcDbEntity
  8
AM_9
100
AcDbLine
 10
-0.6336874999999998
 20
-1.5779375
 30
0.0
 11
-0.6336874999999998
 21
1.5779375
 31
0.0
  0
ARC
  5
12C
330
DC
100
AcDbEntity
  8
AM_9
100
AcDbCircle
 10
-0.5383749999999999
 20
1.5779375
 30
0.0
 40
0.0953124999999999
100
AcDbArc
 50
90.0
 51
180.0
  0
ARC
  5
12D
330
DC
100
AcDbEntity
  8
AM_9
100
AcDbCircle
 10
-0.5383749999999999
 20
-1.5779375
 30
0.0
 40
0.0953124999999999
100
AcDbArc
 50
180.0
 51
270.0
  0
LINE
  5
12E
330
DC
100
AcDbEntity
  8
AM_9
100
AcDbLine
 10
-0.5383749999999999
 20
-1.67325
 30
0.0
 11
-0.5383749999999999
 21
1.67325
 31
0.0
  0
LINE
  5
12F
330
DC
100
AcDbEntity
  8
AM_9
100
AcDbLine
 10
-0.2047812500000018
 20
1.60632
 30
0.0
 11
-0.2434233035168635
 21
1.67325
 31
0.0
  0
LINE
  5
130
330
DC
100
AcDbEntity
  8
AM_9
100
AcDbLine
 10
-0.2434233035168635
 20
-1.67325
 30
0.0
 11
-0.2047812500000018
 21
-1.60632
 31
0.0
  0
LINE
  5
131
330
DC
100
AcDbEntity
  8
AM_9
100
AcDbLine
 10
-0.2047812500000018
 20
-1.60632
 30
0.0
 11
-0.2047812500000018
 21
1.60632
 31
0.0
  0
LINE
  5
132
330
DC
100
AcDbEntity
  8
AM_9
100
AcDbLine
 10
-0.2434233035168635
 20
-1.67325
 30
0.0
 11
-0.2434233035168635
 21
1.67325
 31
0.0
  0
LINE
  5
133
330
DC
100
AcDbEntity
  8
AM_9
100
AcDbLine
 10
0.224125
 20
1.67325
 30
0.0
 11
-0.0708266964831365
 21
1.67325
 31
0.0
  0
LINE
  5
134
330
DC
100
AcDbEntity
  8
AM_9
100
AcDbLine
 10
-0.0708266964831365
 20
-1.67325
 30
0.0
 11
0.224125
 21
-1.67325
 31
0.0
  0
LINE
  5
135
330
DC
100
AcDbEntity
  8
AM_9
100
AcDbLine
 10
0.224125
 20
-1.67325
 30
0.0
 11
0.224125
 21
1.67325
 31
0.0
  0
LINE
  5
136
330
DC
100
AcDbEntity
  8
AM_9
100
AcDbLine
 10
-0.0708266964831365
 20
-1.67325
 30
0.0
 11
-0.0708266964831365
 21
1.67325
 31
0.0
  0
LINE
  5
137
330
DC
100
AcDbEntity
  8
AM_4
100
AcDbLine
 10
-0.8249999999999998
 20
1.155
 30
0.0
 11
-1.225375
 21
1.155
 31
0.0
  0
LINE
  5
138
330
DC
100
AcDbEntity
  8
AM_4
100
AcDbLine
 10
-1.225375
 20
-1.155
 30
0.0
 11
-1.03125
 21
-1.155
 31
0.0
  0
ENDBLK
  5
DF
330
DC
100
AcDbEntity
  8
0
100
AcDbBlockEnd
  0
BLOCK
  5
13B
330
139
100
AcDbEntity
  8
0
100
AcDbBlockBegin
  2
4_405015E_Inch_0_in_070277_2
 70
     2
 10
0.0
 20
0.0
 30
0.0
  3
4_405015E_Inch_0_in_070277_2
  1

  0
ATTDEF
  5
13D
330
139
100
AcDbEntity
  8
AM_6
100
AcDbText
 10
5.218750000000002
 20
2.316536647740266
 30
0.0
 40
0.5
  1
405015E -Inch
100
AcDbAttributeDefinition
  3

  2
NN
 70
     8
280
     0
  0
ATTDEF
  5
13E
330
139
100
AcDbEntity
  8
AM_6
100
AcDbText
 10
5.218750000000002
 20
1.816536647740266
 30
0.0
 40
0.5
  1
Grease Fitting
100
AcDbAttributeDefinition
  3

  2
NT
 70
     8
280
     0
  0
ATTDEF
  5
13F
330
139
100
AcDbEntity
  8
AM_6
100
AcDbText
 10
5.218750000000002
 20
1.316536647740266
 30
0.0
 40
0.5
  1
405015E-Inch
100
AcDbAttributeDefinition
  3

  2
NB
 70
     8
280
     0
  0
ATTDEF
  5
140
330
139
100
AcDbEntity
  8
AM_6
100
AcDbText
 10
5.218750000000002
 20
0.816536647740266
 30
0.0
 40
0.5
  1
$MN.-Inch
100
AcDbAttributeDefinition
  3

  2
NBSYN
 70
     8
280
     0
  0
ATTDEF
  5
141
330
139
100
AcDbEntity
  8
AM_6
100
AcDbText
 10
5.218750000000002
 20
0.316536647740266
 30
0.0
 40
0.5
  1
405015E
100
AcDbAttributeDefinition
  3

  2
LINA
 70
     8
280
     0
  0
ATTDEF
  5
142
330
139
100
AcDbEntity
  8
AM_6
100
AcDbText
 10
5.218750000000002
 20
-0.183463352259734
 30
0.0
 40
0.5
  1
405015E
100
AcDbAttributeDefinition
  3

  2
MN
 70
     8
280
     0
  0
ATTDEF
  5
143
330
139
100
AcDbEntity
  8
AM_6
100
AcDbText
 10
5.218750000000002
 20
-0.683463352259734
 30
0.0
 40
0.5
  1
1/8 x 27PTF
100
AcDbAttributeDefinition
  3

  2
T
 70
     8
280
     0
  0
ATTDEF
  5
144
330
139
100
AcDbEntity
  8
AM_6
100
AcDbText
 10
5.218750000000002
 20
-1.183463352259734
 30
0.0
 40
0.5
  1
baldor
100
AcDbAttributeDefinition
  3

  2
COMPANY
 70
     8
280
     0
  0
ELLIPSE
  5
145
330
139
100
AcDbEntity
  8
AM_9
100
AcDbEllipse
 10
0.0
 20
1.940438170354507
 30
0.0
 11
0.218749999999999
 21
0.0
 31
0.0
210
0.0
220
0.0
230
1.0
 40
0.5000000000000084
 41
1.047197551196596
 42
3.141592653589793
  0
LWPOLYLINE
  5
146
330
139
100
AcDbEntity
  8
AM_9
100
AcDbPolyline
 90
        3
 70
     0
 43
0.0
 10
0.0000000000000001
 20
2.074586313428354
 10
0.0544416102741496
 20
2.053108642510732
 10
0.109375
 20
2.035159698893431
  0
LWPOLYLINE
  5
147
330
139
100
AcDbEntity
  8
AM_9
100
AcDbPolyline
 90
        3
 70
     0
 43
0.0
 10
-0.1093749999999999
 20
2.035159698893431
 10
-0.0546874999999999
 20
2.053019348877354
 10
0.0000000000000001
 20
2.074586313428354
  0
LWPOLYLINE
  5
148
330
139
100
AcDbEntity
  8
AM_9
100
AcDbPolyline
 90
        3
 70
     0
 43
0.0
 10
0.0979100117669777
 20
2.124979022352522
 10
0.0546875
 20
2.135476432134259
 10
0.0000000000000001
 20
2.145483310429566
  0
LINE
  5
149
330
139
100
AcDbEntity
  8
AM_9
100
AcDbLine
 10
0.1060021578712498
 20
2.122727850384325
 30
0.0
 11
0.0979100117669777
 21
2.124979022352522
 31
0.0
  0
LINE
  5
14A
330
139
100
AcDbEntity
  8
AM_9
100
AcDbLine
 10
-0.0979113527773808
 20
2.124978656941191
 30
0.0
 11
-0.106002478662244
 21
2.12272775930998
 31
0.0
  0
LWPOLYLINE
  5
14B
330
139
100
AcDbEntity
  8
AM_9
100
AcDbPolyline
 90
        3
 70
     0
 43
0.0
 10
0.0000000000000001
 20
2.145483310429566
 10
-0.0544416102741495
 20
2.135529103000291
 10
-0.0979113527773808
 20
2.124978656941191
  0
LWPOLYLINE
  5
14C
330
139
100
AcDbEntity
  8
AM_9
100
AcDbPolyline
 90
        3
 70
     0
 43
0.0
 10
-0.2187499999999999
 20
2.011438627735739
 10
-0.1643083897258503
 20
2.021392835165014
 10
-0.1093749999999999
 20
2.035159698893431
  0
LINE
  5
14D
330
139
100
AcDbEntity
  8
AM_9
100
AcDbLine
 10
0.0000000000000001
 20
2.145483310429566
 30
0.0
 11
0.0000000000000001
 21
2.074586313428354
 31
0.0
  0
LWPOLYLINE
  5
14E
330
139
100
AcDbEntity
  8
AM_9
100
AcDbPolyline
 90
        3
 70
     0
 43
0.0
 10
0.109375
 20
2.035159698893431
 10
0.1640625
 20
2.021445506031046
 10
0.2187500000000001
 20
2.011438627735739
  0
ELLIPSE
  5
14F
330
139
100
AcDbEntity
  8
AM_9
100
AcDbEllipse
 10
0.0000000000000006
 20
1.71094143835163
 30
0.0
 11
0.161902872472268
 21
2.412540800456226E-9
 31
0.0
210
0.0
220
0.0
230
1.0
 40
0.4999999999999966
 41
4.71238898038469
 42
10.04025764708802
  0
LINE
  5
150
330
139
100
AcDbEntity
  8
AM_9
100
AcDbLine
 10
0.1321931418159854
 20
1.664204104849412
 30
0.0
 11
0.1621706131788417
 21
1.685401378132913
 31
0.0
  0
LINE
  5
151
330
139
100
AcDbEntity
  8
AM_9
100
AcDbLine
 10
-0.1621706131788415
 20
1.685401378132914
 30
0.0
 11
-0.1321931418159852
 21
1.664204104849412
 31
0.0
  0
ELLIPSE
  5
152
330
139
100
AcDbEntity
  8
AM_9
100
AcDbEllipse
 10
-0.0000000000000007
 20
1.742737348276882
 30
0.0
 11
0.1986176267812161
 21
0.0
 31
0.0
210
0.0
220
0.0
230
1.0
 40
0.5000000000000004
 41
4.71238898038469
 42
9.442822037473816
  0
ELLIPSE
  5
153
330
139
100
AcDbEntity
  8
AM_9
100
AcDbEllipse
 10
0.0000000000000005
 20
1.742737348276883
 30
0.0
 11
0.198617626781216
 21
0.0
 31
0.0
210
0.0
220
0.0
230
1.0
 40
0.4999999999999974
 41
3.757072362260178
 42
4.71238898038469
  0
ELLIPSE
  5
154
330
139
100
AcDbEntity
  8
AM_9
100
AcDbEllipse
 10
-0.0000000000000005
 20
1.71094143835163
 30
0.0
 11
0.1619028724722679
 21
0.0
 31
0.0
210
0.0
220
0.0
230
1.0
 40
0.4999999999999967
 41
3.757072362260173
 42
4.71238898038469
  0
ELLIPSE
  5
155
330
139
100
AcDbEntity
  8
AM_9
100
AcDbEllipse
 10
0.000000000000001
 20
1.940438170354509
 30
0.0
 11
0.2187500000000009
 21
3.259629011154190E-9
 31
0.0
210
0.0
220
0.0
230
1.0
 40
0.5000000000000039
 41
3.141592627780224
 42
4.188790191747875
  0
ELLIPSE
  5
156
330
139
100
AcDbEntity
  8
AM_9
100
AcDbEllipse
 10
-0.0000000000000001
 20
1.940438170354508
 30
0.0
 11
0.2057518972230698
 21
0.0
 31
0.0
210
0.0
220
0.0
230
1.0
 40
0.5000000000000001
 41
4.71238898038469
 42
9.442822037473828
  0
LINE
  5
157
330
139
100
AcDbEntity
  8
AM_9
100
AcDbLine
 10
0.1985852938306409
 20
1.740945509668063
 30
0.0
 11
0.2057184028850728
 21
1.938581969576878
 31
0.0
  0
LINE
  5
158
330
139
100
AcDbEntity
  8
AM_9
100
AcDbLine
 10
-0.2057184028850727
 20
1.938581969576878
 30
0.0
 11
-0.1985852938306407
 21
1.740945509668063
 31
0.0
  0
ELLIPSE
  5
159
330
139
100
AcDbEntity
  8
AM_9
100
AcDbEllipse
 10
0.0000000000000002
 20
1.940438170354508
 30
0.0
 11
0.2057518972230698
 21
0.0
 31
0.0
210
0.0
220
0.0
230
1.0
 40
0.5000000000000001
 41
3.159636730294242
 42
4.71238898038469
  0
ELLIPSE
  5
15A
330
139
100
AcDbEntity
  8
AM_9
100
AcDbEllipse
 10
-0.0000000000000013
 20
1.742737348276886
 30
0.0
 11
0.198617626781214
 21
0.0
 31
0.0
210
0.0
220
0.0
230
1.0
 40
0.5000000000000037
 41
3.159636730294272
 42
3.757072362260199
  0
ELLIPSE
  5
15B
330
139
100
AcDbEntity
  8
AM_9
100
AcDbEllipse
 10
0.0000000000000001
 20
1.940438170354508
 30
0.0
 11
0.2187500000000013
 21
0.0
 31
0.0
210
0.0
220
0.0
230
1.0
 40
0.4999999999999979
 41
4.188790204786395
 42
7.330382858376186
  0
LINE
  5
15C
330
139
100
AcDbEntity
  8
AM_9
100
AcDbLine
 10
-0.10178102724221
 20
2.130873544518795
 30
0.0
 11
-0.1049999999999999
 21
2.124571149879268
 31
0.0
  0
LINE
  5
15D
330
139
100
AcDbEntity
  8
AM_9
100
AcDbLine
 10
0.1050000000000001
 20
2.124571149879267
 30
0.0
 11
0.1017810272422101
 21
2.130873544518795
 31
0.0
  0
ELLIPSE
  5
15E
330
139
100
AcDbEntity
  8
AM_9
100
AcDbEllipse
 10
0.0000000000000001
 20
2.117973378130318
 30
0.0
 11
0.105
 21
0.0
 31
0.0
210
0.0
220
0.0
230
1.0
 40
0.4999999999999933
 41
0.2500328930988038
 42
3.141592653589793
  0
ELLIPSE
  5
15F
330
139
100
AcDbEntity
  8
AM_9
100
AcDbEllipse
 10
0.0000000000000001
 20
2.090046762259253
 30
0.0
 11
0.1188200907348975
 21
0.0
 31
0.0
210
0.0
220
0.0
230
1.0
 40
0.5000000000000105
 41
0.2500328930988207
 42
2.535447513394693
  0
LINE
  5
160
330
139
100
AcDbEntity
  8
AM_9
100
AcDbLine
 10
0.1050000000000001
 20
2.136211606942777
 30
0.0
 11
0.1050000000000001
 21
2.143954140243851
 31
0.0
  0
LINE
  5
161
330
139
100
AcDbEntity
  8
AM_9
100
AcDbLine
 10
-0.1049999999999999
 20
2.143954140243851
 30
0.0
 11
-0.1049999999999999
 21
2.136211606942777
 31
0.0
  0
ELLIPSE
  5
162
330
139
100
AcDbEntity
  8
AM_9
100
AcDbEllipse
 10
0.0000000000000001
 20
2.143954140243851
 30
0.0
 11
0.1049999999999999
 21
0.0
 31
0.0
210
0.0
220
0.0
230
1.0
 40
0.4999999999999984
 41
5.990342535451006
 42
9.42477796076938
  0
ELLIPSE
  5
163
330
139
100
AcDbEntity
  8
AM_9
100
AcDbEllipse
 10
0.0000000000000011
 20
2.143954140243876
 30
0.0
 11
0.105000000000001
 21
0.0
 31
0.0
210
0.0
220
0.0
230
1.0
 40
0.5000000000000396
 41
3.141592653589793
 42
3.434435425318793
  0
ELLIPSE
  5
164
330
139
100
AcDbEntity
  8
AM_9
100
AcDbEllipse
 10
0.0000000000000012
 20
2.117973378130311
 30
0.0
 11
0.1049999999999988
 21
1.564621925353987E-9
 31
0.0
210
0.0
220
0.0
230
1.0
 40
0.5000000000000032
 41
0.0000017195196831
 42
0.2500328646650841
  0
LINE
  5
165
330
139
100
AcDbEntity
  8
AM_9
100
AcDbLine
 10
-0.0976523208201057
 20
2.1238928779917
 30
0.0
 11
-0.1098343496897826
 21
2.11510602486485
 31
0.0
  0
LINE
  5
166
330
139
100
AcDbEntity
  8
AM_9
100
AcDbLine
 10
0.1098343496897826
 20
2.11510602486485
 30
0.0
 11
0.0976523208201059
 21
2.1238928779917
 31
0.0
  0
ELLIPSE
  5
167
330
139
100
AcDbEntity
  8
AM_9
100
AcDbEllipse
 10
0.0
 20
2.090046762259252
 30
0.0
 11
0.1188200907348975
 21
0.0
 31
0.0
210
0.0
220
0.0
230
1.0
 40
0.5000000000000105
 41
2.535447513394688
 42
2.891559760490965
  0
ELLIPSE
  5
168
330
139
100
AcDbEntity
  8
AM_9
100
AcDbEllipse
 10
0.0000000000000001
 20
2.042904736020922
 30
0.0
 11
0.1725340532830156
 21
0.0
 31
0.0
210
0.0
220
0.0
230
1.0
 40
0.5000000000000011
 41
0.6061451401950819
 42
2.535447513394711
  0
ELLIPSE
  5
169
330
139
100
AcDbEntity
  8
AM_9
100
AcDbEllipse
 10
0.0000000000000001
 20
2.027040710732951
 30
0.0
 11
0.2187499999999987
 21
3.259629011154156E-9
 31
0.0
210
0.0
220
0.0
230
1.0
 40
0.500000000000009
 41
1.065244625558339
 42
2.076348002645672
  0
ELLIPSE
  5
16A
330
139
100
AcDbEntity
  8
AM_9
100
AcDbEllipse
 10
-0.0000000000010603
 20
2.027040710733573
 30
0.0
 11
0.2137499999978561
 21
0.0
 31
0.0
210
0.0
220
0.0
230
1.0
 40
0.5000000000012693
 41
-4.217356306596327
 42
-4.184564777757516
  0
ELLIPSE
  5
16B
330
139
100
AcDbEntity
  8
AM_9
100
AcDbEllipse
 10
-0.0000000000000001
 20
2.027040710732951
 30
0.0
 11
0.2137499999999989
 21
3.185123205184921E-9
 31
0.0
210
0.0
220
0.0
230
1.0
 40
0.5000000000000049
 41
1.05729721651949
 42
2.06582898808883
  0
ELLIPSE
  5
16C
330
139
100
AcDbEntity
  8
AM_9
100
AcDbEllipse
 10
0.0000000000011932
 20
2.02704071073369
 30
0.0
 11
0.2137499999975876
 21
0.0
 31
0.0
210
0.0
220
0.0
230
1.0
 40
0.5000000000012699
 41
1.042972124167707
 42
1.057297229364043
  0
ELLIPSE
  5
16D
330
139
100
AcDbEntity
  8
AM_9
100
AcDbEllipse
 10
0.0000000000000001
 20
2.195915664470917
 30
0.0
 11
0.1350000000000001
 21
0.0
 31
0.0
210
0.0
220
0.0
230
1.0
 40
0.5000000000000022
 41
0.2354336045415648
 42
2.906159049048229
  0
LINE
  5
16E
330
139
100
AcDbEntity
  8
AM_4
100
AcDbLine
 10
0.109375
 20
2.121762239271875
 30
0.0
 11
0.1060021578712498
 21
2.122727850384325
 31
0.0
  0
LINE
  5
16F
330
139
100
AcDbEntity
  8
AM_4
100
AcDbLine
 10
-0.106002478662244
 20
2.12272775930998
 30
0.0
 11
-0.1093749999999999
 21
2.121762239271874
 31
0.0
  0
LWPOLYLINE
  5
170
330
139
100
AcDbEntity
  8
AM_4
100
AcDbPolyline
 90
        3
 70
     0
 43
0.0
 10
0.2187500000000001
 20
2.082335624736951
 10
0.1643083897258504
 20
2.103813295654573
 10
0.109375
 20
2.121762239271875
  0
LWPOLYLINE
  5
171
330
139
100
AcDbEntity
  8
AM_4
100
AcDbPolyline
 90
        3
 70
     0
 43
0.0
 10
-0.1093749999999999
 20
2.121762239271875
 10
-0.1640624999999999
 20
2.103902589287951
 10
-0.2187499999999999
 20
2.082335624736951
  0
LINE
  5
172
330
139
100
AcDbEntity
  8
AM_4
100
AcDbLine
 10
-0.1049999999999999
 20
2.124571149879268
 30
0.0
 11
-0.1151252948555657
 21
2.104746936124453
 31
0.0
  0
LINE
  5
173
330
139
100
AcDbEntity
  8
AM_4
100
AcDbLine
 10
0.1151252948555658
 20
2.104746936124453
 30
0.0
 11
0.1050000000000001
 21
2.124571149879267
 31
0.0
  0
ELLIPSE
  5
174
330
139
100
AcDbEntity
  8
AM_4
100
AcDbEllipse
 10
0.0000000000000001
 20
2.090046762259254
 30
0.0
 11
0.1188200907348978
 21
0.0
 31
0.0
210
0.0
220
0.0
230
1.0
 40
0.5000000000000018
 41
2.891559760490998
 42
4.71238898038469
  0
ELLIPSE
  5
175
330
139
100
AcDbEntity
  8
AM_4
100
AcDbEllipse
 10
0.0
 20
2.117973378130317
 30
0.0
 11
0.105
 21
0.0
 31
0.0
210
0.0
220
0.0
230
1.0
 40
0.5000000000000022
 41
3.141592653589793
 42
6.283185307179586
  0
LINE
  5
176
330
139
100
AcDbEntity
  8
AM_4
100
AcDbLine
 10
0.1050000000000001
 20
2.117973378130318
 30
0.0
 11
0.1050000000000001
 21
2.136211606942777
 31
0.0
  0
LINE
  5
177
330
139
100
AcDbEntity
  8
AM_4
100
AcDbLine
 10
-0.1049999999999999
 20
2.136211606942777
 30
0.0
 11
-0.1049999999999999
 21
2.117973378130318
 31
0.0
  0
ELLIPSE
  5
178
330
139
100
AcDbEntity
  8
AM_4
100
AcDbEllipse
 10
0.0000000000000001
 20
2.090046762259254
 30
0.0
 11
0.1188200907348976
 21
1.770557325108314E-9
 31
0.0
210
0.0
220
0.0
230
1.0
 40
0.5000000000000023
 41
4.71238898038469
 42
6.533218171844533
  0
LINE
  5
179
330
139
100
AcDbEntity
  8
AM_4
100
AcDbLine
 10
-0.1098343496897826
 20
2.11510602486485
 30
0.0
 11
-0.1417971541629018
 21
2.092051370222993
 31
0.0
  0
LINE
  5
17A
330
139
100
AcDbEntity
  8
AM_4
100
AcDbLine
 10
0.1417971541629019
 20
2.092051370222993
 30
0.0
 11
0.1098343496897826
 21
2.11510602486485
 31
0.0
  0
ELLIPSE
  5
17B
330
139
100
AcDbEntity
  8
AM_4
100
AcDbEllipse
 10
0.0000000000000001
 20
2.042904736020922
 30
0.0
 11
0.1725340532830155
 21
0.0
 31
0.0
210
0.0
220
0.0
230
1.0
 40
0.5000000000000013
 41
2.53544751339471
 42
4.71238898038469
  0
ELLIPSE
  5
17C
330
139
100
AcDbEntity
  8
AM_4
100
AcDbEllipse
 10
0.0000000000000006
 20
2.027040710732952
 30
0.0
 11
0.2187500000000005
 21
0.0
 31
0.0
210
0.0
220
0.0
230
1.0
 40
0.5000000000000009
 41
2.094395102393198
 42
3.141592653589793
  0
ELLIPSE
  5
17D
330
139
100
AcDbEntity
  8
AM_4
100
AcDbEllipse
 10
0.0000000000000004
 20
2.027040710732951
 30
0.0
 11
0.2187500000000003
 21
0.0
 31
0.0
210
0.0
220
0.0
230
1.0
 40
0.4999999999999993
 41
3.141592653589793
 42
4.188790204786389
  0
ELLIPSE
  5
17E
330
139
100
AcDbEntity
  8
AM_4
100
AcDbEllipse
 10
-0.0000000000000002
 20
2.027040710732951
 30
0.0
 11
0.2187500000000003
 21
0.0
 31
0.0
210
0.0
220
0.0
230
1.0
 40
0.4999999999999993
 41
4.188790204786391
 42
6.283185307179586
  0
ELLIPSE
  5
17F
330
139
100
AcDbEntity
  8
AM_4
100
AcDbEllipse
 10
0.0
 20
2.027040710732952
 30
0.0
 11
0.2187500000000001
 21
0.0
 31
0.0
210
0.0
220
0.0
230
1.0
 40
0.4999999999999977
 41
0.0
 42
1.065244638251232
  0
ELLIPSE
  5
180
330
139
100
AcDbEntity
  8
AM_4
100
AcDbEllipse
 10
0.0000000000011218
 20
2.027040710727916
 30
0.0
 11
0.2187500000022838
 21
0.0
 31
0.0
210
0.0
220
0.0
230
1.0
 40
0.50000000001608
 41
-4.206837291845211
 42
-4.188790204791045
  0
ELLIPSE
  5
181
330
139
100
AcDbEntity
  8
AM_4
100
AcDbEllipse
 10
0.0000000000000001
 20
2.042904736020922
 30
0.0
 11
0.1725340532830154
 21
0.0
 31
0.0
210
0.0
220
0.0
230
1.0
 40
0.5000000000000017
 41
4.71238898038469
 42
6.889330447374669
  0
ELLIPSE
  5
182
330
139
100
AcDbEntity
  8
AM_4
100
AcDbEllipse
 10
0.0
 20
2.027040710732952
 30
0.0
 11
0.2137499999999999
 21
0.0
 31
0.0
210
0.0
220
0.0
230
1.0
 40
0.5000000000000006
 41
2.098620529422326
 42
4.71238898038469
  0
ELLIPSE
  5
183
330
139
100
AcDbEntity
  8
AM_4
100
AcDbEllipse
 10
0.0000000000000002
 20
2.027040710732952
 30
0.0
 11
0.2137499999999999
 21
0.0
 31
0.0
210
0.0
220
0.0
230
1.0
 40
0.5000000000000007
 41
4.71238898038469
 42
7.326157431347053
  0
ELLIPSE
  5
184
330
139
100
AcDbEntity
  8
AM_4
100
AcDbEllipse
 10
-0.0000000000000004
 20
2.143954140243851
 30
0.0
 11
0.1050000000000005
 21
0.0
 31
0.0
210
0.0
220
0.0
230
1.0
 40
0.4999999999999998
 41
3.434435425318371
 42
5.990342535451009
  0
LINE
  5
185
330
139
100
AcDbEntity
  8
AM_4
100
AcDbLine
 10
0.1005298463144156
 20
2.128798695677623
 30
0.0
 11
0.1292526595471057
 21
2.176430092885767
 31
0.0
  0
LINE
  5
186
330
139
100
AcDbEntity
  8
AM_4
100
AcDbLine
 10
-0.1292526595471056
 20
2.176430092885767
 30
0.0
 11
-0.1005298463144154
 21
2.128798695677623
 31
0.0
  0
ELLIPSE
  5
187
330
139
100
AcDbEntity
  8
AM_4
100
AcDbEllipse
 10
0.0000000000000005
 20
2.195915664470917
 30
0.0
 11
0.1350000000000006
 21
0.0
 31
0.0
210
0.0
220
0.0
230
1.0
 40
0.5000000000000002
 41
3.434435425318366
 42
6.518618911721145
  0
LINE
  5
188
330
139
100
AcDbEntity
  8
AM_4
100
AcDbLine
 10
0.2187500000000001
 20
2.082335624736951
 30
0.0
 11
0.2187500000000001
 21
1.885143256350509
 31
0.0
  0
LWPOLYLINE
  5
189
330
139
100
AcDbEntity
  8
AM_4
100
AcDbPolyline
 90
        3
 70
     0
 43
0.0
 10
0.109375
 20
1.932319182194028
 10
0.1640625
 20
1.946033375056413
 10
0.2187500000000001
 20
1.95604025335172
  0
LWPOLYLINE
  5
18A
330
139
100
AcDbEntity
  8
AM_4
100
AcDbPolyline
 90
        3
 70
     0
 43
0.0
 10
0.1093750000000001
 20
1.845716641815585
 10
0.0546875000000001
 20
1.8320024489532
 10
0.0000000000000001
 20
1.821995570657893
  0
LWPOLYLINE
  5
18B
330
139
100
AcDbEntity
  8
AM_4
100
AcDbPolyline
 90
        3
 70
     0
 43
0.0
 10
0.2187500000000001
 20
1.885143256350509
 10
0.1643083897258505
 20
1.863665585432886
 10
0.1093750000000001
 20
1.845716641815585
  0
LINE
  5
18C
330
139
100
AcDbEntity
  8
AM_4
100
AcDbLine
 10
0.0000000000000001
 20
1.892892567659105
 30
0.0
 11
0.0000000000000001
 21
1.821995570657893
 31
0.0
  0
LWPOLYLINE
  5
18D
330
139
100
AcDbEntity
  8
AM_4
100
AcDbPolyline
 90
        3
 70
     0
 43
0.0
 10
-0.2187499999999999
 20
1.95604025335172
 10
-0.1643083897258503
 20
1.946086045922446
 10
-0.1093749999999999
 20
1.932319182194028
  0
LINE
  5
18E
330
139
100
AcDbEntity
  8
AM_4
100
AcDbLine
 10
-0.2187499999999999
 20
2.082335624736951
 30
0.0
 11
-0.2187499999999999
 21
1.885143256350509
 31
0.0
  0
LWPOLYLINE
  5
18F
330
139
100
AcDbEntity
  8
AM_4
100
AcDbPolyline
 90
        3
 70
     0
 43
0.0
 10
-0.1093749999999999
 20
1.845716641815585
 10
-0.1640624999999999
 20
1.863576291799508
 10
-0.2187499999999999
 20
1.885143256350509
  0
LWPOLYLINE
  5
190
330
139
100
AcDbEntity
  8
AM_4
100
AcDbPolyline
 90
        3
 70
     0
 43
0.0
 10
0.0000000000000001
 20
1.821995570657893
 10
-0.0544416102741495
 20
1.831949778087168
 10
-0.1093749999999999
 20
1.845716641815585
  0
LWPOLYLINE
  5
191
330
139
100
AcDbEntity
  8
AM_4
100
AcDbPolyline
 90
        3
 70
     0
 43
0.0
 10
-0.1093749999999999
 20
1.932319182194028
 10
-0.0546874999999999
 20
1.914459532210105
 10
0.0000000000000001
 20
1.892892567659105
  0
LWPOLYLINE
  5
192
330
139
100
AcDbEntity
  8
AM_4
100
AcDbPolyline
 90
        3
 70
     0
 43
0.0
 10
0.0000000000000001
 20
1.892892567659105
 10
0.0544416102741496
 20
1.914370238576727
 10
0.109375
 20
1.932319182194028
  0
LINE
  5
193
330
139
100
AcDbEntity
  8
AM_4
100
AcDbLine
 10
-0.0998453562378796
 20
2.27717325921487
 30
0.0
 11
-0.1312757938985218
 21
2.211661028362495
 31
0.0
  0
LINE
  5
194
330
139
100
AcDbEntity
  8
AM_4
100
AcDbLine
 10
0.131275793898522
 20
2.211661028362495
 30
0.0
 11
0.0998453562378798
 21
2.27717325921487
 31
0.0
  0
ELLIPSE
  5
195
330
139
100
AcDbEntity
  8
AM_4
100
AcDbEllipse
 10
-0.0000000000000001
 20
2.195915664470921
 30
0.0
 11
0.1349999999999998
 21
0.0
 31
0.0
210
0.0
220
0.0
230
1.0
 40
0.5
 41
2.906159049048284
 42
3.434435425318418
  0
ELLIPSE
  5
196
330
139
100
AcDbEntity
  8
AM_4
100
AcDbEllipse
 10
0.0000000000000005
 20
2.265197696773672
 30
0.0
 11
0.1026779019331872
 21
0.0
 31
0.0
210
0.0
220
0.0
230
1.0
 40
0.5000000000000022
 41
0.0
 42
6.283185307179586
  0
ENDBLK
  5
13C
330
139
100
AcDbEntity
  8
0
100
AcDbBlockEnd
  0
BLOCK
  5
199
330
197
100
AcDbEntity
  8
0
100
AcDbBlockBegin
  2
5_070277H_0_in_070277_2
 70
     2
 10
0.0
 20
0.0
 30
0.0
  3
5_070277H_0_in_070277_2
  1

  0
ATTDEF
  5
19B
330
197
100
AcDbEntity
  8
AM_6
100
AcDbText
 10
6.163461538461538
 20
2.172030036709385
 30
0.0
 40
0.5
  1
P2B-S2-(Contact Seal)-Housing
100
AcDbAttributeDefinition
  3

  2
NN
 70
     8
280
     0
  0
ATTDEF
  5
19C
330
197
100
AcDbEntity
  8
AM_6
100
AcDbText
 10
6.163461538461538
 20
1.672030036709385
 30
0.0
 40
0.5
  1
S-2000 Pillow Block Bearing -Inch (2-Bolt Base)
100
AcDbAttributeDefinition
  3

  2
NT
 70
     8
280
     0
  0
ATTDEF
  5
19D
330
197
100
AcDbEntity
  8
AM_6
100
AcDbText
 10
6.163461538461538
 20
1.172030036709385
 30
0.0
 40
0.5
  1
070277H
100
AcDbAttributeDefinition
  3

  2
NB
 70
     8
280
     0
  0
ATTDEF
  5
19E
330
197
100
AcDbEntity
  8
AM_6
100
AcDbText
 10
6.163461538461538
 20
0.6720300367093852
 30
0.0
 40
0.5
  1
$PN.H
100
AcDbAttributeDefinition
  3

  2
NBSYN
 70
     8
280
     0
  0
ATTDEF
  5
19F
330
197
100
AcDbEntity
  8
AM_6
100
AcDbText
 10
6.163461538461538
 20
0.1720300367093852
 30
0.0
 40
0.5
  1
070277
100
AcDbAttributeDefinition
  3

  2
LINA
 70
     8
280
     0
  0
ATTDEF
  5
1A0
330
197
100
AcDbEntity
  8
AM_6
100
AcDbText
 10
6.163461538461538
 20
-0.3279699632906148
 30
0.0
 40
0.5
  1
1-3/4
100
AcDbAttributeDefinition
  3

  2
SS
 70
     8
280
     0
  0
ATTDEF
  5
1A1
330
197
100
AcDbEntity
  8
AM_6
100
AcDbText
 10
6.163461538461538
 20
-0.8279699632906148
 30
0.0
 40
0.5
  1
070277
100
AcDbAttributeDefinition
  3

  2
PN
 70
     8
280
     0
  0
ATTDEF
  5
1A2
330
197
100
AcDbEntity
  8
AM_6
100
AcDbText
 10
6.163461538461538
 20
-1.327969963290615
 30
0.0
 40
0.5
  1
P2B-S2-112R
100
AcDbAttributeDefinition
  3

  2
DESCRIPTION
 70
     8
280
     0
  0
ATTDEF
  5
1A3
330
197
100
AcDbEntity
  8
AM_6
100
AcDbText
 10
6.163461538461538
 20
-1.827969963290615
 30
0.0
 40
0.5
  1
Non-Expansion Type
100
AcDbAttributeDefinition
  3

  2
EF
 70
     8
280
     0
  0
ATTDEF
  5
1A4
330
197
100
AcDbEntity
  8
AM_6
100
AcDbText
 10
6.163461538461538
 20
-2.327969963290615
 30
0.0
 40
0.5
  1
1
100
AcDbAttributeDefinition
  3

  2
EF1
 70
     8
280
     0
  0
ATTDEF
  5
1A5
330
197
100
AcDbEntity
  8
AM_6
100
AcDbText
 10
6.163461538461538
 20
-2.827969963290615
 30
0.0
 40
0.5
  1
2-43/64
100
AcDbAttributeDefinition
  3

  2
A
 70
     8
280
     0
  0
ATTDEF
  5
1A6
330
197
100
AcDbEntity
  8
AM_6
100
AcDbText
 10
6.163461538461538
 20
-3.327969963290615
 30
0.0
 40
0.5
  1
7-3/8
100
AcDbAttributeDefinition
  3

  2
B
 70
     8
280
     0
  0
ATTDEF
  5
1A7
330
197
100
AcDbEntity
  8
AM_6
100
AcDbText
 10
6.163461538461538
 20
-3.827969963290615
 30
0.0
 40
0.5
  1
2-1/16
100
AcDbAttributeDefinition
  3

  2
C
 70
     8
280
     0
  0
ATTDEF
  5
1A8
330
197
100
AcDbEntity
  8
AM_6
100
AcDbText
 10
6.163461538461538
 20
-4.327969963290615
 30
0.0
 40
0.5
  1
5-5/16
100
AcDbAttributeDefinition
  3

  2
DMIN
 70
     8
280
     0
  0
ATTDEF
  5
1A9
330
197
100
AcDbEntity
  8
AM_6
100
AcDbText
 10
6.163461538461538
 20
-4.827969963290615
 30
0.0
 40
0.5
  1
5-45/64
100
AcDbAttributeDefinition
  3

  2
DMAX
 70
     8
280
     0
  0
ATTDEF
  5
1AA
330
197
100
AcDbEntity
  8
AM_6
100
AcDbText
 10
6.163461538461538
 20
-5.327969963290615
 30
0.0
 40
0.5
  1
1/2
100
AcDbAttributeDefinition
  3

  2
F
 70
     8
280
     0
  0
ATTDEF
  5
1AB
330
197
100
AcDbEntity
  8
AM_6
100
AcDbText
 10
6.163461538461538
 20
-5.827969963290615
 30
0.0
 40
0.5
  1
13/16
100
AcDbAttributeDefinition
  3

  2
G
 70
     8
280
     0
  0
ATTDEF
  5
1AC
330
197
100
AcDbEntity
  8
AM_6
100
AcDbText
 10
6.163461538461538
 20
-6.327969963290615
 30
0.0
 40
0.5
  1
1-1/4
100
AcDbAttributeDefinition
  3

  2
H
 70
     8
280
     0
  0
ATTDEF
  5
1AD
330
197
100
AcDbEntity
  8
AM_6
100
AcDbText
 10
6.163461538461538
 20
-6.827969963290615
 30
0.0
 40
0.5
  1
4-17/64
100
AcDbAttributeDefinition
  3

  2
J
 70
     8
280
     0
  0
ATTDEF
  5
1AE
330
197
100
AcDbEntity
  8
AM_6
100
AcDbText
 10
6.163461538461538
 20
-7.327969963290615
 30
0.0
 40
0.5
  1
3-3/16
100
AcDbAttributeDefinition
  3

  2
L
 70
     8
280
     0
  0
ATTDEF
  5
1AF
330
197
100
AcDbEntity
  8
AM_6
100
AcDbText
 10
6.163461538461538
 20
-7.827969963290615
 30
0.0
 40
0.5
  1
2-1/8
100
AcDbAttributeDefinition
  3

  2
M
 70
     8
280
     0
  0
ATTDEF
  5
1B0
330
197
100
AcDbEntity
  8
AM_6
100
AcDbText
 10
6.163461538461538
 20
-8.327969963290615
 30
0.0
 40
0.5
  1
13/16
100
AcDbAttributeDefinition
  3

  2
R
 70
     8
280
     0
  0
ATTDEF
  5
1B1
330
197
100
AcDbEntity
  8
AM_6
100
AcDbText
 10
6.163461538461538
 20
-8.827969963290615
 30
0.0
 40
0.5
  1
1-55/64
100
AcDbAttributeDefinition
  3

  2
S
 70
     8
280
     0
  0
ATTDEF
  5
1B2
330
197
100
AcDbEntity
  8
AM_6
100
AcDbText
 10
6.163461538461538
 20
-9.327969963290615
 30
0.0
 40
0.5
  1
1/4
100
AcDbAttributeDefinition
  3

  2
X
 70
     8
280
     0
  0
ATTDEF
  5
1B3
330
197
100
AcDbEntity
  8
AM_6
100
AcDbText
 10
6.163461538461538
 20
-9.827969963290615
 30
0.0
 40
0.5
  1
0.020
100
AcDbAttributeDefinition
  3

  2
Y
 70
     8
280
     0
  0
ATTDEF
  5
1B4
330
197
100
AcDbEntity
  8
AM_6
100
AcDbText
 10
6.163461538461538
 20
-10.32796996329061
 30
0.0
 40
0.5
  1
2-5/64
100
AcDbAttributeDefinition
  3

  2
Z
 70
     8
280
     0
  0
ATTDEF
  5
1B5
330
197
100
AcDbEntity
  8
AM_6
100
AcDbText
 10
6.163461538461538
 20
-10.82796996329061
 30
0.0
 40
0.5
  1
1
100
AcDbAttributeDefinition
  3

  2
ST1
 70
     8
280
     0
  0
ATTDEF
  5
1B6
330
197
100
AcDbEntity
  8
AM_6
100
AcDbText
 10
6.163461538461538
 20
-11.32796996329061
 30
0.0
 40
0.5
  1
baldor
100
AcDbAttributeDefinition
  3

  2
COMPANY
 70
     8
280
     0
  0
LINE
  5
1B7
330
197
100
AcDbEntity
  8
AM_9
100
AcDbLine
 10
-0.2364262034439705
 20
2.140625000000002
 30
0.0
 11
0.2366066088963458
 21
2.140625000000002
 31
0.0
  0
LWPOLYLINE
  5
1B8
330
197
100
AcDbEntity
  8
AM_9
100
AcDbPolyline
 90
       30
 70
     0
 43
0.0
 10
0.4999999998497278
 20
1.853829500662778
 10
0.4973490514618444
 20
1.879010267941834
 10
0.4887130020184136
 20
1.904301376736864
 10
0.4742225898255497
 20
1.927919039978045
 10
0.4541646103754316
 20
1.949531642675163
 10
0.4284392847519951
 20
1.969192123098617
 10
0.3975064974001569
 20
1.986752624935131
 10
0.3619231349310448
 20
2.002093505421076
 10
0.3209411993855483
 20
2.015541013010218
 10
0.2757675586399635
 20
2.026829884594127
 10
0.2272168023607534
 20
2.035959377959793
 10
0.1754782815249609
 20
2.043039996600248
 10
0.1212487664853507
 20
2.048142385736326
 10
0.0655805642211826
 20
2.051290334727766
 10
0.0103312007894849
 20
2.052520316781866
 10
-0.0452303481058054
 20
2.051951913993886
 10
-0.1000312743115138
 20
2.049581821278264
 10
-0.1527970629622188
 20
2.045439448119013
 10
-0.2038375330747165
 20
2.039452353695335
 10
-0.2522476864696598
 20
2.031598133394439
 10
-0.2983399556702063
 20
2.021581603917596
 10
-0.3408969411746156
 20
2.009438947803293
 10
-0.3791773362546835
 20
1.995182722099382
 10
-0.4134644072878051
 20
1.978316043945894
 10
-0.4426248546582744
 20
1.959097636817712
 10
-0.466093087685943
 20
1.937692301379179
 10
-0.4834377551260901
 20
1.914258202899629
 10
-0.4947362015785463
 20
1.88879945200086
 10
-0.4997473205137545
 20
1.86173147277203
 10
-0.4999999997670357
 20
1.853843261517905
  0
ELLIPSE
  5
1B9
330
197
100
AcDbEntity
  8
AM_9
100
AcDbEllipse
 10
0.0000000000000001
 20
1.940438170354508
 30
0.0
 11
-0.4499999999999998
 21
5.510910596163088E-17
 31
0.0
210
0.0
220
0.0
230
1.0
 40
0.4999999999999999
 41
4.447327559919909
 42
4.97745040084947
  0
LWPOLYLINE
  5
1BA
330
197
100
AcDbEntity
  8
AM_9
100
AcDbPolyline
 90
       10
 70
     0
 43
0.0
 10
0.1218606374607676
 20
2.164193640983814
 10
0.1133451019301106
 20
2.165280275291481
 10
0.0817952921810955
 20
2.168590174154708
 10
0.0499305956973673
 20
2.170821261413777
 10
0.0178747478471639
 20
2.171968681570388
 10
-0.0142476907154091
 20
2.172030036709385
 10
-0.0463118961716599
 20
2.171005474157304
 10
-0.0781900192483516
 20
2.168897969004468
 10
-0.1097583913135871
 20
2.165713044801278
 10
-0.1218571619239144
 20
2.164194101573499
  0
ELLIPSE
  5
1BB
330
197
100
AcDbEntity
  8
AM_9
100
AcDbEllipse
 10
0.0000000000000001
 20
1.897136900165286
 30
0.0
 11
-0.5000000000000003
 21
6.123233995736770E-17
 31
0.0
210
0.0
220
0.0
230
1.0
 40
0.4999999999999979
 41
3.141212473507062
 42
6.283146378384354
  0
LINE
  5
1BC
330
197
100
AcDbEntity
  8
AM_9
100
AcDbLine
 10
-0.825
 20
-1.67325
 30
0.0
 11
0.825
 21
-1.67325
 31
0.0
  0
LINE
  5
1BD
330
197
100
AcDbEntity
  8
AM_9
100
AcDbLine
 10
0.825
 20
1.67325
 30
0.0
 11
-0.825
 21
1.67325
 31
0.0
  0
LINE
  5
1BE
330
197
100
AcDbEntity
  8
AM_9
100
AcDbLine
 10
-0.3962124297984953
 20
2.067684971900037
 30
0.0
 11
0.3961912284368382
 21
2.067684971900037
 31
0.0
  0
LINE
  5
1BF
330
197
100
AcDbEntity
  8
AM_9
100
AcDbLine
 10
-0.9232142857142853
 20
-0.8018892345246358
 30
0.0
 11
-0.9232142857142853
 21
-2.125
 31
0.0
  0
LINE
  5
1C0
330
197
100
AcDbEntity
  8
AM_9
100
AcDbLine
 10
-0.8249999999999998
 20
-0.0835416263886133
 30
0.0
 11
-0.8249999999999998
 21
-0.9562499999999999
 31
0.0
  0
LINE
  5
1C1
330
197
100
AcDbEntity
  8
AM_9
100
AcDbLine
 10
0.9232142857142858
 20
-0.8018892345246357
 30
0.0
 11
0.9232142857142858
 21
-2.125
 31
0.0
  0
LINE
  5
1C2
330
197
100
AcDbEntity
  8
AM_9
100
AcDbLine
 10
0.825
 20
-0.0835416263886217
 30
0.0
 11
0.825
 21
-0.9562499999999999
 31
0.0
  0
LINE
  5
1C3
330
197
100
AcDbEntity
  8
AM_9
100
AcDbLine
 10
-0.9330357142857143
 20
-0.8018892345246357
 30
0.0
 11
-0.9330357142857143
 21
-2.125
 31
0.0
  0
LINE
  5
1C4
330
197
100
AcDbEntity
  8
AM_9
100
AcDbLine
 10
0.9330357142857146
 20
-0.8018892345246358
 30
0.0
 11
0.9330357142857146
 21
-2.125
 31
0.0
  0
LINE
  5
1C5
330
197
100
AcDbEntity
  8
AM_9
100
AcDbLine
 10
0.3085937500000002
 20
-0.875
 30
0.0
 11
0.3085937500000002
 21
-2.125
 31
0.0
  0
LINE
  5
1C6
330
197
100
AcDbEntity
  8
AM_9
100
AcDbLine
 10
-0.3085937499999998
 20
-0.875
 30
0.0
 11
-0.3085937499999998
 21
-2.125
 31
0.0
  0
LINE
  5
1C7
330
197
100
AcDbEntity
  8
AM_7
100
AcDbLine
 10
1.163461538461539
 20
0.0
 30
0.0
 11
-1.9921875
 21
0.0
 31
0.0
  0
LINE
  5
1C8
330
197
100
AcDbEntity
  8
AM_4
100
AcDbLine
 10
0.2366066088963458
 20
2.140625000000002
 30
0.0
 11
0.825
 21
2.140625000000002
 31
0.0
  0
LINE
  5
1C9
330
197
100
AcDbEntity
  8
AM_4
100
AcDbLine
 10
-0.825
 20
2.140625000000002
 30
0.0
 11
-0.2364262034439705
 21
2.140625000000002
 31
0.0
  0
LINE
  5
1CA
330
197
100
AcDbEntity
  8
AM_4
100
AcDbLine
 10
-0.5000000000000001
 20
1.897136900165286
 30
0.0
 11
-0.5000000000000001
 21
1.853705564460947
 31
0.0
  0
LINE
  5
1CB
330
197
100
AcDbEntity
  8
AM_4
100
AcDbLine
 10
0.5000000000000002
 20
1.853775625331992
 30
0.0
 11
0.5000000000000002
 21
1.897136900165286
 31
0.0
  0
LWPOLYLINE
  5
1CC
330
197
100
AcDbEntity
  8
AM_4
100
AcDbPolyline
 90
       16
 70
     0
 43
0.0
 10
-0.4999999997670357
 20
1.853843261517905
 10
-0.4984244316174551
 20
1.833934060987563
 10
-0.491067096255567
 20
1.805098655697156
 10
-0.4778270413855685
 20
1.775821773043185
 10
-0.4588580702961012
 20
1.746570520474289
 10
-0.4343894459161547
 20
1.717625522393516
 10
-0.4048758742056905
 20
1.689648289117856
 10
-0.3697368904893247
 20
1.662507483108878
 10
-0.3299281960937613
 20
1.637239548333319
 10
-0.2861566315695351
 20
1.614502361679773
 10
-0.2379885692302355
 20
1.594470759936695
 10
-0.1865514511825504
 20
1.577867708286547
 10
-0.1328154438603933
 20
1.565202907162647
 10
-0.0891987693307807
 20
1.558236274529926
 10
-0.0447411631049108
 20
1.553990655804936
 10
0.0000000000000001
 20
1.552555558913164
  0
ELLIPSE
  5
1CD
330
197
100
AcDbEntity
  8
AM_4
100
AcDbEllipse
 10
0.0
 20
1.940438170354508
 30
0.0
 11
-0.4500000000000003
 21
5.510910596163093E-17
 31
0.0
210
0.0
220
0.0
230
1.0
 40
0.4999999999999999
 41
4.97745040084947
 42
10.73051286709949
  0
ELLIPSE
  5
1CE
330
197
100
AcDbEntity
  8
AM_4
100
AcDbEllipse
 10
0.0000000000000004
 20
1.897136900165286
 30
0.0
 11
-0.5000000000000007
 21
6.123233995736775E-17
 31
0.0
210
0.0
220
0.0
230
1.0
 40
0.4999999999999998
 41
6.283146378384354
 42
9.424397780686649
  0
LWPOLYLINE
  5
1CF
330
197
100
AcDbEntity
  8
AM_4
100
AcDbPolyline
 90
       22
 70
     0
 43
0.0
 10
-0.1218571619239144
 20
2.164194101573499
 10
-0.1408951207494549
 20
2.161458504277624
 10
-0.1714804363078006
 20
2.156144155607504
 10
-0.2013971570743529
 20
2.149781434992169
 10
-0.2305310370831002
 20
2.142382931807202
 10
-0.2587709182163009
 20
2.133961831835347
 10
-0.2860085985327827
 20
2.124531319595529
 10
-0.3121382893038764
 20
2.11410402968751
 10
-0.3370554993539565
 20
2.102691724981791
 10
-0.3606551716840085
 20
2.090305525768642
 10
-0.3828289604193138
 20
2.07695722977748
 10
-0.4034617912987412
 20
2.062662511178332
 10
-0.4224187969355534
 20
2.04745527136991
 10
-0.4395556557616216
 20
2.031392162578025
 10
-0.454729838021757
 20
2.014556741725529
 10
-0.4678095730816166
 20
1.997067235623347
 10
-0.4786933666835767
 20
1.979070387461513
 10
-0.4873255901481653
 20
1.960724619968099
 10
-0.493699056063952
 20
1.942180216873229
 10
-0.4978439341464561
 20
1.923565934056042
 10
-0.4998104278842342
 20
1.90498506332354
 10
-0.4999999995975978
 20
1.897148336107142
  0
LWPOLYLINE
  5
1D0
330
197
100
AcDbEntity
  8
AM_4
100
AcDbPolyline
 90
       22
 70
     0
 43
0.0
 10
0.4999999552106023
 20
1.897016249622886
 10
0.4995417903279896
 20
1.909335968728533
 10
0.497131568340174
 20
1.927604946112448
 10
0.4926925561113905
 20
1.945608833926723
 10
0.4862486438162538
 20
1.963319362516996
 10
0.4778027792047542
 20
1.980711811613374
 10
0.4673436970264454
 20
1.997754547241944
 10
0.4548593966837182
 20
2.014399227530536
 10
0.4403548893364743
 20
2.030575341222629
 10
0.4238680018737968
 20
2.046192600411854
 10
0.4054758900727973
 20
2.061151390224188
 10
0.3852892923779797
 20
2.075356623539938
 10
0.3634388171265771
 20
2.088728388385832
 10
0.3400653232043643
 20
2.101203646101659
 10
0.3153112508239847
 20
2.112735537768236
 10
0.2892996157965507
 20
2.123296529617908
 10
0.2621486196592797
 20
2.13286547481671
 10
0.2339737622222476
 20
2.141424844626998
 10
0.2048897892650024
 20
2.148959225519911
 10
0.1750121028171364
 20
2.155454694704397
 10
0.1444576094019373
 20
2.160898712319936
 10
0.1218606374607676
 20
2.164193640983814
  0
LINE
  5
1D1
330
197
100
AcDbEntity
  8
AM_4
100
AcDbLine
 10
0.3961912284368382
 20
2.067684971900037
 30
0.0
 11
0.825
 21
2.067684971900037
 31
0.0
  0
LINE
  5
1D2
330
197
100
AcDbEntity
  8
AM_4
100
AcDbLine
 10
-0.825
 20
2.067684971900037
 30
0.0
 11
-0.3962124297984953
 21
2.067684971900037
 31
0.0
  0
LWPOLYLINE
  5
1D3
330
197
100
AcDbEntity
  8
AM_4
100
AcDbPolyline
 90
       16
 70
     0
 43
0.0
 10
0.0000000000000001
 20
1.552555558913164
 10
0.0551853451104974
 20
1.554752543497482
 10
0.1098390751514641
 20
1.561206977406015
 10
0.1629252083532148
 20
1.571714080872135
 10
0.2138806237991862
 20
1.586103345312811
 10
0.2623351915306413
 20
1.60401978351402
 10
0.307437913374551
 20
1.624956826139031
 10
0.3494437731546586
 20
1.649002238428611
 10
0.3872277748040742
 20
1.675357689685813
 10
0.4201099298924795
 20
1.703344676036217
 10
0.4480176247580362
 20
1.732887251582761
 10
0.4703136692078627
 20
1.763196364258163
 10
0.4865431846040418
 20
1.793538047624838
 10
0.4963102652091735
 20
1.822946423856276
 10
0.4999380747157032
 20
1.851632842564269
 10
0.4999999998497278
 20
1.853829500662778
  0
LINE
  5
1D4
330
197
100
AcDbEntity
  8
AM_4
100
AcDbLine
 10
-0.6187499999999999
 20
-0.8125
 30
0.0
 11
0.6187500000000002
 21
-0.8125
 31
0.0
  0
LINE
  5
1D5
330
197
100
AcDbEntity
  8
AM_4
100
AcDbLine
 10
-0.6187499999999999
 20
-0.875
 30
0.0
 11
-0.6187499999999999
 21
0.1323106573235833
 31
0.0
  0
LINE
  5
1D6
330
197
100
AcDbEntity
  8
AM_4
100
AcDbLine
 10
0.6187500000000002
 20
-0.875
 30
0.0
 11
0.6187500000000002
 21
0.1323106573235833
 31
0.0
  0
LINE
  5
1D7
330
197
100
AcDbEntity
  8
AM_4
100
AcDbLine
 10
0.6187500000000002
 20
0.1323106573235833
 30
0.0
 11
-0.6187499999999999
 21
0.1323106573235833
 31
0.0
  0
LINE
  5
1D8
330
197
100
AcDbEntity
  8
AM_4
100
AcDbLine
 10
0.825
 20
-0.0835416263886217
 30
0.0
 11
0.825
 21
2.140625000000002
 31
0.0
  0
LINE
  5
1D9
330
197
100
AcDbEntity
  8
AM_4
100
AcDbLine
 10
-0.8249999999999998
 20
0.2636142037978914
 30
0.0
 11
0.8250000000000001
 21
0.2636142037978914
 31
0.0
  0
LINE
  5
1DA
330
197
100
AcDbEntity
  8
AM_4
100
AcDbLine
 10
-0.825
 20
2.140625000000002
 30
0.0
 11
-0.8249999999999998
 21
-0.0835416263886133
 31
0.0
  0
LWPOLYLINE
  5
1DB
330
197
100
AcDbEntity
  8
AM_4
100
AcDbPolyline
 90
       13
 70
     0
 43
0.0
 10
-0.8711084180856563
 20
-0.7544328831636603
 10
-0.8640507392379269
 20
-0.7152837340248084
 10
-0.8574433307028083
 20
-0.6713266459905313
 10
-0.8513364788489157
 20
-0.6228961590427848
 10
-0.845776660506275
 20
-0.5703608584303695
 10
-0.8408061892495837
 20
-0.5141205695126271
 10
-0.8364628933663579
 20
-0.4546033148470368
 10
-0.8327798279608227
 20
-0.3922620566791047
 10
-0.8297850233846099
 20
-0.3275712496261696
 10
-0.8275012719088569
 20
-0.2610232297912816
 10
-0.8259459542612612
 20
-0.1931244677881772
 10
-0.8251309073482472
 20
-0.1243917141940934
 10
-0.8249999999999998
 20
-0.0835416263886133
  0
LWPOLYLINE
  5
1DC
330
197
100
AcDbEntity
  8
AM_4
100
AcDbPolyline
 90
       13
 70
     0
 43
0.0
 10
0.825
 20
-0.0835416263886215
 10
0.8253737350088464
 20
-0.1525217687945747
 10
0.826492095686301
 20
-0.2209769306654698
 10
0.8283465706323235
 20
-0.2883861268851125
 10
0.8309230461728124
 20
-0.3542363327674856
 10
0.8342019137731861
 20
-0.4180263884843832
 10
0.8381582192711712
 20
-0.4792708131943105
 10
0.8427618527930453
 20
-0.5375034998448306
 10
0.8479777779079574
 20
-0.5922812625286753
 10
0.8537662982763211
 20
-0.6431872093961031
 10
0.860083359762929
 20
-0.6898339154536018
 10
0.866880885715522
 20
-0.7318663711020227
 10
0.8711084180856563
 20
-0.7544328831636602
  0
LINE
  5
1DD
330
197
100
AcDbEntity
  8
AM_4
100
AcDbLine
 10
1.03125
 20
-0.8730153263892653
 30
0.0
 11
1.03125
 21
-2.125
 31
0.0
  0
LINE
  5
1DE
330
197
100
AcDbEntity
  8
AM_4
100
AcDbLine
 10
0.6187500000000004
 20
-0.7544328831636602
 30
0.0
 11
0.871108418085656
 21
-0.7544328831636602
 31
0.0
  0
LWPOLYLINE
  5
1DF
330
197
100
AcDbEntity
  8
AM_4
100
AcDbPolyline
 90
       11
 70
     0
 43
0.0
 10
0.9330357142857146
 20
-0.8018892345246358
 10
0.9508148123901781
 20
-0.8048617940518754
 10
0.9623934709135655
 20
-0.8097202436581381
 10
0.9730180722200309
 20
-0.8158619288595441
 10
0.9894354544569899
 20
-0.827771107376987
 10
1.003602762460787
 20
-0.8400565872257304
 10
1.015785454514655
 20
-0.8519608809128227
 10
1.024968550604374
 20
-0.8622439496566175
 10
1.028921655012585
 20
-0.8675915306852676
 10
1.030997506737145
 20
-0.871616427658287
 10
1.03125
 20
-0.8730153263892654
  0
LINE
  5
1E0
330
197
100
AcDbEntity
  8
AM_4
100
AcDbLine
 10
0.9232142857142858
 20
-0.8018892345246357
 30
0.0
 11
0.9330357142857146
 21
-0.8018892345246358
 31
0.0
  0
LWPOLYLINE
  5
1E1
330
197
100
AcDbEntity
  8
AM_4
100
AcDbPolyline
 90
        6
 70
     0
 43
0.0
 10
0.9232142857142858
 20
-0.8018892345246358
 10
0.9060527871878133
 20
-0.7989536109123379
 10
0.8912432124828805
 20
-0.7905806270614402
 10
0.8805778281980665
 20
-0.7785506378447075
 10
0.8729374590090586
 20
-0.7617972473532695
 10
0.8711084180856568
 20
-0.7544328831636602
  0
LINE
  5
1E2
330
197
100
AcDbEntity
  8
AM_4
100
AcDbLine
 10
-1.03125
 20
-0.8730153263892656
 30
0.0
 11
-1.03125
 21
-2.125
 31
0.0
  0
LINE
  5
1E3
330
197
100
AcDbEntity
  8
AM_4
100
AcDbLine
 10
-0.8711084180856563
 20
-0.7544328831636602
 30
0.0
 11
-0.6187499999999999
 21
-0.7544328831636602
 31
0.0
  0
LWPOLYLINE
  5
1E4
330
197
100
AcDbEntity
  8
AM_4
100
AcDbPolyline
 90
        5
 70
     0
 43
0.0
 10
-0.8711084180856568
 20
-0.7544328831636602
 10
-0.8775871369867564
 20
-0.7733889185535555
 10
-0.8895456274277397
 20
-0.7891187807334037
 10
-0.90606991822213
 20
-0.7989596924696419
 10
-0.9232142857142778
 20
-0.8018892345246562
  0
LINE
  5
1E5
330
197
100
AcDbEntity
  8
AM_4
100
AcDbLine
 10
-0.9330357142857143
 20
-0.8018892345246357
 30
0.0
 11
-0.9232142857142853
 21
-0.8018892345246358
 31
0.0
  0
LWPOLYLINE
  5
1E6
330
197
100
AcDbEntity
  8
AM_4
100
AcDbPolyline
 90
       11
 70
     0
 43
0.0
 10
-1.03125
 20
-0.8730153263892656
 10
-1.030066574080727
 20
-0.869515795080879
 10
-1.026716858568929
 20
-0.8644701594454967
 10
-1.021513085729076
 20
-0.8581712562436782
 10
-1.014744715086046
 20
-0.8508918086946631
 10
-1.002749322461467
 20
-0.8392548916960444
 10
-0.9884481468837195
 20
-0.8270195980004318
 10
-0.9758760399133652
 20
-0.8177180253971911
 10
-0.9618161807907124
 20
-0.8094375567742819
 10
-0.9439808044248845
 20
-0.8030305243607637
 10
-0.9330357142857144
 20
-0.8018892345246356
  0
LINE
  5
1E7
330
197
100
AcDbEntity
  8
AM_4
100
AcDbLine
 10
-0.8249999999999996
 20
-0.95625
 30
0.0
 11
0.8250000000000002
 21
-0.9562499999999999
 31
0.0
  0
LINE
  5
1E8
330
197
100
AcDbEntity
  8
AM_4
100
AcDbLine
 10
-0.8249999999999996
 20
-0.95625
 30
0.0
 11
-0.8249999999999996
 21
-2.125
 31
0.0
  0
LWPOLYLINE
  5
1E9
330
197
100
AcDbEntity
  8
AM_4
100
AcDbPolyline
 90
       19
 70
     0
 43
0.0
 10
-0.9062499999999998
 20
-0.875
 10
-0.8991685959017526
 20
-0.8753091807800457
 10
-0.8921410855645617
 20
-0.876234370067758
 10
-0.8852209525854199
 20
-0.8777685266140131
 10
-0.8784608633547892
 20
-0.879899974561145
 10
-0.871912266233568
 20
-0.8826124923032721
 10
-0.8656249999999998
 20
-0.8858854359425142
 10
-0.8596469145464772
 20
-0.8896938964015193
 10
-0.8540235067129684
 20
-0.8940088889965829
 10
-0.8487975740285928
 20
-0.898797574028593
 10
-0.8440088889965829
 20
-0.9040235067129686
 10
-0.8396938964015191
 20
-0.9096469145464774
 10
-0.8358854359425141
 20
-0.9156249999999999
 10
-0.832612492303272
 20
-0.9219122662335681
 10
-0.8298999745611446
 20
-0.9284608633547894
 10
-0.8277685266140129
 20
-0.93522095258542
 10
-0.8262343700677578
 20
-0.9421410855645618
 10
-0.8253091807800453
 20
-0.9491685959017527
 10
-0.8249999999999996
 20
-0.9562499999999999
  0
LINE
  5
1EA
330
197
100
AcDbEntity
  8
AM_4
100
AcDbLine
 10
0.8250000000000002
 20
-0.9562499999999999
 30
0.0
 11
0.8250000000000002
 21
-2.125
 31
0.0
  0
LINE
  5
1EB
330
197
100
AcDbEntity
  8
AM_4
100
AcDbLine
 10
-1.03125
 20
-2.125
 30
0.0
 11
1.03125
 21
-2.125
 31
0.0
  0
LINE
  5
1EC
330
197
100
AcDbEntity
  8
AM_4
100
AcDbLine
 10
-1.03125
 20
-0.875
 30
0.0
 11
1.03125
 21
-0.8749999999999998
 31
0.0
  0
LWPOLYLINE
  5
1ED
330
197
100
AcDbEntity
  8
AM_4
100
AcDbPolyline
 90
       19
 70
     0
 43
0.0
 10
0.8250000000000001
 20
-0.9562499953109043
 10
0.8253091811887274
 20
-0.9491685912305003
 10
0.8262343708820111
 20
-0.9421410809467041
 10
0.8277685278276405
 20
-0.9352209480561015
 10
0.8298999761649102
 20
-0.9284608589484807
 10
0.8326124942849698
 20
-0.9219122619838043
 10
0.8358854382870623
 20
-0.9156249959391239
 10
0.8396938990910744
 20
-0.9096469107053952
 10
0.8440088920106757
 20
-0.904023503120913
 10
0.8487975773442845
 20
-0.8987975707129017
 10
0.8540235103050245
 20
-0.8940088859824904
 10
0.85964691838756
 20
-0.8896938937119647
 10
0.8656250040608761
 20
-0.8858854335979667
 10
0.8719122704833322
 20
-0.8826124903215747
 10
0.8784608677610982
 20
-0.8798999729573799
 10
0.8852209571147389
 20
-0.8777685254003861
 10
0.8921410901824198
 20
-0.8762343692535053
 10
0.8991686005730051
 20
-0.8753091803713642
 10
0.9062500000000002
 20
-0.875
  0
ENDBLK
  5
19A
330
197
100
AcDbEntity
  8
0
100
AcDbBlockEnd
  0
ENDSEC
  0
SECTION
  2
ENTITIES
  0
INSERT
  5
6F
330
1F
100
AcDbEntity
  8
0
100
AcDbBlockReference
  2
1_070277_2
 10
0.0
 20
0.0
 30
0.0
  0
POINT
  5
1EF
330
1F
100
AcDbEntity
  8
ConnectionPoints
100
AcDbPoint
 10
-1.859375
 20
0.0
 30
0.0000000000000001
  0
POINT
  5
1F0
330
1F
100
AcDbEntity
  8
ConnectionPoints
100
AcDbPoint
 10
1.545125
 20
0.0
 30
-0.0000000000000001
  0
POINT
  5
1F1
330
1F
100
AcDbEntity
  8
ConnectionPoints
100
AcDbPoint
 10
-1.859375
 20
0.0
 30
0.0000000000000001
  0
POINT
  5
1F2
330
1F
100
AcDbEntity
  8
ConnectionPoints
100
AcDbPoint
 10
0.0000000000000001
 20
1.940438170354508
 30
1.1203125
  0
POINT
  5
1F3
330
1F
100
AcDbEntity
  8
ConnectionPoints
100
AcDbPoint
 10
-1.609375
 20
0.0
 30
0.0000000000000001
  0
POINT
  5
1F4
330
1F
100
AcDbEntity
  8
ConnectionPoints
100
AcDbPoint
 10
-1.859375
 20
0.0
 30
0.0000000000000001
  0
POINT
  5
1F5
330
1F
100
AcDbEntity
  8
ConnectionPoints
100
AcDbPoint
 10
0.0000000000000001
 20
1.940438170354508
 30
1.1203125
  0
ENDSEC
  0
SECTION
  2
OBJECTS
  0
DICTIONARY
  5
C
330
0
100
AcDbDictionary
281
     1
  3
ACAD_DETAILVIEWSTYLE
350
1FD
  3
ACAD_GROUP
350
D
  3
ACAD_LAYOUT
350
1A
  3
ACAD_MATERIAL
350
43
  3
ACAD_MLEADERSTYLE
350
6B
  3
ACAD_MLINESTYLE
350
17
  3
ACAD_PLOTSETTINGS
350
19
  3
ACAD_PLOTSTYLENAME
350
E
  3
ACAD_SCALELIST
350
47
  3
ACAD_SECTIONVIEWSTYLE
350
1FE
  3
ACAD_TABLESTYLE
350
69
  3
ACAD_VISUALSTYLE
350
2A
  3
ACDB_RECOMPOSE_DATA
350
1FA
  3
AcDbVariableDictionary
350
1F6
  0
SUN
  5
6D
330
29
100
AcDbSun
 90
        1
290
     0
 63
     7
421
 16777215
 40
1.0
291
     1
 91
  2455826
 92
 54000000
292
     0
 70
     2
 71
   256
280
     1
  0
DICTIONARY
  5
1FD
102
{ACAD_REACTORS
330
C
102
}
330
C
100
AcDbDictionary
281
     1
  0
DICTIONARY
  5
D
102
{ACAD_REACTORS
330
C
102
}
330
C
100
AcDbDictionary
281
     1
  0
DICTIONARY
  5
1A
102
{ACAD_REACTORS
330
C
102
}
330
C
100
AcDbDictionary
281
     1
  3
Layout1
350
1E
  3
Layout2
350
26
  3
Model
350
22
  0
DICTIONARY
  5
43
102
{ACAD_REACTORS
330
C
102
}
330
C
100
AcDbDictionary
281
     1
  3
ByBlock
350
45
  3
ByLayer
350
44
  3
Global
350
46
  0
DICTIONARY
  5
6B
102
{ACAD_REACTORS
330
C
102
}
330
C
100
AcDbDictionary
281
     1
  3
Standard
350
6C
  0
DICTIONARY
  5
17
102
{ACAD_REACTORS
330
C
102
}
330
C
100
AcDbDictionary
281
     1
  3
Standard
350
18
  0
DICTIONARY
  5
19
102
{ACAD_REACTORS
330
C
102
}
330
C
100
AcDbDictionary
281
     1
  0
ACDBDICTIONARYWDFLT
  5
E
102
{ACAD_REACTORS
330
C
102
}
330
C
100
AcDbDictionary
281
     1
  3
Normal
350
F
100
AcDbDictionaryWithDefault
340
F
  0
DICTIONARY
  5
47
102
{ACAD_REACTORS
330
C
102
}
330
C
100
AcDbDictionary
281
     1
  3
A0
350
48
  3
A1
350
49
  3
A2
350
4A
  3
A3
350
4B
  3
A4
350
4C
  3
A5
350
4D
  3
A6
350
4E
  3
A7
350
4F
  3
A8
350
50
  3
A9
350
51
  3
B0
350
52
  3
B1
350
53
  3
B2
350
54
  3
B3
350
55
  3
B4
350
56
  3
B5
350
57
  3
B6
350
58
  3
B7
350
59
  3
B8
350
5A
  3
B9
350
5B
  3
C0
350
5C
  3
C1
350
5D
  3
C2
350
5E
  3
C3
350
5F
  3
C4
350
60
  3
C5
350
61
  3
C6
350
62
  3
C7
350
63
  3
C8
350
64
  3
C9
350
65
  3
D0
350
66
  3
D1
350
67
  3
D2
350
68
  0
DICTIONARY
  5
1FE
102
{ACAD_REACTORS
330
C
102
}
330
C
100
AcDbDictionary
281
     1
  0
DICTIONARY
  5
69
102
{ACAD_REACTORS
330
C
102
}
330
C
100
AcDbDictionary
281
     1
  3
Standard
350
6A
  0
DICTIONARY
  5
2A
102
{ACAD_REACTORS
330
C
102
}
330
C
100
AcDbDictionary
281
     1
  3
2dWireframe
350
2F
  3
Basic
350
32
  3
Brighten
350
36
  3
ColorChange
350
3A
  3
Conceptual
350
34
  3
Dim
350
35
  3
EdgeColorOff
350
3D
  3
Facepattern
350
39
  3
Flat
350
2B
  3
FlatWithEdges
350
2C
  3
Gouraud
350
2D
  3
GouraudWithEdges
350
2E
  3
Hidden
350
31
  3
JitterOff
350
3B
  3
Linepattern
350
38
  3
OverhangOff
350
3C
  3
Realistic
350
33
  3
Shaded
350
42
  3
Shaded with edges
350
41
  3
Shades of Gray
350
3E
  3
Sketchy
350
3F
  3
Thicken
350
37
  3
Wireframe
350
30
  3
X-Ray
350
40
  0
XRECORD
  5
1FA
102
{ACAD_REACTORS
330
C
102
}
330
C
100
AcDbXrecord
280
     1
 90
        1
330
6A
  0
DICTIONARY
  5
1F6
102
{ACAD_REACTORS
330
C
102
}
330
C
100
AcDbDictionary
281
     1
  3
CANNOSCALE
350
1F7
  3
CMLEADERSTYLE
350
1FC
  3
CTABLESTYLE
350
1FB
  0
LAYOUT
  5
1E
102
{ACAD_REACTORS
330
1A
102
}
330
1A
100
AcDbPlotSettings
  1

  2
none_device
  4

  6

 40
0.0
 41
0.0
 42
0.0
 43
0.0
 44
0.0
 45
0.0
 46
0.0
 47
0.0
 48
0.0
 49
0.0
140
0.0
141
0.0
142
1.0
143
1.0
 70
   688
 72
     0
 73
     0
 74
     5
  7

 75
    16
 76
     0
 77
     2
 78
   300
147
1.0
148
0.0
149
0.0
100
AcDbLayout
  1
Layout1
 70
     1
 71
     1
 10
0.0
 20
0.0
 11
12.0
 21
9.0
 12
0.0
 22
0.0
 32
0.0
 14
1.000000000000000E+20
 24
1.000000000000000E+20
 34
1.000000000000000E+20
 15
-1.000000000000000E+20
 25
-1.000000000000000E+20
 35
-1.000000000000000E+20
146
0.0
 13
0.0
 23
0.0
 33
0.0
 16
1.0
 26
0.0
 36
0.0
 17
0.0
 27
1.0
 37
0.0
 76
     0
330
1B
  0
LAYOUT
  5
26
102
{ACAD_REACTORS
330
1A
102
}
330
1A
100
AcDbPlotSettings
  1

  2
none_device
  4

  6

 40
0.0
 41
0.0
 42
0.0
 43
0.0
 44
0.0
 45
0.0
 46
0.0
 47
0.0
 48
0.0
 49
0.0
140
0.0
141
0.0
142
1.0
143
1.0
 70
   688
 72
     0
 73
     0
 74
     5
  7

 75
    16
 76
     0
 77
     2
 78
   300
147
1.0
148
0.0
149
0.0
100
AcDbLayout
  1
Layout2
 70
     1
 71
     2
 10
0.0
 20
0.0
 11
0.0
 21
0.0
 12
0.0
 22
0.0
 32
0.0
 14
0.0
 24
0.0
 34
0.0
 15
0.0
 25
0.0
 35
0.0
146
0.0
 13
0.0
 23
0.0
 33
0.0
 16
1.0
 26
0.0
 36
0.0
 17
0.0
 27
1.0
 37
0.0
 76
     0
330
23
  0
LAYOUT
  5
22
102
{ACAD_REACTORS
330
1A
102
}
330
1A
100
AcDbPlotSettings
  1

  2
none_device
  4
Letter_(8.50_x_11.00_Inches)
  6

 40
6.35
 41
6.35
 42
6.35000508
 43
6.35000508
 44
215.9
 45
279.4
 46
0.0
 47
0.0
 48
0.0
 49
0.0
140
0.0
141
0.0
142
1.0
143
1.0
 70
  1712
 72
     0
 73
     0
 74
     0
  7

 75
     0
 76
     0
 77
     2
 78
   300
147
1.0
148
0.0
149
0.0
100
AcDbLayout
  1
Model
 70
     1
 71
     0
 10
0.0
 20
0.0
 11
12.0
 21
9.0
 12
0.0
 22
0.0
 32
0.0
 14
1.000000000000000E+20
 24
1.000000000000000E+20
 34
1.000000000000000E+20
 15
-1.000000000000000E+20
 25
-1.000000000000000E+20
 35
-1.000000000000000E+20
146
0.0
 13
0.0
 23
0.0
 33
0.0
 16
1.0
 26
0.0
 36
0.0
 17
0.0
 27
1.0
 37
0.0
 76
     0
330
1F
331
29
  0
MATERIAL
  5
45
102
{ACAD_REACTORS
330
43
102
}
330
43
100
AcDbMaterial
  1
ByBlock
 72
     1
 94
      127
  0
MATERIAL
  5
44
102
{ACAD_REACTORS
330
43
102
}
330
43
100
AcDbMaterial
  1
ByLayer
 72
     1
 94
      127
  0
MATERIAL
  5
46
102
{ACAD_REACTORS
330
43
102
}
330
43
100
AcDbMaterial
  1
Global
 72
     1
 94
      127
  0
MLEADERSTYLE
  5
6C
102
{ACAD_REACTORS
330
6B
102
}
330
6B
100
AcDbMLeaderStyle
179
     2
170
     2
171
     1
172
     0
 90
        2
 40
0.0
 41
0.0
173
     1
 91
-1056964608
340
14
 92
       -2
290
     1
 42
0.09
291
     1
 43
0.36
  3
Standard
341
0
 44
0.18
300

342
11
174
     1
178
     6
175
     1
176
     0
 93
-1056964608
 45
0.18
292
     0
297
     0
 46
0.18
343
0
 94
-1056964608
 47
1.0
 49
1.0
140
1.0
293
     1
141
0.0
294
     1
177
     0
142
1.0
295
     0
296
     0
143
0.125
271
     0
272
     9
273
     9
298
     0
  0
MLINESTYLE
  5
18
102
{ACAD_REACTORS
330
17
102
}
330
17
100
AcDbMlineStyle
  2
Standard
 70
     0
  3

 62
   256
 51
90.0
 52
90.0
 71
     2
 49
0.5
 62
   256
  6
BYLAYER
 49
-0.5
 62
   256
  6
BYLAYER
  0
ACDBPLACEHOLDER
  5
F
102
{ACAD_REACTORS
330
E
102
}
330
E
  0
SCALE
  5
48
102
{ACAD_REACTORS
330
47
102
}
330
47
100
AcDbScale
 70
     0
300
1:1
140
1.0
141
1.0
290
     1
  0
SCALE
  5
49
102
{ACAD_REACTORS
330
47
102
}
330
47
100
AcDbScale
 70
     0
300
1:2
140
1.0
141
2.0
290
     0
  0
SCALE
  5
4A
102
{ACAD_REACTORS
330
47
102
}
330
47
100
AcDbScale
 70
     0
300
1:4
140
1.0
141
4.0
290
     0
  0
SCALE
  5
4B
102
{ACAD_REACTORS
330
47
102
}
330
47
100
AcDbScale
 70
     0
300
1:5
140
1.0
141
5.0
290
     0
  0
SCALE
  5
4C
102
{ACAD_REACTORS
330
47
102
}
330
47
100
AcDbScale
 70
     0
300
1:8
140
1.0
141
8.0
290
     0
  0
SCALE
  5
4D
102
{ACAD_REACTORS
330
47
102
}
330
47
100
AcDbScale
 70
     0
300
1:10
140
1.0
141
10.0
290
     0
  0
SCALE
  5
4E
102
{ACAD_REACTORS
330
47
102
}
330
47
100
AcDbScale
 70
     0
300
1:16
140
1.0
141
16.0
290
     0
  0
SCALE
  5
4F
102
{ACAD_REACTORS
330
47
102
}
330
47
100
AcDbScale
 70
     0
300
1:20
140
1.0
141
20.0
290
     0
  0
SCALE
  5
50
102
{ACAD_REACTORS
330
47
102
}
330
47
100
AcDbScale
 70
     0
300
1:30
140
1.0
141
30.0
290
     0
  0
SCALE
  5
51
102
{ACAD_REACTORS
330
47
102
}
330
47
100
AcDbScale
 70
     0
300
1:40
140
1.0
141
40.0
290
     0
  0
SCALE
  5
52
102
{ACAD_REACTORS
330
47
102
}
330
47
100
AcDbScale
 70
     0
300
1:50
140
1.0
141
50.0
290
     0
  0
SCALE
  5
53
102
{ACAD_REACTORS
330
47
102
}
330
47
100
AcDbScale
 70
     0
300
1:100
140
1.0
141
100.0
290
     0
  0
SCALE
  5
54
102
{ACAD_REACTORS
330
47
102
}
330
47
100
AcDbScale
 70
     0
300
2:1
140
2.0
141
1.0
290
     0
  0
SCALE
  5
55
102
{ACAD_REACTORS
330
47
102
}
330
47
100
AcDbScale
 70
     0
300
4:1
140
4.0
141
1.0
290
     0
  0
SCALE
  5
56
102
{ACAD_REACTORS
330
47
102
}
330
47
100
AcDbScale
 70
     0
300
8:1
140
8.0
141
1.0
290
     0
  0
SCALE
  5
57
102
{ACAD_REACTORS
330
47
102
}
330
47
100
AcDbScale
 70
     0
300
10:1
140
10.0
141
1.0
290
     0
  0
SCALE
  5
58
102
{ACAD_REACTORS
330
47
102
}
330
47
100
AcDbScale
 70
     0
300
100:1
140
100.0
141
1.0
290
     0
  0
SCALE
  5
59
102
{ACAD_REACTORS
330
47
102
}
330
47
100
AcDbScale
 70
     0
300
1/128" = 1'-0"
140
0.0078125
141
12.0
290
     0
  0
SCALE
  5
5A
102
{ACAD_REACTORS
330
47
102
}
330
47
100
AcDbScale
 70
     0
300
1/64" = 1'-0"
140
0.015625
141
12.0
290
     0
  0
SCALE
  5
5B
102
{ACAD_REACTORS
330
47
102
}
330
47
100
AcDbScale
 70
     0
300
1/32" = 1'-0"
140
0.03125
141
12.0
290
     0
  0
SCALE
  5
5C
102
{ACAD_REACTORS
330
47
102
}
330
47
100
AcDbScale
 70
     0
300
1/16" = 1'-0"
140
0.0625
141
12.0
290
     0
  0
SCALE
  5
5D
102
{ACAD_REACTORS
330
47
102
}
330
47
100
AcDbScale
 70
     0
300
3/32" = 1'-0"
140
0.09375
141
12.0
290
     0
  0
SCALE
  5
5E
102
{ACAD_REACTORS
330
47
102
}
330
47
100
AcDbScale
 70
     0
300
1/8" = 1'-0"
140
0.125
141
12.0
290
     0
  0
SCALE
  5
5F
102
{ACAD_REACTORS
330
47
102
}
330
47
100
AcDbScale
 70
     0
300
3/16" = 1'-0"
140
0.1875
141
12.0
290
     0
  0
SCALE
  5
60
102
{ACAD_REACTORS
330
47
102
}
330
47
100
AcDbScale
 70
     0
300
1/4" = 1'-0"
140
0.25
141
12.0
290
     0
  0
SCALE
  5
61
102
{ACAD_REACTORS
330
47
102
}
330
47
100
AcDbScale
 70
     0
300
3/8" = 1'-0"
140
0.375
141
12.0
290
     0
  0
SCALE
  5
62
102
{ACAD_REACTORS
330
47
102
}
330
47
100
AcDbScale
 70
     0
300
1/2" = 1'-0"
140
0.5
141
12.0
290
     0
  0
SCALE
  5
63
102
{ACAD_REACTORS
330
47
102
}
330
47
100
AcDbScale
 70
     0
300
3/4" = 1'-0"
140
0.75
141
12.0
290
     0
  0
SCALE
  5
64
102
{ACAD_REACTORS
330
47
102
}
330
47
100
AcDbScale
 70
     0
300
1" = 1'-0"
140
1.0
141
12.0
290
     0
  0
SCALE
  5
65
102
{ACAD_REACTORS
330
47
102
}
330
47
100
AcDbScale
 70
     0
300
1-1/2" = 1'-0"
140
1.5
141
12.0
290
     0
  0
SCALE
  5
66
102
{ACAD_REACTORS
330
47
102
}
330
47
100
AcDbScale
 70
     0
300
3" = 1'-0"
140
3.0
141
12.0
290
     0
  0
SCALE
  5
67
102
{ACAD_REACTORS
330
47
102
}
330
47
100
AcDbScale
 70
     0
300
6" = 1'-0"
140
6.0
141
12.0
290
     0
  0
SCALE
  5
68
102
{ACAD_REACTORS
330
47
102
}
330
47
100
AcDbScale
 70
     0
300
1'-0" = 1'-0"
140
12.0
141
12.0
290
     0
  0
TABLESTYLE
  5
6A
102
{ACAD_REACTORS
330
69
102
}
102
{ACAD_XDICTIONARY
360
1F8
102
}
330
69
100
AcDbTableStyle
  3
Standard
 70
     0
 71
     0
 40
0.06
 41
0.06
280
     0
281
     0
  7
Standard
140
0.18
170
     2
 62
     0
 63
   257
283
     0
 90
        4
 91
        0
  1

274
    -2
284
     1
 64
     0
275
    -2
285
     1
 65
     0
276
    -2
286
     1
 66
     0
277
    -2
287
     1
 67
     0
278
    -2
288
     1
 68
     0
279
    -2
289
     1
 69
     0
  7
Standard
140
0.25
170
     5
 62
     0
 63
   257
283
     0
 90
        4
 91
        0
  1

274
    -2
284
     1
 64
     0
275
    -2
285
     1
 65
     0
276
    -2
286
     1
 66
     0
277
    -2
287
     1
 67
     0
278
    -2
288
     1
 68
     0
279
    -2
289
     1
 69
     0
  7
Standard
140
0.18
170
     5
 62
     0
 63
   257
283
     0
 90
        4
 91
        0
  1

274
    -2
284
     1
 64
     0
275
    -2
285
     1
 65
     0
276
    -2
286
     1
 66
     0
277
    -2
287
     1
 67
     0
278
    -2
288
     1
 68
     0
279
    -2
289
     1
 69
     0
  0
VISUALSTYLE
  5
2F
102
{ACAD_REACTORS
330
2A
102
}
330
2A
100
AcDbVisualStyle
  2
2dWireframe
 70
     4
177
     3
291
     0
 70
    58
 90
        0
176
     1
 90
        2
176
     1
 90
        0
176
     1
 90
        0
176
     1
 40
0.6
176
     1
 40
30.0
176
     1
 62
     7
420
 16777215
176
     1
 90
        1
176
     1
 90
        4
176
     1
 62
     7
176
     1
 62
   257
176
     1
 90
        1
176
     1
 90
        1
176
     1
 40
1.0
176
     1
 90
        0
176
     1
 62
   257
176
     1
 40
1.0
176
     1
 90
        1
176
     1
 90
        6
176
     1
 90
        2
176
     1
 62
     7
176
     1
 90
        5
176
     1
 90
        0
176
     1
 90
        0
176
     1
290
     0
176
     1
 90
        1
176
     1
 40
0.0
176
     1
 90
        0
176
     1
290
     1
176
     1
290
     1
176
     1
290
     0
176
     1
290
     0
176
     1
290
     0
176
     1
290
     0
176
     1
290
     0
176
     1
290
     0
176
     1
290
     0
176
     1
 90
       50
176
     1
 40
0.0
176
     1
 40
1.0
176
     1
 90
        0
176
     1
 62
    18
420
        0
176
     1
 90
       50
176
     1
 90
        3
176
     1
 62
     5
420
      255
176
     1
290
     0
176
     1
 90
       50
176
     1
 90
       50
176
     1
 90
       50
176
     1
290
     0
176
     1
 90
       50
176
     1
 62
   256
176
     0
 40
1.0
176
     0
 90
        2
176
     1
  1
strokes_ogs.tif
176
     1
290
     0
176
     1
 40
1.0
176
     1
 40
1.0
176
     1
  0
VISUALSTYLE
  5
32
102
{ACAD_REACTORS
330
2A
102
}
330
2A
100
AcDbVisualStyle
  2
Basic
 70
     7
177
     3
291
     1
 70
    58
 90
        1
176
     1
 90
        0
176
     1
 90
        1
176
     1
 90
        0
176
     1
 40
0.6
176
     1
 40
30.0
176
     1
 62
     7
420
 16777215
176
     1
 90
        0
176
     1
 90
        4
176
     1
 62
     7
176
     1
 62
   257
176
     1
 90
        1
176
     1
 90
        1
176
     1
 40
1.0
176
     1
 90
        8
176
     1
 62
     7
176
     1
 40
1.0
176
     1
 90
        1
176
     1
 90
        6
176
     1
 90
        2
176
     1
 62
     7
176
     1
 90
        5
176
     1
 90
        0
176
     1
 90
        0
176
     1
290
     0
176
     1
 90
        1
176
     1
 40
0.0
176
     1
 90
        0
176
     1
290
     0
176
     1
290
     1
176
     1
290
     1
176
     1
290
     0
176
     1
290
     0
176
     1
290
     0
176
     1
290
     0
176
     1
290
     0
176
     1
290
     0
176
     1
 90
       50
176
     1
 40
0.0
176
     1
 40
1.0
176
     1
 90
        0
176
     1
 62
    18
420
        0
176
     1
 90
       50
176
     1
 90
        3
176
     1
 62
     5
420
      255
176
     1
290
     0
176
     1
 90
       50
176
     1
 90
       50
176
     1
 90
       50
176
     1
290
     0
176
     1
 90
       50
176
     1
 62
   256
176
     0
 40
1.0
176
     0
 90
        2
176
     1
  1
strokes_ogs.tif
176
     1
290
     0
176
     1
 40
1.0
176
     1
 40
1.0
176
     1
  0
VISUALSTYLE
  5
36
102
{ACAD_REACTORS
330
2A
102
}
330
2A
100
AcDbVisualStyle
  2
Brighten
 70
    12
177
     3
291
     1
 70
    58
 90
        2
176
     1
 90
        2
176
     1
 90
        0
176
     1
 90
        0
176
     1
 40
0.6
176
     1
 40
30.0
176
     1
 62
     7
420
 16777215
176
     1
 90
        1
176
     1
 90
        4
176
     1
 62
     7
176
     1
 62
   257
176
     1
 90
        1
176
     1
 90
        1
176
     1
 40
1.0
176
     1
 90
        8
176
     1
 62
     7
176
     1
 40
1.0
176
     1
 90
        1
176
     1
 90
        6
176
     1
 90
        2
176
     1
 62
     7
176
     1
 90
        5
176
     1
 90
        0
176
     1
 90
        0
176
     1
290
     0
176
     1
 90
        1
176
     1
 40
50.0
176
     1
 90
        0
176
     1
290
     0
176
     1
290
     1
176
     1
290
     1
176
     1
290
     0
176
     1
290
     0
176
     1
290
     0
176
     1
290
     0
176
     1
290
     0
176
     1
290
     0
176
     1
 90
       50
176
     1
 40
0.0
176
     1
 40
1.0
176
     1
 90
        0
176
     1
 62
    18
420
        0
176
     1
 90
       50
176
     1
 90
        3
176
     1
 62
     5
420
      255
176
     1
290
     0
176
     1
 90
       50
176
     1
 90
       50
176
     1
 90
       50
176
     1
290
     0
176
     1
 90
       50
176
     1
 62
   256
176
     0
 40
1.0
176
     0
 90
        2
176
     1
  1
strokes_ogs.tif
176
     1
290
     0
176
     1
 40
1.0
176
     1
 40
1.0
176
     1
  0
VISUALSTYLE
  5
3A
102
{ACAD_REACTORS
330
2A
102
}
330
2A
100
AcDbVisualStyle
  2
ColorChange
 70
    16
177
     3
291
     1
 70
    58
 90
        2
176
     1
 90
        2
176
     1
 90
        3
176
     1
 90
        0
176
     1
 40
0.6
176
     1
 40
30.0
176
     1
 62
     8
420
  8421504
176
     1
 90
        1
176
     1
 90
        4
176
     1
 62
     7
176
     1
 62
   257
176
     1
 90
        1
176
     1
 90
        1
176
     1
 40
1.0
176
     1
 90
        8
176
     1
 62
     8
420
  8421504
176
     1
 40
1.0
176
     1
 90
        1
176
     1
 90
        6
176
     1
 90
        2
176
     1
 62
     7
176
     1
 90
        5
176
     1
 90
        0
176
     1
 90
        0
176
     1
290
     0
176
     1
 90
        1
176
     1
 40
0.0
176
     1
 90
        0
176
     1
290
     0
176
     1
290
     1
176
     1
290
     1
176
     1
290
     0
176
     1
290
     0
176
     1
290
     0
176
     1
290
     0
176
     1
290
     0
176
     1
290
     0
176
     1
 90
       50
176
     1
 40
0.0
176
     1
 40
1.0
176
     1
 90
        0
176
     1
 62
    18
420
        0
176
     1
 90
       50
176
     1
 90
        3
176
     1
 62
     5
420
      255
176
     1
290
     0
176
     1
 90
       50
176
     1
 90
       50
176
     1
 90
       50
176
     1
290
     0
176
     1
 90
       50
176
     1
 62
   256
176
     0
 40
1.0
176
     0
 90
        2
176
     1
  1
strokes_ogs.tif
176
     1
290
     0
176
     1
 40
1.0
176
     1
 40
1.0
176
     1
  0
VISUALSTYLE
  5
34
102
{ACAD_REACTORS
330
2A
102
}
330
2A
100
AcDbVisualStyle
  2
Conceptual
 70
     9
177
     3
291
     0
 70
    58
 90
        3
176
     1
 90
        2
176
     1
 90
        0
176
     1
 90
        0
176
     1
 40
0.6
176
     1
 40
30.0
176
     1
 62
     7
420
 16777215
176
     1
 90
        2
176
     1
 90
        2
176
     1
 62
     7
176
     1
 62
   257
176
     1
 90
        1
176
     1
 90
        1
176
     1
 40
179.0
176
     1
 90
        8
176
     1
 62
     7
176
     1
 40
1.0
176
     1
 90
        1
176
     1
 90
        6
176
     1
 90
        2
176
     1
 62
     7
176
     1
 90
        3
176
     1
 90
        0
176
     1
 90
        0
176
     1
290
     0
176
     1
 90
        1
176
     1
 40
0.0
176
     1
 90
        0
176
     1
290
     0
176
     1
290
     1
176
     1
290
     1
176
     1
290
     0
176
     1
290
     0
176
     1
290
     0
176
     1
290
     0
176
     1
290
     0
176
     1
290
     0
176
     1
 90
       50
176
     1
 40
0.0
176
     1
 40
1.0
176
     1
 90
        0
176
     1
 62
    18
420
        0
176
     1
 90
       50
176
     1
 90
        3
176
     1
 62
     5
420
      255
176
     1
290
     0
176
     1
 90
       50
176
     1
 90
       50
176
     1
 90
       50
176
     1
290
     0
176
     1
 90
       50
176
     1
 62
   256
176
     0
 40
1.0
176
     0
 90
        2
176
     1
  1
strokes_ogs.tif
176
     1
290
     0
176
     1
 40
1.0
176
     1
 40
1.0
176
     1
  0
VISUALSTYLE
  5
35
102
{ACAD_REACTORS
330
2A
102
}
330
2A
100
AcDbVisualStyle
  2
Dim
 70
    11
177
     3
291
     1
 70
    58
 90
        2
176
     1
 90
        2
176
     1
 90
        0
176
     1
 90
        0
176
     1
 40
0.6
176
     1
 40
30.0
176
     1
 62
     7
420
 16777215
176
     1
 90
        1
176
     1
 90
        4
176
     1
 62
     7
176
     1
 62
   257
176
     1
 90
        1
176
     1
 90
        1
176
     1
 40
1.0
176
     1
 90
        8
176
     1
 62
     7
176
     1
 40
1.0
176
     1
 90
        1
176
     1
 90
        6
176
     1
 90
        2
176
     1
 62
     7
176
     1
 90
        5
176
     1
 90
        0
176
     1
 90
        0
176
     1
290
     0
176
     1
 90
        1
176
     1
 40
-50.0
176
     1
 90
        0
176
     1
290
     0
176
     1
290
     1
176
     1
290
     1
176
     1
290
     0
176
     1
290
     0
176
     1
290
     0
176
     1
290
     0
176
     1
290
     0
176
     1
290
     0
176
     1
 90
       50
176
     1
 40
0.0
176
     1
 40
1.0
176
     1
 90
        0
176
     1
 62
    18
420
        0
176
     1
 90
       50
176
     1
 90
        3
176
     1
 62
     5
420
      255
176
     1
290
     0
176
     1
 90
       50
176
     1
 90
       50
176
     1
 90
       50
176
     1
290
     0
176
     1
 90
       50
176
     1
 62
   256
176
     0
 40
1.0
176
     0
 90
        2
176
     1
  1
strokes_ogs.tif
176
     1
290
     0
176
     1
 40
1.0
176
     1
 40
1.0
176
     1
  0
VISUALSTYLE
  5
3D
102
{ACAD_REACTORS
330
2A
102
}
330
2A
100
AcDbVisualStyle
  2
EdgeColorOff
 70
    22
177
     3
291
     1
 70
    58
 90
        2
176
     0
 90
        2
176
     0
 90
        0
176
     0
 90
        0
176
     0
 40
0.6
176
     0
 40
30.0
176
     0
 62
     7
420
 16777215
176
     0
 90
        1
176
     0
 90
        4
176
     0
 62
     7
176
     0
 62
   257
176
     0
 90
        1
176
     0
 90
        1
176
     0
 40
1.0
176
     0
 90
        8
176
     2
 62
     7
176
     0
 40
1.0
176
     0
 90
        1
176
     0
 90
        6
176
     0
 90
        2
176
     0
 62
     7
176
     0
 90
        5
176
     0
 90
        0
176
     0
 90
        0
176
     0
290
     0
176
     0
 90
        1
176
     0
 40
0.0
176
     0
 90
        0
176
     0
290
     0
176
     0
290
     1
176
     0
290
     1
176
     0
290
     0
176
     0
290
     0
176
     0
290
     0
176
     0
290
     0
176
     0
290
     0
176
     0
290
     0
176
     0
 90
       50
176
     0
 40
0.0
176
     0
 40
1.0
176
     0
 90
        0
176
     0
 62
    18
420
        0
176
     0
 90
       50
176
     0
 90
        3
176
     0
 62
     5
420
      255
176
     0
290
     0
176
     0
 90
       50
176
     0
 90
       50
176
     0
 90
       50
176
     0
290
     0
176
     0
 90
       50
176
     0
 62
   256
176
     0
 40
1.0
176
     0
 90
        2
176
     0
  1
strokes_ogs.tif
176
     0
290
     0
176
     0
 40
1.0
176
     0
 40
1.0
176
     0
  0
VISUALSTYLE
  5
39
102
{ACAD_REACTORS
330
2A
102
}
330
2A
100
AcDbVisualStyle
  2
Facepattern
 70
    15
177
     3
291
     1
 70
    58
 90
        2
176
     1
 90
        2
176
     1
 90
        0
176
     1
 90
        0
176
     1
 40
0.6
176
     1
 40
30.0
176
     1
 62
     7
420
 16777215
176
     1
 90
        1
176
     1
 90
        4
176
     1
 62
     7
176
     1
 62
   257
176
     1
 90
        1
176
     1
 90
        1
176
     1
 40
1.0
176
     1
 90
        8
176
     1
 62
     7
176
     1
 40
1.0
176
     1
 90
        1
176
     1
 90
        6
176
     1
 90
        2
176
     1
 62
     7
176
     1
 90
        5
176
     1
 90
        0
176
     1
 90
        0
176
     1
290
     0
176
     1
 90
        1
176
     1
 40
0.0
176
     1
 90
        0
176
     1
290
     0
176
     1
290
     1
176
     1
290
     1
176
     1
290
     0
176
     1
290
     0
176
     1
290
     0
176
     1
290
     0
176
     1
290
     0
176
     1
290
     0
176
     1
 90
       50
176
     1
 40
0.0
176
     1
 40
1.0
176
     1
 90
        0
176
     1
 62
    18
420
        0
176
     1
 90
       50
176
     1
 90
        3
176
     1
 62
     5
420
      255
176
     1
290
     0
176
     1
 90
       50
176
     1
 90
       50
176
     1
 90
       50
176
     1
290
     0
176
     1
 90
       50
176
     1
 62
   256
176
     0
 40
1.0
176
     0
 90
        2
176
     1
  1
strokes_ogs.tif
176
     1
290
     0
176
     1
 40
1.0
176
     1
 40
1.0
176
     1
  0
VISUALSTYLE
  5
2B
102
{ACAD_REACTORS
330
2A
102
}
330
2A
100
AcDbVisualStyle
  2
Flat
 70
     0
177
     3
291
     1
 70
    58
 90
        2
176
     1
 90
        1
176
     1
 90
        1
176
     1
 90
        2
176
     1
 40
0.6
176
     1
 40
30.0
176
     1
 62
     7
420
 16777215
176
     1
 90
        0
176
     1
 90
        0
176
     1
 62
     7
176
     1
 62
   257
176
     1
 90
        1
176
     1
 90
        1
176
     1
 40
1.0
176
     1
 90
        8
176
     1
 62
     7
176
     1
 40
1.0
176
     1
 90
        1
176
     1
 90
        6
176
     1
 90
        2
176
     1
 62
     7
176
     1
 90
        5
176
     1
 90
        0
176
     1
 90
        0
176
     1
290
     0
176
     1
 90
       13
176
     1
 40
0.0
176
     1
 90
        0
176
     1
290
     0
176
     1
290
     1
176
     1
290
     1
176
     1
290
     0
176
     1
290
     0
176
     1
290
     0
176
     1
290
     0
176
     1
290
     0
176
     1
290
     0
176
     1
 90
       50
176
     1
 40
0.0
176
     1
 40
1.0
176
     1
 90
        0
176
     1
 62
    18
420
        0
176
     1
 90
       50
176
     1
 90
        3
176
     1
 62
     5
420
      255
176
     1
290
     0
176
     1
 90
       50
176
     1
 90
       50
176
     1
 90
       50
176
     1
290
     0
176
     1
 90
       50
176
     1
 62
   256
176
     0
 40
1.0
176
     0
 90
        2
176
     1
  1
strokes_ogs.tif
176
     1
290
     0
176
     1
 40
1.0
176
     1
 40
1.0
176
     1
  0
VISUALSTYLE
  5
2C
102
{ACAD_REACTORS
330
2A
102
}
330
2A
100
AcDbVisualStyle
  2
FlatWithEdges
 70
     1
177
     3
291
     1
 70
    58
 90
        2
176
     1
 90
        1
176
     1
 90
        1
176
     1
 90
        2
176
     1
 40
0.6
176
     1
 40
30.0
176
     1
 62
     7
420
 16777215
176
     1
 90
        1
176
     1
 90
        0
176
     1
 62
     7
176
     1
 62
   257
176
     1
 90
        1
176
     1
 90
        1
176
     1
 40
1.0
176
     1
 90
        0
176
     1
 62
   257
176
     1
 40
1.0
176
     1
 90
        1
176
     1
 90
        6
176
     1
 90
        2
176
     1
 62
     7
176
     1
 90
        5
176
     1
 90
        0
176
     1
 90
        0
176
     1
290
     0
176
     1
 90
       13
176
     1
 40
0.0
176
     1
 90
        0
176
     1
290
     0
176
     1
290
     1
176
     1
290
     1
176
     1
290
     0
176
     1
290
     0
176
     1
290
     0
176
     1
290
     0
176
     1
290
     0
176
     1
290
     0
176
     1
 90
       50
176
     1
 40
0.0
176
     1
 40
1.0
176
     1
 90
        0
176
     1
 62
    18
420
        0
176
     1
 90
       50
176
     1
 90
        3
176
     1
 62
     5
420
      255
176
     1
290
     0
176
     1
 90
       50
176
     1
 90
       50
176
     1
 90
       50
176
     1
290
     0
176
     1
 90
       50
176
     1
 62
   256
176
     0
 40
1.0
176
     0
 90
        2
176
     1
  1
strokes_ogs.tif
176
     1
290
     0
176
     1
 40
1.0
176
     1
 40
1.0
176
     1
  0
VISUALSTYLE
  5
2D
102
{ACAD_REACTORS
330
2A
102
}
330
2A
100
AcDbVisualStyle
  2
Gouraud
 70
     2
177
     3
291
     1
 70
    58
 90
        2
176
     1
 90
        2
176
     1
 90
        1
176
     1
 90
        2
176
     1
 40
0.6
176
     1
 40
30.0
176
     1
 62
     7
420
 16777215
176
     1
 90
        0
176
     1
 90
        0
176
     1
 62
     7
176
     1
 62
   257
176
     1
 90
        1
176
     1
 90
        1
176
     1
 40
1.0
176
     1
 90
        0
176
     1
 62
     7
176
     1
 40
1.0
176
     1
 90
        1
176
     1
 90
        6
176
     1
 90
        2
176
     1
 62
     7
176
     1
 90
        5
176
     1
 90
        0
176
     1
 90
        0
176
     1
290
     0
176
     1
 90
       13
176
     1
 40
0.0
176
     1
 90
        0
176
     1
290
     0
176
     1
290
     1
176
     1
290
     1
176
     1
290
     0
176
     1
290
     0
176
     1
290
     0
176
     1
290
     0
176
     1
290
     0
176
     1
290
     0
176
     1
 90
       50
176
     1
 40
0.0
176
     1
 40
1.0
176
     1
 90
        0
176
     1
 62
    18
420
        0
176
     1
 90
       50
176
     1
 90
        3
176
     1
 62
     5
420
      255
176
     1
290
     0
176
     1
 90
       50
176
     1
 90
       50
176
     1
 90
       50
176
     1
290
     0
176
     1
 90
       50
176
     1
 62
   256
176
     0
 40
1.0
176
     0
 90
        2
176
     1
  1
strokes_ogs.tif
176
     1
290
     0
176
     1
 40
1.0
176
     1
 40
1.0
176
     1
  0
VISUALSTYLE
  5
2E
102
{ACAD_REACTORS
330
2A
102
}
330
2A
100
AcDbVisualStyle
  2
GouraudWithEdges
 70
     3
177
     3
291
     1
 70
    58
 90
        2
176
     1
 90
        2
176
     1
 90
        1
176
     1
 90
        2
176
     1
 40
0.6
176
     1
 40
30.0
176
     1
 62
     7
420
 16777215
176
     1
 90
        1
176
     1
 90
        0
176
     1
 62
     7
176
     1
 62
   257
176
     1
 90
        1
176
     1
 90
        1
176
     1
 40
1.0
176
     1
 90
        0
176
     1
 62
   257
176
     1
 40
1.0
176
     1
 90
        1
176
     1
 90
        6
176
     1
 90
        2
176
     1
 62
     7
176
     1
 90
        5
176
     1
 90
        0
176
     1
 90
        0
176
     1
290
     0
176
     1
 90
       13
176
     1
 40
0.0
176
     1
 90
        0
176
     1
290
     0
176
     1
290
     1
176
     1
290
     1
176
     1
290
     0
176
     1
290
     0
176
     1
290
     0
176
     1
290
     0
176
     1
290
     0
176
     1
290
     0
176
     1
 90
       50
176
     1
 40
0.0
176
     1
 40
1.0
176
     1
 90
        0
176
     1
 62
    18
420
        0
176
     1
 90
       50
176
     1
 90
        3
176
     1
 62
     5
420
      255
176
     1
290
     0
176
     1
 90
       50
176
     1
 90
       50
176
     1
 90
       50
176
     1
290
     0
176
     1
 90
       50
176
     1
 62
   256
176
     0
 40
1.0
176
     0
 90
        2
176
     1
  1
strokes_ogs.tif
176
     1
290
     0
176
     1
 40
1.0
176
     1
 40
1.0
176
     1
  0
VISUALSTYLE
  5
31
102
{ACAD_REACTORS
330
2A
102
}
330
2A
100
AcDbVisualStyle
  2
Hidden
 70
     6
177
     3
291
     0
 70
    58
 90
        1
176
     1
 90
        2
176
     1
 90
        2
176
     1
 90
        0
176
     1
 40
0.6
176
     1
 40
30.0
176
     1
 62
     7
420
 16777215
176
     1
 90
        2
176
     1
 90
        2
176
     1
 62
     7
176
     1
 62
   257
176
     1
 90
        2
176
     1
 90
        1
176
     1
 40
40.0
176
     1
 90
        0
176
     1
 62
   257
176
     1
 40
1.0
176
     1
 90
        1
176
     1
 90
        6
176
     1
 90
        2
176
     1
 62
     7
176
     1
 90
        3
176
     1
 90
        0
176
     1
 90
        0
176
     1
290
     0
176
     1
 90
        1
176
     1
 40
0.0
176
     1
 90
        0
176
     1
290
     0
176
     1
290
     1
176
     1
290
     1
176
     1
290
     0
176
     1
290
     0
176
     1
290
     0
176
     1
290
     0
176
     1
290
     0
176
     1
290
     0
176
     1
 90
       50
176
     1
 40
0.0
176
     1
 40
1.0
176
     1
 90
        0
176
     1
 62
    18
420
        0
176
     1
 90
       50
176
     1
 90
        3
176
     1
 62
     5
420
      255
176
     1
290
     0
176
     1
 90
       50
176
     1
 90
       50
176
     1
 90
       50
176
     1
290
     0
176
     1
 90
       50
176
     1
 62
   256
176
     0
 40
1.0
176
     0
 90
        2
176
     1
  1
strokes_ogs.tif
176
     1
290
     0
176
     1
 40
1.0
176
     1
 40
1.0
176
     1
  0
VISUALSTYLE
  5
3B
102
{ACAD_REACTORS
330
2A
102
}
330
2A
100
AcDbVisualStyle
  2
JitterOff
 70
    20
177
     3
291
     1
 70
    58
 90
        2
176
     0
 90
        2
176
     0
 90
        0
176
     0
 90
        0
176
     0
 40
0.6
176
     0
 40
30.0
176
     0
 62
     7
420
 16777215
176
     0
 90
        1
176
     0
 90
        4
176
     0
 62
     7
176
     0
 62
   257
176
     0
 90
        1
176
     0
 90
        1
176
     0
 40
1.0
176
     0
 90
       10
176
     2
 62
     7
176
     0
 40
1.0
176
     0
 90
        1
176
     0
 90
        6
176
     0
 90
        2
176
     0
 62
     7
176
     0
 90
        5
176
     0
 90
        0
176
     0
 90
        0
176
     0
290
     0
176
     0
 90
        1
176
     0
 40
0.0
176
     0
 90
        0
176
     0
290
     0
176
     0
290
     1
176
     0
290
     1
176
     0
290
     0
176
     0
290
     0
176
     0
290
     0
176
     0
290
     0
176
     0
290
     0
176
     0
290
     0
176
     0
 90
       50
176
     0
 40
0.0
176
     0
 40
1.0
176
     0
 90
        0
176
     0
 62
    18
420
        0
176
     0
 90
       50
176
     0
 90
        3
176
     0
 62
     5
420
      255
176
     0
290
     0
176
     0
 90
       50
176
     0
 90
       50
176
     0
 90
       50
176
     0
290
     0
176
     0
 90
       50
176
     0
 62
   256
176
     0
 40
1.0
176
     0
 90
        2
176
     0
  1
strokes_ogs.tif
176
     0
290
     0
176
     0
 40
1.0
176
     0
 40
1.0
176
     0
  0
VISUALSTYLE
  5
38
102
{ACAD_REACTORS
330
2A
102
}
330
2A
100
AcDbVisualStyle
  2
Linepattern
 70
    14
177
     3
291
     1
 70
    58
 90
        2
176
     1
 90
        2
176
     1
 90
        0
176
     1
 90
        0
176
     1
 40
0.6
176
     1
 40
30.0
176
     1
 62
     7
420
 16777215
176
     1
 90
        1
176
     1
 90
        4
176
     1
 62
     7
176
     1
 62
   257
176
     1
 90
        7
176
     1
 90
        7
176
     1
 40
1.0
176
     1
 90
        8
176
     1
 62
     7
176
     1
 40
1.0
176
     1
 90
        1
176
     1
 90
        6
176
     1
 90
        2
176
     1
 62
     7
176
     1
 90
        5
176
     1
 90
        0
176
     1
 90
        0
176
     1
290
     0
176
     1
 90
        1
176
     1
 40
0.0
176
     1
 90
        0
176
     1
290
     0
176
     1
290
     1
176
     1
290
     1
176
     1
290
     0
176
     1
290
     0
176
     1
290
     0
176
     1
290
     0
176
     1
290
     0
176
     1
290
     0
176
     1
 90
       50
176
     1
 40
0.0
176
     1
 40
1.0
176
     1
 90
        0
176
     1
 62
    18
420
        0
176
     1
 90
       50
176
     1
 90
        3
176
     1
 62
     5
420
      255
176
     1
290
     0
176
     1
 90
       50
176
     1
 90
       50
176
     1
 90
       50
176
     1
290
     0
176
     1
 90
       50
176
     1
 62
   256
176
     0
 40
1.0
176
     0
 90
        2
176
     1
  1
strokes_ogs.tif
176
     1
290
     0
176
     1
 40
1.0
176
     1
 40
1.0
176
     1
  0
VISUALSTYLE
  5
3C
102
{ACAD_REACTORS
330
2A
102
}
330
2A
100
AcDbVisualStyle
  2
OverhangOff
 70
    21
177
     3
291
     1
 70
    58
 90
        2
176
     0
 90
        2
176
     0
 90
        0
176
     0
 90
        0
176
     0
 40
0.6
176
     0
 40
30.0
176
     0
 62
     7
420
 16777215
176
     0
 90
        1
176
     0
 90
        4
176
     0
 62
     7
176
     0
 62
   257
176
     0
 90
        1
176
     0
 90
        1
176
     0
 40
1.0
176
     0
 90
        9
176
     2
 62
     7
176
     0
 40
1.0
176
     0
 90
        1
176
     0
 90
        6
176
     0
 90
        2
176
     0
 62
     7
176
     0
 90
        5
176
     0
 90
        0
176
     0
 90
        0
176
     0
290
     0
176
     0
 90
        1
176
     0
 40
0.0
176
     0
 90
        0
176
     0
290
     0
176
     0
290
     1
176
     0
290
     1
176
     0
290
     0
176
     0
290
     0
176
     0
290
     0
176
     0
290
     0
176
     0
290
     0
176
     0
290
     0
176
     0
 90
       50
176
     0
 40
0.0
176
     0
 40
1.0
176
     0
 90
        0
176
     0
 62
    18
420
        0
176
     0
 90
       50
176
     0
 90
        3
176
     0
 62
     5
420
      255
176
     0
290
     0
176
     0
 90
       50
176
     0
 90
       50
176
     0
 90
       50
176
     0
290
     0
176
     0
 90
       50
176
     0
 62
   256
176
     0
 40
1.0
176
     0
 90
        2
176
     0
  1
strokes_ogs.tif
176
     0
290
     0
176
     0
 40
1.0
176
     0
 40
1.0
176
     0
  0
VISUALSTYLE
  5
33
102
{ACAD_REACTORS
330
2A
102
}
330
2A
100
AcDbVisualStyle
  2
Realistic
 70
     8
177
     3
291
     0
 70
    58
 90
        2
176
     1
 90
        3
176
     1
 90
        0
176
     1
 90
        2
176
     1
 40
0.6
176
     1
 40
30.0
176
     1
 62
     7
420
 16777215
176
     1
 90
        0
176
     1
 90
        0
176
     1
 62
     7
176
     1
 62
   257
176
     1
 90
        1
176
     1
 90
        1
176
     1
 40
1.0
176
     1
 90
        8
176
     1
 62
   257
176
     1
 40
1.0
176
     1
 90
        1
176
     1
 90
        6
176
     1
 90
        2
176
     1
 62
     7
176
     1
 90
        3
176
     1
 90
        0
176
     1
 90
        0
176
     1
290
     0
176
     1
 90
       13
176
     1
 40
0.0
176
     1
 90
        0
176
     1
290
     0
176
     1
290
     1
176
     1
290
     1
176
     1
290
     0
176
     1
290
     0
176
     1
290
     0
176
     1
290
     0
176
     1
290
     0
176
     1
290
     0
176
     1
 90
       50
176
     1
 40
0.0
176
     1
 40
1.0
176
     1
 90
        0
176
     1
 62
    18
420
        0
176
     1
 90
       50
176
     1
 90
        3
176
     1
 62
     5
420
      255
176
     1
290
     0
176
     1
 90
       50
176
     1
 90
       50
176
     1
 90
       50
176
     1
290
     0
176
     1
 90
       50
176
     1
 62
   256
176
     0
 40
1.0
176
     0
 90
        2
176
     1
  1
strokes_ogs.tif
176
     1
290
     0
176
     1
 40
1.0
176
     1
 40
1.0
176
     1
  0
VISUALSTYLE
  5
42
102
{ACAD_REACTORS
330
2A
102
}
330
2A
100
AcDbVisualStyle
  2
Shaded
 70
    27
177
     3
291
     0
 70
    58
 90
        2
176
     1
 90
        2
176
     1
 90
        1
176
     1
 90
        2
176
     1
 40
0.6
176
     1
 40
30.0
176
     1
 62
     7
420
 16777215
176
     1
 90
        0
176
     1
 90
        4
176
     1
 62
     7
176
     1
 62
   257
176
     1
 90
        1
176
     1
 90
        1
176
     1
 40
1.0
176
     1
 90
        8
176
     1
 62
   257
176
     1
 40
1.0
176
     1
 90
        1
176
     1
 90
        6
176
     1
 90
        2
176
     1
 62
     8
420
  7895160
176
     1
 90
        3
176
     1
 90
        0
176
     1
 90
        0
176
     1
290
     0
176
     1
 90
        5
176
     1
 40
0.0
176
     1
 90
        0
176
     1
290
     0
176
     1
290
     1
176
     1
290
     1
176
     1
290
     0
176
     1
290
     0
176
     1
290
     0
176
     1
290
     0
176
     1
290
     0
176
     1
290
     0
176
     1
 90
       50
176
     1
 40
0.0
176
     1
 40
1.0
176
     1
 90
        0
176
     1
 62
    18
420
        0
176
     1
 90
       50
176
     1
 90
        3
176
     1
 62
     5
420
      255
176
     1
290
     0
176
     1
 90
       50
176
     1
 90
       50
176
     1
 90
       50
176
     1
290
     0
176
     1
 90
       50
176
     1
 62
   256
176
     0
 40
1.0
176
     0
 90
        2
176
     1
  1
strokes_ogs.tif
176
     1
290
     0
176
     1
 40
1.0
176
     1
 40
1.0
176
     1
  0
VISUALSTYLE
  5
41
102
{ACAD_REACTORS
330
2A
102
}
330
2A
100
AcDbVisualStyle
  2
Shaded with edges
 70
    26
177
     3
291
     0
 70
    58
 90
        2
176
     1
 90
        2
176
     1
 90
        1
176
     1
 90
        2
176
     1
 40
0.6
176
     1
 40
30.0
176
     1
 62
     7
420
 16777215
176
     1
 90
        1
176
     1
 90
       10
176
     1
 62
     7
176
     1
 62
   257
176
     1
 90
        2
176
     1
 90
        1
176
     1
 40
1.0
176
     1
 90
        8
176
     1
 62
   257
176
     1
 40
1.0
176
     1
 90
        1
176
     1
 90
        6
176
     1
 90
        2
176
     1
 62
     7
176
     1
 90
        3
176
     1
 90
        0
176
     1
 90
        0
176
     1
290
     0
176
     1
 90
        5
176
     1
 40
0.0
176
     1
 90
        0
176
     1
290
     0
176
     1
290
     1
176
     1
290
     1
176
     1
290
     0
176
     1
290
     0
176
     1
290
     0
176
     1
290
     0
176
     1
290
     0
176
     1
290
     0
176
     1
 90
       50
176
     1
 40
0.0
176
     1
 40
1.0
176
     1
 90
        0
176
     1
 62
    18
420
        0
176
     1
 90
       50
176
     1
 90
        3
176
     1
 62
     5
420
      255
176
     1
290
     0
176
     1
 90
       50
176
     1
 90
       50
176
     1
 90
       50
176
     1
290
     0
176
     1
 90
       50
176
     1
 62
   256
176
     0
 40
1.0
176
     0
 90
        2
176
     1
  1
strokes_ogs.tif
176
     1
290
     0
176
     1
 40
1.0
176
     1
 40
1.0
176
     1
  0
VISUALSTYLE
  5
3E
102
{ACAD_REACTORS
330
2A
102
}
330
2A
100
AcDbVisualStyle
  2
Shades of Gray
 70
    23
177
     3
291
     0
 70
    58
 90
        2
176
     1
 90
        2
176
     1
 90
        3
176
     1
 90
        0
176
     1
 40
0.6
176
     1
 40
30.0
176
     1
 62
     7
420
 16777215
176
     1
 90
        2
176
     1
 90
        2
176
     1
 62
     7
176
     1
 62
     7
176
     1
 90
        1
176
     1
 90
        1
176
     1
 40
40.0
176
     1
 90
        8
176
     1
 62
     7
176
     1
 40
1.0
176
     1
 90
        1
176
     1
 90
        6
176
     1
 90
        2
176
     1
 62
     7
176
     1
 90
        3
176
     1
 90
        0
176
     1
 90
        0
176
     1
290
     0
176
     1
 90
        1
176
     1
 40
0.0
176
     1
 90
        0
176
     1
290
     0
176
     1
290
     1
176
     1
290
     1
176
     1
290
     0
176
     1
290
     0
176
     1
290
     0
176
     1
290
     0
176
     1
290
     0
176
     1
290
     0
176
     1
 90
       50
176
     1
 40
0.0
176
     1
 40
1.0
176
     1
 90
        0
176
     1
 62
    18
420
        0
176
     1
 90
       50
176
     1
 90
        3
176
     1
 62
     5
420
      255
176
     1
290
     0
176
     1
 90
       50
176
     1
 90
       50
176
     1
 90
       50
176
     1
290
     0
176
     1
 90
       50
176
     1
 62
   256
176
     0
 40
1.0
176
     0
 90
        2
176
     1
  1
strokes_ogs.tif
176
     1
290
     0
176
     1
 40
1.0
176
     1
 40
1.0
176
     1
  0
VISUALSTYLE
  5
3F
102
{ACAD_REACTORS
330
2A
102
}
330
2A
100
AcDbVisualStyle
  2
Sketchy
 70
    24
177
     3
291
     0
 70
    58
 90
        1
176
     1
 90
        2
176
     1
 90
        2
176
     1
 90
        0
176
     1
 40
0.6
176
     1
 40
30.0
176
     1
 62
     7
420
 16777215
176
     1
 90
        2
176
     1
 90
        2
176
     1
 62
     7
176
     1
 62
     7
176
     1
 90
        1
176
     1
 90
        1
176
     1
 40
40.0
176
     1
 90
       11
176
     1
 62
     7
176
     1
 40
1.0
176
     1
 90
        1
176
     1
 90
        6
176
     1
 90
        2
176
     1
 62
     7
176
     1
 90
        6
176
     1
 90
        0
176
     1
 90
        0
176
     1
290
     0
176
     1
 90
        1
176
     1
 40
0.0
176
     1
 90
        0
176
     1
290
     0
176
     1
290
     1
176
     1
290
     1
176
     1
290
     0
176
     1
290
     0
176
     1
290
     0
176
     1
290
     0
176
     1
290
     0
176
     1
290
     0
176
     1
 90
       50
176
     1
 40
0.0
176
     1
 40
1.0
176
     1
 90
        0
176
     1
 62
    18
420
        0
176
     1
 90
       50
176
     1
 90
        3
176
     1
 62
     5
420
      255
176
     1
290
     0
176
     1
 90
       50
176
     1
 90
       50
176
     1
 90
       50
176
     1
290
     0
176
     1
 90
       50
176
     1
 62
   256
176
     0
 40
1.0
176
     0
 90
        2
176
     1
  1
strokes_ogs.tif
176
     1
290
     0
176
     1
 40
1.0
176
     1
 40
1.0
176
     1
  0
VISUALSTYLE
  5
37
102
{ACAD_REACTORS
330
2A
102
}
330
2A
100
AcDbVisualStyle
  2
Thicken
 70
    13
177
     3
291
     1
 70
    58
 90
        2
176
     1
 90
        2
176
     1
 90
        0
176
     1
 90
        0
176
     1
 40
0.6
176
     1
 40
30.0
176
     1
 62
     7
420
 16777215
176
     1
 90
        1
176
     1
 90
        4
176
     1
 62
     7
176
     1
 62
   257
176
     1
 90
        1
176
     1
 90
        1
176
     1
 40
1.0
176
     1
 90
       12
176
     1
 62
     7
176
     1
 40
1.0
176
     1
 90
        1
176
     1
 90
        6
176
     1
 90
        2
176
     1
 62
     7
176
     1
 90
        5
176
     1
 90
        0
176
     1
 90
        0
176
     1
290
     0
176
     1
 90
        1
176
     1
 40
0.0
176
     1
 90
        0
176
     1
290
     0
176
     1
290
     1
176
     1
290
     1
176
     1
290
     0
176
     1
290
     0
176
     1
290
     0
176
     1
290
     0
176
     1
290
     0
176
     1
290
     0
176
     1
 90
       50
176
     1
 40
0.0
176
     1
 40
1.0
176
     1
 90
        0
176
     1
 62
    18
420
        0
176
     1
 90
       50
176
     1
 90
        3
176
     1
 62
     5
420
      255
176
     1
290
     0
176
     1
 90
       50
176
     1
 90
       50
176
     1
 90
       50
176
     1
290
     0
176
     1
 90
       50
176
     1
 62
   256
176
     0
 40
1.0
176
     0
 90
        2
176
     1
  1
strokes_ogs.tif
176
     1
290
     0
176
     1
 40
1.0
176
     1
 40
1.0
176
     1
  0
VISUALSTYLE
  5
30
102
{ACAD_REACTORS
330
2A
102
}
330
2A
100
AcDbVisualStyle
  2
Wireframe
 70
     5
177
     3
291
     0
 70
    58
 90
        0
176
     1
 90
        2
176
     1
 90
        0
176
     1
 90
        0
176
     1
 40
0.6
176
     1
 40
30.0
176
     1
 62
     7
420
 16777215
176
     1
 90
        1
176
     1
 90
        4
176
     1
 62
     7
176
     1
 62
   257
176
     1
 90
        1
176
     1
 90
        1
176
     1
 40
1.0
176
     1
 90
        0
176
     1
 62
   257
176
     1
 40
1.0
176
     1
 90
        1
176
     1
 90
        6
176
     1
 90
        2
176
     1
 62
     7
176
     1
 90
        3
176
     1
 90
        0
176
     1
 90
        0
176
     1
290
     0
176
     1
 90
        1
176
     1
 40
0.0
176
     1
 90
        0
176
     1
290
     0
176
     1
290
     1
176
     1
290
     1
176
     1
290
     0
176
     1
290
     0
176
     1
290
     0
176
     1
290
     0
176
     1
290
     0
176
     1
290
     0
176
     1
 90
       50
176
     1
 40
0.0
176
     1
 40
1.0
176
     1
 90
        0
176
     1
 62
    18
420
        0
176
     1
 90
       50
176
     1
 90
        3
176
     1
 62
     5
420
      255
176
     1
290
     0
176
     1
 90
       50
176
     1
 90
       50
176
     1
 90
       50
176
     1
290
     0
176
     1
 90
       50
176
     1
 62
   256
176
     0
 40
1.0
176
     0
 90
        2
176
     1
  1
strokes_ogs.tif
176
     1
290
     0
176
     1
 40
1.0
176
     1
 40
1.0
176
     1
  0
VISUALSTYLE
  5
40
102
{ACAD_REACTORS
330
2A
102
}
330
2A
100
AcDbVisualStyle
  2
X-Ray
 70
    25
177
     3
291
     0
 70
    58
 90
        2
176
     1
 90
        2
176
     1
 90
        1
176
     1
 90
        1
176
     1
 40
0.5
176
     1
 40
30.0
176
     1
 62
     7
420
 16777215
176
     1
 90
        1
176
     1
 90
        0
176
     1
 62
     7
176
     1
 62
   257
176
     1
 90
        1
176
     1
 90
        1
176
     1
 40
1.0
176
     1
 90
        8
176
     1
 62
     7
176
     1
 40
1.0
176
     1
 90
        1
176
     1
 90
        6
176
     1
 90
        2
176
     1
 62
     7
176
     1
 90
        3
176
     1
 90
        0
176
     1
 90
        0
176
     1
290
     0
176
     1
 90
       13
176
     1
 40
0.0
176
     1
 90
        0
176
     1
290
     0
176
     1
290
     1
176
     1
290
     1
176
     1
290
     0
176
     1
290
     0
176
     1
290
     0
176
     1
290
     0
176
     1
290
     0
176
     1
290
     0
176
     1
 90
       50
176
     1
 40
0.0
176
     1
 40
1.0
176
     1
 90
        0
176
     1
 62
    18
420
        0
176
     1
 90
       50
176
     1
 90
        3
176
     1
 62
     5
420
      255
176
     1
290
     0
176
     1
 90
       50
176
     1
 90
       50
176
     1
 90
       50
176
     1
290
     0
176
     1
 90
       50
176
     1
 62
   256
176
     0
 40
1.0
176
     0
 90
        2
176
     1
  1
strokes_ogs.tif
176
     1
290
     0
176
     1
 40
1.0
176
     1
 40
1.0
176
     1
  0
DICTIONARYVAR
  5
1F7
102
{ACAD_REACTORS
330
1F6
102
}
330
1F6
100
DictionaryVariables
280
     0
  1
1:1
  0
DICTIONARYVAR
  5
1FC
102
{ACAD_REACTORS
330
1F6
102
}
330
1F6
100
DictionaryVariables
280
     0
  1
Standard
  0
DICTIONARYVAR
  5
1FB
102
{ACAD_REACTORS
330
1F6
102
}
330
1F6
100
DictionaryVariables
280
     0
  1
Standard
  0
DICTIONARY
  5
1F8
330
6A
100
AcDbDictionary
280
     1
281
     1
  3
ACAD_ROUNDTRIP_2008_TABLESTYLE_CELLSTYLEMAP
360
1F9
  0
CELLSTYLEMAP
  5
1F9
102
{ACAD_REACTORS
330
1F8
102
}
330
1F8
100
AcDbCellStyleMap
 90
        3
300
CELLSTYLE
  1
TABLEFORMAT_BEGIN
 90
        5
170
     1
 91
        0
 92
    32768
 62
   257
 93
        1
300
CONTENTFORMAT
  1
CONTENTFORMAT_BEGIN
 90
        0
 91
        0
 92
        4
 93
        0
300

 40
0.0
140
1.0
 94
        5
 62
     0
340
11
144
0.25
309
CONTENTFORMAT_END
171
     1
301
MARGIN
  1
CELLMARGIN_BEGIN
 40
0.06
 40
0.06
 40
0.06
 40
0.06
 40
0.06
 40
0.06
309
CELLMARGIN_END
 94
        6
 95
        1
302
GRIDFORMAT
  1
GRIDFORMAT_BEGIN
 90
        0
 91
        1
 62
     0
 92
       -2
340
14
 93
        0
 40
0.045
309
GRIDFORMAT_END
 95
        2
302
GRIDFORMAT
  1
GRIDFORMAT_BEGIN
 90
        0
 91
        1
 62
     0
 92
       -2
340
14
 93
        0
 40
0.045
309
GRIDFORMAT_END
 95
        4
302
GRIDFORMAT
  1
GRIDFORMAT_BEGIN
 90
        0
 91
        1
 62
     0
 92
       -2
340
14
 93
        0
 40
0.045
309
GRIDFORMAT_END
 95
        8
302
GRIDFORMAT
  1
GRIDFORMAT_BEGIN
 90
        0
 91
        1
 62
     0
 92
       -2
340
14
 93
        0
 40
0.045
309
GRIDFORMAT_END
 95
       16
302
GRIDFORMAT
  1
GRIDFORMAT_BEGIN
 90
        0
 91
        1
 62
     0
 92
       -2
340
14
 93
        0
 40
0.045
309
GRIDFORMAT_END
 95
       32
302
GRIDFORMAT
  1
GRIDFORMAT_BEGIN
 90
        0
 91
        1
 62
     0
 92
       -2
340
14
 93
        0
 40
0.045
309
GRIDFORMAT_END
309
TABLEFORMAT_END
  1
CELLSTYLE_BEGIN
 90
        1
 91
        1
300
_TITLE
309
CELLSTYLE_END
300
CELLSTYLE
  1
TABLEFORMAT_BEGIN
 90
        5
170
     1
 91
        0
 92
        0
 62
   257
 93
        1
300
CONTENTFORMAT
  1
CONTENTFORMAT_BEGIN
 90
        0
 91
        0
 92
        4
 93
        0
300

 40
0.0
140
1.0
 94
        5
 62
     0
340
11
144
0.18
309
CONTENTFORMAT_END
171
     1
301
MARGIN
  1
CELLMARGIN_BEGIN
 40
0.06
 40
0.06
 40
0.06
 40
0.06
 40
0.06
 40
0.06
309
CELLMARGIN_END
 94
        6
 95
        1
302
GRIDFORMAT
  1
GRIDFORMAT_BEGIN
 90
        0
 91
        1
 62
     0
 92
       -2
340
14
 93
        0
 40
0.045
309
GRIDFORMAT_END
 95
        2
302
GRIDFORMAT
  1
GRIDFORMAT_BEGIN
 90
        0
 91
        1
 62
     0
 92
       -2
340
14
 93
        0
 40
0.045
309
GRIDFORMAT_END
 95
        4
302
GRIDFORMAT
  1
GRIDFORMAT_BEGIN
 90
        0
 91
        1
 62
     0
 92
       -2
340
14
 93
        0
 40
0.045
309
GRIDFORMAT_END
 95
        8
302
GRIDFORMAT
  1
GRIDFORMAT_BEGIN
 90
        0
 91
        1
 62
     0
 92
       -2
340
14
 93
        0
 40
0.045
309
GRIDFORMAT_END
 95
       16
302
GRIDFORMAT
  1
GRIDFORMAT_BEGIN
 90
        0
 91
        1
 62
     0
 92
       -2
340
14
 93
        0
 40
0.045
309
GRIDFORMAT_END
 95
       32
302
GRIDFORMAT
  1
GRIDFORMAT_BEGIN
 90
        0
 91
        1
 62
     0
 92
       -2
340
14
 93
        0
 40
0.045
309
GRIDFORMAT_END
309
TABLEFORMAT_END
  1
CELLSTYLE_BEGIN
 90
        2
 91
        1
300
_HEADER
309
CELLSTYLE_END
300
CELLSTYLE
  1
TABLEFORMAT_BEGIN
 90
        5
170
     1
 91
        0
 92
        0
 62
   257
 93
        1
300
CONTENTFORMAT
  1
CONTENTFORMAT_BEGIN
 90
        0
 91
        0
 92
        4
 93
        0
300

 40
0.0
140
1.0
 94
        2
 62
     0
340
11
144
0.18
309
CONTENTFORMAT_END
171
     1
301
MARGIN
  1
CELLMARGIN_BEGIN
 40
0.06
 40
0.06
 40
0.06
 40
0.06
 40
0.06
 40
0.06
309
CELLMARGIN_END
 94
        6
 95
        1
302
GRIDFORMAT
  1
GRIDFORMAT_BEGIN
 90
        0
 91
        1
 62
     0
 92
       -2
340
14
 93
        0
 40
0.045
309
GRIDFORMAT_END
 95
        2
302
GRIDFORMAT
  1
GRIDFORMAT_BEGIN
 90
        0
 91
        1
 62
     0
 92
       -2
340
14
 93
        0
 40
0.045
309
GRIDFORMAT_END
 95
        4
302
GRIDFORMAT
  1
GRIDFORMAT_BEGIN
 90
        0
 91
        1
 62
     0
 92
       -2
340
14
 93
        0
 40
0.045
309
GRIDFORMAT_END
 95
        8
302
GRIDFORMAT
  1
GRIDFORMAT_BEGIN
 90
        0
 91
        1
 62
     0
 92
       -2
340
14
 93
        0
 40
0.045
309
GRIDFORMAT_END
 95
       16
302
GRIDFORMAT
  1
GRIDFORMAT_BEGIN
 90
        0
 91
        1
 62
     0
 92
       -2
340
14
 93
        0
 40
0.045
309
GRIDFORMAT_END
 95
       32
302
GRIDFORMAT
  1
GRIDFORMAT_BEGIN
 90
        0
 91
        1
 62
     0
 92
       -2
340
14
 93
        0
 40
0.045
309
GRIDFORMAT_END
309
TABLEFORMAT_END
  1
CELLSTYLE_BEGIN
 90
        3
 91
        2
300
_DATA
309
CELLSTYLE_END
  0
ENDSEC
  0
EOF