0
SECTION
  2
HEADER
  9
$ACADVER
  1
AC1027
  9
$ACADMAINTVER
 70
     8
  9
$DWGCODEPAGE
  3
ANSI_1252
  9
$REQUIREDVERSIONS
160
                 0
  9
$COMMENTS
  1
File was created by Cadenas
  9
$CUSTOMPROPERTYTAG
  1
NN
  9
$CUSTOMPROPERTY
  1
S-2000 Pillow Block 2-Bolt Inch Bore (Contact Seal)
  9
$CUSTOMPROPERTYTAG
  1
NT
  9
$CUSTOMPROPERTY
  1
S-2000 Pillow Block Bearing -Inch (2-Bolt Base)
  9
$CUSTOMPROPERTYTAG
  1
NB
  9
$CUSTOMPROPERTY
  1
070273
  9
$CUSTOMPROPERTYTAG
  1
NBSYN
  9
$CUSTOMPROPERTY
  1
$PN.
  9
$CUSTOMPROPERTYTAG
  1
LINA
  9
$CUSTOMPROPERTY
  1
070273
  9
$CUSTOMPROPERTYTAG
  1
SS
  9
$CUSTOMPROPERTY
  1
1-7/16
  9
$CUSTOMPROPERTYTAG
  1
PN
  9
$CUSTOMPROPERTY
  1
070273
  9
$CUSTOMPROPERTYTAG
  1
DESCRIPTION
  9
$CUSTOMPROPERTY
  1
P2B-S2-107R
  9
$CUSTOMPROPERTYTAG
  1
EF
  9
$CUSTOMPROPERTY
  1
Non-Expansion Type
  9
$CUSTOMPROPERTYTAG
  1
ST
  9
$CUSTOMPROPERTY
  1
Contact Seal
  9
$CUSTOMPROPERTYTAG
  1
A
  9
$CUSTOMPROPERTY
  1
2-17/32
  9
$CUSTOMPROPERTYTAG
  1
B
  9
$CUSTOMPROPERTY
  1
6-7/8
  9
$CUSTOMPROPERTYTAG
  1
C
  9
$CUSTOMPROPERTY
  1
1-61/64
  9
$CUSTOMPROPERTYTAG
  1
DMIN
  9
$CUSTOMPROPERTY
  1
4-13/16
  9
$CUSTOMPROPERTYTAG
  1
DMAX
  9
$CUSTOMPROPERTY
  1
5-13/64
  9
$CUSTOMPROPERTYTAG
  1
F
  9
$CUSTOMPROPERTY
  1
1/2
  9
$CUSTOMPROPERTYTAG
  1
G
  9
$CUSTOMPROPERTY
  1
13/16
  9
$CUSTOMPROPERTYTAG
  1
H
  9
$CUSTOMPROPERTY
  1
1-1/8
  9
$CUSTOMPROPERTYTAG
  1
J
  9
$CUSTOMPROPERTY
  1
3-7/8
  9
$CUSTOMPROPERTYTAG
  1
L
  9
$CUSTOMPROPERTY
  1
2-3/4
  9
$CUSTOMPROPERTYTAG
  1
M
  9
$CUSTOMPROPERTY
  1
1-7/8
  9
$CUSTOMPROPERTYTAG
  1
R
  9
$CUSTOMPROPERTY
  1
7/8
  9
$CUSTOMPROPERTYTAG
  1
S
  9
$CUSTOMPROPERTY
  1
1-21/32
  9
$CUSTOMPROPERTYTAG
  1
X
  9
$CUSTOMPROPERTY
  1
3/16
  9
$CUSTOMPROPERTYTAG
  1
Y
  9
$CUSTOMPROPERTY
  1
0.020
  9
$CUSTOMPROPERTYTAG
  1
Z
  9
$CUSTOMPROPERTY
  1
1-51/64
  9
$CUSTOMPROPERTYTAG
  1
COMPANY
  9
$CUSTOMPROPERTY
  1
baldor
  9
$INSBASE
 10
0.0
 20
0.0
 30
0.0
  9
$EXTMIN
 10
1.000000000000000E+20
 20
1.000000000000000E+20
 30
1.000000000000000E+20
  9
$EXTMAX
 10
-1.000000000000000E+20
 20
-1.000000000000000E+20
 30
-1.000000000000000E+20
  9
$LIMMIN
 10
0.0
 20
0.0
  9
$LIMMAX
 10
12.0
 20
9.0
  9
$ORTHOMODE
 70
     0
  9
$REGENMODE
 70
     1
  9
$FILLMODE
 70
     1
  9
$QTEXTMODE
 70
     0
  9
$MIRRTEXT
 70
     1
  9
$LTSCALE
 40
1.0
  9
$ATTMODE
 70
     1
  9
$TEXTSIZE
 40
0.2
  9
$TRACEWID
 40
0.05
  9
$TEXTSTYLE
  7
Standard
  9
$CLAYER
  8
0
  9
$CELTYPE
  6
ByLayer
  9
$CECOLOR
 62
   256
  9
$CELTSCALE
 40
1.0
  9
$DISPSILH
 70
     0
  9
$DIMSCALE
 40
1.0
  9
$DIMASZ
 40
0.18
  9
$DIMEXO
 40
0.0625
  9
$DIMDLI
 40
0.38
  9
$DIMRND
 40
0.0
  9
$DIMDLE
 40
0.0
  9
$DIMEXE
 40
0.18
  9
$DIMTP
 40
0.0
  9
$DIMTM
 40
0.0
  9
$DIMTXT
 40
0.18
  9
$DIMCEN
 40
0.09
  9
$DIMTSZ
 40
0.0
  9
$DIMTOL
 70
     0
  9
$DIMLIM
 70
     0
  9
$DIMTIH
 70
     1
  9
$DIMTOH
 70
     1
  9
$DIMSE1
 70
     0
  9
$DIMSE2
 70
     0
  9
$DIMTAD
 70
     0
  9
$DIMZIN
 70
     0
  9
$DIMBLK
  1

  9
$DIMASO
 70
     1
  9
$DIMSHO
 70
     1
  9
$DIMPOST
  1

  9
$DIMAPOST
  1

  9
$DIMALT
 70
     0
  9
$DIMALTD
 70
     2
  9
$DIMALTF
 40
25.4
  9
$DIMLFAC
 40
1.0
  9
$DIMTOFL
 70
     0
  9
$DIMTVP
 40
0.0
  9
$DIMTIX
 70
     0
  9
$DIMSOXD
 70
     0
  9
$DIMSAH
 70
     0
  9
$DIMBLK1
  1

  9
$DIMBLK2
  1

  9
$DIMSTYLE
  2
Standard
  9
$DIMCLRD
 70
     0
  9
$DIMCLRE
 70
     0
  9
$DIMCLRT
 70
     0
  9
$DIMTFAC
 40
1.0
  9
$DIMGAP
 40
0.09
  9
$DIMJUST
 70
     0
  9
$DIMSD1
 70
     0
  9
$DIMSD2
 70
     0
  9
$DIMTOLJ
 70
     1
  9
$DIMTZIN
 70
     0
  9
$DIMALTZ
 70
     0
  9
$DIMALTTZ
 70
     0
  9
$DIMUPT
 70
     0
  9
$DIMDEC
 70
     4
  9
$DIMTDEC
 70
     4
  9
$DIMALTU
 70
     2
  9
$DIMALTTD
 70
     2
  9
$DIMTXSTY
  7
Standard
  9
$DIMAUNIT
 70
     0
  9
$DIMADEC
 70
     0
  9
$DIMALTRND
 40
0.0
  9
$DIMAZIN
 70
     0
  9
$DIMDSEP
 70
    46
  9
$DIMATFIT
 70
     3
  9
$DIMFRAC
 70
     0
  9
$DIMLDRBLK
  1

  9
$DIMLUNIT
 70
     2
  9
$DIMLWD
 70
    -2
  9
$DIMLWE
 70
    -2
  9
$DIMTMOVE
 70
     0
  9
$DIMFXL
 40
1.0
  9
$DIMFXLON
 70
     0
  9
$DIMJOGANG
 40
0.7853981633974483
  9
$DIMTFILL
 70
     0
  9
$DIMTFILLCLR
 70
     0
  9
$DIMARCSYM
 70
     0
  9
$DIMLTYPE
  6

  9
$DIMLTEX1
  6

  9
$DIMLTEX2
  6

  9
$DIMTXTDIRECTION
 70
     0
  9
$LUNITS
 70
     2
  9
$LUPREC
 70
     4
  9
$SKETCHINC
 40
0.1
  9
$FILLETRAD
 40
0.5
  9
$AUNITS
 70
     0
  9
$AUPREC
 70
     0
  9
$MENU
  1
.
  9
$ELEVATION
 40
0.0
  9
$PELEVATION
 40
0.0
  9
$THICKNESS
 40
0.0
  9
$LIMCHECK
 70
     0
  9
$CHAMFERA
 40
0.0
  9
$CHAMFERB
 40
0.0
  9
$CHAMFERC
 40
0.0
  9
$CHAMFERD
 40
0.0
  9
$SKPOLY
 70
     0
  9
$TDCREATE
 40
2458168.985153796
  9
$TDUCREATE
 40
2458168.94348713
  9
$TDUPDATE
 40
2458168.985154155
  9
$TDUUPDATE
 40
2458168.943487488
  9
$TDINDWG
 40
0.0000000116
  9
$TDUSRTIMER
 40
0.0000000116
  9
$USRTIMER
 70
     1
  9
$ANGBASE
 50
0.0
  9
$ANGDIR
 70
     0
  9
$PDMODE
 70
     0
  9
$PDSIZE
 40
0.0
  9
$PLINEWID
 40
0.0
  9
$SPLFRAME
 70
     0
  9
$SPLINETYPE
 70
     6
  9
$SPLINESEGS
 70
     8
  9
$HANDSEED
  5
1F1
  9
$SURFTAB1
 70
     6
  9
$SURFTAB2
 70
     6
  9
$SURFTYPE
 70
     6
  9
$SURFU
 70
     6
  9
$SURFV
 70
     6
  9
$UCSBASE
  2

  9
$UCSNAME
  2

  9
$UCSORG
 10
0.0
 20
0.0
 30
0.0
  9
$UCSXDIR
 10
1.0
 20
0.0
 30
0.0
  9
$UCSYDIR
 10
0.0
 20
1.0
 30
0.0
  9
$UCSORTHOREF
  2

  9
$UCSORTHOVIEW
 70
     0
  9
$UCSORGTOP
 10
0.0
 20
0.0
 30
0.0
  9
$UCSORGBOTTOM
 10
0.0
 20
0.0
 30
0.0
  9
$UCSORGLEFT
 10
0.0
 20
0.0
 30
0.0
  9
$UCSORGRIGHT
 10
0.0
 20
0.0
 30
0.0
  9
$UCSORGFRONT
 10
0.0
 20
0.0
 30
0.0
  9
$UCSORGBACK
 10
0.0
 20
0.0
 30
0.0
  9
$PUCSBASE
  2

  9
$PUCSNAME
  2

  9
$PUCSORG
 10
0.0
 20
0.0
 30
0.0
  9
$PUCSXDIR
 10
1.0
 20
0.0
 30
0.0
  9
$PUCSYDIR
 10
0.0
 20
1.0
 30
0.0
  9
$PUCSORTHOREF
  2

  9
$PUCSORTHOVIEW
 70
     0
  9
$PUCSORGTOP
 10
0.0
 20
0.0
 30
0.0
  9
$PUCSORGBOTTOM
 10
0.0
 20
0.0
 30
0.0
  9
$PUCSORGLEFT
 10
0.0
 20
0.0
 30
0.0
  9
$PUCSORGRIGHT
 10
0.0
 20
0.0
 30
0.0
  9
$PUCSORGFRONT
 10
0.0
 20
0.0
 30
0.0
  9
$PUCSORGBACK
 10
0.0
 20
0.0
 30
0.0
  9
$USERI1
 70
     0
  9
$USERI2
 70
     0
  9
$USERI3
 70
     0
  9
$USERI4
 70
     0
  9
$USERI5
 70
     0
  9
$USERR1
 40
0.0
  9
$USERR2
 40
0.0
  9
$USERR3
 40
0.0
  9
$USERR4
 40
0.0
  9
$USERR5
 40
0.0
  9
$WORLDVIEW
 70
     1
  9
$SHADEDGE
 70
     3
  9
$SHADEDIF
 70
    70
  9
$TILEMODE
 70
     1
  9
$MAXACTVP
 70
    64
  9
$PINSBASE
 10
0.0
 20
0.0
 30
0.0
  9
$PLIMCHECK
 70
     0
  9
$PEXTMIN
 10
1.000000000000000E+20
 20
1.000000000000000E+20
 30
1.000000000000000E+20
  9
$PEXTMAX
 10
-1.000000000000000E+20
 20
-1.000000000000000E+20
 30
-1.000000000000000E+20
  9
$PLIMMIN
 10
0.0
 20
0.0
  9
$PLIMMAX
 10
12.0
 20
9.0
  9
$UNITMODE
 70
     0
  9
$VISRETAIN
 70
     1
  9
$PLINEGEN
 70
     0
  9
$PSLTSCALE
 70
     1
  9
$TREEDEPTH
 70
  3020
  9
$CMLSTYLE
  2
Standard
  9
$CMLJUST
 70
     0
  9
$CMLSCALE
 40
1.0
  9
$PROXYGRAPHICS
 70
     1
  9
$MEASUREMENT
 70
     0
  9
$CELWEIGHT
370
    -1
  9
$ENDCAPS
280
     0
  9
$JOINSTYLE
280
     0
  9
$LWDISPLAY
290
     0
  9
$INSUNITS
 70
     1
  9
$HYPERLINKBASE
  1

  9
$STYLESHEET
  1

  9
$XEDIT
290
     1
  9
$CEPSNTYPE
380
     0
  9
$PSTYLEMODE
290
     1
  9
$FINGERPRINTGUID
  2
{4E6E00F8-4F17-44FA-8310-BB7A255536C3}
  9
$VERSIONGUID
  2
{FAEB1C32-E019-11D5-929B-00C0DF256EC4}
  9
$EXTNAMES
290
     1
  9
$PSVPSCALE
 40
0.0
  9
$OLESTARTUP
290
     0
  9
$SORTENTS
280
   127
  9
$INDEXCTL
280
     0
  9
$HIDETEXT
280
     1
  9
$XCLIPFRAME
280
     2
  9
$HALOGAP
280
     0
  9
$OBSCOLOR
 70
   257
  9
$OBSLTYPE
280
     0
  9
$INTERSECTIONDISPLAY
280
     0
  9
$INTERSECTIONCOLOR
 70
   257
  9
$DIMASSOC
280
     2
  9
$PROJECTNAME
  1

  9
$CAMERADISPLAY
290
     0
  9
$LENSLENGTH
 40
50.0
  9
$CAMERAHEIGHT
 40
0.0
  9
$STEPSPERSEC
 40
2.0
  9
$STEPSIZE
 40
6.0
  9
$3DDWFPREC
 40
2.0
  9
$PSOLWIDTH
 40
0.25
  9
$PSOLHEIGHT
 40
4.0
  9
$LOFTANG1
 40
1.570796326794897
  9
$LOFTANG2
 40
1.570796326794897
  9
$LOFTMAG1
 40
0.0
  9
$LOFTMAG2
 40
0.0
  9
$LOFTPARAM
 70
     7
  9
$LOFTNORMALS
280
     1
  9
$LATITUDE
 40
37.795
  9
$LONGITUDE
 40
-122.394
  9
$NORTHDIRECTION
 40
0.0
  9
$TIMEZONE
 70
 -8000
  9
$LIGHTGLYPHDISPLAY
280
     1
  9
$TILEMODELIGHTSYNCH
280
     1
  9
$CMATERIAL
347
44
  9
$SOLIDHIST
280
     0
  9
$SHOWHIST
280
     1
  9
$DWFFRAME
280
     2
  9
$DGNFRAME
280
     2
  9
$REALWORLDSCALE
290
     1
  9
$INTERFERECOLOR
 62
   256
  9
$CSHADOW
280
     0
  9
$SHADOWPLANELOCATION
 40
0.0
  0
ENDSEC
  0
SECTION
  2
CLASSES
  0
CLASS
  1
ACDBDICTIONARYWDFLT
  2
AcDbDictionaryWithDefault
  3
ObjectDBX Classes
 90
        0
 91
        4
280
     0
281
     0
  0
CLASS
  1
VISUALSTYLE
  2
AcDbVisualStyle
  3
ObjectDBX Classes
 90
     4095
 91
        4
280
     0
281
     0
  0
CLASS
  1
MATERIAL
  2
AcDbMaterial
  3
ObjectDBX Classes
 90
     1153
 91
        4
280
     0
281
     0
  0
CLASS
  1
SCALE
  2
AcDbScale
  3
ObjectDBX Classes
 90
     1153
 91
        4
280
     0
281
     0
  0
CLASS
  1
TABLESTYLE
  2
AcDbTableStyle
  3
ObjectDBX Classes
 90
     4095
 91
        4
280
     0
281
     0
  0
CLASS
  1
MLEADERSTYLE
  2
AcDbMLeaderStyle
  3
ACDB_MLEADERSTYLE_CLASS
 90
     4095
 91
        4
280
     0
281
     0
  0
CLASS
  1
SUN
  2
AcDbSun
  3
SCENEOE
 90
     1153
 91
        4
280
     0
281
     0
  0
CLASS
  1
DICTIONARYVAR
  2
AcDbDictionaryVar
  3
ObjectDBX Classes
 90
        0
 91
        4
280
     0
281
     0
  0
CLASS
  1
CELLSTYLEMAP
  2
AcDbCellStyleMap
  3
ObjectDBX Classes
 90
     1152
 91
        4
280
     0
281
     0
  0
ENDSEC
  0
SECTION
  2
TABLES
  0
TABLE
  2
VPORT
  5
8
330
0
100
AcDbSymbolTable
 70
     1
  0
VPORT
  5
29
330
8
100
AcDbSymbolTableRecord
100
AcDbViewportTableRecord
  2
*Active
 70
     0
 10
0.0
 20
0.0
 11
1.0
 21
1.0
 12
0.0
 22
-0.1582812499999999
 13
0.0
 23
0.0
 14
0.5
 24
0.5
 15
0.5
 25
0.5
 16
0.0
 26
0.0
 36
1.0
 17
0.0
 27
0.0
 37
0.0
 40
3.314043750000001
 41
2.115994998557276
 42
50.0
 43
0.0
 44
0.0
 50
0.0
 51
0.0
 71
     0
 72
   100
 73
     1
 74
     3
 75
     0
 76
     0
 77
     0
 78
     0
281
     0
 65
     1
110
0.0
120
0.0
130
0.0
111
1.0
121
0.0
131
0.0
112
0.0
122
1.0
132
0.0
 79
     0
146
0.0
348
2F
 60
     3
 61
     5
292
     1
282
     1
141
0.0
142
0.0
 63
   250
361
6D
  0
ENDTAB
  0
TABLE
  2
LTYPE
  5
5
330
0
100
AcDbSymbolTable
 70
     3
  0
LTYPE
  5
14
330
5
100
AcDbSymbolTableRecord
100
AcDbLinetypeTableRecord
  2
ByBlock
 70
     0
  3

 72
    65
 73
     0
 40
0.0
  0
LTYPE
  5
15
330
5
100
AcDbSymbolTableRecord
100
AcDbLinetypeTableRecord
  2
ByLayer
 70
     0
  3

 72
    65
 73
     0
 40
0.0
  0
LTYPE
  5
16
330
5
100
AcDbSymbolTableRecord
100
AcDbLinetypeTableRecord
  2
Continuous
 70
     0
  3
Solid line
 72
    65
 73
     0
 40
0.0
  0
LTYPE
  5
A7
330
5
100
AcDbSymbolTableRecord
100
AcDbLinetypeTableRecord
  2
Dashed
 70
     0
  3

 72
    65
 73
     2
 40
2.0
 49
1.0
 74
     0
 49
-1.0
 74
     0
  0
LTYPE
  5
BE
330
5
100
AcDbSymbolTableRecord
100
AcDbLinetypeTableRecord
  2
Center
 70
     0
  3

 72
    65
 73
     4
 40
1.5
 49
0.45
 74
     0
 49
-0.5
 74
     0
 49
0.05
 74
     0
 49
-0.5
 74
     0
  0
ENDTAB
  0
TABLE
  2
LAYER
  5
2
330
0
100
AcDbSymbolTable
 70
     7
  0
LAYER
  5
10
330
2
100
AcDbSymbolTableRecord
100
AcDbLayerTableRecord
  2
0
 70
     0
 62
     7
  6
Continuous
370
    -3
390
F
347
46
348
0
  0
LAYER
  5
72
330
2
100
AcDbSymbolTableRecord
100
AcDbLayerTableRecord
  2
AM_6
 70
     0
 62
    -2
  6
Continuous
370
    35
390
F
347
46
348
0
  0
LAYER
  5
A8
330
2
100
AcDbSymbolTableRecord
100
AcDbLayerTableRecord
  2
AM_9
 70
     0
 62
     6
  6
Dashed
370
    25
390
F
347
46
348
0
  0
LAYER
  5
BB
330
2
100
AcDbSymbolTableRecord
100
AcDbLayerTableRecord
  2
AM_5
 70
     0
 62
     3
  6
Continuous
370
    25
390
F
347
46
348
0
  0
LAYER
  5
BF
330
2
100
AcDbSymbolTableRecord
100
AcDbLayerTableRecord
  2
AM_7
 70
     0
 62
     7
  6
Center
370
    25
390
F
347
46
348
0
  0
LAYER
  5
C1
330
2
100
AcDbSymbolTableRecord
100
AcDbLayerTableRecord
  2
AM_4
 70
     0
 62
     7
  6
Continuous
370
    50
390
F
347
46
348
0
  0
LAYER
  5
1E0
330
2
100
AcDbSymbolTableRecord
100
AcDbLayerTableRecord
  2
ConnectionPoints
 70
     0
 62
     7
  6
Continuous
370
    50
390
F
347
46
348
0
  0
ENDTAB
  0
TABLE
  2
STYLE
  5
3
330
0
100
AcDbSymbolTable
 70
     1
  0
STYLE
  5
11
330
3
100
AcDbSymbolTableRecord
100
AcDbTextStyleTableRecord
  2
Standard
 70
     0
 40
0.0
 41
1.0
 50
0.0
 71
     0
 42
0.2
  3
txt
  4

  0
ENDTAB
  0
TABLE
  2
VIEW
  5
6
330
0
100
AcDbSymbolTable
 70
     0
  0
ENDTAB
  0
TABLE
  2
UCS
  5
7
330
0
100
AcDbSymbolTable
 70
     0
  0
ENDTAB
  0
TABLE
  2
APPID
  5
9
330
0
100
AcDbSymbolTable
 70
     1
  0
APPID
  5
12
330
9
100
AcDbSymbolTableRecord
100
AcDbRegAppTableRecord
  2
ACAD
 70
     0
  0
ENDTAB
  0
TABLE
  2
DIMSTYLE
  5
A
330
0
100
AcDbSymbolTable
 70
     1
100
AcDbDimStyleTable
  0
DIMSTYLE
105
27
330
A
100
AcDbSymbolTableRecord
100
AcDbDimStyleTableRecord
  2
Standard
 70
     0
178
     0
340
11
  0
ENDTAB
  0
TABLE
  2
BLOCK_RECORD
  5
1
330
0
100
AcDbSymbolTable
 70
     6
  0
BLOCK_RECORD
  5
1F
330
1
100
AcDbSymbolTableRecord
100
AcDbBlockTableRecord
  2
*Model_Space
340
22
 70
     0
280
     1
281
     0
  0
BLOCK_RECORD
  5
1B
330
1
100
AcDbSymbolTableRecord
100
AcDbBlockTableRecord
  2
*Paper_Space
340
1E
 70
     0
280
     1
281
     0
  0
BLOCK_RECORD
  5
23
330
1
100
AcDbSymbolTableRecord
100
AcDbBlockTableRecord
  2
*Paper_Space0
340
26
 70
     0
280
     1
281
     0
  0
BLOCK_RECORD
  5
6E
330
1
100
AcDbSymbolTableRecord
100
AcDbBlockTableRecord
  2
1_070273_4
340
0
102
{BLKREFS
331
6F
102
}
 70
     0
280
     1
281
     0
  0
BLOCK_RECORD
  5
8E
330
1
100
AcDbSymbolTableRecord
100
AcDbBlockTableRecord
  2
2_1_7_16CS2i_0_in_070273_4
340
0
102
{BLKREFS
331
8F
102
}
 70
     0
280
     1
281
     0
  0
BLOCK_RECORD
  5
D7
330
1
100
AcDbSymbolTableRecord
100
AcDbBlockTableRecord
  2
3_070001i_0_in_070273_4
340
0
102
{BLKREFS
331
D8
102
}
 70
     0
280
     1
281
     0
  0
BLOCK_RECORD
  5
12E
330
1
100
AcDbSymbolTableRecord
100
AcDbBlockTableRecord
  2
4_405015E_Inch_0_in_070273_4
340
0
102
{BLKREFS
331
12F
102
}
 70
     0
280
     1
281
     0
  0
BLOCK_RECORD
  5
16E
330
1
100
AcDbSymbolTableRecord
100
AcDbBlockTableRecord
  2
5_070273H_0_in_070273_4
340
0
102
{BLKREFS
331
16F
102
}
 70
     0
280
     1
281
     0
  0
ENDTAB
  0
ENDSEC
  0
SECTION
  2
BLOCKS
  0
BLOCK
  5
20
330
1F
100
AcDbEntity
  8
0
100
AcDbBlockBegin
  2
*Model_Space
 70
     0
 10
0.0
 20
0.0
 30
0.0
  3
*Model_Space
  1

  0
ENDBLK
  5
21
330
1F
100
AcDbEntity
  8
0
100
AcDbBlockEnd
  0
BLOCK
  5
1C
330
1B
100
AcDbEntity
 67
     1
  8
0
100
AcDbBlockBegin
  2
*Paper_Space
 70
     0
 10
0.0
 20
0.0
 30
0.0
  3
*Paper_Space
  1

  0
ENDBLK
  5
1D
330
1B
100
AcDbEntity
 67
     1
  8
0
100
AcDbBlockEnd
  0
BLOCK
  5
24
330
23
100
AcDbEntity
  8
0
100
AcDbBlockBegin
  2
*Paper_Space0
 70
     0
 10
0.0
 20
0.0
 30
0.0
  3
*Paper_Space0
  1

  0
ENDBLK
  5
25
330
23
100
AcDbEntity
  8
0
100
AcDbBlockEnd
  0
BLOCK
  5
70
330
6E
100
AcDbEntity
  8
0
100
AcDbBlockBegin
  2
1_070273_4
 70
     2
 10
0.0
 20
0.0
 30
0.0
  3
1_070273_4
  1

  0
ATTDEF
  5
73
330
6E
100
AcDbEntity
  8
AM_6
100
AcDbText
 10
8.4375
 20
1.10176282051282
 30
0.0
 40
0.5
  1
S-2000 Pillow Block 2-Bolt Inch Bore (Contact Seal)
100
AcDbAttributeDefinition
  3

  2
NN
 70
     8
280
     0
  0
ATTDEF
  5
74
330
6E
100
AcDbEntity
  8
AM_6
100
AcDbText
 10
8.4375
 20
0.6017628205128205
 30
0.0
 40
0.5
  1
S-2000 Pillow Block Bearing -Inch (2-Bolt Base)
100
AcDbAttributeDefinition
  3

  2
NT
 70
     8
280
     0
  0
ATTDEF
  5
75
330
6E
100
AcDbEntity
  8
AM_6
100
AcDbText
 10
8.4375
 20
0.1017628205128205
 30
0.0
 40
0.5
  1
070273
100
AcDbAttributeDefinition
  3

  2
NB
 70
     8
280
     0
  0
ATTDEF
  5
76
330
6E
100
AcDbEntity
  8
AM_6
100
AcDbText
 10
8.4375
 20
-0.3982371794871795
 30
0.0
 40
0.5
  1
$PN.
100
AcDbAttributeDefinition
  3

  2
NBSYN
 70
     8
280
     0
  0
ATTDEF
  5
77
330
6E
100
AcDbEntity
  8
AM_6
100
AcDbText
 10
8.4375
 20
-0.8982371794871795
 30
0.0
 40
0.5
  1
070273
100
AcDbAttributeDefinition
  3

  2
LINA
 70
     8
280
     0
  0
ATTDEF
  5
78
330
6E
100
AcDbEntity
  8
AM_6
100
AcDbText
 10
8.4375
 20
-1.39823717948718
 30
0.0
 40
0.5
  1
1-7/16
100
AcDbAttributeDefinition
  3

  2
SS
 70
     8
280
     0
  0
ATTDEF
  5
79
330
6E
100
AcDbEntity
  8
AM_6
100
AcDbText
 10
8.4375
 20
-1.89823717948718
 30
0.0
 40
0.5
  1
070273
100
AcDbAttributeDefinition
  3

  2
PN
 70
     8
280
     0
  0
ATTDEF
  5
7A
330
6E
100
AcDbEntity
  8
AM_6
100
AcDbText
 10
8.4375
 20
-2.39823717948718
 30
0.0
 40
0.5
  1
P2B-S2-107R
100
AcDbAttributeDefinition
  3

  2
DESCRIPTION
 70
     8
280
     0
  0
ATTDEF
  5
7B
330
6E
100
AcDbEntity
  8
AM_6
100
AcDbText
 10
8.4375
 20
-2.89823717948718
 30
0.0
 40
0.5
  1
Non-Expansion Type
100
AcDbAttributeDefinition
  3

  2
EF
 70
     8
280
     0
  0
ATTDEF
  5
7C
330
6E
100
AcDbEntity
  8
AM_6
100
AcDbText
 10
8.4375
 20
-3.39823717948718
 30
0.0
 40
0.5
  1
Contact Seal
100
AcDbAttributeDefinition
  3

  2
ST
 70
     8
280
     0
  0
ATTDEF
  5
7D
330
6E
100
AcDbEntity
  8
AM_6
100
AcDbText
 10
8.4375
 20
-3.89823717948718
 30
0.0
 40
0.5
  1
2-17/32
100
AcDbAttributeDefinition
  3

  2
A
 70
     8
280
     0
  0
ATTDEF
  5
7E
330
6E
100
AcDbEntity
  8
AM_6
100
AcDbText
 10
8.4375
 20
-4.39823717948718
 30
0.0
 40
0.5
  1
6-7/8
100
AcDbAttributeDefinition
  3

  2
B
 70
     8
280
     0
  0
ATTDEF
  5
7F
330
6E
100
AcDbEntity
  8
AM_6
100
AcDbText
 10
8.4375
 20
-4.89823717948718
 30
0.0
 40
0.5
  1
1-61/64
100
AcDbAttributeDefinition
  3

  2
C
 70
     8
280
     0
  0
ATTDEF
  5
80
330
6E
100
AcDbEntity
  8
AM_6
100
AcDbText
 10
8.4375
 20
-5.39823717948718
 30
0.0
 40
0.5
  1
4-13/16
100
AcDbAttributeDefinition
  3

  2
DMIN
 70
     8
280
     0
  0
ATTDEF
  5
81
330
6E
100
AcDbEntity
  8
AM_6
100
AcDbText
 10
8.4375
 20
-5.89823717948718
 30
0.0
 40
0.5
  1
5-13/64
100
AcDbAttributeDefinition
  3

  2
DMAX
 70
     8
280
     0
  0
ATTDEF
  5
82
330
6E
100
AcDbEntity
  8
AM_6
100
AcDbText
 10
8.4375
 20
-6.39823717948718
 30
0.0
 40
0.5
  1
1/2
100
AcDbAttributeDefinition
  3

  2
F
 70
     8
280
     0
  0
ATTDEF
  5
83
330
6E
100
AcDbEntity
  8
AM_6
100
AcDbText
 10
8.4375
 20
-6.89823717948718
 30
0.0
 40
0.5
  1
13/16
100
AcDbAttributeDefinition
  3

  2
G
 70
     8
280
     0
  0
ATTDEF
  5
84
330
6E
100
AcDbEntity
  8
AM_6
100
AcDbText
 10
8.4375
 20
-7.39823717948718
 30
0.0
 40
0.5
  1
1-1/8
100
AcDbAttributeDefinition
  3

  2
H
 70
     8
280
     0
  0
ATTDEF
  5
85
330
6E
100
AcDbEntity
  8
AM_6
100
AcDbText
 10
8.4375
 20
-7.89823717948718
 30
0.0
 40
0.5
  1
3-7/8
100
AcDbAttributeDefinition
  3

  2
J
 70
     8
280
     0
  0
ATTDEF
  5
86
330
6E
100
AcDbEntity
  8
AM_6
100
AcDbText
 10
8.4375
 20
-8.398237179487179
 30
0.0
 40
0.5
  1
2-3/4
100
AcDbAttributeDefinition
  3

  2
L
 70
     8
280
     0
  0
ATTDEF
  5
87
330
6E
100
AcDbEntity
  8
AM_6
100
AcDbText
 10
8.4375
 20
-8.898237179487179
 30
0.0
 40
0.5
  1
1-7/8
100
AcDbAttributeDefinition
  3

  2
M
 70
     8
280
     0
  0
ATTDEF
  5
88
330
6E
100
AcDbEntity
  8
AM_6
100
AcDbText
 10
8.4375
 20
-9.398237179487179
 30
0.0
 40
0.5
  1
7/8
100
AcDbAttributeDefinition
  3

  2
R
 70
     8
280
     0
  0
ATTDEF
  5
89
330
6E
100
AcDbEntity
  8
AM_6
100
AcDbText
 10
8.4375
 20
-9.898237179487179
 30
0.0
 40
0.5
  1
1-21/32
100
AcDbAttributeDefinition
  3

  2
S
 70
     8
280
     0
  0
ATTDEF
  5
8A
330
6E
100
AcDbEntity
  8
AM_6
100
AcDbText
 10
8.4375
 20
-10.39823717948718
 30
0.0
 40
0.5
  1
3/16
100
AcDbAttributeDefinition
  3

  2
X
 70
     8
280
     0
  0
ATTDEF
  5
8B
330
6E
100
AcDbEntity
  8
AM_6
100
AcDbText
 10
8.4375
 20
-10.89823717948718
 30
0.0
 40
0.5
  1
0.020
100
AcDbAttributeDefinition
  3

  2
Y
 70
     8
280
     0
  0
ATTDEF
  5
8C
330
6E
100
AcDbEntity
  8
AM_6
100
AcDbText
 10
8.4375
 20
-11.39823717948718
 30
0.0
 40
0.5
  1
1-51/64
100
AcDbAttributeDefinition
  3

  2
Z
 70
     8
280
     0
  0
ATTDEF
  5
8D
330
6E
100
AcDbEntity
  8
AM_6
100
AcDbText
 10
8.4375
 20
-11.89823717948718
 30
0.0
 40
0.5
  1
baldor
100
AcDbAttributeDefinition
  3

  2
COMPANY
 70
     8
280
     0
  0
INSERT
  5
8F
330
6E
100
AcDbEntity
  8
0
100
AcDbBlockReference
  2
2_1_7_16CS2i_0_in_070273_4
 10
0.0
 20
0.0
 30
0.0
  0
INSERT
  5
D8
330
6E
100
AcDbEntity
  8
0
100
AcDbBlockReference
  2
3_070001i_0_in_070273_4
 10
0.0
 20
0.0
 30
0.0
  0
INSERT
  5
12F
330
6E
100
AcDbEntity
  8
0
100
AcDbBlockReference
  2
4_405015E_Inch_0_in_070273_4
 10
0.0
 20
0.0
 30
0.0
  0
INSERT
  5
16F
330
6E
100
AcDbEntity
  8
0
100
AcDbBlockReference
  2
5_070273H_0_in_070273_4
 10
0.0
 20
0.0
 30
0.0
  0
ENDBLK
  5
71
330
6E
100
AcDbEntity
  8
0
100
AcDbBlockEnd
  0
BLOCK
  5
90
330
8E
100
AcDbEntity
  8
0
100
AcDbBlockBegin
  2
2_1_7_16CS2i_0_in_070273_4
 70
     2
 10
0.0
 20
0.0
 30
0.0
  3
2_1_7_16CS2i_0_in_070273_4
  1

  0
ATTDEF
  5
92
330
8E
100
AcDbEntity
  8
AM_6
100
AcDbText
 10
6.375
 20
-1.08425
 30
0.0
 40
0.5
  1
S-2000 Collar -Inch
100
AcDbAttributeDefinition
  3

  2
NN
 70
     8
280
     0
  0
ATTDEF
  5
93
330
8E
100
AcDbEntity
  8
AM_6
100
AcDbText
 10
6.375
 20
-1.58425
 30
0.0
 40
0.5
  1
S-2000 Bearings
100
AcDbAttributeDefinition
  3

  2
NT
 70
     8
280
     0
  0
ATTDEF
  5
94
330
8E
100
AcDbEntity
  8
AM_6
100
AcDbText
 10
6.375
 20
-2.08425
 30
0.0
 40
0.5
  1
1-7/16CS2i
100
AcDbAttributeDefinition
  3

  2
NB
 70
     8
280
     0
  0
ATTDEF
  5
95
330
8E
100
AcDbEntity
  8
AM_6
100
AcDbText
 10
6.375
 20
-2.58425
 30
0.0
 40
0.5
  1
$BORE.CS2i
100
AcDbAttributeDefinition
  3

  2
NBSYN
 70
     8
280
     0
  0
ATTDEF
  5
96
330
8E
100
AcDbEntity
  8
AM_6
100
AcDbText
 10
6.375
 20
-3.08425
 30
0.0
 40
0.5
  1
1-7/16CS2i
100
AcDbAttributeDefinition
  3

  2
LINA
 70
     8
280
     0
  0
ATTDEF
  5
97
330
8E
100
AcDbEntity
  8
AM_6
100
AcDbText
 10
6.375
 20
-3.58425
 30
0.0
 40
0.5
  1
1-7/16
100
AcDbAttributeDefinition
  3

  2
BORE
 70
     8
280
     0
  0
ATTDEF
  5
98
330
8E
100
AcDbEntity
  8
AM_6
100
AcDbText
 10
6.375
 20
-4.08425
 30
0.0
 40
0.5
  1
1.437500
100
AcDbAttributeDefinition
  3

  2
BORE1
 70
     8
280
     0
  0
ATTDEF
  5
99
330
8E
100
AcDbEntity
  8
AM_6
100
AcDbText
 10
6.375
 20
-4.58425
 30
0.0
 40
0.5
  1
2-3/4
100
AcDbAttributeDefinition
  3

  2
L1
 70
     8
280
     0
  0
ATTDEF
  5
9A
330
8E
100
AcDbEntity
  8
AM_6
100
AcDbText
 10
6.375
 20
-5.08425
 30
0.0
 40
0.5
  1
2.75000
100
AcDbAttributeDefinition
  3

  2
L
 70
     8
280
     0
  0
ATTDEF
  5
9B
330
8E
100
AcDbEntity
  8
AM_6
100
AcDbText
 10
6.375
 20
-5.58425
 30
0.0
 40
0.5
  1
2.65625
100
AcDbAttributeDefinition
  3

  2
L2
 70
     8
280
     0
  0
ATTDEF
  5
9C
330
8E
100
AcDbEntity
  8
AM_6
100
AcDbText
 10
6.375
 20
-6.08425
 30
0.0
 40
0.5
  1
3.00
100
AcDbAttributeDefinition
  3

  2
A
 70
     8
280
     0
  0
ATTDEF
  5
9D
330
8E
100
AcDbEntity
  8
AM_6
100
AcDbText
 10
6.375
 20
-6.58425
 30
0.0
 40
0.5
  1
1.25
100
AcDbAttributeDefinition
  3

  2
B
 70
     8
280
     0
  0
ATTDEF
  5
9E
330
8E
100
AcDbEntity
  8
AM_6
100
AcDbText
 10
6.375
 20
-7.08425
 30
0.0
 40
0.5
  1
1.75
100
AcDbAttributeDefinition
  3

  2
C
 70
     8
280
     0
  0
ATTDEF
  5
9F
330
8E
100
AcDbEntity
  8
AM_6
100
AcDbText
 10
6.375
 20
-7.58425
 30
0.0
 40
0.5
  1
2.81
100
AcDbAttributeDefinition
  3

  2
D
 70
     8
280
     0
  0
ATTDEF
  5
A0
330
8E
100
AcDbEntity
  8
AM_6
100
AcDbText
 10
6.375
 20
-8.08425
 30
0.0
 40
0.5
  1
0.35
100
AcDbAttributeDefinition
  3

  2
E
 70
     8
280
     0
  0
ATTDEF
  5
A1
330
8E
100
AcDbEntity
  8
AM_6
100
AcDbText
 10
6.375
 20
-8.58425
 30
0.0
 40
0.5
  1
0.286
100
AcDbAttributeDefinition
  3

  2
F
 70
     8
280
     0
  0
ATTDEF
  5
A2
330
8E
100
AcDbEntity
  8
AM_6
100
AcDbText
 10
6.375
 20
-9.08425
 30
0.0
 40
0.5
  1
5/16-18
100
AcDbAttributeDefinition
  3

  2
CS
 70
     8
280
     0
  0
ATTDEF
  5
A3
330
8E
100
AcDbEntity
  8
AM_6
100
AcDbText
 10
6.375
 20
-9.58425
 30
0.0
 40
0.5
  1
0.3125
100
AcDbAttributeDefinition
  3

  2
NDM
 70
     8
280
     0
  0
ATTDEF
  5
A4
330
8E
100
AcDbEntity
  8
AM_6
100
AcDbText
 10
6.375
 20
-10.08425
 30
0.0
 40
0.5
  1
0.2520
100
AcDbAttributeDefinition
  3

  2
KDM
 70
     8
280
     0
  0
ATTDEF
  5
A5
330
8E
100
AcDbEntity
  8
AM_6
100
AcDbText
 10
6.375
 20
-10.58425
 30
0.0
 40
0.5
  1
1
100
AcDbAttributeDefinition
  3

  2
DD
 70
     8
280
     0
  0
ATTDEF
  5
A6
330
8E
100
AcDbEntity
  8
AM_6
100
AcDbText
 10
6.375
 20
-11.08425
 30
0.0
 40
0.5
  1
baldor
100
AcDbAttributeDefinition
  3

  2
COMPANY
 70
     8
280
     0
  0
LINE
  5
A9
330
8E
100
AcDbEntity
  8
AM_9
100
AcDbLine
 10
-0.8262427010766304
 20
-1.481889373797333
 30
0.0
 11
-0.8181510321930785
 21
-1.491982003851694
 31
0.0
  0
LINE
  5
AA
330
8E
100
AcDbEntity
  8
AM_9
100
AcDbLine
 10
-0.8180625419641122
 20
-1.248407623472751
 30
0.0
 11
-0.8262427010766304
 21
-1.258610626202667
 31
0.0
  0
LWPOLYLINE
  5
AB
330
8E
100
AcDbEntity
  8
AM_9
100
AcDbPolyline
 90
       26
 70
     0
 43
0.0
 10
-0.8180262878736904
 20
-1.492137594994698
 10
-0.8118504234269961
 20
-1.49850113450297
 10
-0.8022888192274972
 20
-1.504069628058772
 10
-0.7916383962505142
 20
-1.505633606156805
 10
-0.7800103992752565
 20
-1.502886230202912
 10
-0.7682663429688019
 20
-1.495931016560207
 10
-0.7563008113191542
 20
-1.484498970900006
 10
-0.7454783247126594
 20
-1.469732484702335
 10
-0.7355091352119113
 20
-1.450865093504593
 10
-0.7280170670782217
 20
-1.430837174492273
 10
-0.7224033720665214
 20
-1.407824299387511
 10
-0.7196520694200172
 20
-1.38648856407008
 10
-0.7191244073759514
 20
-1.363884206282982
 10
-0.7206907820107936
 20
-1.343788202169758
 10
-0.7242082127918688
 20
-1.32387563387473
 10
-0.7293319344163404
 20
-1.305573700304487
 10
-0.7360174095110924
 20
-1.288503679073801
 10
-0.7442711147896295
 20
-1.272735701466213
 10
-0.7536454160535042
 20
-1.259191602637141
 10
-0.7642524068654585
 20
-1.24789543156556
 10
-0.7753773144824614
 20
-1.239867548557432
 10
-0.7867347926953836
 20
-1.235500973049293
 10
-0.7978852665164852
 20
-1.235259812554483
 10
-0.808132299180774
 20
-1.239288595395009
 10
-0.8175671977023908
 20
-1.247798016760658
 10
-0.8180275222611229
 20
-1.248363944272538
  0
LWPOLYLINE
  5
AC
330
8E
100
AcDbEntity
  8
AM_9
100
AcDbPolyline
 90
        3
 70
     0
 43
0.0
 10
-0.8226022250171889
 20
-1.254946486214631
 10
-0.824608875674083
 20
-1.258463516089837
 10
-0.8307568352395996
 20
-1.272449687246966
  0
LINE
  5
AD
330
8E
100
AcDbEntity
  8
AM_9
100
AcDbLine
 10
-0.8180275222611229
 20
-1.248363944272538
 30
0.0
 11
-0.8226022250171889
 21
-1.254946486214631
 31
0.0
  0
LINE
  5
AE
330
8E
100
AcDbEntity
  8
AM_9
100
AcDbLine
 10
-0.8013724504275845
 20
-1.24405
 30
0.0
 11
-1.218938658174942
 21
-1.24405
 31
0.0
  0
LINE
  5
AF
330
8E
100
AcDbEntity
  8
AM_9
100
AcDbLine
 10
-1.203654831824225
 20
-1.49645
 30
0.0
 11
-0.8013724504275845
 21
-1.49645
 31
0.0
  0
ELLIPSE
  5
B0
330
8E
100
AcDbEntity
  8
AM_9
100
AcDbEllipse
 10
-1.218938658174942
 20
-1.37025
 30
0.0
 11
7.727521302619750E-18
 21
0.1261999999999992
 31
0.0
210
0.0
220
0.0
230
1.0
 40
0.4226182617407021
 41
4.71238898038469
 42
5.989162684100468
  0
LINE
  5
B1
330
8E
100
AcDbEntity
  8
AM_9
100
AcDbLine
 10
-1.194068407525901
 20
-1.258610626202662
 30
0.0
 11
-1.213920945347098
 21
-1.233848822086234
 31
0.0
  0
LWPOLYLINE
  5
B2
330
8E
100
AcDbEntity
  8
AM_9
100
AcDbPolyline
 90
        3
 70
     0
 43
0.0
 10
-0.8225950152812673
 20
-1.485565392819922
 10
-0.8201358376010532
 20
-1.489328944654749
 10
-0.8180262878736904
 20
-1.492137594994698
  0
LWPOLYLINE
  5
B3
330
8E
100
AcDbEntity
  8
AM_9
100
AcDbPolyline
 90
        8
 70
     0
 43
0.0
 10
-0.8441483918804591
 20
-1.37025
 10
-0.8436807739328192
 20
-1.390877562570655
 10
-0.8423308617227095
 20
-1.410385469779941
 10
-0.8400335642524823
 20
-1.429322789775267
 10
-0.836784722287893
 20
-1.44689539116968
 10
-0.8325057358964373
 20
-1.462901656900544
 10
-0.8269220156514923
 20
-1.477406354930323
 10
-0.8225950152812673
 20
-1.485565392819922
  0
LWPOLYLINE
  5
B4
330
8E
100
AcDbEntity
  8
AM_9
100
AcDbPolyline
 90
        7
 70
     0
 43
0.0
 10
-0.8307568352395996
 20
-1.272449687246966
 10
-0.8352417780430322
 20
-1.287153453457436
 10
-0.8389023592937984
 20
-1.304260762066325
 10
-0.8418140061809832
 20
-1.324991122769115
 10
-0.8436071996724769
 20
-1.348074940871669
 10
-0.8441470075126182
 20
-1.369122494582665
 10
-0.8441483918804591
 20
-1.37025
  0
LWPOLYLINE
  5
B5
330
8E
100
AcDbEntity
  8
AM_9
100
AcDbPolyline
 90
        6
 70
     0
 43
0.0
 10
0.146658975180788
 20
-1.35196049115878
 10
0.1427626576510177
 20
-1.334620279908922
 10
0.1354159573414923
 20
-1.315784686868505
 10
0.124952944001954
 20
-1.297906115607669
 10
0.1145561021829062
 20
-1.284745449176832
 10
0.1024742084991937
 20
-1.272762944615281
  0
LWPOLYLINE
  5
B6
330
8E
100
AcDbEntity
  8
AM_9
100
AcDbPolyline
 90
       34
 70
     0
 43
0.0
 10
0.1024742084991937
 20
-1.272762944615281
 10
0.086015685178925
 20
-1.2602283962843
 10
0.0675948963043043
 20
-1.249902100472583
 10
0.0443377056735967
 20
-1.241108463559646
 10
0.0192933556495325
 20
-1.235999860806134
 10
-0.0065848720872025
 20
-1.234968721400618
 10
-0.0330071954445736
 20
-1.238275548847853
 10
-0.0580214632284909
 20
-1.245765179048007
 10
-0.0820680947697555
 20
-1.25772431497326
 10
-0.1026564554979544
 20
-1.272923606469452
 10
-0.1207466632651635
 20
-1.292178028831851
 10
-0.1337214579329727
 20
-1.312408813297047
 10
-0.1430313101584491
 20
-1.335525560392113
 10
-0.1472928868067709
 20
-1.356829631835869
 10
-0.1476951126927918
 20
-1.379294684241965
 10
-0.1445525700009035
 20
-1.399283889898346
 10
-0.138006307633173
 20
-1.419014666059562
 10
-0.1285186300506478
 20
-1.437189050875768
 10
-0.1160376293937851
 20
-1.454069681444544
 10
-0.1002875380123275
 20
-1.469623084025363
 10
-0.0818862140489536
 20
-1.482886951173199
 10
-0.0603149984786165
 20
-1.49381287808998
 10
-0.0366664618473489
 20
-1.501406367690981
 10
-0.0113270724307678
 20
-1.505265679085617
 10
0.0150267634898235
 20
-1.504960188987225
 10
0.040744625460163
 20
-1.500386518557479
 10
0.0660272861751791
 20
-1.491328315598571
 10
0.0885334845803313
 20
-1.478582045889187
 10
0.1090549001685088
 20
-1.461568304145891
 10
0.124922603219402
 20
-1.442637534011868
 10
0.1374413540205074
 20
-1.42032251054515
 10
0.1446251787465194
 20
-1.398982514827306
 10
0.1478995237087631
 20
-1.3758848770907
 10
0.1477020745166628
 20
-1.361299991572908
  0
LINE
  5
B7
330
8E
100
AcDbEntity
  8
AM_9
100
AcDbLine
 10
0.8749999999999998
 20
-1.65625
 30
0.0
 11
0.8749999999999998
 21
-1.08425
 31
0.0
  0
LINE
  5
B8
330
8E
100
AcDbEntity
  8
AM_9
100
AcDbLine
 10
-0.8749999999999998
 20
-1.08425
 30
0.0
 11
-0.8749999999999998
 21
-1.65625
 31
0.0
  0
LINE
  5
B9
330
8E
100
AcDbEntity
  8
AM_9
100
AcDbLine
 10
-1.176262874038004
 20
-1.37025
 30
0.0
 11
-1.251578059435964
 21
-1.37025
 31
0.0
  0
LINE
  5
BA
330
8E
100
AcDbEntity
  8
AM_9
100
AcDbLine
 10
0.1262
 20
-1.37025
 30
0.0
 11
-0.1262000000000001
 21
-1.37025
 31
0.0
  0
ARC
  5
BC
330
8E
100
AcDbEntity
  8
AM_5
100
AcDbCircle
 10
0.0000000000000048
 20
-1.370250000000003
 30
0.0
 40
0.1562499999999983
100
AcDbArc
 50
74.99999999999996
 51
14.99999999999997
  0
ELLIPSE
  5
BD
330
8E
100
AcDbEntity
  8
AM_9
100
AcDbEllipse
 10
-0.8013724504275844
 20
-1.37025
 30
0.0
 11
7.727521302619790E-18
 21
0.1261999999999999
 31
0.0
210
0.0
220
0.0
230
1.0
 40
0.4226182617406998
 41
0.0
 42
6.283185307179586
  0
LINE
  5
C0
330
8E
100
AcDbEntity
  8
AM_7
100
AcDbLine
 10
-0.1325100000000002
 20
-1.37025
 30
0.0
 11
0.13251
 21
-1.37025
 31
0.0
  0
LWPOLYLINE
  5
C2
330
8E
100
AcDbEntity
  8
AM_4
100
AcDbPolyline
 90
       11
 70
     0
 43
0.0
 10
-1.203685096350439
 20
-1.496449999460139
 10
-1.209679713661833
 20
-1.495632769742056
 10
-1.217985794528696
 20
-1.491555663795159
 10
-1.225847055488775
 20
-1.483902813031322
 10
-1.232667345195553
 20
-1.47329681119163
 10
-1.238698032530623
 20
-1.459445427508808
 10
-1.243528444117365
 20
-1.443434905401838
 10
-1.247349171872567
 20
-1.424851169132425
 10
-1.249905746750149
 20
-1.405249315247447
 10
-1.251323061986931
 20
-1.38406180399684
 10
-1.251578059435964
 20
-1.37025
  0
ELLIPSE
  5
C3
330
8E
100
AcDbEntity
  8
AM_4
100
AcDbEllipse
 10
-1.218938658174942
 20
-1.37025
 30
0.0
 11
7.727521302619790E-18
 21
0.1261999999999999
 31
0.0
210
0.0
220
0.0
230
1.0
 40
0.4226182617406998
 41
5.989162684100467
 42
7.853981633974483
  0
LWPOLYLINE
  5
C4
330
8E
100
AcDbEntity
  8
AM_4
100
AcDbPolyline
 90
        8
 70
     0
 43
0.0
 10
-1.214034822384744
 20
-1.233706786573872
 10
-1.211938655473569
 20
-1.236421252007839
 10
-1.202736523889836
 20
-1.250927875021348
 10
-1.194444975931282
 20
-1.268585723954482
 10
-1.187317107613904
 20
-1.289240490593438
 10
-1.181709481324586
 20
-1.31247636308127
 10
-1.177940930055127
 20
-1.33785550004842
 10
-1.176262874038004
 20
-1.37025
  0
LINE
  5
C5
330
8E
100
AcDbEntity
  8
AM_4
100
AcDbLine
 10
1.375
 20
-1.37025
 30
0.0
 11
0.1262
 21
-1.37025
 31
0.0
  0
LINE
  5
C6
330
8E
100
AcDbEntity
  8
AM_4
100
AcDbLine
 10
-0.1262000000000001
 20
-1.37025
 30
0.0
 11
-1.176262874038004
 21
-1.37025
 31
0.0
  0
ARC
  5
C7
330
8E
100
AcDbEntity
  8
AM_4
100
AcDbCircle
 10
-0.0000000000000001
 20
-1.37025
 30
0.0
 40
0.1262
100
AcDbArc
 50
0.0
 51
180.0
  0
LINE
  5
C8
330
8E
100
AcDbEntity
  8
AM_4
100
AcDbLine
 10
-1.232791666666667
 20
-1.65625
 30
0.0
 11
1.232791666666667
 21
-1.65625
 31
0.0
  0
ARC
  5
C9
330
8E
100
AcDbEntity
  8
AM_4
100
AcDbCircle
 10
1.232791666666666
 20
-1.560916666666666
 30
0.0
 40
0.0953333333333337
100
AcDbArc
 50
270.0
 51
0.0
  0
ARC
  5
CA
330
8E
100
AcDbEntity
  8
AM_4
100
AcDbCircle
 10
-1.232791666666666
 20
-1.560916666666666
 30
0.0
 40
0.0953333333333337
100
AcDbArc
 50
180.0
 51
270.0
  0
LWPOLYLINE
  5
CB
330
8E
100
AcDbEntity
  8
AM_4
100
AcDbPolyline
 90
       20
 70
     0
 43
0.0
 10
0.1262
 20
-1.37025
 10
0.124468578611845
 20
-1.391082977183949
 10
0.1191234160298139
 20
-1.411915954367899
 10
0.1106171300361008
 20
-1.430997761626058
 10
0.0987081127479959
 20
-1.4488829986566
 10
0.0843464615985911
 20
-1.464122863042508
 10
0.0671477702892476
 20
-1.477103249577083
 10
0.0485126931654683
 20
-1.48675304116989
 10
0.0279296018190062
 20
-1.493320619329846
 10
0.0072000672922529
 20
-1.496244440476503
 10
-0.0143387953402805
 20
-1.495632769742056
 10
-0.034804826263261
 20
-1.491555663795159
 10
-0.0548587102479397
 20
-1.483902813031322
 10
-0.0728546134656993
 20
-1.47329681119163
 10
-0.0892783048199336
 20
-1.459445427508808
 10
-0.1028124973985365
 20
-1.443434905401838
 10
-0.1137767653318214
 20
-1.424851169132425
 10
-0.1212496925035681
 20
-1.405249315247447
 10
-0.125441915125499
 20
-1.38406180399684
 10
-0.1262000000000001
 20
-1.37025
  0
LWPOLYLINE
  5
CC
330
8E
100
AcDbEntity
  8
AM_4
100
AcDbPolyline
 90
       11
 70
     0
 43
0.0
 10
-1.144909210172611
 20
-1.37025
 10
-1.145789688772266
 20
-1.391082977183949
 10
-1.148494786260696
 20
-1.411915954367899
 10
-1.152758992405954
 20
-1.430997761626058
 10
-1.15864518141182
 20
-1.4488829986566
 10
-1.165613826881625
 20
-1.464122863042508
 10
-1.173772768919363
 20
-1.477103249577083
 10
-1.182384407894738
 20
-1.48675304116989
 10
-1.191620284459142
 20
-1.493320619329846
 10
-1.200629461557973
 20
-1.496244440476503
 10
-1.203685096350439
 20
-1.496449999460139
  0
LINE
  5
CD
330
8E
100
AcDbEntity
  8
AM_4
100
AcDbLine
 10
1.328125
 20
-1.560916666666667
 30
0.0
 11
1.328125
 21
-1.37025
 31
0.0
  0
LINE
  5
CE
330
8E
100
AcDbEntity
  8
AM_4
100
AcDbLine
 10
-1.328125
 20
-1.37025
 30
0.0
 11
-1.328125
 21
-1.560916666666667
 31
0.0
  0
LINE
  5
CF
330
8E
100
AcDbEntity
  8
AM_4
100
AcDbLine
 10
-1.328125
 20
-1.560916666666667
 30
0.0
 11
1.328125
 21
-1.560916666666667
 31
0.0
  0
LWPOLYLINE
  5
D0
330
8E
100
AcDbEntity
  8
AM_4
100
AcDbPolyline
 90
       14
 70
     0
 43
0.0
 10
-1.301557456887996
 20
-1.37025
 10
-1.301179730492544
 20
-1.350736681255786
 10
-1.300022762365336
 20
-1.331223362511572
 10
-1.29717484153574
 20
-1.305558764871024
 10
-1.292699219727506
 20
-1.281039837676338
 10
-1.286970817500274
 20
-1.260205189520065
 10
-1.2795879294792
 20
-1.242038441730542
 10
-1.271468701420373
 20
-1.22881624210219
 10
-1.261935422046671
 20
-1.219359496559511
 10
-1.252361070408362
 20
-1.214783882718748
 10
-1.241908611942674
 20
-1.214357675737965
 10
-1.23186434193085
 20
-1.217931680200052
 10
-1.22160309238729
 20
-1.2254806885824
 10
-1.214034822384744
 20
-1.233706786573872
  0
LWPOLYLINE
  5
D1
330
8E
100
AcDbEntity
  8
AM_4
100
AcDbPolyline
 90
       20
 70
     0
 43
0.0
 10
-0.1482361201500415
 20
-1.37025
 10
-0.1470729124633055
 20
-1.350736681255786
 10
-0.1435272678807333
 20
-1.331223362511572
 10
-0.1349071611276213
 20
-1.305558764871024
 10
-0.1216536395559408
 20
-1.281039837676337
 10
-0.1051740788061586
 20
-1.260205189520065
 10
-0.084660572874943
 20
-1.242038441730542
 10
-0.0629456271430201
 20
-1.22881624210219
 10
-0.0384496724713535
 20
-1.219359496559511
 10
-0.0148128453016498
 20
-1.214783882718748
 10
0.0100127105203585
 20
-1.214357675737965
 10
0.0330079054838706
 20
-1.217931680200052
 10
0.0557160680211961
 20
-1.2254806885824
 10
0.0764451586983132
 20
-1.236421252007838
 10
0.0956384975152396
 20
-1.250927875021348
 10
0.1125112614412572
 20
-1.268585723954482
 10
0.126716966669634
 20
-1.289240490593438
 10
0.1377086384026033
 20
-1.312476363081269
 10
0.1450079466451511
 20
-1.33785550004842
 10
0.148236120150041
 20
-1.37025
  0
LINE
  5
D2
330
8E
100
AcDbEntity
  8
AM_4
100
AcDbLine
 10
1.375
 20
-1.37025
 30
0.0
 11
1.375
 21
-1.08425
 31
0.0
  0
LINE
  5
D3
330
8E
100
AcDbEntity
  8
AM_4
100
AcDbLine
 10
-1.375
 20
-1.08425
 30
0.0
 11
-1.375
 21
-1.37025
 31
0.0
  0
LINE
  5
D4
330
8E
100
AcDbEntity
  8
AM_4
100
AcDbLine
 10
-1.375
 20
-1.37025
 30
0.0
 11
-1.251578059435964
 21
-1.37025
 31
0.0
  0
LINE
  5
D5
330
8E
100
AcDbEntity
  8
AM_4
100
AcDbLine
 10
-1.375
 20
-1.08425
 30
0.0
 11
1.375
 21
-1.08425
 31
0.0
  0
CIRCLE
  5
D6
330
8E
100
AcDbEntity
  8
AM_5
100
AcDbCircle
 10
0.0000000000000051
 20
-1.370250000000003
 30
0.0
 40
0.1562499999999982
  0
ENDBLK
  5
91
330
8E
100
AcDbEntity
  8
0
100
AcDbBlockEnd
  0
BLOCK
  5
D9
330
D7
100
AcDbEntity
  8
0
100
AcDbBlockBegin
  2
3_070001i_0_in_070273_4
 70
     2
 10
0.0
 20
0.0
 30
0.0
  3
3_070001i_0_in_070273_4
  1

  0
ATTDEF
  5
DB
330
D7
100
AcDbEntity
  8
AM_6
100
AcDbText
 10
6.5748
 20
0.8750000000000001
 30
0.0
 40
0.5
  1
S-2000 Insert -Inch
100
AcDbAttributeDefinition
  3

  2
NN
 70
     8
280
     0
  0
ATTDEF
  5
DC
330
D7
100
AcDbEntity
  8
AM_6
100
AcDbText
 10
6.5748
 20
0.3750000000000001
 30
0.0
 40
0.5
  1
S-2000 Bearings
100
AcDbAttributeDefinition
  3

  2
NT
 70
     8
280
     0
  0
ATTDEF
  5
DD
330
D7
100
AcDbEntity
  8
AM_6
100
AcDbText
 10
6.5748
 20
-0.1249999999999999
 30
0.0
 40
0.5
  1
070001i
100
AcDbAttributeDefinition
  3

  2
NB
 70
     8
280
     0
  0
ATTDEF
  5
DE
330
D7
100
AcDbEntity
  8
AM_6
100
AcDbText
 10
6.5748
 20
-0.6249999999999999
 30
0.0
 40
0.5
  1
$PN.i
100
AcDbAttributeDefinition
  3

  2
NBSYN
 70
     8
280
     0
  0
ATTDEF
  5
DF
330
D7
100
AcDbEntity
  8
AM_6
100
AcDbText
 10
6.5748
 20
-1.125
 30
0.0
 40
0.5
  1
070001i
100
AcDbAttributeDefinition
  3

  2
LINA
 70
     8
280
     0
  0
ATTDEF
  5
E0
330
D7
100
AcDbEntity
  8
AM_6
100
AcDbText
 10
6.5748
 20
-1.625
 30
0.0
 40
0.5
  1
1-7/16
100
AcDbAttributeDefinition
  3

  2
SS
 70
     8
280
     0
  0
ATTDEF
  5
E1
330
D7
100
AcDbEntity
  8
AM_6
100
AcDbText
 10
6.5748
 20
-2.125
 30
0.0
 40
0.5
  1
1.75
100
AcDbAttributeDefinition
  3

  2
CC
 70
     8
280
     0
  0
ATTDEF
  5
E2
330
D7
100
AcDbEntity
  8
AM_6
100
AcDbText
 10
6.5748
 20
-2.625
 30
0.0
 40
0.5
  1
1.437500
100
AcDbAttributeDefinition
  3

  2
SS1
 70
     8
280
     0
  0
ATTDEF
  5
E3
330
D7
100
AcDbEntity
  8
AM_6
100
AcDbText
 10
6.5748
 20
-3.125
 30
0.0
 40
0.5
  1
070001
100
AcDbAttributeDefinition
  3

  2
PN
 70
     8
280
     0
  0
ATTDEF
  5
E4
330
D7
100
AcDbEntity
  8
AM_6
100
AcDbText
 10
6.5748
 20
-3.625
 30
0.0
 40
0.5
  1
INS-S2-107R
100
AcDbAttributeDefinition
  3

  2
DESCRIPTION
 70
     8
280
     0
  0
ATTDEF
  5
E5
330
D7
100
AcDbEntity
  8
AM_6
100
AcDbText
 10
6.5748
 20
-4.125
 30
0.0
 40
0.5
  1
Contact Seal
100
AcDbAttributeDefinition
  3

  2
ST
 70
     8
280
     0
  0
ATTDEF
  5
E6
330
D7
100
AcDbEntity
  8
AM_6
100
AcDbText
 10
6.5748
 20
-4.625
 30
0.0
 40
0.5
  1
1
100
AcDbAttributeDefinition
  3

  2
ST1
 70
     8
280
     0
  0
ATTDEF
  5
E7
330
D7
100
AcDbEntity
  8
AM_6
100
AcDbText
 10
6.5748
 20
-5.125
 30
0.0
 40
0.5
  1
3.1496
100
AcDbAttributeDefinition
  3

  2
A
 70
     8
280
     0
  0
ATTDEF
  5
E8
330
D7
100
AcDbEntity
  8
AM_6
100
AcDbText
 10
6.5748
 20
-5.625
 30
0.0
 40
0.5
  1
61/64
100
AcDbAttributeDefinition
  3

  2
B
 70
     8
280
     0
  0
ATTDEF
  5
E9
330
D7
100
AcDbEntity
  8
AM_6
100
AcDbText
 10
6.5748
 20
-6.125
 30
0.0
 40
0.5
  1
2-17/32
100
AcDbAttributeDefinition
  3

  2
C
 70
     8
280
     0
  0
ATTDEF
  5
EA
330
D7
100
AcDbEntity
  8
AM_6
100
AcDbText
 10
6.5748
 20
-6.625
 30
0.0
 40
0.5
  1
0.970
100
AcDbAttributeDefinition
  3

  2
D
 70
     8
280
     0
  0
ATTDEF
  5
EB
330
D7
100
AcDbEntity
  8
AM_6
100
AcDbText
 10
6.5748
 20
-7.125
 30
0.0
 40
0.5
  1
2-21/32
100
AcDbAttributeDefinition
  3

  2
E
 70
     8
280
     0
  0
ATTDEF
  5
EC
330
D7
100
AcDbEntity
  8
AM_6
100
AcDbText
 10
6.5748
 20
-7.625
 30
0.0
 40
0.5
  1
0.28125
100
AcDbAttributeDefinition
  3

  2
F
 70
     8
280
     0
  0
ATTDEF
  5
ED
330
D7
100
AcDbEntity
  8
AM_6
100
AcDbText
 10
6.5748
 20
-8.125
 30
0.0
 40
0.5
  1
1
100
AcDbAttributeDefinition
  3

  2
DD
 70
     8
280
     0
  0
ATTDEF
  5
EE
330
D7
100
AcDbEntity
  8
AM_6
100
AcDbText
 10
6.5748
 20
-8.625
 30
0.0
 40
0.5
  1
baldor
100
AcDbAttributeDefinition
  3

  2
COMPANY
 70
     8
280
     0
  0
LINE
  5
EF
330
D7
100
AcDbEntity
  8
AM_9
100
AcDbLine
 10
-0.7929115019120886
 20
-1.54525
 30
0.0
 11
-0.6513219804143551
 21
-1.54525
 31
0.0
  0
LINE
  5
F0
330
D7
100
AcDbEntity
  8
AM_9
100
AcDbLine
 10
-0.6512745664980457
 20
-1.19525
 30
0.0
 11
-0.792972988572515
 21
-1.19525
 31
0.0
  0
LWPOLYLINE
  5
F1
330
D7
100
AcDbEntity
  8
AM_9
100
AcDbPolyline
 90
       11
 70
     0
 43
0.0
 10
-0.7051471053678553
 20
-1.403176655269284
 10
-0.7050825468251976
 20
-1.40482194906584
 10
-0.7034876410553295
 20
-1.431906776450445
 10
-0.7007773273976367
 20
-1.45801780328694
 10
-0.6968914480884354
 20
-1.481494114612993
 10
-0.6915071239626622
 20
-1.502507401935133
 10
-0.6846198708954763
 20
-1.519739124757089
 10
-0.6758583625083575
 20
-1.533139171382759
 10
-0.665827088496968
 20
-1.541495001148668
 10
-0.6540047217082748
 20
-1.545140136732748
 10
-0.6514164068897882
 20
-1.545249999055196
  0
LWPOLYLINE
  5
F2
330
D7
100
AcDbEntity
  8
AM_9
100
AcDbPolyline
 90
        3
 70
     0
 43
0.0
 10
-0.7057636545785457
 20
-1.37025
 10
-0.7057481796149494
 20
-1.375517494694797
 10
-0.7051471053678553
 20
-1.403176655269284
  0
LWPOLYLINE
  5
F3
330
D7
100
AcDbEntity
  8
AM_9
100
AcDbPolyline
 90
        3
 70
     0
 43
0.0
 10
-0.7051707607442087
 20
-1.337948954752866
 10
-0.7054568481300056
 20
-1.346906791110282
 10
-0.7057636545785457
 20
-1.37025
  0
LWPOLYLINE
  5
F4
330
D7
100
AcDbEntity
  8
AM_9
100
AcDbPolyline
 90
       10
 70
     0
 43
0.0
 10
-0.6514043873125601
 20
-1.195250000300555
 10
-0.6587329008273833
 20
-1.196157959322315
 10
-0.6693705275246274
 20
-1.201297460751525
 10
-0.6788593598394063
 20
-1.211158407467812
 10
-0.6866478128068964
 20
-1.225051118392404
 10
-0.6930946858530604
 20
-1.243276124558377
 10
-0.6980458467555355
 20
-1.264961557211205
 10
-0.7017390681610689
 20
-1.290329587745538
 10
-0.7041233817140048
 20
-1.317399345669891
 10
-0.7051707607442087
 20
-1.337948954752866
  0
LWPOLYLINE
  5
F5
330
D7
100
AcDbEntity
  8
AM_9
100
AcDbPolyline
 90
       11
 70
     0
 43
0.0
 10
-0.6514164068897882
 20
-1.545249999055196
 10
-0.6417008499685988
 20
-1.543831928877999
 10
-0.6282876775057086
 20
-1.537700184201236
 10
-0.6150507456175701
 20
-1.527335987626695
 10
-0.6017158421105565
 20
-1.512459658253497
 10
-0.5892811804847035
 20
-1.493813722415147
 10
-0.57796798228291
 20
-1.471164542382643
 10
-0.5688224569043491
 20
-1.445895318656662
 10
-0.5620595974580997
 20
-1.41758871143939
 10
-0.5589331488583869
 20
-1.394391892195054
 10
-0.557847262969301
 20
-1.37025
  0
LWPOLYLINE
  5
F6
330
D7
100
AcDbEntity
  8
AM_9
100
AcDbPolyline
 90
       10
 70
     0
 43
0.0
 10
-0.8486517947512039
 20
-1.313416093573811
 10
-0.8480282198041013
 20
-1.306598440129191
 10
-0.8447116677971725
 20
-1.280356953035973
 10
-0.8401255889529258
 20
-1.256980089338724
 10
-0.8339623655471271
 20
-1.236148441083623
 10
-0.8263821216033026
 20
-1.219326605964875
 10
-0.8170222331015435
 20
-1.206384317136913
 10
-0.8065668850494381
 20
-1.1984719291521
 10
-0.7945307880422267
 20
-1.195286873539867
 10
-0.7930259904962932
 20
-1.195250000713172
  0
LWPOLYLINE
  5
F7
330
D7
100
AcDbEntity
  8
AM_9
100
AcDbPolyline
 90
        4
 70
     0
 43
0.0
 10
-0.8509552656574007
 20
-1.37025
 10
-0.8509220062795969
 20
-1.363253298945129
 10
-0.850038826109125
 20
-1.333871299982172
 10
-0.8486517947512039
 20
-1.313416093573811
  0
LWPOLYLINE
  5
F8
330
D7
100
AcDbEntity
  8
AM_9
100
AcDbPolyline
 90
        4
 70
     0
 43
0.0
 10
-0.8484489237072356
 20
-1.429408239563641
 10
-0.8491035347766589
 20
-1.421449622022456
 10
-0.8506319370171038
 20
-1.391996589325063
 10
-0.8509552656574007
 20
-1.37025
  0
LWPOLYLINE
  5
F9
330
D7
100
AcDbEntity
  8
AM_9
100
AcDbPolyline
 90
        9
 70
     0
 43
0.0
 10
-0.7930139512203077
 20
-1.545249999540012
 10
-0.800698881349595
 20
-1.544259250110168
 10
-0.8115933061492574
 20
-1.538927481332413
 10
-0.8214871415981218
 20
-1.528786892920985
 10
-0.8297524050181645
 20
-1.514585130680784
 10
-0.8367498346601604
 20
-1.495985313404189
 10
-0.8422060202837094
 20
-1.474093991964447
 10
-0.8463720632503537
 20
-1.448558892580933
 10
-0.8484489237072356
 20
-1.429408239563641
  0
LWPOLYLINE
  5
FA
330
D7
100
AcDbEntity
  8
AM_9
100
AcDbPolyline
 90
       11
 70
     0
 43
0.0
 10
-0.7930259904962932
 20
-1.195250000713172
 10
-0.7821345385744597
 20
-1.197043494267661
 10
-0.76884102304771
 20
-1.203685256493086
 10
-0.7558798635254017
 20
-1.214614851050496
 10
-0.7429985455199332
 20
-1.230130902679899
 10
-0.731239633843386
 20
-1.249301503811286
 10
-0.7207027446595742
 20
-1.272457225996137
 10
-0.7123973637208576
 20
-1.297974512733218
 10
-0.7064142350704733
 20
-1.326398241540443
 10
-0.7039040814814018
 20
-1.347956758041332
 10
-0.7030388740481558
 20
-1.37025
  0
LWPOLYLINE
  5
FB
330
D7
100
AcDbEntity
  8
AM_9
100
AcDbPolyline
 90
       11
 70
     0
 43
0.0
 10
-0.557847262969301
 20
-1.37025
 10
-0.5593594686232177
 20
-1.341777486300151
 10
-0.5639767275909702
 20
-1.313304972600301
 10
-0.5711590457782351
 20
-1.28724435535074
 10
-0.5808920674765955
 20
-1.262797198638758
 10
-0.5923755889043522
 20
-1.241537850456148
 10
-0.6055018115291787
 20
-1.223331865520752
 10
-0.6191247919900102
 20
-1.209523703939895
 10
-0.6332604548978485
 20
-1.199999546418514
 10
-0.6462667147418513
 20
-1.19565874653757
 10
-0.6514043873125601
 20
-1.195250000300555
  0
LINE
  5
FC
330
D7
100
AcDbEntity
  8
AM_9
100
AcDbLine
 10
-0.7187499999999998
 20
0.8750000000000001
 30
0.0
 11
-0.7187499999999998
 21
-1.65625
 31
0.0
  0
LINE
  5
FD
330
D7
100
AcDbEntity
  8
AM_9
100
AcDbLine
 10
0.7187499999999998
 20
-1.65625
 30
0.0
 11
0.7187499999999998
 21
0.8750000000000001
 31
0.0
  0
LINE
  5
FE
330
D7
100
AcDbEntity
  8
AM_9
100
AcDbLine
 10
-0.875
 20
0.78125
 30
0.0
 11
-0.875
 21
0.613
 31
0.0
  0
LINE
  5
FF
330
D7
100
AcDbEntity
  8
AM_9
100
AcDbLine
 10
0.875
 20
0.613
 30
0.0
 11
0.875
 21
0.78125
 31
0.0
  0
LWPOLYLINE
  5
100
330
D7
100
AcDbEntity
  8
AM_9
100
AcDbPolyline
 90
       21
 70
     0
 43
0.0
 10
-0.175
 20
-1.37025
 10
-0.1748600759874842
 20
-1.363253298945129
 10
-0.1711770726032341
 20
-1.333871299982172
 10
-0.1630137384578759
 20
-1.306598440129191
 10
-0.1501473946078426
 20
-1.280356953035973
 10
-0.1333976286850202
 20
-1.256980089338724
 10
-0.112435634458998
 20
-1.236148441083623
 10
-0.0885840230115927
 20
-1.219326605964875
 10
-0.0614250598682176
 20
-1.206384317136913
 10
-0.0334259536254984
 20
-1.1984719291521
 10
-0.0035922665958044
 20
-1.195286873539867
 10
0.0249901254897453
 20
-1.197043494267661
 10
0.0536766822789572
 20
-1.203685256493086
 10
0.0800168757917087
 20
-1.214614851050496
 10
0.1048410156675335
 20
-1.230130902679899
 10
0.1264771175734513
 20
-1.249301503811286
 10
0.1451260602119051
 20
-1.272457225996138
 10
0.1593777084172978
 20
-1.297974512733218
 10
0.1694167148778556
 20
-1.326398241540443
 10
0.1735742243622948
 20
-1.347956758041332
 10
0.175
 20
-1.37025
  0
LWPOLYLINE
  5
101
330
D7
100
AcDbEntity
  8
AM_9
100
AcDbPolyline
 90
       20
 70
     0
 43
0.0
 10
0.175
 20
-1.37025
 10
0.1726416871499104
 20
-1.398882985489335
 10
0.1653650766270503
 20
-1.427515970978669
 10
0.1538048032266742
 20
-1.45373103080583
 10
0.1376477424254003
 20
-1.478315253459151
 10
0.1179502270883829
 20
-1.499527778174746
 10
0.0943209480237127
 20
-1.517656101515195
 10
0.0684713867126893
 20
-1.531298654765078
 10
0.0398137350727158
 20
-1.540660875531932
 10
0.0111991665082559
 20
-1.54489128569591
 10
-0.0185951842178817
 20
-1.544259250110168
 10
-0.0466144536743007
 20
-1.538927481332413
 10
-0.0741016435914894
 20
-1.528786892920985
 10
-0.0989564048021199
 20
-1.514585130680784
 10
-0.1217194765152665
 20
-1.495985313404188
 10
-0.1408595943941624
 20
-1.474093991964447
 10
-0.1565014931006984
 20
-1.448558892580933
 10
-0.1673427581485308
 20
-1.421449622022456
 10
-0.1736435597790112
 20
-1.391996589325063
 10
-0.175
 20
-1.37025
  0
LWPOLYLINE
  5
102
330
D7
100
AcDbEntity
  8
AM_9
100
AcDbPolyline
 90
       11
 70
     0
 43
0.0
 10
-0.7030388740481558
 20
-1.37025
 10
-0.7044687658692513
 20
-1.398882985489335
 10
-0.7088422255078555
 20
-1.427515970978669
 10
-0.7156713045791434
 20
-1.45373103080583
 10
-0.72497298049461
 20
-1.478315253459151
 10
-0.7359333415312602
 20
-1.499527778174746
 10
-0.7485367165610077
 20
-1.517656101515195
 10
-0.7616502863478958
 20
-1.531298654765078
 10
-0.7753719517518839
 20
-1.540660875531932
 10
-0.7882213842406338
 20
-1.54489128569591
 10
-0.7930139512203077
 20
-1.545249999540012
  0
LINE
  5
103
330
D7
100
AcDbEntity
  8
AM_9
100
AcDbLine
 10
-0.875
 20
-1.08425
 30
0.0
 11
-0.875
 21
-1.65625
 31
0.0
  0
LINE
  5
104
330
D7
100
AcDbEntity
  8
AM_9
100
AcDbLine
 10
0.875
 20
-1.65625
 30
0.0
 11
0.875
 21
-1.08425
 31
0.0
  0
LINE
  5
105
330
D7
100
AcDbEntity
  8
AM_9
100
AcDbLine
 10
1.1645275
 20
0.613
 30
0.0
 11
-1.164527499995443
 21
0.613
 31
0.0
  0
ARC
  5
106
330
D7
100
AcDbEntity
  8
AM_9
100
AcDbCircle
 10
-1.1645275
 20
0.5176875000000001
 30
0.0
 40
0.0953124999999999
100
AcDbArc
 50
90.0
 51
180.0
  0
ARC
  5
107
330
D7
100
AcDbEntity
  8
AM_9
100
AcDbCircle
 10
1.164527500000001
 20
0.5176875000000005
 30
0.0
 40
0.0953124999999995
100
AcDbArc
 50
0.0000008537736463
 51
90.0
  0
LINE
  5
108
330
D7
100
AcDbEntity
  8
AM_9
100
AcDbLine
 10
-1.25984
 20
-0.5715625
 30
0.0
 11
-1.25984
 21
-0.7076875000000002
 31
0.0
  0
LINE
  5
109
330
D7
100
AcDbEntity
  8
AM_9
100
AcDbLine
 10
1.25984
 20
-0.7076875000000002
 30
0.0
 11
1.25984
 21
-0.5715625
 31
0.0
  0
LINE
  5
10A
330
D7
100
AcDbEntity
  8
AM_9
100
AcDbLine
 10
1.25984
 20
-0.7076875000000002
 30
0.0
 11
-1.25984
 21
-0.7076875000000002
 31
0.0
  0
ARC
  5
10B
330
D7
100
AcDbEntity
  8
AM_9
100
AcDbCircle
 10
-1.164527500000002
 20
-0.7076875000000011
 30
0.0
 40
0.0953124999999979
100
AcDbArc
 50
180.0
 51
230.5160990135971
  0
ARC
  5
10C
330
D7
100
AcDbEntity
  8
AM_9
100
AcDbCircle
 10
1.164527500000002
 20
-0.7076875000000011
 30
0.0
 40
0.0953124999999979
100
AcDbArc
 50
309.4839009864028
 51
0.0
  0
LINE
  5
10D
330
D7
100
AcDbEntity
  8
AM_9
100
AcDbLine
 10
1.25984
 20
0.5176875000000001
 30
0.0
 11
-1.25984
 21
0.5176875000000001
 31
0.0
  0
LINE
  5
10E
330
D7
100
AcDbEntity
  8
AM_9
100
AcDbLine
 10
-1.25984
 20
0.5176875000000001
 30
0.0
 11
-1.25984
 21
0.3815624999999999
 31
0.0
  0
LINE
  5
10F
330
D7
100
AcDbEntity
  8
AM_9
100
AcDbLine
 10
1.25984
 20
0.3815624999999999
 30
0.0
 11
1.25984
 21
0.5176875000000001
 31
0.0
  0
LINE
  5
110
330
D7
100
AcDbEntity
  8
AM_9
100
AcDbLine
 10
-1.511808
 20
-0.0473437500000011
 30
0.0
 11
-1.511808
 21
-0.1426562499999988
 31
0.0
  0
LINE
  5
111
330
D7
100
AcDbEntity
  8
AM_9
100
AcDbLine
 10
1.511808
 20
-0.1426562499999988
 30
0.0
 11
1.511808
 21
-0.0473437500000011
 31
0.0
  0
LINE
  5
112
330
D7
100
AcDbEntity
  8
AM_9
100
AcDbLine
 10
1.479487500000001
 20
0.3815624999999996
 30
0.0
 11
-1.479487499996565
 21
0.3815624999999996
 31
0.0
  0
ARC
  5
113
330
D7
100
AcDbEntity
  8
AM_9
100
AcDbCircle
 10
-1.479487500000001
 20
0.2862500000000006
 30
0.0
 40
0.0953124999999991
100
AcDbArc
 50
90.0
 51
180.0
  0
ARC
  5
114
330
D7
100
AcDbEntity
  8
AM_9
100
AcDbCircle
 10
1.479487500000001
 20
0.2862500000000006
 30
0.0
 40
0.095312499999999
100
AcDbArc
 50
0.0
 51
90.0
  0
LINE
  5
115
330
D7
100
AcDbEntity
  8
AM_9
100
AcDbLine
 10
1.5748
 20
0.2862499999999999
 30
0.0
 11
-1.5748
 21
0.2862499999999999
 31
0.0
  0
LINE
  5
116
330
D7
100
AcDbEntity
  8
AM_9
100
AcDbLine
 10
-1.5748
 20
0.2862499999999999
 30
0.0
 11
-1.5748
 21
-0.0109753018432082
 31
0.0
  0
LINE
  5
117
330
D7
100
AcDbEntity
  8
AM_9
100
AcDbLine
 10
1.5748
 20
-0.0109753018432082
 30
0.0
 11
1.5748
 21
0.2862499999999999
 31
0.0
  0
LINE
  5
118
330
D7
100
AcDbEntity
  8
AM_9
100
AcDbLine
 10
1.511808
 20
-0.1426562499999988
 30
0.0
 11
-1.511808
 21
-0.1426562499999988
 31
0.0
  0
LINE
  5
119
330
D7
100
AcDbEntity
  8
AM_9
100
AcDbLine
 10
-1.511808
 20
-0.1426562499999988
 30
0.0
 11
-1.5748
 21
-0.1790246981567918
 31
0.0
  0
LINE
  5
11A
330
D7
100
AcDbEntity
  8
AM_9
100
AcDbLine
 10
1.5748
 20
-0.1790246981567918
 30
0.0
 11
1.511808
 21
-0.1426562499999988
 31
0.0
  0
LINE
  5
11B
330
D7
100
AcDbEntity
  8
AM_9
100
AcDbLine
 10
1.5748
 20
-0.0109753018432082
 30
0.0
 11
-1.5748
 21
-0.0109753018432082
 31
0.0
  0
LINE
  5
11C
330
D7
100
AcDbEntity
  8
AM_9
100
AcDbLine
 10
1.511808
 20
-0.0473437500000011
 30
0.0
 11
-1.511808
 21
-0.0473437500000011
 31
0.0
  0
LINE
  5
11D
330
D7
100
AcDbEntity
  8
AM_9
100
AcDbLine
 10
1.511808
 20
-0.0473437500000011
 30
0.0
 11
1.5748
 21
-0.0109753018432082
 31
0.0
  0
LINE
  5
11E
330
D7
100
AcDbEntity
  8
AM_9
100
AcDbLine
 10
-1.5748
 20
-0.0109753018432082
 30
0.0
 11
-1.511808
 21
-0.0473437500000011
 31
0.0
  0
LINE
  5
11F
330
D7
100
AcDbEntity
  8
AM_9
100
AcDbLine
 10
1.4794875
 20
-0.5715625
 30
0.0
 11
-1.479487499996565
 21
-0.5715625
 31
0.0
  0
ARC
  5
120
330
D7
100
AcDbEntity
  8
AM_9
100
AcDbCircle
 10
-1.4794875
 20
-0.4762500000000001
 30
0.0
 40
0.0953124999999999
100
AcDbArc
 50
180.0
 51
270.0
  0
ARC
  5
121
330
D7
100
AcDbEntity
  8
AM_9
100
AcDbCircle
 10
1.4794875
 20
-0.4762500000000001
 30
0.0
 40
0.0953124999999999
100
AcDbArc
 50
270.0
 51
0.0
  0
LINE
  5
122
330
D7
100
AcDbEntity
  8
AM_9
100
AcDbLine
 10
1.5748
 20
-0.1790246981567918
 30
0.0
 11
-1.5748
 21
-0.1790246981567918
 31
0.0
  0
LINE
  5
123
330
D7
100
AcDbEntity
  8
AM_9
100
AcDbLine
 10
1.5748
 20
-0.4762500000000003
 30
0.0
 11
-1.5748
 21
-0.4762500000000003
 31
0.0
  0
LINE
  5
124
330
D7
100
AcDbEntity
  8
AM_9
100
AcDbLine
 10
-1.5748
 20
-0.1790246981567918
 30
0.0
 11
-1.5748
 21
-0.4762500000000003
 31
0.0
  0
LINE
  5
125
330
D7
100
AcDbEntity
  8
AM_9
100
AcDbLine
 10
1.5748
 20
-0.4762500000000003
 30
0.0
 11
1.5748
 21
-0.1790246981567918
 31
0.0
  0
LINE
  5
126
330
D7
100
AcDbEntity
  8
AM_4
100
AcDbLine
 10
0.875
 20
0.8750000000000001
 30
0.0
 11
-0.875
 21
0.8750000000000001
 31
0.0
  0
LINE
  5
127
330
D7
100
AcDbEntity
  8
AM_4
100
AcDbLine
 10
-0.875
 20
0.8750000000000001
 30
0.0
 11
-0.875
 21
0.78125
 31
0.0
  0
LINE
  5
128
330
D7
100
AcDbEntity
  8
AM_4
100
AcDbLine
 10
0.875
 20
0.78125
 30
0.0
 11
0.875
 21
0.8750000000000001
 31
0.0
  0
LINE
  5
129
330
D7
100
AcDbEntity
  8
AM_4
100
AcDbLine
 10
-0.875
 20
-0.803
 30
0.0
 11
-0.875
 21
-1.08425
 31
0.0
  0
LINE
  5
12A
330
D7
100
AcDbEntity
  8
AM_4
100
AcDbLine
 10
0.875
 20
-1.08425
 30
0.0
 11
0.875
 21
-0.803
 31
0.0
  0
LINE
  5
12B
330
D7
100
AcDbEntity
  8
AM_4
100
AcDbLine
 10
1.1645275
 20
-0.803
 30
0.0
 11
-1.164527499995443
 21
-0.803
 31
0.0
  0
ARC
  5
12C
330
D7
100
AcDbEntity
  8
AM_4
100
AcDbCircle
 10
-1.164527500000001
 20
-0.707687500000002
 30
0.0
 40
0.0953124999999982
100
AcDbArc
 50
230.516099013596
 51
270.0
  0
ARC
  5
12D
330
D7
100
AcDbEntity
  8
AM_4
100
AcDbCircle
 10
1.164527500000001
 20
-0.707687500000002
 30
0.0
 40
0.095312499999998
100
AcDbArc
 50
270.0
 51
309.4839009864039
  0
ENDBLK
  5
DA
330
D7
100
AcDbEntity
  8
0
100
AcDbBlockEnd
  0
BLOCK
  5
130
330
12E
100
AcDbEntity
  8
0
100
AcDbBlockBegin
  2
4_405015E_Inch_0_in_070273_4
 70
     2
 10
0.0
 20
0.0
 30
0.0
  3
4_405015E_Inch_0_in_070273_4
  1

  0
ATTDEF
  5
132
330
12E
100
AcDbEntity
  8
AM_6
100
AcDbText
 10
6.326421671481428
 20
0.2187500000000008
 30
0.0
 40
0.5
  1
405015E -Inch
100
AcDbAttributeDefinition
  3

  2
NN
 70
     8
280
     0
  0
ATTDEF
  5
133
330
12E
100
AcDbEntity
  8
AM_6
100
AcDbText
 10
6.326421671481428
 20
-0.2812499999999992
 30
0.0
 40
0.5
  1
Grease Fitting
100
AcDbAttributeDefinition
  3

  2
NT
 70
     8
280
     0
  0
ATTDEF
  5
134
330
12E
100
AcDbEntity
  8
AM_6
100
AcDbText
 10
6.326421671481428
 20
-0.7812499999999991
 30
0.0
 40
0.5
  1
405015E-Inch
100
AcDbAttributeDefinition
  3

  2
NB
 70
     8
280
     0
  0
ATTDEF
  5
135
330
12E
100
AcDbEntity
  8
AM_6
100
AcDbText
 10
6.326421671481428
 20
-1.281249999999999
 30
0.0
 40
0.5
  1
$MN.-Inch
100
AcDbAttributeDefinition
  3

  2
NBSYN
 70
     8
280
     0
  0
ATTDEF
  5
136
330
12E
100
AcDbEntity
  8
AM_6
100
AcDbText
 10
6.326421671481428
 20
-1.781249999999999
 30
0.0
 40
0.5
  1
405015E
100
AcDbAttributeDefinition
  3

  2
LINA
 70
     8
280
     0
  0
ATTDEF
  5
137
330
12E
100
AcDbEntity
  8
AM_6
100
AcDbText
 10
6.326421671481428
 20
-2.281249999999999
 30
0.0
 40
0.5
  1
405015E
100
AcDbAttributeDefinition
  3

  2
MN
 70
     8
280
     0
  0
ATTDEF
  5
138
330
12E
100
AcDbEntity
  8
AM_6
100
AcDbText
 10
6.326421671481428
 20
-2.781249999999999
 30
0.0
 40
0.5
  1
1/8 x 27PTF
100
AcDbAttributeDefinition
  3

  2
T
 70
     8
280
     0
  0
ATTDEF
  5
139
330
12E
100
AcDbEntity
  8
AM_6
100
AcDbText
 10
6.326421671481428
 20
-3.281249999999999
 30
0.0
 40
0.5
  1
baldor
100
AcDbAttributeDefinition
  3

  2
COMPANY
 70
     8
280
     0
  0
ELLIPSE
  5
13A
330
12E
100
AcDbEntity
  8
AM_9
100
AcDbEllipse
 10
0.9175000000000002
 20
0.0000000000000001
 30
0.0
 11
9.913691727296317E-18
 21
0.161902872472269
 31
0.0
210
0.0
220
0.0
230
1.0
 40
0.8660254037844383
 41
0.0
 42
6.283185307179586
  0
LINE
  5
13B
330
12E
100
AcDbEntity
  8
AM_9
100
AcDbLine
 10
1.249983902786395
 20
0.0412109777843038
 30
0.0
 11
1.273283799848308
 21
0.0000000000000001
 31
0.0
  0
LINE
  5
13C
330
12E
100
AcDbEntity
  8
AM_9
100
AcDbLine
 10
1.2140625
 20
0.1093750000000001
 30
0.0
 11
1.235616782923583
 21
0.0676699630851147
 31
0.0
  0
LINE
  5
13D
330
12E
100
AcDbEntity
  8
AM_9
100
AcDbLine
 10
1.235388874236891
 20
-0.0680974808921958
 30
0.0
 11
1.2140625
 21
-0.1093749999999999
 31
0.0
  0
LINE
  5
13E
330
12E
100
AcDbEntity
  8
AM_9
100
AcDbLine
 10
1.273283799848308
 20
0.0000000000000001
 30
0.0
 11
1.250872517696318
 21
-0.0396038500239671
 31
0.0
  0
LWPOLYLINE
  5
13F
330
12E
100
AcDbEntity
  8
AM_9
100
AcDbPolyline
 90
        3
 70
     0
 43
0.0
 10
1.314216200151693
 20
0.0000000000000001
 10
1.290321932388115
 20
0.0544416102741497
 10
1.2640625
 20
0.109375
  0
LWPOLYLINE
  5
140
330
12E
100
AcDbEntity
  8
AM_9
100
AcDbPolyline
 90
        3
 70
     0
 43
0.0
 10
1.2640625
 20
-0.1093749999999999
 10
1.290209559607483
 20
-0.0546874999999999
 10
1.314216200151693
 20
0.0000000000000001
  0
LWPOLYLINE
  5
141
330
12E
100
AcDbEntity
  8
AM_9
100
AcDbPolyline
 90
        3
 70
     0
 43
0.0
 10
1.2140625
 20
-0.1093749999999999
 10
1.187915440392518
 20
-0.1640624999999999
 10
1.163908799848308
 20
-0.2187499999999999
  0
LWPOLYLINE
  5
142
330
12E
100
AcDbEntity
  8
AM_9
100
AcDbPolyline
 90
        3
 70
     0
 43
0.0
 10
1.163908799848308
 20
0.2187500000000001
 10
1.187803067611885
 20
0.1643083897258505
 10
1.2140625
 20
0.1093750000000001
  0
LINE
  5
143
330
12E
100
AcDbEntity
  8
AM_9
100
AcDbLine
 10
1.314216200151693
 20
0.0000000000000001
 30
0.0
 11
1.273283799848308
 21
0.0000000000000001
 31
0.0
  0
LINE
  5
144
330
12E
100
AcDbEntity
  8
AM_9
100
AcDbLine
 10
1.2640625
 20
0.109375
 30
0.0
 11
1.26310227634361
 21
0.1112924450557835
 31
0.0
  0
LINE
  5
145
330
12E
100
AcDbEntity
  8
AM_9
100
AcDbLine
 10
0.9265467106261549
 20
-0.1983264404626879
 30
0.0
 11
1.040354897832291
 21
-0.2054502516015134
 31
0.0
  0
LINE
  5
146
330
12E
100
AcDbEntity
  8
AM_9
100
AcDbLine
 10
1.04035489783229
 20
0.2054502516015136
 30
0.0
 11
0.9265467106261549
 21
0.198326440462688
 31
0.0
  0
ELLIPSE
  5
147
330
12E
100
AcDbEntity
  8
AM_9
100
AcDbEllipse
 10
1.099999999998781
 20
0.0000000000010768
 30
0.0
 11
-4.018372309662969E-17
 21
-0.2187499999978615
 31
0.0
210
0.0
220
0.0
230
1.0
 40
0.8660254037955546
 41
1.032970329608426
 42
2.108622323972912
  0
ELLIPSE
  5
148
330
12E
100
AcDbEntity
  8
AM_9
100
AcDbEllipse
 10
1.100000000000004
 20
-0.0000000000000009
 30
0.0
 11
-3.926523799766128E-17
 21
-0.213749999999996
 31
0.0
210
0.0
220
0.0
230
1.0
 40
0.8660254037844374
 41
0.9862868522353114
 42
2.155305801354491
  0
ELLIPSE
  5
149
330
12E
100
AcDbEntity
  8
AM_9
100
AcDbEllipse
 10
1.10915909927044
 20
0.0000000000000006
 30
0.0
 11
-3.169399141454477E-17
 21
-0.1725340532830166
 31
0.0
210
0.0
220
0.0
230
1.0
 40
0.866025403784442
 41
0.673270410147472
 42
2.468322243442318
  0
LINE
  5
14A
330
12E
100
AcDbEntity
  8
AM_9
100
AcDbLine
 10
1.22
 20
0.0703562363973517
 30
0.0
 11
1.212760904853149
 21
0.0796165180238022
 31
0.0
  0
LINE
  5
14B
330
12E
100
AcDbEntity
  8
AM_9
100
AcDbLine
 10
1.212760904853149
 20
-0.0796165180238018
 30
0.0
 11
1.22
 21
-0.0703562363973514
 31
0.0
  0
ELLIPSE
  5
14C
330
12E
100
AcDbEntity
  8
AM_9
100
AcDbEllipse
 10
1.136376560809288
 20
-0.0000000000000002
 30
0.0
 11
-2.182689656893349E-17
 21
-0.1188200907348972
 31
0.0
210
0.0
220
0.0
230
1.0
 40
0.8660254037844348
 41
0.0521714424106561
 42
3.089421211179133
  0
LINE
  5
14D
330
12E
100
AcDbEntity
  8
AM_9
100
AcDbLine
 10
1.1525
 20
-0.1049999999999999
 30
0.0
 11
1.1675
 21
-0.1049999999999999
 31
0.0
  0
LINE
  5
14E
330
12E
100
AcDbEntity
  8
AM_9
100
AcDbLine
 10
1.1675
 20
0.1050000000000001
 30
0.0
 11
1.1525
 21
0.1050000000000001
 31
0.0
  0
ELLIPSE
  5
14F
330
12E
100
AcDbEntity
  8
AM_9
100
AcDbEllipse
 10
1.1675
 20
0.0
 30
0.0
 11
-1.928818708657083E-17
 21
-0.1050000000000001
 31
0.0
210
0.0
220
0.0
230
1.0
 40
0.8660254037844378
 41
5.235987755982988
 42
10.47197551196598
  0
ELLIPSE
  5
150
330
12E
100
AcDbEntity
  8
AM_9
100
AcDbEllipse
 10
1.1525
 20
-0.0000000000000012
 30
0.0
 11
-1.928818708657057E-17
 21
-0.1049999999999987
 31
0.0
210
0.0
220
0.0
230
1.0
 40
0.8660254037844365
 41
5.858105981271304
 42
9.84985728667765
  0
ELLIPSE
  5
151
330
12E
100
AcDbEntity
  8
AM_9
100
AcDbEllipse
 10
1.197500000000002
 20
0.0000000000000002
 30
0.0
 11
-2.479909768273378E-17
 21
-0.1349999999999993
 31
0.0
210
0.0
220
0.0
230
1.0
 40
0.8660254037844338
 41
0.7751090107151155
 42
2.366483642874676
  0
ELLIPSE
  5
152
330
12E
100
AcDbEntity
  8
AM_9
100
AcDbEllipse
 10
1.05
 20
0.0000000000000003
 30
0.0
 11
-3.779601035290906E-17
 21
-0.2057518972230694
 31
0.0
210
0.0
220
0.0
230
1.0
 40
0.8660254037844387
 41
0.0
 42
6.283185307179586
  0
ELLIPSE
  5
153
330
12E
100
AcDbEntity
  8
AM_9
100
AcDbEllipse
 10
0.9358573771544733
 20
-0.0000000000000002
 30
0.0
 11
-3.648546613377890E-17
 21
-0.1986176267812157
 31
0.0
210
0.0
220
0.0
230
1.0
 40
0.8660254037844392
 41
0.0
 42
6.283185307179586
  0
ELLIPSE
  5
154
330
12E
100
AcDbEntity
  8
AM_9
100
AcDbEllipse
 10
1.050000000000001
 20
0.0000000000000001
 30
0.0
 11
-4.018372309702266E-17
 21
-0.2187500000000007
 31
0.0
210
0.0
220
0.0
230
1.0
 40
0.8660254037844403
 41
0.0
 42
6.283185307179586
  0
LWPOLYLINE
  5
155
330
12E
100
AcDbEntity
  8
AM_4
100
AcDbPolyline
 90
        3
 70
     0
 43
0.0
 10
1.204841200151693
 20
-0.2187499999999999
 10
1.235388542662265
 20
-0.1643083897258503
 10
1.2640625
 20
-0.1093749999999999
  0
LWPOLYLINE
  5
156
330
12E
100
AcDbEntity
  8
AM_4
100
AcDbPolyline
 90
        3
 70
     0
 43
0.0
 10
1.26310227634361
 20
0.1112924450557835
 10
1.235522059607483
 20
0.1640625000000001
 10
1.204841200151693
 20
0.2187500000000001
  0
ELLIPSE
  5
157
330
12E
100
AcDbEntity
  8
AM_4
100
AcDbEllipse
 10
1.1
 20
0.0000000000000004
 30
0.0
 11
-4.018372309702245E-17
 21
-0.2187499999999996
 31
0.0
210
0.0
220
0.0
230
1.0
 40
0.8660254037844385
 41
2.108622323974788
 42
7.31615563679459
  0
ELLIPSE
  5
158
330
12E
100
AcDbEntity
  8
AM_4
100
AcDbEllipse
 10
1.1
 20
0.0000000000000001
 30
0.0
 11
-3.926523799766202E-17
 21
-0.2137500000000001
 31
0.0
210
0.0
220
0.0
230
1.0
 40
0.8660254037844387
 41
2.155305801354475
 42
7.269472159414904
  0
LWPOLYLINE
  5
159
330
12E
100
AcDbEntity
  8
AM_4
100
AcDbPolyline
 90
        3
 70
     0
 43
0.0
 10
0.986091200151693
 20
0.2187500000000001
 10
0.9621969323881155
 20
0.1643083897258505
 10
0.9359375000000003
 20
0.109375
  0
LINE
  5
15A
330
12E
100
AcDbEntity
  8
AM_4
100
AcDbLine
 10
1.204841200151693
 20
0.2187500000000001
 30
0.0
 11
0.9451587998483075
 21
0.2187500000000001
 31
0.0
  0
LWPOLYLINE
  5
15B
330
12E
100
AcDbEntity
  8
AM_4
100
AcDbPolyline
 90
        3
 70
     0
 43
0.0
 10
0.8859375000000003
 20
0.1093750000000001
 10
0.9144779403925175
 20
0.1640625000000001
 10
0.9451587998483075
 20
0.2187500000000001
  0
LWPOLYLINE
  5
15C
330
12E
100
AcDbEntity
  8
AM_4
100
AcDbPolyline
 90
        3
 70
     0
 43
0.0
 10
0.8357837998483075
 20
0.0000000000000001
 10
0.8596780676118851
 20
0.0544416102741497
 10
0.8859375000000003
 20
0.1093750000000001
  0
LINE
  5
15D
330
12E
100
AcDbEntity
  8
AM_4
100
AcDbLine
 10
1.204841200151693
 20
-0.2187499999999999
 30
0.0
 11
0.9451587998483075
 21
-0.2187499999999999
 31
0.0
  0
LWPOLYLINE
  5
15E
330
12E
100
AcDbEntity
  8
AM_4
100
AcDbPolyline
 90
        3
 70
     0
 43
0.0
 10
0.9359375000000003
 20
-0.1093749999999999
 10
0.962084559607483
 20
-0.1640624999999999
 10
0.986091200151693
 20
-0.2187499999999999
  0
LINE
  5
15F
330
12E
100
AcDbEntity
  8
AM_4
100
AcDbLine
 10
0.876716200151693
 20
0.0000000000000001
 30
0.0
 11
0.8357837998483075
 21
0.0000000000000001
 31
0.0
  0
LWPOLYLINE
  5
160
330
12E
100
AcDbEntity
  8
AM_4
100
AcDbPolyline
 90
        3
 70
     0
 43
0.0
 10
0.8859375000000003
 20
-0.1093749999999999
 10
0.8597904403925177
 20
-0.0546874999999999
 10
0.8357837998483075
 20
0.0000000000000001
  0
LWPOLYLINE
  5
161
330
12E
100
AcDbEntity
  8
AM_4
100
AcDbPolyline
 90
        3
 70
     0
 43
0.0
 10
0.9451587998483075
 20
-0.2187499999999999
 10
0.9146114573377355
 20
-0.1643083897258503
 10
0.8859375000000003
 20
-0.1093749999999999
  0
LWPOLYLINE
  5
162
330
12E
100
AcDbEntity
  8
AM_4
100
AcDbPolyline
 90
        3
 70
     0
 43
0.0
 10
0.9359375000000003
 20
0.109375
 10
0.907397059607483
 20
0.0546875000000001
 10
0.876716200151693
 20
0.0000000000000001
  0
LWPOLYLINE
  5
163
330
12E
100
AcDbEntity
  8
AM_4
100
AcDbPolyline
 90
        3
 70
     0
 43
0.0
 10
0.876716200151693
 20
0.0000000000000001
 10
0.907263542662265
 20
-0.0544416102741495
 10
0.9359375000000003
 20
-0.1093749999999999
  0
ELLIPSE
  5
164
330
12E
100
AcDbEntity
  8
AM_4
100
AcDbEllipse
 10
1.109159099270441
 20
0.0000000000000001
 30
0.0
 11
-3.169399141454456E-17
 21
-0.1725340532830155
 31
0.0
210
0.0
220
0.0
230
1.0
 40
0.8660254037844388
 41
2.468322243442328
 42
6.956455717327052
  0
ELLIPSE
  5
165
330
12E
100
AcDbEntity
  8
AM_4
100
AcDbEllipse
 10
1.136376560809287
 20
0.0000000000000001
 30
0.0
 11
-2.182689656893358E-17
 21
-0.1188200907348977
 31
0.0
210
0.0
220
0.0
230
1.0
 40
0.8660254037844481
 41
3.089421211179126
 42
6.335356749590254
  0
ELLIPSE
  5
166
330
12E
100
AcDbEntity
  8
AM_4
100
AcDbEllipse
 10
1.152500000000001
 20
0.0000000000000001
 30
0.0
 11
-1.928818708657083E-17
 21
-0.1050000000000001
 31
0.0
210
0.0
220
0.0
230
1.0
 40
0.8660254037844398
 41
3.566671979498073
 42
5.858105981271307
  0
LINE
  5
167
330
12E
100
AcDbEntity
  8
AM_4
100
AcDbLine
 10
1.08875
 20
-0.0524999999999999
 30
0.0
 11
1.09625
 21
-0.0674999999999999
 31
0.0
  0
LINE
  5
168
330
12E
100
AcDbEntity
  8
AM_4
100
AcDbLine
 10
1.09625
 20
0.0675000000000002
 30
0.0
 11
1.08875
 21
0.0525000000000002
 31
0.0
  0
ELLIPSE
  5
169
330
12E
100
AcDbEntity
  8
AM_4
100
AcDbEllipse
 10
1.197500000000001
 20
0.0000000000000001
 30
0.0
 11
-2.479909768273395E-17
 21
-0.1350000000000003
 31
0.0
210
0.0
220
0.0
230
1.0
 40
0.8660254037844412
 41
2.366483642874676
 42
7.058294317894704
  0
ELLIPSE
  5
16A
330
12E
100
AcDbEntity
  8
AM_4
100
AcDbEllipse
 10
1.1675
 20
0.0000000000000001
 30
0.0
 11
-1.928818708657088E-17
 21
-0.1050000000000004
 31
0.0
210
0.0
220
0.0
230
1.0
 40
0.8660254037844335
 41
4.188790204786393
 42
5.235987755982988
  0
LINE
  5
16B
330
12E
100
AcDbEntity
  8
AM_4
100
AcDbLine
 10
1.299726847792107
 20
0.0733474205218688
 30
0.0
 11
1.27931531073162
 21
0.0964365416902992
 31
0.0
  0
LINE
  5
16C
330
12E
100
AcDbEntity
  8
AM_4
100
AcDbLine
 10
1.27931531073162
 20
-0.0964365416902989
 30
0.0
 11
1.299726847792107
 21
-0.0733474205218686
 31
0.0
  0
ELLIPSE
  5
16D
330
12E
100
AcDbEntity
  8
AM_4
100
AcDbEllipse
 10
1.237500000000001
 20
0.0000000000000006
 30
0.0
 11
-1.886162459184634E-17
 21
-0.1026779019331862
 31
0.0
210
0.0
220
0.0
230
1.0
 40
0.8660254037844402
 41
0.0
 42
6.283185307179586
  0
ENDBLK
  5
131
330
12E
100
AcDbEntity
  8
0
100
AcDbBlockEnd
  0
BLOCK
  5
170
330
16E
100
AcDbEntity
  8
0
100
AcDbBlockBegin
  2
5_070273H_0_in_070273_4
 70
     2
 10
0.0
 20
0.0
 30
0.0
  3
5_070273H_0_in_070273_4
  1

  0
ATTDEF
  5
172
330
16E
100
AcDbEntity
  8
AM_6
100
AcDbText
 10
8.4375
 20
1.10176282051282
 30
0.0
 40
0.5
  1
P2B-S2-(Contact Seal)-Housing
100
AcDbAttributeDefinition
  3

  2
NN
 70
     8
280
     0
  0
ATTDEF
  5
173
330
16E
100
AcDbEntity
  8
AM_6
100
AcDbText
 10
8.4375
 20
0.6017628205128205
 30
0.0
 40
0.5
  1
S-2000 Pillow Block Bearing -Inch (2-Bolt Base)
100
AcDbAttributeDefinition
  3

  2
NT
 70
     8
280
     0
  0
ATTDEF
  5
174
330
16E
100
AcDbEntity
  8
AM_6
100
AcDbText
 10
8.4375
 20
0.1017628205128205
 30
0.0
 40
0.5
  1
070273H
100
AcDbAttributeDefinition
  3

  2
NB
 70
     8
280
     0
  0
ATTDEF
  5
175
330
16E
100
AcDbEntity
  8
AM_6
100
AcDbText
 10
8.4375
 20
-0.3982371794871795
 30
0.0
 40
0.5
  1
$PN.H
100
AcDbAttributeDefinition
  3

  2
NBSYN
 70
     8
280
     0
  0
ATTDEF
  5
176
330
16E
100
AcDbEntity
  8
AM_6
100
AcDbText
 10
8.4375
 20
-0.8982371794871795
 30
0.0
 40
0.5
  1
070273
100
AcDbAttributeDefinition
  3

  2
LINA
 70
     8
280
     0
  0
ATTDEF
  5
177
330
16E
100
AcDbEntity
  8
AM_6
100
AcDbText
 10
8.4375
 20
-1.39823717948718
 30
0.0
 40
0.5
  1
1-7/16
100
AcDbAttributeDefinition
  3

  2
SS
 70
     8
280
     0
  0
ATTDEF
  5
178
330
16E
100
AcDbEntity
  8
AM_6
100
AcDbText
 10
8.4375
 20
-1.89823717948718
 30
0.0
 40
0.5
  1
070273
100
AcDbAttributeDefinition
  3

  2
PN
 70
     8
280
     0
  0
ATTDEF
  5
179
330
16E
100
AcDbEntity
  8
AM_6
100
AcDbText
 10
8.4375
 20
-2.39823717948718
 30
0.0
 40
0.5
  1
P2B-S2-107R
100
AcDbAttributeDefinition
  3

  2
DESCRIPTION
 70
     8
280
     0
  0
ATTDEF
  5
17A
330
16E
100
AcDbEntity
  8
AM_6
100
AcDbText
 10
8.4375
 20
-2.89823717948718
 30
0.0
 40
0.5
  1
Non-Expansion Type
100
AcDbAttributeDefinition
  3

  2
EF
 70
     8
280
     0
  0
ATTDEF
  5
17B
330
16E
100
AcDbEntity
  8
AM_6
100
AcDbText
 10
8.4375
 20
-3.39823717948718
 30
0.0
 40
0.5
  1
1
100
AcDbAttributeDefinition
  3

  2
EF1
 70
     8
280
     0
  0
ATTDEF
  5
17C
330
16E
100
AcDbEntity
  8
AM_6
100
AcDbText
 10
8.4375
 20
-3.89823717948718
 30
0.0
 40
0.5
  1
2-17/32
100
AcDbAttributeDefinition
  3

  2
A
 70
     8
280
     0
  0
ATTDEF
  5
17D
330
16E
100
AcDbEntity
  8
AM_6
100
AcDbText
 10
8.4375
 20
-4.39823717948718
 30
0.0
 40
0.5
  1
6-7/8
100
AcDbAttributeDefinition
  3

  2
B
 70
     8
280
     0
  0
ATTDEF
  5
17E
330
16E
100
AcDbEntity
  8
AM_6
100
AcDbText
 10
8.4375
 20
-4.89823717948718
 30
0.0
 40
0.5
  1
1-61/64
100
AcDbAttributeDefinition
  3

  2
C
 70
     8
280
     0
  0
ATTDEF
  5
17F
330
16E
100
AcDbEntity
  8
AM_6
100
AcDbText
 10
8.4375
 20
-5.39823717948718
 30
0.0
 40
0.5
  1
4-13/16
100
AcDbAttributeDefinition
  3

  2
DMIN
 70
     8
280
     0
  0
ATTDEF
  5
180
330
16E
100
AcDbEntity
  8
AM_6
100
AcDbText
 10
8.4375
 20
-5.89823717948718
 30
0.0
 40
0.5
  1
5-13/64
100
AcDbAttributeDefinition
  3

  2
DMAX
 70
     8
280
     0
  0
ATTDEF
  5
181
330
16E
100
AcDbEntity
  8
AM_6
100
AcDbText
 10
8.4375
 20
-6.39823717948718
 30
0.0
 40
0.5
  1
1/2
100
AcDbAttributeDefinition
  3

  2
F
 70
     8
280
     0
  0
ATTDEF
  5
182
330
16E
100
AcDbEntity
  8
AM_6
100
AcDbText
 10
8.4375
 20
-6.89823717948718
 30
0.0
 40
0.5
  1
13/16
100
AcDbAttributeDefinition
  3

  2
G
 70
     8
280
     0
  0
ATTDEF
  5
183
330
16E
100
AcDbEntity
  8
AM_6
100
AcDbText
 10
8.4375
 20
-7.39823717948718
 30
0.0
 40
0.5
  1
1-1/8
100
AcDbAttributeDefinition
  3

  2
H
 70
     8
280
     0
  0
ATTDEF
  5
184
330
16E
100
AcDbEntity
  8
AM_6
100
AcDbText
 10
8.4375
 20
-7.89823717948718
 30
0.0
 40
0.5
  1
3-7/8
100
AcDbAttributeDefinition
  3

  2
J
 70
     8
280
     0
  0
ATTDEF
  5
185
330
16E
100
AcDbEntity
  8
AM_6
100
AcDbText
 10
8.4375
 20
-8.398237179487179
 30
0.0
 40
0.5
  1
2-3/4
100
AcDbAttributeDefinition
  3

  2
L
 70
     8
280
     0
  0
ATTDEF
  5
186
330
16E
100
AcDbEntity
  8
AM_6
100
AcDbText
 10
8.4375
 20
-8.898237179487179
 30
0.0
 40
0.5
  1
1-7/8
100
AcDbAttributeDefinition
  3

  2
M
 70
     8
280
     0
  0
ATTDEF
  5
187
330
16E
100
AcDbEntity
  8
AM_6
100
AcDbText
 10
8.4375
 20
-9.398237179487179
 30
0.0
 40
0.5
  1
7/8
100
AcDbAttributeDefinition
  3

  2
R
 70
     8
280
     0
  0
ATTDEF
  5
188
330
16E
100
AcDbEntity
  8
AM_6
100
AcDbText
 10
8.4375
 20
-9.898237179487179
 30
0.0
 40
0.5
  1
1-21/32
100
AcDbAttributeDefinition
  3

  2
S
 70
     8
280
     0
  0
ATTDEF
  5
189
330
16E
100
AcDbEntity
  8
AM_6
100
AcDbText
 10
8.4375
 20
-10.39823717948718
 30
0.0
 40
0.5
  1
3/16
100
AcDbAttributeDefinition
  3

  2
X
 70
     8
280
     0
  0
ATTDEF
  5
18A
330
16E
100
AcDbEntity
  8
AM_6
100
AcDbText
 10
8.4375
 20
-10.89823717948718
 30
0.0
 40
0.5
  1
0.020
100
AcDbAttributeDefinition
  3

  2
Y
 70
     8
280
     0
  0
ATTDEF
  5
18B
330
16E
100
AcDbEntity
  8
AM_6
100
AcDbText
 10
8.4375
 20
-11.39823717948718
 30
0.0
 40
0.5
  1
1-51/64
100
AcDbAttributeDefinition
  3

  2
Z
 70
     8
280
     0
  0
ATTDEF
  5
18C
330
16E
100
AcDbEntity
  8
AM_6
100
AcDbText
 10
8.4375
 20
-11.89823717948718
 30
0.0
 40
0.5
  1
1
100
AcDbAttributeDefinition
  3

  2
ST1
 70
     8
280
     0
  0
ATTDEF
  5
18D
330
16E
100
AcDbEntity
  8
AM_6
100
AcDbText
 10
8.4375
 20
-12.39823717948718
 30
0.0
 40
0.5
  1
baldor
100
AcDbAttributeDefinition
  3

  2
COMPANY
 70
     8
280
     0
  0
LINE
  5
18E
330
16E
100
AcDbEntity
  8
AM_9
100
AcDbLine
 10
1.5748
 20
-0.78125
 30
0.0
 11
1.5748
 21
0.78125
 31
0.0
  0
LINE
  5
18F
330
16E
100
AcDbEntity
  8
AM_9
100
AcDbLine
 10
-1.5748
 20
0.78125
 30
0.0
 11
-1.5748
 21
-0.78125
 31
0.0
  0
LINE
  5
190
330
16E
100
AcDbEntity
  8
AM_9
100
AcDbLine
 10
1.007291739455308
 20
0.4999289294936936
 30
0.0
 11
0.9999935881020978
 21
0.4999999999451836
 31
0.0
  0
LWPOLYLINE
  5
191
330
16E
100
AcDbEntity
  8
AM_9
100
AcDbPolyline
 90
       11
 70
     0
 43
0.0
 10
1.290387871797831
 20
0.3536169302234823
 10
1.279158106959688
 20
0.3674773664645391
 10
1.253745190972575
 20
0.3949182283476461
 10
1.226282046659461
 20
0.4195309809885528
 10
1.197340344389661
 20
0.4408321762488715
 10
1.16667922570105
 20
0.4590624823193907
 10
1.133458859348503
 20
0.474475160104311
 10
1.098795244193176
 20
0.4863522744417341
 10
1.06470519661534
 20
0.4942575492716769
 10
1.029740583937111
 20
0.4988074020691552
 10
1.007291739455308
 20
0.4999289294936936
  0
LWPOLYLINE
  5
192
330
16E
100
AcDbEntity
  8
AM_9
100
AcDbPolyline
 90
       11
 70
     0
 43
0.0
 10
1.401258538444074
 20
0.0000000000000001
 10
1.400028609969285
 20
0.0407808153045628
 10
1.396352222695403
 20
0.0812732539419918
 10
1.390020520835078
 20
0.1223625151184877
 10
1.381143170910295
 20
0.1625465078839834
 10
1.370118321233001
 20
0.2004232739809366
 10
1.356776519384802
 20
0.2369314054372962
 10
1.340695449489603
 20
0.2727851054547461
 10
1.322287129792353
 20
0.3067146337486433
 10
1.301791468858194
 20
0.3382502034047331
 10
1.290387871797831
 20
0.3536169302234823
  0
LWPOLYLINE
  5
193
330
16E
100
AcDbEntity
  8
AM_9
100
AcDbPolyline
 90
       11
 70
     0
 43
0.0
 10
1.291849591870089
 20
-0.3517238445827405
 10
1.312029202376841
 20
-0.3231916839952137
 10
1.331890301381552
 20
-0.2898006092403302
 10
1.34921322702809
 20
-0.2546764961297205
 10
1.364149468460448
 20
-0.2177267340326672
 10
1.376965526610683
 20
-0.1780132635837426
 10
1.387125293377379
 20
-0.1369137016023809
 10
1.393238096108474
 20
-0.1036453504217812
 10
1.397640734681823
 20
-0.0698624933983186
 10
1.400352262881581
 20
-0.035022656729985
 10
1.401258538444074
 20
0.0000000000000001
  0
LWPOLYLINE
  5
194
330
16E
100
AcDbEntity
  8
AM_9
100
AcDbPolyline
 90
       11
 70
     0
 43
0.0
 10
1.020506149157647
 20
-0.4994351458119884
 10
1.053397906311847
 20
-0.4961138859262436
 10
1.088258998217709
 20
-0.4891756288226837
 10
1.122063520955934
 20
-0.4788328728485685
 10
1.153538016807867
 20
-0.4656627121782507
 10
1.183648532558386
 20
-0.4494861800897895
 10
1.213003465256726
 20
-0.4298404653182964
 10
1.240606959720854
 20
-0.4072831431368217
 10
1.266234407975713
 20
-0.3820578313926503
 10
1.28988509055036
 20
-0.3542631572124817
 10
1.291849591870089
 20
-0.3517238445827405
  0
LWPOLYLINE
  5
195
330
16E
100
AcDbEntity
  8
AM_9
100
AcDbPolyline
 90
        3
 70
     0
 43
0.0
 10
0.9999989857131659
 20
-0.4999999999986287
 10
1.018740291060087
 20
-0.4995254603348859
 10
1.020506149157647
 20
-0.4994351458119884
  0
ELLIPSE
  5
196
330
16E
100
AcDbEntity
  8
AM_9
100
AcDbEllipse
 10
1.025
 20
0.0000000000000006
 30
0.0
 11
3.061616997868380E-17
 21
0.4999999999999995
 31
0.0
210
0.0
220
0.0
230
1.0
 40
0.8660254037844388
 41
3.157908330202755
 42
6.187861041207225
  0
ELLIPSE
  5
197
330
16E
100
AcDbEntity
  8
AM_9
100
AcDbEllipse
 10
1.025000000000084
 20
0.0000000000000152
 30
0.0
 11
3.061616997868290E-17
 21
0.4999999999999848
 31
0.0
210
0.0
220
0.0
230
1.0
 40
0.866025403784434
 41
6.197550854349339
 42
6.283185307179586
  0
LINE
  5
198
330
16E
100
AcDbEntity
  8
AM_7
100
AcDbLine
 10
0.0
 20
1.10176282051282
 30
0.0
 11
0.0
 21
-1.7828125
 31
0.0
  0
LINE
  5
199
330
16E
100
AcDbEntity
  8
AM_7
100
AcDbLine
 10
-2.9255859375
 20
0.0000000000000003
 30
0.0
 11
-2.0822265625
 21
0.0000000000000002
 31
0.0
  0
LINE
  5
19A
330
16E
100
AcDbEntity
  8
AM_7
100
AcDbLine
 10
-2.40625
 20
-0.3240234374999998
 30
0.0
 11
-2.40625
 21
0.3240234375000002
 31
0.0
  0
LINE
  5
19B
330
16E
100
AcDbEntity
  8
AM_7
100
AcDbLine
 10
2.0822265625
 20
-0.0000000000000001
 30
0.0
 11
2.9255859375
 21
-0.0000000000000001
 31
0.0
  0
LINE
  5
19C
330
16E
100
AcDbEntity
  8
AM_7
100
AcDbLine
 10
2.6015625
 20
-0.3240234375000001
 30
0.0
 11
2.6015625
 21
0.3240234375
 31
0.0
  0
LINE
  5
19D
330
16E
100
AcDbEntity
  8
AM_7
100
AcDbLine
 10
2.40625
 20
-0.3240234375000001
 30
0.0
 11
2.40625
 21
0.3240234375
 31
0.0
  0
LINE
  5
19E
330
16E
100
AcDbEntity
  8
AM_7
100
AcDbLine
 10
-2.6015625
 20
-0.3240234374999997
 30
0.0
 11
-2.6015625
 21
0.3240234375000003
 31
0.0
  0
LINE
  5
19F
330
16E
100
AcDbEntity
  8
AM_4
100
AcDbLine
 10
3.2421875
 20
0.9765625
 30
0.0
 11
2.205505952380953
 21
0.9765625
 31
0.0
  0
LINE
  5
1A0
330
16E
100
AcDbEntity
  8
AM_4
100
AcDbLine
 10
3.242187500000001
 20
-0.9765625
 30
0.0
 11
2.205505952380953
 21
-0.9765625000000001
 31
0.0
  0
LINE
  5
1A1
330
16E
100
AcDbEntity
  8
AM_4
100
AcDbLine
 10
3.4375
 20
0.78125
 30
0.0
 11
3.2421875
 21
0.9765625
 31
0.0
  0
LINE
  5
1A2
330
16E
100
AcDbEntity
  8
AM_4
100
AcDbLine
 10
3.242187500000001
 20
-0.9765625
 30
0.0
 11
3.4375
 21
-0.78125
 31
0.0
  0
LINE
  5
1A3
330
16E
100
AcDbEntity
  8
AM_4
100
AcDbLine
 10
2.6015625
 20
0.3085937499999999
 30
0.0
 11
2.40625
 21
0.3085937499999999
 31
0.0
  0
LINE
  5
1A4
330
16E
100
AcDbEntity
  8
AM_4
100
AcDbLine
 10
2.40625
 20
-0.3085937500000001
 30
0.0
 11
2.6015625
 21
-0.3085937500000001
 31
0.0
  0
ARC
  5
1A5
330
16E
100
AcDbEntity
  8
AM_4
100
AcDbCircle
 10
2.6015625
 20
-0.0000000000000001
 30
0.0
 40
0.30859375
100
AcDbArc
 50
270.0
 51
90.0
  0
ARC
  5
1A6
330
16E
100
AcDbEntity
  8
AM_4
100
AcDbCircle
 10
2.40625
 20
-0.0000000000000001
 30
0.0
 40
0.30859375
100
AcDbArc
 50
90.0
 51
270.0
  0
LINE
  5
1A7
330
16E
100
AcDbEntity
  8
AM_4
100
AcDbLine
 10
-3.2421875
 20
0.9765625
 30
0.0
 11
-3.4375
 21
0.7812500000000002
 31
0.0
  0
LINE
  5
1A8
330
16E
100
AcDbEntity
  8
AM_4
100
AcDbLine
 10
-3.4375
 20
-0.78125
 30
0.0
 11
-3.4375
 21
0.78125
 31
0.0
  0
LINE
  5
1A9
330
16E
100
AcDbEntity
  8
AM_4
100
AcDbLine
 10
-3.4375
 20
-0.7812500000000002
 30
0.0
 11
-3.2421875
 21
-0.9765625
 31
0.0
  0
LINE
  5
1AA
330
16E
100
AcDbEntity
  8
AM_4
100
AcDbLine
 10
-2.205505952380953
 20
0.9765625000000001
 30
0.0
 11
-3.2421875
 21
0.9765625
 31
0.0
  0
LINE
  5
1AB
330
16E
100
AcDbEntity
  8
AM_4
100
AcDbLine
 10
-2.205505952380953
 20
-0.9765625
 30
0.0
 11
-3.2421875
 21
-0.9765625
 31
0.0
  0
LINE
  5
1AC
330
16E
100
AcDbEntity
  8
AM_4
100
AcDbLine
 10
-2.40625
 20
0.3085937500000002
 30
0.0
 11
-2.6015625
 21
0.3085937500000002
 31
0.0
  0
ARC
  5
1AD
330
16E
100
AcDbEntity
  8
AM_4
100
AcDbCircle
 10
-2.40625
 20
0.0000000000000002
 30
0.0
 40
0.30859375
100
AcDbArc
 50
270.0
 51
90.0
  0
LINE
  5
1AE
330
16E
100
AcDbEntity
  8
AM_4
100
AcDbLine
 10
-2.6015625
 20
-0.3085937499999997
 30
0.0
 11
-2.40625
 21
-0.3085937499999998
 31
0.0
  0
ARC
  5
1AF
330
16E
100
AcDbEntity
  8
AM_4
100
AcDbCircle
 10
-2.6015625
 20
0.0000000000000003
 30
0.0
 40
0.3085937499999999
100
AcDbArc
 50
90.0
 51
270.0
  0
LINE
  5
1B0
330
16E
100
AcDbEntity
  8
AM_4
100
AcDbLine
 10
-3.35625
 20
-0.8625000000000002
 30
0.0
 11
-3.35625
 21
0.8624999999999999
 31
0.0
  0
LINE
  5
1B1
330
16E
100
AcDbEntity
  8
AM_4
100
AcDbLine
 10
3.4375
 20
-0.78125
 30
0.0
 11
3.4375
 21
0.7812499999999998
 31
0.0
  0
LINE
  5
1B2
330
16E
100
AcDbEntity
  8
AM_4
100
AcDbLine
 10
3.35625
 20
-0.8625000000000004
 30
0.0
 11
3.35625
 21
0.8624999999999999
 31
0.0
  0
LINE
  5
1B3
330
16E
100
AcDbEntity
  8
AM_4
100
AcDbLine
 10
-2.056250000000002
 20
-0.5859375000000001
 30
0.0
 11
-2.056250000000002
 21
0.5859375
 31
0.0
  0
LINE
  5
1B4
330
16E
100
AcDbEntity
  8
AM_4
100
AcDbLine
 10
2.05625
 20
-0.5859375000000001
 30
0.0
 11
2.05625
 21
0.5859375
 31
0.0
  0
LINE
  5
1B5
330
16E
100
AcDbEntity
  8
AM_4
100
AcDbLine
 10
-2.227083333333332
 20
-0.5859375000000001
 30
0.0
 11
-2.0
 21
-0.5859375
 31
0.0
  0
LWPOLYLINE
  5
1B6
330
16E
100
AcDbEntity
  8
AM_4
100
AcDbPolyline
 90
        6
 70
     0
 43
0.0
 10
-2.1125
 20
-0.8742559523809523
 10
-2.11104218943163
 20
-0.8578533638976905
 10
-2.107330030014187
 20
-0.843679043201495
 10
-2.103056837542739
 20
-0.8334225430393722
 10
-2.099040922908576
 20
-0.8260646480827654
 10
-2.097931695220919
 20
-0.824279531771104
  0
LINE
  5
1B7
330
16E
100
AcDbEntity
  8
AM_4
100
AcDbLine
 10
-2.227083333333332
 20
-0.9765625
 30
0.0
 11
-2.227083333333332
 21
-0.5859375000000001
 31
0.0
  0
LWPOLYLINE
  5
1B8
330
16E
100
AcDbEntity
  8
AM_4
100
AcDbPolyline
 90
       11
 70
     0
 43
0.0
 10
-2.1125
 20
-0.8835565476190467
 10
-2.114069877335921
 20
-0.9005727563227296
 10
-2.11683772017697
 20
-0.9116298890964775
 10
-2.120715631049928
 20
-0.9217757651263389
 10
-2.129436061847805
 20
-0.9370680317375326
 10
-2.141094748718665
 20
-0.9506483058391394
 10
-2.155400246198321
 20
-0.9619116711670819
 10
-2.173069332116718
 20
-0.9707228991781326
 10
-2.185704123919526
 20
-0.9744226087010832
 10
-2.199128629066329
 20
-0.9763435991167039
 10
-2.205505952380952
 20
-0.9765625
  0
LINE
  5
1B9
330
16E
100
AcDbEntity
  8
AM_4
100
AcDbLine
 10
-2.1125
 20
-0.8742559523809523
 30
0.0
 11
-2.1125
 21
-0.8835565476190467
 31
0.0
  0
LINE
  5
1BA
330
16E
100
AcDbEntity
  8
AM_4
100
AcDbLine
 10
-2.227083333333332
 20
0.5859375
 30
0.0
 11
-2.0
 21
0.5859375000000001
 31
0.0
  0
LWPOLYLINE
  5
1BB
330
16E
100
AcDbEntity
  8
AM_4
100
AcDbPolyline
 90
        5
 70
     0
 43
0.0
 10
-2.097931695220919
 20
0.8242795317711038
 10
-2.101591079876719
 20
0.8305502951639231
 10
-2.106759924337517
 20
0.8420880500736877
 10
-2.111056984339894
 20
0.857936154669349
 10
-2.112500000000001
 20
0.8742559523809468
  0
LINE
  5
1BC
330
16E
100
AcDbEntity
  8
AM_4
100
AcDbLine
 10
-2.227083333333332
 20
0.5859375
 30
0.0
 11
-2.227083333333332
 21
0.9765625
 31
0.0
  0
LINE
  5
1BD
330
16E
100
AcDbEntity
  8
AM_4
100
AcDbLine
 10
-2.1125
 20
0.8835565476190477
 30
0.0
 11
-2.1125
 21
0.8742559523809527
 31
0.0
  0
LWPOLYLINE
  5
1BE
330
16E
100
AcDbEntity
  8
AM_4
100
AcDbPolyline
 90
       11
 70
     0
 43
0.0
 10
-2.205505952380953
 20
0.9765625000000001
 10
-2.191190733467614
 20
0.9754438403177589
 10
-2.177594790630895
 20
0.9722756223890774
 10
-2.165156332788806
 20
0.9673502855813255
 10
-2.153912741988814
 20
0.9609403173625831
 10
-2.140025824179146
 20
0.9496091512173777
 10
-2.128761332957442
 20
0.9360957764659628
 10
-2.121831313508534
 20
0.9241735017072871
 10
-2.116592400164517
 20
0.9108418442189238
 10
-2.113063370561788
 20
0.8937779098029794
 10
-2.1125
 20
0.8835565476190478
  0
LINE
  5
1BF
330
16E
100
AcDbEntity
  8
AM_4
100
AcDbLine
 10
1.999999999999994
 20
-0.5859375
 30
0.0
 11
2.227083333333333
 21
-0.5859375000000001
 31
0.0
  0
LWPOLYLINE
  5
1C0
330
16E
100
AcDbEntity
  8
AM_4
100
AcDbPolyline
 90
        5
 70
     0
 43
0.0
 10
2.097931695220919
 20
-0.8242795317711037
 10
2.101591079876719
 20
-0.8305502951639232
 10
2.106759924337518
 20
-0.8420880500736878
 10
2.111056984339894
 20
-0.8579361546693495
 10
2.112500000000001
 20
-0.874255952380947
  0
LINE
  5
1C1
330
16E
100
AcDbEntity
  8
AM_4
100
AcDbLine
 10
2.1125
 20
-0.8835565476190483
 30
0.0
 11
2.1125
 21
-0.8742559523809528
 31
0.0
  0
LWPOLYLINE
  5
1C2
330
16E
100
AcDbEntity
  8
AM_4
100
AcDbPolyline
 90
       11
 70
     0
 43
0.0
 10
2.205505952380953
 20
-0.9765625000000001
 10
2.191190733467614
 20
-0.9754438403177589
 10
2.177594790630895
 20
-0.9722756223890773
 10
2.165156332788806
 20
-0.9673502855813254
 10
2.153912741988814
 20
-0.960940317362583
 10
2.14019693485994
 20
-0.9497746675616137
 10
2.128761332957442
 20
-0.9360957764659623
 10
2.121831313508534
 20
-0.9241735017072865
 10
2.116592400164516
 20
-0.9108418442189229
 10
2.113063370561788
 20
-0.8937779098029786
 10
2.1125
 20
-0.8835565476190484
  0
LINE
  5
1C3
330
16E
100
AcDbEntity
  8
AM_4
100
AcDbLine
 10
2.227083333333333
 20
-0.9765625
 30
0.0
 11
2.227083333333333
 21
-0.5859375000000001
 31
0.0
  0
LINE
  5
1C4
330
16E
100
AcDbEntity
  8
AM_4
100
AcDbLine
 10
1.999999999999994
 20
0.5859375000000001
 30
0.0
 11
2.227083333333333
 21
0.5859375
 31
0.0
  0
LWPOLYLINE
  5
1C5
330
16E
100
AcDbEntity
  8
AM_4
100
AcDbPolyline
 90
        6
 70
     0
 43
0.0
 10
2.1125
 20
0.8742559523809523
 10
2.11104218943163
 20
0.8578533638976907
 10
2.107330030014187
 20
0.8436790432014952
 10
2.103056837542739
 20
0.8334225430393724
 10
2.099040922908576
 20
0.8260646480827657
 10
2.097931695220919
 20
0.824279531771104
  0
LINE
  5
1C6
330
16E
100
AcDbEntity
  8
AM_4
100
AcDbLine
 10
2.227083333333333
 20
0.5859375
 30
0.0
 11
2.227083333333333
 21
0.9765625
 31
0.0
  0
LWPOLYLINE
  5
1C7
330
16E
100
AcDbEntity
  8
AM_4
100
AcDbPolyline
 90
       11
 70
     0
 43
0.0
 10
2.1125
 20
0.8835565476190467
 10
2.114069877335921
 20
0.9005727563227293
 10
2.11683772017697
 20
0.9116298890964769
 10
2.120715631049928
 20
0.9217757651263383
 10
2.129572164034966
 20
0.9372782112268011
 10
2.141094748718664
 20
0.9506483058391387
 10
2.155721965843243
 20
0.9621069330592579
 10
2.173069332116716
 20
0.970722899178132
 10
2.185704123919525
 20
0.974422608701083
 10
2.199128629066328
 20
0.9763435991167039
 10
2.205505952380952
 20
0.9765625
  0
LINE
  5
1C8
330
16E
100
AcDbEntity
  8
AM_4
100
AcDbLine
 10
2.1125
 20
0.8742559523809523
 30
0.0
 11
2.1125
 21
0.8835565476190467
 31
0.0
  0
LINE
  5
1C9
330
16E
100
AcDbEntity
  8
AM_4
100
AcDbLine
 10
-2.0
 20
-0.5859375
 30
0.0
 11
-2.0
 21
0.5859375000000001
 31
0.0
  0
LINE
  5
1CA
330
16E
100
AcDbEntity
  8
AM_4
100
AcDbLine
 10
-2.097931695220919
 20
-0.8242795317711038
 30
0.0
 11
-2.097931695220919
 21
-0.5859375000000001
 31
0.0
  0
LWPOLYLINE
  5
1CB
330
16E
100
AcDbEntity
  8
AM_4
100
AcDbPolyline
 90
       13
 70
     0
 43
0.0
 10
-2.019494047619047
 20
-0.78125
 10
-2.027600050478763
 20
-0.7816039157280743
 10
-2.035644361762177
 20
-0.7826629693999062
 10
-2.043565759403136
 20
-0.7844191009775792
 10
-2.051303956782521
 20
-0.7868589452394059
 10
-2.058800061545824
 20
-0.7899639334973353
 10
-2.065997023809523
 20
-0.7937104349158819
 10
-2.072840070345149
 20
-0.7980699363570507
 10
-2.07927712143662
 20
-0.8030092593825355
 10
-2.085259187238332
 20
-0.8084908127616678
 10
-2.090740740617464
 20
-0.8144728785633799
 10
-2.095680063642949
 20
-0.8209099296548507
 10
-2.097931695220919
 20
-0.8242795317711038
  0
LWPOLYLINE
  5
1CC
330
16E
100
AcDbEntity
  8
AM_4
100
AcDbPolyline
 90
       13
 70
     0
 43
0.0
 10
-2.097931695220919
 20
0.8242795317711038
 10
-2.0932774842327
 20
0.817633415703698
 10
-2.088061736740194
 20
0.8114182313300284
 10
-2.082324147731173
 20
0.8056812799560098
 10
-2.076108383722448
 20
0.8004662232456643
 10
-2.069461750431304
 20
0.795812750929495
 10
-2.062434832750436
 20
0.7917562787416712
 10
-2.055081109766363
 20
0.7883276788849074
 10
-2.047456547751292
 20
0.7855530450743586
 10
-2.039619174225997
 20
0.7834534939486928
 10
-2.031628636335338
 20
0.78204500435972
 10
-2.023545746897484
 20
0.7813382957636813
 10
-2.019494047619043
 20
0.78125
  0
LINE
  5
1CD
330
16E
100
AcDbEntity
  8
AM_4
100
AcDbLine
 10
-2.097931695220919
 20
0.5859374999999994
 30
0.0
 11
-2.097931695220919
 21
0.8242795317711038
 31
0.0
  0
LINE
  5
1CE
330
16E
100
AcDbEntity
  8
AM_4
100
AcDbLine
 10
2.019494047619047
 20
0.78125
 30
0.0
 11
-2.019494047619045
 21
0.78125
 31
0.0
  0
LINE
  5
1CF
330
16E
100
AcDbEntity
  8
AM_4
100
AcDbLine
 10
-2.019494047619047
 20
-0.78125
 30
0.0
 11
2.019494047619045
 21
-0.78125
 31
0.0
  0
LINE
  5
1D0
330
16E
100
AcDbEntity
  8
AM_4
100
AcDbLine
 10
2.097931695220919
 20
-0.8242795317711038
 30
0.0
 11
2.097931695220919
 21
-0.5859375000000001
 31
0.0
  0
LINE
  5
1D1
330
16E
100
AcDbEntity
  8
AM_4
100
AcDbLine
 10
1.999999999999994
 20
0.5859375000000001
 30
0.0
 11
1.999999999999994
 21
-0.5859375
 31
0.0
  0
LINE
  5
1D2
330
16E
100
AcDbEntity
  8
AM_4
100
AcDbLine
 10
2.097931695220919
 20
0.5859374999999994
 30
0.0
 11
2.097931695220919
 21
0.8242795317711029
 31
0.0
  0
LWPOLYLINE
  5
1D3
330
16E
100
AcDbEntity
  8
AM_4
100
AcDbPolyline
 90
       13
 70
     0
 43
0.0
 10
2.019494047619047
 20
0.78125
 10
2.027600050478763
 20
0.7816039157280743
 10
2.035644361762177
 20
0.7826629693999062
 10
2.043565759403136
 20
0.7844191009775792
 10
2.051303956782521
 20
0.7868589452394059
 10
2.058800061545824
 20
0.7899639334973353
 10
2.065997023809523
 20
0.7937104349158819
 10
2.072840070345149
 20
0.7980699363570507
 10
2.07927712143662
 20
0.8030092593825355
 10
2.085259187238332
 20
0.8084908127616678
 10
2.090740740617464
 20
0.8144728785633799
 10
2.095680063642949
 20
0.8209099296548507
 10
2.097931695220919
 20
0.8242795317711038
  0
LWPOLYLINE
  5
1D4
330
16E
100
AcDbEntity
  8
AM_4
100
AcDbPolyline
 90
       13
 70
     0
 43
0.0
 10
2.097931695220919
 20
-0.8242795317711038
 10
2.0932774842327
 20
-0.817633415703698
 10
2.088061736740194
 20
-0.8114182313300284
 10
2.082324147731173
 20
-0.8056812799560098
 10
2.076108383722448
 20
-0.8004662232456643
 10
2.069461750431304
 20
-0.7958127509294948
 10
2.062434832750435
 20
-0.7917562787416712
 10
2.055081109766362
 20
-0.7883276788849074
 10
2.047456547751292
 20
-0.7855530450743585
 10
2.039619174225996
 20
-0.7834534939486928
 10
2.031628636335338
 20
-0.7820450043597198
 10
2.023545746897484
 20
-0.7813382957636813
 10
2.019494047619043
 20
-0.78125
  0
LINE
  5
1D5
330
16E
100
AcDbEntity
  8
AM_4
100
AcDbLine
 10
-1.983769161406673
 20
-0.78125
 30
0.0
 11
-1.983769161406673
 21
0.78125
 31
0.0
  0
LINE
  5
1D6
330
16E
100
AcDbEntity
  8
AM_4
100
AcDbLine
 10
1.983769161406673
 20
-0.78125
 30
0.0
 11
1.983769161406673
 21
0.78125
 31
0.0
  0
LINE
  5
1D7
330
16E
100
AcDbEntity
  8
AM_4
100
AcDbLine
 10
0.5176380902050415
 20
-0.7812499999999999
 30
0.0
 11
0.5176380902050415
 21
0.7812500000000002
 31
0.0
  0
LINE
  5
1D8
330
16E
100
AcDbEntity
  8
AM_4
100
AcDbLine
 10
-0.5176380902050415
 20
-0.7812499999999999
 30
0.0
 11
-0.5176380902050415
 21
0.7812500000000002
 31
0.0
  0
LINE
  5
1D9
330
16E
100
AcDbEntity
  8
AM_4
100
AcDbLine
 10
1.025
 20
0.5000000000000001
 30
0.0
 11
0.9999647400795697
 21
0.5000000000000001
 31
0.0
  0
LINE
  5
1DA
330
16E
100
AcDbEntity
  8
AM_4
100
AcDbLine
 10
0.9999482431445419
 20
-0.4999999999999998
 30
0.0
 11
1.025
 21
-0.4999999999999998
 31
0.0
  0
LWPOLYLINE
  5
1DB
330
16E
100
AcDbEntity
  8
AM_4
100
AcDbPolyline
 90
       40
 70
     0
 43
0.0
 10
0.9999935881020978
 20
0.4999999999451836
 10
0.9930458272652073
 20
0.4999319980048016
 10
0.9559544470000779
 20
0.497444086469842
 10
0.9206248679586311
 20
0.4917437878754075
 10
0.8854539848925489
 20
0.4828498306972941
 10
0.8497150442033367
 20
0.4704314554438295
 10
0.8146929545966552
 20
0.45480622560574
 10
0.7812805229188385
 20
0.4364556085587435
 10
0.7490728332258473
 20
0.4152588605113076
 10
0.7174932926653951
 20
0.3906549647688986
 10
0.687697639280587
 20
0.3633652023379575
 10
0.6599614578524808
 20
0.3335905699504548
 10
0.6344845554928875
 20
0.3015076886996347
 10
0.6108756024196231
 20
0.2663024406241172
 10
0.5901212941330723
 20
0.22911176704669
 10
0.5728323992408094
 20
0.1911443788470105
 10
0.5586379081645281
 20
0.1517875520286895
 10
0.5474192315770287
 20
0.1100541935835231
 10
0.539778774341638
 20
0.0674529914307665
 10
0.5359468175798562
 20
0.0267054995193776
 10
0.535434736920827
 20
-0.0142321661177798
 10
0.5383990071682354
 20
-0.0562912866562287
 10
0.5448563472009775
 20
-0.0979262438433345
 10
0.5542384484122183
 20
-0.1370376523479659
 10
0.5666478599530076
 20
-0.1752193678138847
 10
0.5824411003191275
 20
-0.2132358296787448
 10
0.6011442321851839
 20
-0.2497569876349151
 10
0.6224085056001244
 20
-0.2842746571565726
 10
0.6461694738273714
 20
-0.3168726895602903
 10
0.6729808585503425
 20
-0.3481534830547051
 10
0.7019783488647572
 20
-0.3769902205200943
 10
0.7328170628663552
 20
-0.4031009295756532
 10
0.7653303552966982
 20
-0.4264166921882039
 10
0.8002785366115844
 20
-0.447317038558079
 10
0.8364251518793999
 20
-0.4649193241526817
 10
0.8721061676173015
 20
-0.4786146653409795
 10
0.9083354768442793
 20
-0.4890059392027871
 10
0.9459521846933813
 20
-0.4961552867805948
 10
0.9835413847124401
 20
-0.4996406575904421
 10
0.9999989857131659
 20
-0.4999999999986287
  0
ELLIPSE
  5
1DC
330
16E
100
AcDbEntity
  8
AM_4
100
AcDbEllipse
 10
1.025
 20
0.0000000000000002
 30
0.0
 11
3.061616997868384E-17
 21
0.5000000000000001
 31
0.0
210
0.0
220
0.0
230
1.0
 40
0.8660254037844387
 41
0.0028984195495569
 42
3.141592653589793
  0
ELLIPSE
  5
1DD
330
16E
100
AcDbEntity
  8
AM_4
100
AcDbEllipse
 10
1.05
 20
0.0000000000000001
 30
0.0
 11
-8.266365894244632E-17
 21
-0.4499999999999999
 31
0.0
210
0.0
220
0.0
230
1.0
 40
0.8660254037844385
 41
0.0
 42
6.283185307179586
  0
LWPOLYLINE
  5
1DE
330
16E
100
AcDbEntity
  8
AM_4
100
AcDbPolyline
 90
       27
 70
     0
 43
0.0
 10
1.464711431702997
 20
0.0000000000000001
 10
1.464461795260898
 20
0.0168615591628454
 10
1.462705592397096
 20
0.0477479487638817
 10
1.459273996456164
 20
0.0784597899842068
 10
1.454179112961892
 20
0.1088765184497693
 10
1.447439107929952
 20
0.1388819276378756
 10
1.439078302735276
 20
0.16836108192901
 10
1.429127165148802
 20
0.1972006970108083
 10
1.417622295961004
 20
0.2252895349184053
 10
1.404606407175564
 20
0.2525188169739074
 10
1.390128285654261
 20
0.2787826587944693
 10
1.374242733853687
 20
0.3039785304823592
 10
1.3570104770616
 20
0.3280077430999682
 10
1.338498024723497
 20
0.3507759593851329
 10
1.318777472595648
 20
0.3721937223608824
 10
1.297926233187165
 20
0.392176990286017
 10
1.276026684815131
 20
0.41064766086753
 10
1.253165734898041
 20
0.4275340627477573
 10
1.229434300707771
 20
0.4427713891662606
 10
1.20492671995101
 20
0.4563020485633104
 10
1.179740112926059
 20
0.4680759105969489
 10
1.153973725870114
 20
0.4780504337810127
 10
1.127728289721894
 20
0.486190672024884
 10
1.101105428559569
 20
0.4924691702053647
 10
1.074207146946242
 20
0.4968657713810044
 10
1.047135415842687
 20
0.499367368119113
 10
1.023709053871178
 20
0.4999978496186777
  0
LWPOLYLINE
  5
1DF
330
16E
100
AcDbEntity
  8
AM_4
100
AcDbPolyline
 90
       27
 70
     0
 43
0.0
 10
1.026113532628922
 20
-0.4999984000555893
 10
1.035762594949549
 20
-0.4998505149288265
 10
1.062857764324414
 20
-0.4981472316109487
 10
1.089799676051861
 20
-0.494551982944087
 10
1.116488793614094
 20
-0.4890793963848321
 10
1.142826880938706
 20
-0.48175019197246
 10
1.168716776944314
 20
-0.4725912066963283
 10
1.194062502555339
 20
-0.4616354787395774
 10
1.218769439871063
 20
-0.4489223716237068
 10
1.242744597115776
 20
-0.4344977038480896
 10
1.265896960033321
 20
-0.4184138484457393
 10
1.288137918113161
 20
-0.4007297709627332
 10
1.309381744363254
 20
-0.3815109826975568
 10
1.329546101592033
 20
-0.360829396888748
 10
1.348552546824655
 20
-0.3387630868744953
 10
1.366327008184498
 20
-0.3153959551678635
 10
1.382800214248693
 20
-0.2908173295358638
 10
1.397908063099041
 20
-0.2651215059343498
 10
1.411591925608904
 20
-0.2384072586740961
 10
1.423798883814734
 20
-0.2107773361691518
 10
1.434481909866194
 20
-0.1823379570080223
 10
1.443599993848538
 20
-0.1531983168516929
 10
1.451118229907
 20
-0.1234701125657685
 10
1.457007869966283
 20
-0.0932670865291022
 10
1.461246353386439
 20
-0.062704591442855
 10
1.463817319544596
 20
-0.0318991741952504
 10
1.464711431702997
 20
0.0000000000000001
  0
ENDBLK
  5
171
330
16E
100
AcDbEntity
  8
0
100
AcDbBlockEnd
  0
ENDSEC
  0
SECTION
  2
ENTITIES
  0
INSERT
  5
6F
330
1F
100
AcDbEntity
  8
0
100
AcDbBlockReference
  2
1_070273_4
 10
0.0
 20
0.0
 30
0.0
  0
POINT
  5
1E1
330
1F
100
AcDbEntity
  8
ConnectionPoints
100
AcDbPoint
 10
0.0
 20
-1.65625
 30
0.0000000000000001
  0
POINT
  5
1E2
330
1F
100
AcDbEntity
  8
ConnectionPoints
100
AcDbPoint
 10
0.0
 20
1.46625
 30
-0.0000000000000001
  0
POINT
  5
1E3
330
1F
100
AcDbEntity
  8
ConnectionPoints
100
AcDbPoint
 10
0.0
 20
-1.65625
 30
0.0000000000000001
  0
POINT
  5
1E4
330
1F
100
AcDbEntity
  8
ConnectionPoints
100
AcDbPoint
 10
1.05
 20
0.0000000000000001
 30
1.818653347947321
  0
POINT
  5
1E5
330
1F
100
AcDbEntity
  8
ConnectionPoints
100
AcDbPoint
 10
0.0
 20
-1.46875
 30
0.0000000000000001
  0
POINT
  5
1E6
330
1F
100
AcDbEntity
  8
ConnectionPoints
100
AcDbPoint
 10
0.0
 20
-1.65625
 30
0.0000000000000001
  0
POINT
  5
1E7
330
1F
100
AcDbEntity
  8
ConnectionPoints
100
AcDbPoint
 10
1.05
 20
0.0000000000000001
 30
1.818653347947321
  0
ENDSEC
  0
SECTION
  2
OBJECTS
  0
DICTIONARY
  5
C
330
0
100
AcDbDictionary
281
     1
  3
ACAD_DETAILVIEWSTYLE
350
1EF
  3
ACAD_GROUP
350
D
  3
ACAD_LAYOUT
350
1A
  3
ACAD_MATERIAL
350
43
  3
ACAD_MLEADERSTYLE
350
6B
  3
ACAD_MLINESTYLE
350
17
  3
ACAD_PLOTSETTINGS
350
19
  3
ACAD_PLOTSTYLENAME
350
E
  3
ACAD_SCALELIST
350
47
  3
ACAD_SECTIONVIEWSTYLE
350
1F0
  3
ACAD_TABLESTYLE
350
69
  3
ACAD_VISUALSTYLE
350
2A
  3
ACDB_RECOMPOSE_DATA
350
1EC
  3
AcDbVariableDictionary
350
1E8
  0
SUN
  5
6D
330
29
100
AcDbSun
 90
        1
290
     0
 63
     7
421
 16777215
 40
1.0
291
     1
 91
  2455826
 92
 54000000
292
     0
 70
     2
 71
   256
280
     1
  0
DICTIONARY
  5
1EF
102
{ACAD_REACTORS
330
C
102
}
330
C
100
AcDbDictionary
281
     1
  0
DICTIONARY
  5
D
102
{ACAD_REACTORS
330
C
102
}
330
C
100
AcDbDictionary
281
     1
  0
DICTIONARY
  5
1A
102
{ACAD_REACTORS
330
C
102
}
330
C
100
AcDbDictionary
281
     1
  3
Layout1
350
1E
  3
Layout2
350
26
  3
Model
350
22
  0
DICTIONARY
  5
43
102
{ACAD_REACTORS
330
C
102
}
330
C
100
AcDbDictionary
281
     1
  3
ByBlock
350
45
  3
ByLayer
350
44
  3
Global
350
46
  0
DICTIONARY
  5
6B
102
{ACAD_REACTORS
330
C
102
}
330
C
100
AcDbDictionary
281
     1
  3
Standard
350
6C
  0
DICTIONARY
  5
17
102
{ACAD_REACTORS
330
C
102
}
330
C
100
AcDbDictionary
281
     1
  3
Standard
350
18
  0
DICTIONARY
  5
19
102
{ACAD_REACTORS
330
C
102
}
330
C
100
AcDbDictionary
281
     1
  0
ACDBDICTIONARYWDFLT
  5
E
102
{ACAD_REACTORS
330
C
102
}
330
C
100
AcDbDictionary
281
     1
  3
Normal
350
F
100
AcDbDictionaryWithDefault
340
F
  0
DICTIONARY
  5
47
102
{ACAD_REACTORS
330
C
102
}
330
C
100
AcDbDictionary
281
     1
  3
A0
350
48
  3
A1
350
49
  3
A2
350
4A
  3
A3
350
4B
  3
A4
350
4C
  3
A5
350
4D
  3
A6
350
4E
  3
A7
350
4F
  3
A8
350
50
  3
A9
350
51
  3
B0
350
52
  3
B1
350
53
  3
B2
350
54
  3
B3
350
55
  3
B4
350
56
  3
B5
350
57
  3
B6
350
58
  3
B7
350
59
  3
B8
350
5A
  3
B9
350
5B
  3
C0
350
5C
  3
C1
350
5D
  3
C2
350
5E
  3
C3
350
5F
  3
C4
350
60
  3
C5
350
61
  3
C6
350
62
  3
C7
350
63
  3
C8
350
64
  3
C9
350
65
  3
D0
350
66
  3
D1
350
67
  3
D2
350
68
  0
DICTIONARY
  5
1F0
102
{ACAD_REACTORS
330
C
102
}
330
C
100
AcDbDictionary
281
     1
  0
DICTIONARY
  5
69
102
{ACAD_REACTORS
330
C
102
}
330
C
100
AcDbDictionary
281
     1
  3
Standard
350
6A
  0
DICTIONARY
  5
2A
102
{ACAD_REACTORS
330
C
102
}
330
C
100
AcDbDictionary
281
     1
  3
2dWireframe
350
2F
  3
Basic
350
32
  3
Brighten
350
36
  3
ColorChange
350
3A
  3
Conceptual
350
34
  3
Dim
350
35
  3
EdgeColorOff
350
3D
  3
Facepattern
350
39
  3
Flat
350
2B
  3
FlatWithEdges
350
2C
  3
Gouraud
350
2D
  3
GouraudWithEdges
350
2E
  3
Hidden
350
31
  3
JitterOff
350
3B
  3
Linepattern
350
38
  3
OverhangOff
350
3C
  3
Realistic
350
33
  3
Shaded
350
42
  3
Shaded with edges
350
41
  3
Shades of Gray
350
3E
  3
Sketchy
350
3F
  3
Thicken
350
37
  3
Wireframe
350
30
  3
X-Ray
350
40
  0
XRECORD
  5
1EC
102
{ACAD_REACTORS
330
C
102
}
330
C
100
AcDbXrecord
280
     1
 90
        1
330
6A
  0
DICTIONARY
  5
1E8
102
{ACAD_REACTORS
330
C
102
}
330
C
100
AcDbDictionary
281
     1
  3
CANNOSCALE
350
1E9
  3
CMLEADERSTYLE
350
1EE
  3
CTABLESTYLE
350
1ED
  0
LAYOUT
  5
1E
102
{ACAD_REACTORS
330
1A
102
}
330
1A
100
AcDbPlotSettings
  1

  2
none_device
  4

  6

 40
0.0
 41
0.0
 42
0.0
 43
0.0
 44
0.0
 45
0.0
 46
0.0
 47
0.0
 48
0.0
 49
0.0
140
0.0
141
0.0
142
1.0
143
1.0
 70
   688
 72
     0
 73
     0
 74
     5
  7

 75
    16
 76
     0
 77
     2
 78
   300
147
1.0
148
0.0
149
0.0
100
AcDbLayout
  1
Layout1
 70
     1
 71
     1
 10
0.0
 20
0.0
 11
12.0
 21
9.0
 12
0.0
 22
0.0
 32
0.0
 14
1.000000000000000E+20
 24
1.000000000000000E+20
 34
1.000000000000000E+20
 15
-1.000000000000000E+20
 25
-1.000000000000000E+20
 35
-1.000000000000000E+20
146
0.0
 13
0.0
 23
0.0
 33
0.0
 16
1.0
 26
0.0
 36
0.0
 17
0.0
 27
1.0
 37
0.0
 76
     0
330
1B
  0
LAYOUT
  5
26
102
{ACAD_REACTORS
330
1A
102
}
330
1A
100
AcDbPlotSettings
  1

  2
none_device
  4

  6

 40
0.0
 41
0.0
 42
0.0
 43
0.0
 44
0.0
 45
0.0
 46
0.0
 47
0.0
 48
0.0
 49
0.0
140
0.0
141
0.0
142
1.0
143
1.0
 70
   688
 72
     0
 73
     0
 74
     5
  7

 75
    16
 76
     0
 77
     2
 78
   300
147
1.0
148
0.0
149
0.0
100
AcDbLayout
  1
Layout2
 70
     1
 71
     2
 10
0.0
 20
0.0
 11
0.0
 21
0.0
 12
0.0
 22
0.0
 32
0.0
 14
0.0
 24
0.0
 34
0.0
 15
0.0
 25
0.0
 35
0.0
146
0.0
 13
0.0
 23
0.0
 33
0.0
 16
1.0
 26
0.0
 36
0.0
 17
0.0
 27
1.0
 37
0.0
 76
     0
330
23
  0
LAYOUT
  5
22
102
{ACAD_REACTORS
330
1A
102
}
330
1A
100
AcDbPlotSettings
  1

  2
none_device
  4
Letter_(8.50_x_11.00_Inches)
  6

 40
6.35
 41
6.35
 42
6.35000508
 43
6.35000508
 44
215.9
 45
279.4
 46
0.0
 47
0.0
 48
0.0
 49
0.0
140
0.0
141
0.0
142
1.0
143
1.0
 70
  1712
 72
     0
 73
     0
 74
     0
  7

 75
     0
 76
     0
 77
     2
 78
   300
147
1.0
148
0.0
149
0.0
100
AcDbLayout
  1
Model
 70
     1
 71
     0
 10
0.0
 20
0.0
 11
12.0
 21
9.0
 12
0.0
 22
0.0
 32
0.0
 14
1.000000000000000E+20
 24
1.000000000000000E+20
 34
1.000000000000000E+20
 15
-1.000000000000000E+20
 25
-1.000000000000000E+20
 35
-1.000000000000000E+20
146
0.0
 13
0.0
 23
0.0
 33
0.0
 16
1.0
 26
0.0
 36
0.0
 17
0.0
 27
1.0
 37
0.0
 76
     0
330
1F
331
29
  0
MATERIAL
  5
45
102
{ACAD_REACTORS
330
43
102
}
330
43
100
AcDbMaterial
  1
ByBlock
 72
     1
 94
      127
  0
MATERIAL
  5
44
102
{ACAD_REACTORS
330
43
102
}
330
43
100
AcDbMaterial
  1
ByLayer
 72
     1
 94
      127
  0
MATERIAL
  5
46
102
{ACAD_REACTORS
330
43
102
}
330
43
100
AcDbMaterial
  1
Global
 72
     1
 94
      127
  0
MLEADERSTYLE
  5
6C
102
{ACAD_REACTORS
330
6B
102
}
330
6B
100
AcDbMLeaderStyle
179
     2
170
     2
171
     1
172
     0
 90
        2
 40
0.0
 41
0.0
173
     1
 91
-1056964608
340
14
 92
       -2
290
     1
 42
0.09
291
     1
 43
0.36
  3
Standard
341
0
 44
0.18
300

342
11
174
     1
178
     6
175
     1
176
     0
 93
-1056964608
 45
0.18
292
     0
297
     0
 46
0.18
343
0
 94
-1056964608
 47
1.0
 49
1.0
140
1.0
293
     1
141
0.0
294
     1
177
     0
142
1.0
295
     0
296
     0
143
0.125
271
     0
272
     9
273
     9
298
     0
  0
MLINESTYLE
  5
18
102
{ACAD_REACTORS
330
17
102
}
330
17
100
AcDbMlineStyle
  2
Standard
 70
     0
  3

 62
   256
 51
90.0
 52
90.0
 71
     2
 49
0.5
 62
   256
  6
BYLAYER
 49
-0.5
 62
   256
  6
BYLAYER
  0
ACDBPLACEHOLDER
  5
F
102
{ACAD_REACTORS
330
E
102
}
330
E
  0
SCALE
  5
48
102
{ACAD_REACTORS
330
47
102
}
330
47
100
AcDbScale
 70
     0
300
1:1
140
1.0
141
1.0
290
     1
  0
SCALE
  5
49
102
{ACAD_REACTORS
330
47
102
}
330
47
100
AcDbScale
 70
     0
300
1:2
140
1.0
141
2.0
290
     0
  0
SCALE
  5
4A
102
{ACAD_REACTORS
330
47
102
}
330
47
100
AcDbScale
 70
     0
300
1:4
140
1.0
141
4.0
290
     0
  0
SCALE
  5
4B
102
{ACAD_REACTORS
330
47
102
}
330
47
100
AcDbScale
 70
     0
300
1:5
140
1.0
141
5.0
290
     0
  0
SCALE
  5
4C
102
{ACAD_REACTORS
330
47
102
}
330
47
100
AcDbScale
 70
     0
300
1:8
140
1.0
141
8.0
290
     0
  0
SCALE
  5
4D
102
{ACAD_REACTORS
330
47
102
}
330
47
100
AcDbScale
 70
     0
300
1:10
140
1.0
141
10.0
290
     0
  0
SCALE
  5
4E
102
{ACAD_REACTORS
330
47
102
}
330
47
100
AcDbScale
 70
     0
300
1:16
140
1.0
141
16.0
290
     0
  0
SCALE
  5
4F
102
{ACAD_REACTORS
330
47
102
}
330
47
100
AcDbScale
 70
     0
300
1:20
140
1.0
141
20.0
290
     0
  0
SCALE
  5
50
102
{ACAD_REACTORS
330
47
102
}
330
47
100
AcDbScale
 70
     0
300
1:30
140
1.0
141
30.0
290
     0
  0
SCALE
  5
51
102
{ACAD_REACTORS
330
47
102
}
330
47
100
AcDbScale
 70
     0
300
1:40
140
1.0
141
40.0
290
     0
  0
SCALE
  5
52
102
{ACAD_REACTORS
330
47
102
}
330
47
100
AcDbScale
 70
     0
300
1:50
140
1.0
141
50.0
290
     0
  0
SCALE
  5
53
102
{ACAD_REACTORS
330
47
102
}
330
47
100
AcDbScale
 70
     0
300
1:100
140
1.0
141
100.0
290
     0
  0
SCALE
  5
54
102
{ACAD_REACTORS
330
47
102
}
330
47
100
AcDbScale
 70
     0
300
2:1
140
2.0
141
1.0
290
     0
  0
SCALE
  5
55
102
{ACAD_REACTORS
330
47
102
}
330
47
100
AcDbScale
 70
     0
300
4:1
140
4.0
141
1.0
290
     0
  0
SCALE
  5
56
102
{ACAD_REACTORS
330
47
102
}
330
47
100
AcDbScale
 70
     0
300
8:1
140
8.0
141
1.0
290
     0
  0
SCALE
  5
57
102
{ACAD_REACTORS
330
47
102
}
330
47
100
AcDbScale
 70
     0
300
10:1
140
10.0
141
1.0
290
     0
  0
SCALE
  5
58
102
{ACAD_REACTORS
330
47
102
}
330
47
100
AcDbScale
 70
     0
300
100:1
140
100.0
141
1.0
290
     0
  0
SCALE
  5
59
102
{ACAD_REACTORS
330
47
102
}
330
47
100
AcDbScale
 70
     0
300
1/128" = 1'-0"
140
0.0078125
141
12.0
290
     0
  0
SCALE
  5
5A
102
{ACAD_REACTORS
330
47
102
}
330
47
100
AcDbScale
 70
     0
300
1/64" = 1'-0"
140
0.015625
141
12.0
290
     0
  0
SCALE
  5
5B
102
{ACAD_REACTORS
330
47
102
}
330
47
100
AcDbScale
 70
     0
300
1/32" = 1'-0"
140
0.03125
141
12.0
290
     0
  0
SCALE
  5
5C
102
{ACAD_REACTORS
330
47
102
}
330
47
100
AcDbScale
 70
     0
300
1/16" = 1'-0"
140
0.0625
141
12.0
290
     0
  0
SCALE
  5
5D
102
{ACAD_REACTORS
330
47
102
}
330
47
100
AcDbScale
 70
     0
300
3/32" = 1'-0"
140
0.09375
141
12.0
290
     0
  0
SCALE
  5
5E
102
{ACAD_REACTORS
330
47
102
}
330
47
100
AcDbScale
 70
     0
300
1/8" = 1'-0"
140
0.125
141
12.0
290
     0
  0
SCALE
  5
5F
102
{ACAD_REACTORS
330
47
102
}
330
47
100
AcDbScale
 70
     0
300
3/16" = 1'-0"
140
0.1875
141
12.0
290
     0
  0
SCALE
  5
60
102
{ACAD_REACTORS
330
47
102
}
330
47
100
AcDbScale
 70
     0
300
1/4" = 1'-0"
140
0.25
141
12.0
290
     0
  0
SCALE
  5
61
102
{ACAD_REACTORS
330
47
102
}
330
47
100
AcDbScale
 70
     0
300
3/8" = 1'-0"
140
0.375
141
12.0
290
     0
  0
SCALE
  5
62
102
{ACAD_REACTORS
330
47
102
}
330
47
100
AcDbScale
 70
     0
300
1/2" = 1'-0"
140
0.5
141
12.0
290
     0
  0
SCALE
  5
63
102
{ACAD_REACTORS
330
47
102
}
330
47
100
AcDbScale
 70
     0
300
3/4" = 1'-0"
140
0.75
141
12.0
290
     0
  0
SCALE
  5
64
102
{ACAD_REACTORS
330
47
102
}
330
47
100
AcDbScale
 70
     0
300
1" = 1'-0"
140
1.0
141
12.0
290
     0
  0
SCALE
  5
65
102
{ACAD_REACTORS
330
47
102
}
330
47
100
AcDbScale
 70
     0
300
1-1/2" = 1'-0"
140
1.5
141
12.0
290
     0
  0
SCALE
  5
66
102
{ACAD_REACTORS
330
47
102
}
330
47
100
AcDbScale
 70
     0
300
3" = 1'-0"
140
3.0
141
12.0
290
     0
  0
SCALE
  5
67
102
{ACAD_REACTORS
330
47
102
}
330
47
100
AcDbScale
 70
     0
300
6" = 1'-0"
140
6.0
141
12.0
290
     0
  0
SCALE
  5
68
102
{ACAD_REACTORS
330
47
102
}
330
47
100
AcDbScale
 70
     0
300
1'-0" = 1'-0"
140
12.0
141
12.0
290
     0
  0
TABLESTYLE
  5
6A
102
{ACAD_REACTORS
330
69
102
}
102
{ACAD_XDICTIONARY
360
1EA
102
}
330
69
100
AcDbTableStyle
  3
Standard
 70
     0
 71
     0
 40
0.06
 41
0.06
280
     0
281
     0
  7
Standard
140
0.18
170
     2
 62
     0
 63
   257
283
     0
 90
        4
 91
        0
  1

274
    -2
284
     1
 64
     0
275
    -2
285
     1
 65
     0
276
    -2
286
     1
 66
     0
277
    -2
287
     1
 67
     0
278
    -2
288
     1
 68
     0
279
    -2
289
     1
 69
     0
  7
Standard
140
0.25
170
     5
 62
     0
 63
   257
283
     0
 90
        4
 91
        0
  1

274
    -2
284
     1
 64
     0
275
    -2
285
     1
 65
     0
276
    -2
286
     1
 66
     0
277
    -2
287
     1
 67
     0
278
    -2
288
     1
 68
     0
279
    -2
289
     1
 69
     0
  7
Standard
140
0.18
170
     5
 62
     0
 63
   257
283
     0
 90
        4
 91
        0
  1

274
    -2
284
     1
 64
     0
275
    -2
285
     1
 65
     0
276
    -2
286
     1
 66
     0
277
    -2
287
     1
 67
     0
278
    -2
288
     1
 68
     0
279
    -2
289
     1
 69
     0
  0
VISUALSTYLE
  5
2F
102
{ACAD_REACTORS
330
2A
102
}
330
2A
100
AcDbVisualStyle
  2
2dWireframe
 70
     4
177
     3
291
     0
 70
    58
 90
        0
176
     1
 90
        2
176
     1
 90
        0
176
     1
 90
        0
176
     1
 40
0.6
176
     1
 40
30.0
176
     1
 62
     7
420
 16777215
176
     1
 90
        1
176
     1
 90
        4
176
     1
 62
     7
176
     1
 62
   257
176
     1
 90
        1
176
     1
 90
        1
176
     1
 40
1.0
176
     1
 90
        0
176
     1
 62
   257
176
     1
 40
1.0
176
     1
 90
        1
176
     1
 90
        6
176
     1
 90
        2
176
     1
 62
     7
176
     1
 90
        5
176
     1
 90
        0
176
     1
 90
        0
176
     1
290
     0
176
     1
 90
        1
176
     1
 40
0.0
176
     1
 90
        0
176
     1
290
     1
176
     1
290
     1
176
     1
290
     0
176
     1
290
     0
176
     1
290
     0
176
     1
290
     0
176
     1
290
     0
176
     1
290
     0
176
     1
290
     0
176
     1
 90
       50
176
     1
 40
0.0
176
     1
 40
1.0
176
     1
 90
        0
176
     1
 62
    18
420
        0
176
     1
 90
       50
176
     1
 90
        3
176
     1
 62
     5
420
      255
176
     1
290
     0
176
     1
 90
       50
176
     1
 90
       50
176
     1
 90
       50
176
     1
290
     0
176
     1
 90
       50
176
     1
 62
   256
176
     0
 40
1.0
176
     0
 90
        2
176
     1
  1
strokes_ogs.tif
176
     1
290
     0
176
     1
 40
1.0
176
     1
 40
1.0
176
     1
  0
VISUALSTYLE
  5
32
102
{ACAD_REACTORS
330
2A
102
}
330
2A
100
AcDbVisualStyle
  2
Basic
 70
     7
177
     3
291
     1
 70
    58
 90
        1
176
     1
 90
        0
176
     1
 90
        1
176
     1
 90
        0
176
     1
 40
0.6
176
     1
 40
30.0
176
     1
 62
     7
420
 16777215
176
     1
 90
        0
176
     1
 90
        4
176
     1
 62
     7
176
     1
 62
   257
176
     1
 90
        1
176
     1
 90
        1
176
     1
 40
1.0
176
     1
 90
        8
176
     1
 62
     7
176
     1
 40
1.0
176
     1
 90
        1
176
     1
 90
        6
176
     1
 90
        2
176
     1
 62
     7
176
     1
 90
        5
176
     1
 90
        0
176
     1
 90
        0
176
     1
290
     0
176
     1
 90
        1
176
     1
 40
0.0
176
     1
 90
        0
176
     1
290
     0
176
     1
290
     1
176
     1
290
     1
176
     1
290
     0
176
     1
290
     0
176
     1
290
     0
176
     1
290
     0
176
     1
290
     0
176
     1
290
     0
176
     1
 90
       50
176
     1
 40
0.0
176
     1
 40
1.0
176
     1
 90
        0
176
     1
 62
    18
420
        0
176
     1
 90
       50
176
     1
 90
        3
176
     1
 62
     5
420
      255
176
     1
290
     0
176
     1
 90
       50
176
     1
 90
       50
176
     1
 90
       50
176
     1
290
     0
176
     1
 90
       50
176
     1
 62
   256
176
     0
 40
1.0
176
     0
 90
        2
176
     1
  1
strokes_ogs.tif
176
     1
290
     0
176
     1
 40
1.0
176
     1
 40
1.0
176
     1
  0
VISUALSTYLE
  5
36
102
{ACAD_REACTORS
330
2A
102
}
330
2A
100
AcDbVisualStyle
  2
Brighten
 70
    12
177
     3
291
     1
 70
    58
 90
        2
176
     1
 90
        2
176
     1
 90
        0
176
     1
 90
        0
176
     1
 40
0.6
176
     1
 40
30.0
176
     1
 62
     7
420
 16777215
176
     1
 90
        1
176
     1
 90
        4
176
     1
 62
     7
176
     1
 62
   257
176
     1
 90
        1
176
     1
 90
        1
176
     1
 40
1.0
176
     1
 90
        8
176
     1
 62
     7
176
     1
 40
1.0
176
     1
 90
        1
176
     1
 90
        6
176
     1
 90
        2
176
     1
 62
     7
176
     1
 90
        5
176
     1
 90
        0
176
     1
 90
        0
176
     1
290
     0
176
     1
 90
        1
176
     1
 40
50.0
176
     1
 90
        0
176
     1
290
     0
176
     1
290
     1
176
     1
290
     1
176
     1
290
     0
176
     1
290
     0
176
     1
290
     0
176
     1
290
     0
176
     1
290
     0
176
     1
290
     0
176
     1
 90
       50
176
     1
 40
0.0
176
     1
 40
1.0
176
     1
 90
        0
176
     1
 62
    18
420
        0
176
     1
 90
       50
176
     1
 90
        3
176
     1
 62
     5
420
      255
176
     1
290
     0
176
     1
 90
       50
176
     1
 90
       50
176
     1
 90
       50
176
     1
290
     0
176
     1
 90
       50
176
     1
 62
   256
176
     0
 40
1.0
176
     0
 90
        2
176
     1
  1
strokes_ogs.tif
176
     1
290
     0
176
     1
 40
1.0
176
     1
 40
1.0
176
     1
  0
VISUALSTYLE
  5
3A
102
{ACAD_REACTORS
330
2A
102
}
330
2A
100
AcDbVisualStyle
  2
ColorChange
 70
    16
177
     3
291
     1
 70
    58
 90
        2
176
     1
 90
        2
176
     1
 90
        3
176
     1
 90
        0
176
     1
 40
0.6
176
     1
 40
30.0
176
     1
 62
     8
420
  8421504
176
     1
 90
        1
176
     1
 90
        4
176
     1
 62
     7
176
     1
 62
   257
176
     1
 90
        1
176
     1
 90
        1
176
     1
 40
1.0
176
     1
 90
        8
176
     1
 62
     8
420
  8421504
176
     1
 40
1.0
176
     1
 90
        1
176
     1
 90
        6
176
     1
 90
        2
176
     1
 62
     7
176
     1
 90
        5
176
     1
 90
        0
176
     1
 90
        0
176
     1
290
     0
176
     1
 90
        1
176
     1
 40
0.0
176
     1
 90
        0
176
     1
290
     0
176
     1
290
     1
176
     1
290
     1
176
     1
290
     0
176
     1
290
     0
176
     1
290
     0
176
     1
290
     0
176
     1
290
     0
176
     1
290
     0
176
     1
 90
       50
176
     1
 40
0.0
176
     1
 40
1.0
176
     1
 90
        0
176
     1
 62
    18
420
        0
176
     1
 90
       50
176
     1
 90
        3
176
     1
 62
     5
420
      255
176
     1
290
     0
176
     1
 90
       50
176
     1
 90
       50
176
     1
 90
       50
176
     1
290
     0
176
     1
 90
       50
176
     1
 62
   256
176
     0
 40
1.0
176
     0
 90
        2
176
     1
  1
strokes_ogs.tif
176
     1
290
     0
176
     1
 40
1.0
176
     1
 40
1.0
176
     1
  0
VISUALSTYLE
  5
34
102
{ACAD_REACTORS
330
2A
102
}
330
2A
100
AcDbVisualStyle
  2
Conceptual
 70
     9
177
     3
291
     0
 70
    58
 90
        3
176
     1
 90
        2
176
     1
 90
        0
176
     1
 90
        0
176
     1
 40
0.6
176
     1
 40
30.0
176
     1
 62
     7
420
 16777215
176
     1
 90
        2
176
     1
 90
        2
176
     1
 62
     7
176
     1
 62
   257
176
     1
 90
        1
176
     1
 90
        1
176
     1
 40
179.0
176
     1
 90
        8
176
     1
 62
     7
176
     1
 40
1.0
176
     1
 90
        1
176
     1
 90
        6
176
     1
 90
        2
176
     1
 62
     7
176
     1
 90
        3
176
     1
 90
        0
176
     1
 90
        0
176
     1
290
     0
176
     1
 90
        1
176
     1
 40
0.0
176
     1
 90
        0
176
     1
290
     0
176
     1
290
     1
176
     1
290
     1
176
     1
290
     0
176
     1
290
     0
176
     1
290
     0
176
     1
290
     0
176
     1
290
     0
176
     1
290
     0
176
     1
 90
       50
176
     1
 40
0.0
176
     1
 40
1.0
176
     1
 90
        0
176
     1
 62
    18
420
        0
176
     1
 90
       50
176
     1
 90
        3
176
     1
 62
     5
420
      255
176
     1
290
     0
176
     1
 90
       50
176
     1
 90
       50
176
     1
 90
       50
176
     1
290
     0
176
     1
 90
       50
176
     1
 62
   256
176
     0
 40
1.0
176
     0
 90
        2
176
     1
  1
strokes_ogs.tif
176
     1
290
     0
176
     1
 40
1.0
176
     1
 40
1.0
176
     1
  0
VISUALSTYLE
  5
35
102
{ACAD_REACTORS
330
2A
102
}
330
2A
100
AcDbVisualStyle
  2
Dim
 70
    11
177
     3
291
     1
 70
    58
 90
        2
176
     1
 90
        2
176
     1
 90
        0
176
     1
 90
        0
176
     1
 40
0.6
176
     1
 40
30.0
176
     1
 62
     7
420
 16777215
176
     1
 90
        1
176
     1
 90
        4
176
     1
 62
     7
176
     1
 62
   257
176
     1
 90
        1
176
     1
 90
        1
176
     1
 40
1.0
176
     1
 90
        8
176
     1
 62
     7
176
     1
 40
1.0
176
     1
 90
        1
176
     1
 90
        6
176
     1
 90
        2
176
     1
 62
     7
176
     1
 90
        5
176
     1
 90
        0
176
     1
 90
        0
176
     1
290
     0
176
     1
 90
        1
176
     1
 40
-50.0
176
     1
 90
        0
176
     1
290
     0
176
     1
290
     1
176
     1
290
     1
176
     1
290
     0
176
     1
290
     0
176
     1
290
     0
176
     1
290
     0
176
     1
290
     0
176
     1
290
     0
176
     1
 90
       50
176
     1
 40
0.0
176
     1
 40
1.0
176
     1
 90
        0
176
     1
 62
    18
420
        0
176
     1
 90
       50
176
     1
 90
        3
176
     1
 62
     5
420
      255
176
     1
290
     0
176
     1
 90
       50
176
     1
 90
       50
176
     1
 90
       50
176
     1
290
     0
176
     1
 90
       50
176
     1
 62
   256
176
     0
 40
1.0
176
     0
 90
        2
176
     1
  1
strokes_ogs.tif
176
     1
290
     0
176
     1
 40
1.0
176
     1
 40
1.0
176
     1
  0
VISUALSTYLE
  5
3D
102
{ACAD_REACTORS
330
2A
102
}
330
2A
100
AcDbVisualStyle
  2
EdgeColorOff
 70
    22
177
     3
291
     1
 70
    58
 90
        2
176
     0
 90
        2
176
     0
 90
        0
176
     0
 90
        0
176
     0
 40
0.6
176
     0
 40
30.0
176
     0
 62
     7
420
 16777215
176
     0
 90
        1
176
     0
 90
        4
176
     0
 62
     7
176
     0
 62
   257
176
     0
 90
        1
176
     0
 90
        1
176
     0
 40
1.0
176
     0
 90
        8
176
     2
 62
     7
176
     0
 40
1.0
176
     0
 90
        1
176
     0
 90
        6
176
     0
 90
        2
176
     0
 62
     7
176
     0
 90
        5
176
     0
 90
        0
176
     0
 90
        0
176
     0
290
     0
176
     0
 90
        1
176
     0
 40
0.0
176
     0
 90
        0
176
     0
290
     0
176
     0
290
     1
176
     0
290
     1
176
     0
290
     0
176
     0
290
     0
176
     0
290
     0
176
     0
290
     0
176
     0
290
     0
176
     0
290
     0
176
     0
 90
       50
176
     0
 40
0.0
176
     0
 40
1.0
176
     0
 90
        0
176
     0
 62
    18
420
        0
176
     0
 90
       50
176
     0
 90
        3
176
     0
 62
     5
420
      255
176
     0
290
     0
176
     0
 90
       50
176
     0
 90
       50
176
     0
 90
       50
176
     0
290
     0
176
     0
 90
       50
176
     0
 62
   256
176
     0
 40
1.0
176
     0
 90
        2
176
     0
  1
strokes_ogs.tif
176
     0
290
     0
176
     0
 40
1.0
176
     0
 40
1.0
176
     0
  0
VISUALSTYLE
  5
39
102
{ACAD_REACTORS
330
2A
102
}
330
2A
100
AcDbVisualStyle
  2
Facepattern
 70
    15
177
     3
291
     1
 70
    58
 90
        2
176
     1
 90
        2
176
     1
 90
        0
176
     1
 90
        0
176
     1
 40
0.6
176
     1
 40
30.0
176
     1
 62
     7
420
 16777215
176
     1
 90
        1
176
     1
 90
        4
176
     1
 62
     7
176
     1
 62
   257
176
     1
 90
        1
176
     1
 90
        1
176
     1
 40
1.0
176
     1
 90
        8
176
     1
 62
     7
176
     1
 40
1.0
176
     1
 90
        1
176
     1
 90
        6
176
     1
 90
        2
176
     1
 62
     7
176
     1
 90
        5
176
     1
 90
        0
176
     1
 90
        0
176
     1
290
     0
176
     1
 90
        1
176
     1
 40
0.0
176
     1
 90
        0
176
     1
290
     0
176
     1
290
     1
176
     1
290
     1
176
     1
290
     0
176
     1
290
     0
176
     1
290
     0
176
     1
290
     0
176
     1
290
     0
176
     1
290
     0
176
     1
 90
       50
176
     1
 40
0.0
176
     1
 40
1.0
176
     1
 90
        0
176
     1
 62
    18
420
        0
176
     1
 90
       50
176
     1
 90
        3
176
     1
 62
     5
420
      255
176
     1
290
     0
176
     1
 90
       50
176
     1
 90
       50
176
     1
 90
       50
176
     1
290
     0
176
     1
 90
       50
176
     1
 62
   256
176
     0
 40
1.0
176
     0
 90
        2
176
     1
  1
strokes_ogs.tif
176
     1
290
     0
176
     1
 40
1.0
176
     1
 40
1.0
176
     1
  0
VISUALSTYLE
  5
2B
102
{ACAD_REACTORS
330
2A
102
}
330
2A
100
AcDbVisualStyle
  2
Flat
 70
     0
177
     3
291
     1
 70
    58
 90
        2
176
     1
 90
        1
176
     1
 90
        1
176
     1
 90
        2
176
     1
 40
0.6
176
     1
 40
30.0
176
     1
 62
     7
420
 16777215
176
     1
 90
        0
176
     1
 90
        0
176
     1
 62
     7
176
     1
 62
   257
176
     1
 90
        1
176
     1
 90
        1
176
     1
 40
1.0
176
     1
 90
        8
176
     1
 62
     7
176
     1
 40
1.0
176
     1
 90
        1
176
     1
 90
        6
176
     1
 90
        2
176
     1
 62
     7
176
     1
 90
        5
176
     1
 90
        0
176
     1
 90
        0
176
     1
290
     0
176
     1
 90
       13
176
     1
 40
0.0
176
     1
 90
        0
176
     1
290
     0
176
     1
290
     1
176
     1
290
     1
176
     1
290
     0
176
     1
290
     0
176
     1
290
     0
176
     1
290
     0
176
     1
290
     0
176
     1
290
     0
176
     1
 90
       50
176
     1
 40
0.0
176
     1
 40
1.0
176
     1
 90
        0
176
     1
 62
    18
420
        0
176
     1
 90
       50
176
     1
 90
        3
176
     1
 62
     5
420
      255
176
     1
290
     0
176
     1
 90
       50
176
     1
 90
       50
176
     1
 90
       50
176
     1
290
     0
176
     1
 90
       50
176
     1
 62
   256
176
     0
 40
1.0
176
     0
 90
        2
176
     1
  1
strokes_ogs.tif
176
     1
290
     0
176
     1
 40
1.0
176
     1
 40
1.0
176
     1
  0
VISUALSTYLE
  5
2C
102
{ACAD_REACTORS
330
2A
102
}
330
2A
100
AcDbVisualStyle
  2
FlatWithEdges
 70
     1
177
     3
291
     1
 70
    58
 90
        2
176
     1
 90
        1
176
     1
 90
        1
176
     1
 90
        2
176
     1
 40
0.6
176
     1
 40
30.0
176
     1
 62
     7
420
 16777215
176
     1
 90
        1
176
     1
 90
        0
176
     1
 62
     7
176
     1
 62
   257
176
     1
 90
        1
176
     1
 90
        1
176
     1
 40
1.0
176
     1
 90
        0
176
     1
 62
   257
176
     1
 40
1.0
176
     1
 90
        1
176
     1
 90
        6
176
     1
 90
        2
176
     1
 62
     7
176
     1
 90
        5
176
     1
 90
        0
176
     1
 90
        0
176
     1
290
     0
176
     1
 90
       13
176
     1
 40
0.0
176
     1
 90
        0
176
     1
290
     0
176
     1
290
     1
176
     1
290
     1
176
     1
290
     0
176
     1
290
     0
176
     1
290
     0
176
     1
290
     0
176
     1
290
     0
176
     1
290
     0
176
     1
 90
       50
176
     1
 40
0.0
176
     1
 40
1.0
176
     1
 90
        0
176
     1
 62
    18
420
        0
176
     1
 90
       50
176
     1
 90
        3
176
     1
 62
     5
420
      255
176
     1
290
     0
176
     1
 90
       50
176
     1
 90
       50
176
     1
 90
       50
176
     1
290
     0
176
     1
 90
       50
176
     1
 62
   256
176
     0
 40
1.0
176
     0
 90
        2
176
     1
  1
strokes_ogs.tif
176
     1
290
     0
176
     1
 40
1.0
176
     1
 40
1.0
176
     1
  0
VISUALSTYLE
  5
2D
102
{ACAD_REACTORS
330
2A
102
}
330
2A
100
AcDbVisualStyle
  2
Gouraud
 70
     2
177
     3
291
     1
 70
    58
 90
        2
176
     1
 90
        2
176
     1
 90
        1
176
     1
 90
        2
176
     1
 40
0.6
176
     1
 40
30.0
176
     1
 62
     7
420
 16777215
176
     1
 90
        0
176
     1
 90
        0
176
     1
 62
     7
176
     1
 62
   257
176
     1
 90
        1
176
     1
 90
        1
176
     1
 40
1.0
176
     1
 90
        0
176
     1
 62
     7
176
     1
 40
1.0
176
     1
 90
        1
176
     1
 90
        6
176
     1
 90
        2
176
     1
 62
     7
176
     1
 90
        5
176
     1
 90
        0
176
     1
 90
        0
176
     1
290
     0
176
     1
 90
       13
176
     1
 40
0.0
176
     1
 90
        0
176
     1
290
     0
176
     1
290
     1
176
     1
290
     1
176
     1
290
     0
176
     1
290
     0
176
     1
290
     0
176
     1
290
     0
176
     1
290
     0
176
     1
290
     0
176
     1
 90
       50
176
     1
 40
0.0
176
     1
 40
1.0
176
     1
 90
        0
176
     1
 62
    18
420
        0
176
     1
 90
       50
176
     1
 90
        3
176
     1
 62
     5
420
      255
176
     1
290
     0
176
     1
 90
       50
176
     1
 90
       50
176
     1
 90
       50
176
     1
290
     0
176
     1
 90
       50
176
     1
 62
   256
176
     0
 40
1.0
176
     0
 90
        2
176
     1
  1
strokes_ogs.tif
176
     1
290
     0
176
     1
 40
1.0
176
     1
 40
1.0
176
     1
  0
VISUALSTYLE
  5
2E
102
{ACAD_REACTORS
330
2A
102
}
330
2A
100
AcDbVisualStyle
  2
GouraudWithEdges
 70
     3
177
     3
291
     1
 70
    58
 90
        2
176
     1
 90
        2
176
     1
 90
        1
176
     1
 90
        2
176
     1
 40
0.6
176
     1
 40
30.0
176
     1
 62
     7
420
 16777215
176
     1
 90
        1
176
     1
 90
        0
176
     1
 62
     7
176
     1
 62
   257
176
     1
 90
        1
176
     1
 90
        1
176
     1
 40
1.0
176
     1
 90
        0
176
     1
 62
   257
176
     1
 40
1.0
176
     1
 90
        1
176
     1
 90
        6
176
     1
 90
        2
176
     1
 62
     7
176
     1
 90
        5
176
     1
 90
        0
176
     1
 90
        0
176
     1
290
     0
176
     1
 90
       13
176
     1
 40
0.0
176
     1
 90
        0
176
     1
290
     0
176
     1
290
     1
176
     1
290
     1
176
     1
290
     0
176
     1
290
     0
176
     1
290
     0
176
     1
290
     0
176
     1
290
     0
176
     1
290
     0
176
     1
 90
       50
176
     1
 40
0.0
176
     1
 40
1.0
176
     1
 90
        0
176
     1
 62
    18
420
        0
176
     1
 90
       50
176
     1
 90
        3
176
     1
 62
     5
420
      255
176
     1
290
     0
176
     1
 90
       50
176
     1
 90
       50
176
     1
 90
       50
176
     1
290
     0
176
     1
 90
       50
176
     1
 62
   256
176
     0
 40
1.0
176
     0
 90
        2
176
     1
  1
strokes_ogs.tif
176
     1
290
     0
176
     1
 40
1.0
176
     1
 40
1.0
176
     1
  0
VISUALSTYLE
  5
31
102
{ACAD_REACTORS
330
2A
102
}
330
2A
100
AcDbVisualStyle
  2
Hidden
 70
     6
177
     3
291
     0
 70
    58
 90
        1
176
     1
 90
        2
176
     1
 90
        2
176
     1
 90
        0
176
     1
 40
0.6
176
     1
 40
30.0
176
     1
 62
     7
420
 16777215
176
     1
 90
        2
176
     1
 90
        2
176
     1
 62
     7
176
     1
 62
   257
176
     1
 90
        2
176
     1
 90
        1
176
     1
 40
40.0
176
     1
 90
        0
176
     1
 62
   257
176
     1
 40
1.0
176
     1
 90
        1
176
     1
 90
        6
176
     1
 90
        2
176
     1
 62
     7
176
     1
 90
        3
176
     1
 90
        0
176
     1
 90
        0
176
     1
290
     0
176
     1
 90
        1
176
     1
 40
0.0
176
     1
 90
        0
176
     1
290
     0
176
     1
290
     1
176
     1
290
     1
176
     1
290
     0
176
     1
290
     0
176
     1
290
     0
176
     1
290
     0
176
     1
290
     0
176
     1
290
     0
176
     1
 90
       50
176
     1
 40
0.0
176
     1
 40
1.0
176
     1
 90
        0
176
     1
 62
    18
420
        0
176
     1
 90
       50
176
     1
 90
        3
176
     1
 62
     5
420
      255
176
     1
290
     0
176
     1
 90
       50
176
     1
 90
       50
176
     1
 90
       50
176
     1
290
     0
176
     1
 90
       50
176
     1
 62
   256
176
     0
 40
1.0
176
     0
 90
        2
176
     1
  1
strokes_ogs.tif
176
     1
290
     0
176
     1
 40
1.0
176
     1
 40
1.0
176
     1
  0
VISUALSTYLE
  5
3B
102
{ACAD_REACTORS
330
2A
102
}
330
2A
100
AcDbVisualStyle
  2
JitterOff
 70
    20
177
     3
291
     1
 70
    58
 90
        2
176
     0
 90
        2
176
     0
 90
        0
176
     0
 90
        0
176
     0
 40
0.6
176
     0
 40
30.0
176
     0
 62
     7
420
 16777215
176
     0
 90
        1
176
     0
 90
        4
176
     0
 62
     7
176
     0
 62
   257
176
     0
 90
        1
176
     0
 90
        1
176
     0
 40
1.0
176
     0
 90
       10
176
     2
 62
     7
176
     0
 40
1.0
176
     0
 90
        1
176
     0
 90
        6
176
     0
 90
        2
176
     0
 62
     7
176
     0
 90
        5
176
     0
 90
        0
176
     0
 90
        0
176
     0
290
     0
176
     0
 90
        1
176
     0
 40
0.0
176
     0
 90
        0
176
     0
290
     0
176
     0
290
     1
176
     0
290
     1
176
     0
290
     0
176
     0
290
     0
176
     0
290
     0
176
     0
290
     0
176
     0
290
     0
176
     0
290
     0
176
     0
 90
       50
176
     0
 40
0.0
176
     0
 40
1.0
176
     0
 90
        0
176
     0
 62
    18
420
        0
176
     0
 90
       50
176
     0
 90
        3
176
     0
 62
     5
420
      255
176
     0
290
     0
176
     0
 90
       50
176
     0
 90
       50
176
     0
 90
       50
176
     0
290
     0
176
     0
 90
       50
176
     0
 62
   256
176
     0
 40
1.0
176
     0
 90
        2
176
     0
  1
strokes_ogs.tif
176
     0
290
     0
176
     0
 40
1.0
176
     0
 40
1.0
176
     0
  0
VISUALSTYLE
  5
38
102
{ACAD_REACTORS
330
2A
102
}
330
2A
100
AcDbVisualStyle
  2
Linepattern
 70
    14
177
     3
291
     1
 70
    58
 90
        2
176
     1
 90
        2
176
     1
 90
        0
176
     1
 90
        0
176
     1
 40
0.6
176
     1
 40
30.0
176
     1
 62
     7
420
 16777215
176
     1
 90
        1
176
     1
 90
        4
176
     1
 62
     7
176
     1
 62
   257
176
     1
 90
        7
176
     1
 90
        7
176
     1
 40
1.0
176
     1
 90
        8
176
     1
 62
     7
176
     1
 40
1.0
176
     1
 90
        1
176
     1
 90
        6
176
     1
 90
        2
176
     1
 62
     7
176
     1
 90
        5
176
     1
 90
        0
176
     1
 90
        0
176
     1
290
     0
176
     1
 90
        1
176
     1
 40
0.0
176
     1
 90
        0
176
     1
290
     0
176
     1
290
     1
176
     1
290
     1
176
     1
290
     0
176
     1
290
     0
176
     1
290
     0
176
     1
290
     0
176
     1
290
     0
176
     1
290
     0
176
     1
 90
       50
176
     1
 40
0.0
176
     1
 40
1.0
176
     1
 90
        0
176
     1
 62
    18
420
        0
176
     1
 90
       50
176
     1
 90
        3
176
     1
 62
     5
420
      255
176
     1
290
     0
176
     1
 90
       50
176
     1
 90
       50
176
     1
 90
       50
176
     1
290
     0
176
     1
 90
       50
176
     1
 62
   256
176
     0
 40
1.0
176
     0
 90
        2
176
     1
  1
strokes_ogs.tif
176
     1
290
     0
176
     1
 40
1.0
176
     1
 40
1.0
176
     1
  0
VISUALSTYLE
  5
3C
102
{ACAD_REACTORS
330
2A
102
}
330
2A
100
AcDbVisualStyle
  2
OverhangOff
 70
    21
177
     3
291
     1
 70
    58
 90
        2
176
     0
 90
        2
176
     0
 90
        0
176
     0
 90
        0
176
     0
 40
0.6
176
     0
 40
30.0
176
     0
 62
     7
420
 16777215
176
     0
 90
        1
176
     0
 90
        4
176
     0
 62
     7
176
     0
 62
   257
176
     0
 90
        1
176
     0
 90
        1
176
     0
 40
1.0
176
     0
 90
        9
176
     2
 62
     7
176
     0
 40
1.0
176
     0
 90
        1
176
     0
 90
        6
176
     0
 90
        2
176
     0
 62
     7
176
     0
 90
        5
176
     0
 90
        0
176
     0
 90
        0
176
     0
290
     0
176
     0
 90
        1
176
     0
 40
0.0
176
     0
 90
        0
176
     0
290
     0
176
     0
290
     1
176
     0
290
     1
176
     0
290
     0
176
     0
290
     0
176
     0
290
     0
176
     0
290
     0
176
     0
290
     0
176
     0
290
     0
176
     0
 90
       50
176
     0
 40
0.0
176
     0
 40
1.0
176
     0
 90
        0
176
     0
 62
    18
420
        0
176
     0
 90
       50
176
     0
 90
        3
176
     0
 62
     5
420
      255
176
     0
290
     0
176
     0
 90
       50
176
     0
 90
       50
176
     0
 90
       50
176
     0
290
     0
176
     0
 90
       50
176
     0
 62
   256
176
     0
 40
1.0
176
     0
 90
        2
176
     0
  1
strokes_ogs.tif
176
     0
290
     0
176
     0
 40
1.0
176
     0
 40
1.0
176
     0
  0
VISUALSTYLE
  5
33
102
{ACAD_REACTORS
330
2A
102
}
330
2A
100
AcDbVisualStyle
  2
Realistic
 70
     8
177
     3
291
     0
 70
    58
 90
        2
176
     1
 90
        3
176
     1
 90
        0
176
     1
 90
        2
176
     1
 40
0.6
176
     1
 40
30.0
176
     1
 62
     7
420
 16777215
176
     1
 90
        0
176
     1
 90
        0
176
     1
 62
     7
176
     1
 62
   257
176
     1
 90
        1
176
     1
 90
        1
176
     1
 40
1.0
176
     1
 90
        8
176
     1
 62
   257
176
     1
 40
1.0
176
     1
 90
        1
176
     1
 90
        6
176
     1
 90
        2
176
     1
 62
     7
176
     1
 90
        3
176
     1
 90
        0
176
     1
 90
        0
176
     1
290
     0
176
     1
 90
       13
176
     1
 40
0.0
176
     1
 90
        0
176
     1
290
     0
176
     1
290
     1
176
     1
290
     1
176
     1
290
     0
176
     1
290
     0
176
     1
290
     0
176
     1
290
     0
176
     1
290
     0
176
     1
290
     0
176
     1
 90
       50
176
     1
 40
0.0
176
     1
 40
1.0
176
     1
 90
        0
176
     1
 62
    18
420
        0
176
     1
 90
       50
176
     1
 90
        3
176
     1
 62
     5
420
      255
176
     1
290
     0
176
     1
 90
       50
176
     1
 90
       50
176
     1
 90
       50
176
     1
290
     0
176
     1
 90
       50
176
     1
 62
   256
176
     0
 40
1.0
176
     0
 90
        2
176
     1
  1
strokes_ogs.tif
176
     1
290
     0
176
     1
 40
1.0
176
     1
 40
1.0
176
     1
  0
VISUALSTYLE
  5
42
102
{ACAD_REACTORS
330
2A
102
}
330
2A
100
AcDbVisualStyle
  2
Shaded
 70
    27
177
     3
291
     0
 70
    58
 90
        2
176
     1
 90
        2
176
     1
 90
        1
176
     1
 90
        2
176
     1
 40
0.6
176
     1
 40
30.0
176
     1
 62
     7
420
 16777215
176
     1
 90
        0
176
     1
 90
        4
176
     1
 62
     7
176
     1
 62
   257
176
     1
 90
        1
176
     1
 90
        1
176
     1
 40
1.0
176
     1
 90
        8
176
     1
 62
   257
176
     1
 40
1.0
176
     1
 90
        1
176
     1
 90
        6
176
     1
 90
        2
176
     1
 62
     8
420
  7895160
176
     1
 90
        3
176
     1
 90
        0
176
     1
 90
        0
176
     1
290
     0
176
     1
 90
        5
176
     1
 40
0.0
176
     1
 90
        0
176
     1
290
     0
176
     1
290
     1
176
     1
290
     1
176
     1
290
     0
176
     1
290
     0
176
     1
290
     0
176
     1
290
     0
176
     1
290
     0
176
     1
290
     0
176
     1
 90
       50
176
     1
 40
0.0
176
     1
 40
1.0
176
     1
 90
        0
176
     1
 62
    18
420
        0
176
     1
 90
       50
176
     1
 90
        3
176
     1
 62
     5
420
      255
176
     1
290
     0
176
     1
 90
       50
176
     1
 90
       50
176
     1
 90
       50
176
     1
290
     0
176
     1
 90
       50
176
     1
 62
   256
176
     0
 40
1.0
176
     0
 90
        2
176
     1
  1
strokes_ogs.tif
176
     1
290
     0
176
     1
 40
1.0
176
     1
 40
1.0
176
     1
  0
VISUALSTYLE
  5
41
102
{ACAD_REACTORS
330
2A
102
}
330
2A
100
AcDbVisualStyle
  2
Shaded with edges
 70
    26
177
     3
291
     0
 70
    58
 90
        2
176
     1
 90
        2
176
     1
 90
        1
176
     1
 90
        2
176
     1
 40
0.6
176
     1
 40
30.0
176
     1
 62
     7
420
 16777215
176
     1
 90
        1
176
     1
 90
       10
176
     1
 62
     7
176
     1
 62
   257
176
     1
 90
        2
176
     1
 90
        1
176
     1
 40
1.0
176
     1
 90
        8
176
     1
 62
   257
176
     1
 40
1.0
176
     1
 90
        1
176
     1
 90
        6
176
     1
 90
        2
176
     1
 62
     7
176
     1
 90
        3
176
     1
 90
        0
176
     1
 90
        0
176
     1
290
     0
176
     1
 90
        5
176
     1
 40
0.0
176
     1
 90
        0
176
     1
290
     0
176
     1
290
     1
176
     1
290
     1
176
     1
290
     0
176
     1
290
     0
176
     1
290
     0
176
     1
290
     0
176
     1
290
     0
176
     1
290
     0
176
     1
 90
       50
176
     1
 40
0.0
176
     1
 40
1.0
176
     1
 90
        0
176
     1
 62
    18
420
        0
176
     1
 90
       50
176
     1
 90
        3
176
     1
 62
     5
420
      255
176
     1
290
     0
176
     1
 90
       50
176
     1
 90
       50
176
     1
 90
       50
176
     1
290
     0
176
     1
 90
       50
176
     1
 62
   256
176
     0
 40
1.0
176
     0
 90
        2
176
     1
  1
strokes_ogs.tif
176
     1
290
     0
176
     1
 40
1.0
176
     1
 40
1.0
176
     1
  0
VISUALSTYLE
  5
3E
102
{ACAD_REACTORS
330
2A
102
}
330
2A
100
AcDbVisualStyle
  2
Shades of Gray
 70
    23
177
     3
291
     0
 70
    58
 90
        2
176
     1
 90
        2
176
     1
 90
        3
176
     1
 90
        0
176
     1
 40
0.6
176
     1
 40
30.0
176
     1
 62
     7
420
 16777215
176
     1
 90
        2
176
     1
 90
        2
176
     1
 62
     7
176
     1
 62
     7
176
     1
 90
        1
176
     1
 90
        1
176
     1
 40
40.0
176
     1
 90
        8
176
     1
 62
     7
176
     1
 40
1.0
176
     1
 90
        1
176
     1
 90
        6
176
     1
 90
        2
176
     1
 62
     7
176
     1
 90
        3
176
     1
 90
        0
176
     1
 90
        0
176
     1
290
     0
176
     1
 90
        1
176
     1
 40
0.0
176
     1
 90
        0
176
     1
290
     0
176
     1
290
     1
176
     1
290
     1
176
     1
290
     0
176
     1
290
     0
176
     1
290
     0
176
     1
290
     0
176
     1
290
     0
176
     1
290
     0
176
     1
 90
       50
176
     1
 40
0.0
176
     1
 40
1.0
176
     1
 90
        0
176
     1
 62
    18
420
        0
176
     1
 90
       50
176
     1
 90
        3
176
     1
 62
     5
420
      255
176
     1
290
     0
176
     1
 90
       50
176
     1
 90
       50
176
     1
 90
       50
176
     1
290
     0
176
     1
 90
       50
176
     1
 62
   256
176
     0
 40
1.0
176
     0
 90
        2
176
     1
  1
strokes_ogs.tif
176
     1
290
     0
176
     1
 40
1.0
176
     1
 40
1.0
176
     1
  0
VISUALSTYLE
  5
3F
102
{ACAD_REACTORS
330
2A
102
}
330
2A
100
AcDbVisualStyle
  2
Sketchy
 70
    24
177
     3
291
     0
 70
    58
 90
        1
176
     1
 90
        2
176
     1
 90
        2
176
     1
 90
        0
176
     1
 40
0.6
176
     1
 40
30.0
176
     1
 62
     7
420
 16777215
176
     1
 90
        2
176
     1
 90
        2
176
     1
 62
     7
176
     1
 62
     7
176
     1
 90
        1
176
     1
 90
        1
176
     1
 40
40.0
176
     1
 90
       11
176
     1
 62
     7
176
     1
 40
1.0
176
     1
 90
        1
176
     1
 90
        6
176
     1
 90
        2
176
     1
 62
     7
176
     1
 90
        6
176
     1
 90
        0
176
     1
 90
        0
176
     1
290
     0
176
     1
 90
        1
176
     1
 40
0.0
176
     1
 90
        0
176
     1
290
     0
176
     1
290
     1
176
     1
290
     1
176
     1
290
     0
176
     1
290
     0
176
     1
290
     0
176
     1
290
     0
176
     1
290
     0
176
     1
290
     0
176
     1
 90
       50
176
     1
 40
0.0
176
     1
 40
1.0
176
     1
 90
        0
176
     1
 62
    18
420
        0
176
     1
 90
       50
176
     1
 90
        3
176
     1
 62
     5
420
      255
176
     1
290
     0
176
     1
 90
       50
176
     1
 90
       50
176
     1
 90
       50
176
     1
290
     0
176
     1
 90
       50
176
     1
 62
   256
176
     0
 40
1.0
176
     0
 90
        2
176
     1
  1
strokes_ogs.tif
176
     1
290
     0
176
     1
 40
1.0
176
     1
 40
1.0
176
     1
  0
VISUALSTYLE
  5
37
102
{ACAD_REACTORS
330
2A
102
}
330
2A
100
AcDbVisualStyle
  2
Thicken
 70
    13
177
     3
291
     1
 70
    58
 90
        2
176
     1
 90
        2
176
     1
 90
        0
176
     1
 90
        0
176
     1
 40
0.6
176
     1
 40
30.0
176
     1
 62
     7
420
 16777215
176
     1
 90
        1
176
     1
 90
        4
176
     1
 62
     7
176
     1
 62
   257
176
     1
 90
        1
176
     1
 90
        1
176
     1
 40
1.0
176
     1
 90
       12
176
     1
 62
     7
176
     1
 40
1.0
176
     1
 90
        1
176
     1
 90
        6
176
     1
 90
        2
176
     1
 62
     7
176
     1
 90
        5
176
     1
 90
        0
176
     1
 90
        0
176
     1
290
     0
176
     1
 90
        1
176
     1
 40
0.0
176
     1
 90
        0
176
     1
290
     0
176
     1
290
     1
176
     1
290
     1
176
     1
290
     0
176
     1
290
     0
176
     1
290
     0
176
     1
290
     0
176
     1
290
     0
176
     1
290
     0
176
     1
 90
       50
176
     1
 40
0.0
176
     1
 40
1.0
176
     1
 90
        0
176
     1
 62
    18
420
        0
176
     1
 90
       50
176
     1
 90
        3
176
     1
 62
     5
420
      255
176
     1
290
     0
176
     1
 90
       50
176
     1
 90
       50
176
     1
 90
       50
176
     1
290
     0
176
     1
 90
       50
176
     1
 62
   256
176
     0
 40
1.0
176
     0
 90
        2
176
     1
  1
strokes_ogs.tif
176
     1
290
     0
176
     1
 40
1.0
176
     1
 40
1.0
176
     1
  0
VISUALSTYLE
  5
30
102
{ACAD_REACTORS
330
2A
102
}
330
2A
100
AcDbVisualStyle
  2
Wireframe
 70
     5
177
     3
291
     0
 70
    58
 90
        0
176
     1
 90
        2
176
     1
 90
        0
176
     1
 90
        0
176
     1
 40
0.6
176
     1
 40
30.0
176
     1
 62
     7
420
 16777215
176
     1
 90
        1
176
     1
 90
        4
176
     1
 62
     7
176
     1
 62
   257
176
     1
 90
        1
176
     1
 90
        1
176
     1
 40
1.0
176
     1
 90
        0
176
     1
 62
   257
176
     1
 40
1.0
176
     1
 90
        1
176
     1
 90
        6
176
     1
 90
        2
176
     1
 62
     7
176
     1
 90
        3
176
     1
 90
        0
176
     1
 90
        0
176
     1
290
     0
176
     1
 90
        1
176
     1
 40
0.0
176
     1
 90
        0
176
     1
290
     0
176
     1
290
     1
176
     1
290
     1
176
     1
290
     0
176
     1
290
     0
176
     1
290
     0
176
     1
290
     0
176
     1
290
     0
176
     1
290
     0
176
     1
 90
       50
176
     1
 40
0.0
176
     1
 40
1.0
176
     1
 90
        0
176
     1
 62
    18
420
        0
176
     1
 90
       50
176
     1
 90
        3
176
     1
 62
     5
420
      255
176
     1
290
     0
176
     1
 90
       50
176
     1
 90
       50
176
     1
 90
       50
176
     1
290
     0
176
     1
 90
       50
176
     1
 62
   256
176
     0
 40
1.0
176
     0
 90
        2
176
     1
  1
strokes_ogs.tif
176
     1
290
     0
176
     1
 40
1.0
176
     1
 40
1.0
176
     1
  0
VISUALSTYLE
  5
40
102
{ACAD_REACTORS
330
2A
102
}
330
2A
100
AcDbVisualStyle
  2
X-Ray
 70
    25
177
     3
291
     0
 70
    58
 90
        2
176
     1
 90
        2
176
     1
 90
        1
176
     1
 90
        1
176
     1
 40
0.5
176
     1
 40
30.0
176
     1
 62
     7
420
 16777215
176
     1
 90
        1
176
     1
 90
        0
176
     1
 62
     7
176
     1
 62
   257
176
     1
 90
        1
176
     1
 90
        1
176
     1
 40
1.0
176
     1
 90
        8
176
     1
 62
     7
176
     1
 40
1.0
176
     1
 90
        1
176
     1
 90
        6
176
     1
 90
        2
176
     1
 62
     7
176
     1
 90
        3
176
     1
 90
        0
176
     1
 90
        0
176
     1
290
     0
176
     1
 90
       13
176
     1
 40
0.0
176
     1
 90
        0
176
     1
290
     0
176
     1
290
     1
176
     1
290
     1
176
     1
290
     0
176
     1
290
     0
176
     1
290
     0
176
     1
290
     0
176
     1
290
     0
176
     1
290
     0
176
     1
 90
       50
176
     1
 40
0.0
176
     1
 40
1.0
176
     1
 90
        0
176
     1
 62
    18
420
        0
176
     1
 90
       50
176
     1
 90
        3
176
     1
 62
     5
420
      255
176
     1
290
     0
176
     1
 90
       50
176
     1
 90
       50
176
     1
 90
       50
176
     1
290
     0
176
     1
 90
       50
176
     1
 62
   256
176
     0
 40
1.0
176
     0
 90
        2
176
     1
  1
strokes_ogs.tif
176
     1
290
     0
176
     1
 40
1.0
176
     1
 40
1.0
176
     1
  0
DICTIONARYVAR
  5
1E9
102
{ACAD_REACTORS
330
1E8
102
}
330
1E8
100
DictionaryVariables
280
     0
  1
1:1
  0
DICTIONARYVAR
  5
1EE
102
{ACAD_REACTORS
330
1E8
102
}
330
1E8
100
DictionaryVariables
280
     0
  1
Standard
  0
DICTIONARYVAR
  5
1ED
102
{ACAD_REACTORS
330
1E8
102
}
330
1E8
100
DictionaryVariables
280
     0
  1
Standard
  0
DICTIONARY
  5
1EA
330
6A
100
AcDbDictionary
280
     1
281
     1
  3
ACAD_ROUNDTRIP_2008_TABLESTYLE_CELLSTYLEMAP
360
1EB
  0
CELLSTYLEMAP
  5
1EB
102
{ACAD_REACTORS
330
1EA
102
}
330
1EA
100
AcDbCellStyleMap
 90
        3
300
CELLSTYLE
  1
TABLEFORMAT_BEGIN
 90
        5
170
     1
 91
        0
 92
    32768
 62
   257
 93
        1
300
CONTENTFORMAT
  1
CONTENTFORMAT_BEGIN
 90
        0
 91
        0
 92
        4
 93
        0
300

 40
0.0
140
1.0
 94
        5
 62
     0
340
11
144
0.25
309
CONTENTFORMAT_END
171
     1
301
MARGIN
  1
CELLMARGIN_BEGIN
 40
0.06
 40
0.06
 40
0.06
 40
0.06
 40
0.06
 40
0.06
309
CELLMARGIN_END
 94
        6
 95
        1
302
GRIDFORMAT
  1
GRIDFORMAT_BEGIN
 90
        0
 91
        1
 62
     0
 92
       -2
340
14
 93
        0
 40
0.045
309
GRIDFORMAT_END
 95
        2
302
GRIDFORMAT
  1
GRIDFORMAT_BEGIN
 90
        0
 91
        1
 62
     0
 92
       -2
340
14
 93
        0
 40
0.045
309
GRIDFORMAT_END
 95
        4
302
GRIDFORMAT
  1
GRIDFORMAT_BEGIN
 90
        0
 91
        1
 62
     0
 92
       -2
340
14
 93
        0
 40
0.045
309
GRIDFORMAT_END
 95
        8
302
GRIDFORMAT
  1
GRIDFORMAT_BEGIN
 90
        0
 91
        1
 62
     0
 92
       -2
340
14
 93
        0
 40
0.045
309
GRIDFORMAT_END
 95
       16
302
GRIDFORMAT
  1
GRIDFORMAT_BEGIN
 90
        0
 91
        1
 62
     0
 92
       -2
340
14
 93
        0
 40
0.045
309
GRIDFORMAT_END
 95
       32
302
GRIDFORMAT
  1
GRIDFORMAT_BEGIN
 90
        0
 91
        1
 62
     0
 92
       -2
340
14
 93
        0
 40
0.045
309
GRIDFORMAT_END
309
TABLEFORMAT_END
  1
CELLSTYLE_BEGIN
 90
        1
 91
        1
300
_TITLE
309
CELLSTYLE_END
300
CELLSTYLE
  1
TABLEFORMAT_BEGIN
 90
        5
170
     1
 91
        0
 92
        0
 62
   257
 93
        1
300
CONTENTFORMAT
  1
CONTENTFORMAT_BEGIN
 90
        0
 91
        0
 92
        4
 93
        0
300

 40
0.0
140
1.0
 94
        5
 62
     0
340
11
144
0.18
309
CONTENTFORMAT_END
171
     1
301
MARGIN
  1
CELLMARGIN_BEGIN
 40
0.06
 40
0.06
 40
0.06
 40
0.06
 40
0.06
 40
0.06
309
CELLMARGIN_END
 94
        6
 95
        1
302
GRIDFORMAT
  1
GRIDFORMAT_BEGIN
 90
        0
 91
        1
 62
     0
 92
       -2
340
14
 93
        0
 40
0.045
309
GRIDFORMAT_END
 95
        2
302
GRIDFORMAT
  1
GRIDFORMAT_BEGIN
 90
        0
 91
        1
 62
     0
 92
       -2
340
14
 93
        0
 40
0.045
309
GRIDFORMAT_END
 95
        4
302
GRIDFORMAT
  1
GRIDFORMAT_BEGIN
 90
        0
 91
        1
 62
     0
 92
       -2
340
14
 93
        0
 40
0.045
309
GRIDFORMAT_END
 95
        8
302
GRIDFORMAT
  1
GRIDFORMAT_BEGIN
 90
        0
 91
        1
 62
     0
 92
       -2
340
14
 93
        0
 40
0.045
309
GRIDFORMAT_END
 95
       16
302
GRIDFORMAT
  1
GRIDFORMAT_BEGIN
 90
        0
 91
        1
 62
     0
 92
       -2
340
14
 93
        0
 40
0.045
309
GRIDFORMAT_END
 95
       32
302
GRIDFORMAT
  1
GRIDFORMAT_BEGIN
 90
        0
 91
        1
 62
     0
 92
       -2
340
14
 93
        0
 40
0.045
309
GRIDFORMAT_END
309
TABLEFORMAT_END
  1
CELLSTYLE_BEGIN
 90
        2
 91
        1
300
_HEADER
309
CELLSTYLE_END
300
CELLSTYLE
  1
TABLEFORMAT_BEGIN
 90
        5
170
     1
 91
        0
 92
        0
 62
   257
 93
        1
300
CONTENTFORMAT
  1
CONTENTFORMAT_BEGIN
 90
        0
 91
        0
 92
        4
 93
        0
300

 40
0.0
140
1.0
 94
        2
 62
     0
340
11
144
0.18
309
CONTENTFORMAT_END
171
     1
301
MARGIN
  1
CELLMARGIN_BEGIN
 40
0.06
 40
0.06
 40
0.06
 40
0.06
 40
0.06
 40
0.06
309
CELLMARGIN_END
 94
        6
 95
        1
302
GRIDFORMAT
  1
GRIDFORMAT_BEGIN
 90
        0
 91
        1
 62
     0
 92
       -2
340
14
 93
        0
 40
0.045
309
GRIDFORMAT_END
 95
        2
302
GRIDFORMAT
  1
GRIDFORMAT_BEGIN
 90
        0
 91
        1
 62
     0
 92
       -2
340
14
 93
        0
 40
0.045
309
GRIDFORMAT_END
 95
        4
302
GRIDFORMAT
  1
GRIDFORMAT_BEGIN
 90
        0
 91
        1
 62
     0
 92
       -2
340
14
 93
        0
 40
0.045
309
GRIDFORMAT_END
 95
        8
302
GRIDFORMAT
  1
GRIDFORMAT_BEGIN
 90
        0
 91
        1
 62
     0
 92
       -2
340
14
 93
        0
 40
0.045
309
GRIDFORMAT_END
 95
       16
302
GRIDFORMAT
  1
GRIDFORMAT_BEGIN
 90
        0
 91
        1
 62
     0
 92
       -2
340
14
 93
        0
 40
0.045
309
GRIDFORMAT_END
 95
       32
302
GRIDFORMAT
  1
GRIDFORMAT_BEGIN
 90
        0
 91
        1
 62
     0
 92
       -2
340
14
 93
        0
 40
0.045
309
GRIDFORMAT_END
309
TABLEFORMAT_END
  1
CELLSTYLE_BEGIN
 90
        3
 91
        2
300
_DATA
309
CELLSTYLE_END
  0
ENDSEC
  0
EOF