0
SECTION
  2
HEADER
  9
$ACADVER
  1
AC1027
  9
$ACADMAINTVER
 70
     8
  9
$DWGCODEPAGE
  3
ANSI_1252
  9
$REQUIREDVERSIONS
160
                 0
  9
$COMMENTS
  1
File was created by Cadenas
  9
$CUSTOMPROPERTYTAG
  1
NN
  9
$CUSTOMPROPERTY
  1
INS-IP-207-415-Inch
  9
$CUSTOMPROPERTYTAG
  1
NT
  9
$CUSTOMPROPERTY
  1
S-2000 Bearings 207-415 Inch Bore
  9
$CUSTOMPROPERTYTAG
  1
NB
  9
$CUSTOMPROPERTY
  1
070014
  9
$CUSTOMPROPERTYTAG
  1
NBSYN
  9
$CUSTOMPROPERTY
  1
$PN.
  9
$CUSTOMPROPERTYTAG
  1
LINA
  9
$CUSTOMPROPERTY
  1
070014
  9
$CUSTOMPROPERTYTAG
  1
SS
  9
$CUSTOMPROPERTY
  1
4-7/16
  9
$CUSTOMPROPERTYTAG
  1
PN
  9
$CUSTOMPROPERTY
  1
070014
  9
$CUSTOMPROPERTYTAG
  1
DESCRIPTION
  9
$CUSTOMPROPERTY
  1
INS-S2-407R
  9
$CUSTOMPROPERTYTAG
  1
ST
  9
$CUSTOMPROPERTY
  1
Contact Seal
  9
$CUSTOMPROPERTYTAG
  1
A
  9
$CUSTOMPROPERTY
  1
7.8740
  9
$CUSTOMPROPERTYTAG
  1
B
  9
$CUSTOMPROPERTY
  1
2-5/32
  9
$CUSTOMPROPERTYTAG
  1
C
  9
$CUSTOMPROPERTY
  1
6-17/32
  9
$CUSTOMPROPERTYTAG
  1
D
  9
$CUSTOMPROPERTY
  1
3.266
  9
$CUSTOMPROPERTYTAG
  1
E
  9
$CUSTOMPROPERTY
  1
6-29/64
  9
$CUSTOMPROPERTYTAG
  1
F
  9
$CUSTOMPROPERTY
  1
7/16
  9
$CUSTOMPROPERTYTAG
  1
COMPANY
  9
$CUSTOMPROPERTY
  1
baldor
  9
$INSBASE
 10
0.0
 20
0.0
 30
0.0
  9
$EXTMIN
 10
1.000000000000000E+20
 20
1.000000000000000E+20
 30
1.000000000000000E+20
  9
$EXTMAX
 10
-1.000000000000000E+20
 20
-1.000000000000000E+20
 30
-1.000000000000000E+20
  9
$LIMMIN
 10
0.0
 20
0.0
  9
$LIMMAX
 10
12.0
 20
9.0
  9
$ORTHOMODE
 70
     0
  9
$REGENMODE
 70
     1
  9
$FILLMODE
 70
     1
  9
$QTEXTMODE
 70
     0
  9
$MIRRTEXT
 70
     1
  9
$LTSCALE
 40
1.0
  9
$ATTMODE
 70
     1
  9
$TEXTSIZE
 40
0.2
  9
$TRACEWID
 40
0.05
  9
$TEXTSTYLE
  7
Standard
  9
$CLAYER
  8
0
  9
$CELTYPE
  6
ByLayer
  9
$CECOLOR
 62
   256
  9
$CELTSCALE
 40
1.0
  9
$DISPSILH
 70
     0
  9
$DIMSCALE
 40
1.0
  9
$DIMASZ
 40
0.18
  9
$DIMEXO
 40
0.0625
  9
$DIMDLI
 40
0.38
  9
$DIMRND
 40
0.0
  9
$DIMDLE
 40
0.0
  9
$DIMEXE
 40
0.18
  9
$DIMTP
 40
0.0
  9
$DIMTM
 40
0.0
  9
$DIMTXT
 40
0.18
  9
$DIMCEN
 40
0.09
  9
$DIMTSZ
 40
0.0
  9
$DIMTOL
 70
     0
  9
$DIMLIM
 70
     0
  9
$DIMTIH
 70
     1
  9
$DIMTOH
 70
     1
  9
$DIMSE1
 70
     0
  9
$DIMSE2
 70
     0
  9
$DIMTAD
 70
     0
  9
$DIMZIN
 70
     0
  9
$DIMBLK
  1

  9
$DIMASO
 70
     1
  9
$DIMSHO
 70
     1
  9
$DIMPOST
  1

  9
$DIMAPOST
  1

  9
$DIMALT
 70
     0
  9
$DIMALTD
 70
     2
  9
$DIMALTF
 40
25.4
  9
$DIMLFAC
 40
1.0
  9
$DIMTOFL
 70
     0
  9
$DIMTVP
 40
0.0
  9
$DIMTIX
 70
     0
  9
$DIMSOXD
 70
     0
  9
$DIMSAH
 70
     0
  9
$DIMBLK1
  1

  9
$DIMBLK2
  1

  9
$DIMSTYLE
  2
Standard
  9
$DIMCLRD
 70
     0
  9
$DIMCLRE
 70
     0
  9
$DIMCLRT
 70
     0
  9
$DIMTFAC
 40
1.0
  9
$DIMGAP
 40
0.09
  9
$DIMJUST
 70
     0
  9
$DIMSD1
 70
     0
  9
$DIMSD2
 70
     0
  9
$DIMTOLJ
 70
     1
  9
$DIMTZIN
 70
     0
  9
$DIMALTZ
 70
     0
  9
$DIMALTTZ
 70
     0
  9
$DIMUPT
 70
     0
  9
$DIMDEC
 70
     4
  9
$DIMTDEC
 70
     4
  9
$DIMALTU
 70
     2
  9
$DIMALTTD
 70
     2
  9
$DIMTXSTY
  7
Standard
  9
$DIMAUNIT
 70
     0
  9
$DIMADEC
 70
     0
  9
$DIMALTRND
 40
0.0
  9
$DIMAZIN
 70
     0
  9
$DIMDSEP
 70
    46
  9
$DIMATFIT
 70
     3
  9
$DIMFRAC
 70
     0
  9
$DIMLDRBLK
  1

  9
$DIMLUNIT
 70
     2
  9
$DIMLWD
 70
    -2
  9
$DIMLWE
 70
    -2
  9
$DIMTMOVE
 70
     0
  9
$DIMFXL
 40
1.0
  9
$DIMFXLON
 70
     0
  9
$DIMJOGANG
 40
0.7853981633974483
  9
$DIMTFILL
 70
     0
  9
$DIMTFILLCLR
 70
     0
  9
$DIMARCSYM
 70
     0
  9
$DIMLTYPE
  6

  9
$DIMLTEX1
  6

  9
$DIMLTEX2
  6

  9
$DIMTXTDIRECTION
 70
     0
  9
$LUNITS
 70
     2
  9
$LUPREC
 70
     4
  9
$SKETCHINC
 40
0.1
  9
$FILLETRAD
 40
0.5
  9
$AUNITS
 70
     0
  9
$AUPREC
 70
     0
  9
$MENU
  1
.
  9
$ELEVATION
 40
0.0
  9
$PELEVATION
 40
0.0
  9
$THICKNESS
 40
0.0
  9
$LIMCHECK
 70
     0
  9
$CHAMFERA
 40
0.0
  9
$CHAMFERB
 40
0.0
  9
$CHAMFERC
 40
0.0
  9
$CHAMFERD
 40
0.0
  9
$SKPOLY
 70
     0
  9
$TDCREATE
 40
2458168.985188379
  9
$TDUCREATE
 40
2458168.943521713
  9
$TDUPDATE
 40
2458168.985188565
  9
$TDUUPDATE
 40
2458168.943521898
  9
$TDINDWG
 40
0.0000000116
  9
$TDUSRTIMER
 40
0.0000000116
  9
$USRTIMER
 70
     1
  9
$ANGBASE
 50
0.0
  9
$ANGDIR
 70
     0
  9
$PDMODE
 70
     0
  9
$PDSIZE
 40
0.0
  9
$PLINEWID
 40
0.0
  9
$SPLFRAME
 70
     0
  9
$SPLINETYPE
 70
     6
  9
$SPLINESEGS
 70
     8
  9
$HANDSEED
  5
1A9
  9
$SURFTAB1
 70
     6
  9
$SURFTAB2
 70
     6
  9
$SURFTYPE
 70
     6
  9
$SURFU
 70
     6
  9
$SURFV
 70
     6
  9
$UCSBASE
  2

  9
$UCSNAME
  2

  9
$UCSORG
 10
0.0
 20
0.0
 30
0.0
  9
$UCSXDIR
 10
1.0
 20
0.0
 30
0.0
  9
$UCSYDIR
 10
0.0
 20
1.0
 30
0.0
  9
$UCSORTHOREF
  2

  9
$UCSORTHOVIEW
 70
     0
  9
$UCSORGTOP
 10
0.0
 20
0.0
 30
0.0
  9
$UCSORGBOTTOM
 10
0.0
 20
0.0
 30
0.0
  9
$UCSORGLEFT
 10
0.0
 20
0.0
 30
0.0
  9
$UCSORGRIGHT
 10
0.0
 20
0.0
 30
0.0
  9
$UCSORGFRONT
 10
0.0
 20
0.0
 30
0.0
  9
$UCSORGBACK
 10
0.0
 20
0.0
 30
0.0
  9
$PUCSBASE
  2

  9
$PUCSNAME
  2

  9
$PUCSORG
 10
0.0
 20
0.0
 30
0.0
  9
$PUCSXDIR
 10
1.0
 20
0.0
 30
0.0
  9
$PUCSYDIR
 10
0.0
 20
1.0
 30
0.0
  9
$PUCSORTHOREF
  2

  9
$PUCSORTHOVIEW
 70
     0
  9
$PUCSORGTOP
 10
0.0
 20
0.0
 30
0.0
  9
$PUCSORGBOTTOM
 10
0.0
 20
0.0
 30
0.0
  9
$PUCSORGLEFT
 10
0.0
 20
0.0
 30
0.0
  9
$PUCSORGRIGHT
 10
0.0
 20
0.0
 30
0.0
  9
$PUCSORGFRONT
 10
0.0
 20
0.0
 30
0.0
  9
$PUCSORGBACK
 10
0.0
 20
0.0
 30
0.0
  9
$USERI1
 70
     0
  9
$USERI2
 70
     0
  9
$USERI3
 70
     0
  9
$USERI4
 70
     0
  9
$USERI5
 70
     0
  9
$USERR1
 40
0.0
  9
$USERR2
 40
0.0
  9
$USERR3
 40
0.0
  9
$USERR4
 40
0.0
  9
$USERR5
 40
0.0
  9
$WORLDVIEW
 70
     1
  9
$SHADEDGE
 70
     3
  9
$SHADEDIF
 70
    70
  9
$TILEMODE
 70
     1
  9
$MAXACTVP
 70
    64
  9
$PINSBASE
 10
0.0
 20
0.0
 30
0.0
  9
$PLIMCHECK
 70
     0
  9
$PEXTMIN
 10
1.000000000000000E+20
 20
1.000000000000000E+20
 30
1.000000000000000E+20
  9
$PEXTMAX
 10
-1.000000000000000E+20
 20
-1.000000000000000E+20
 30
-1.000000000000000E+20
  9
$PLIMMIN
 10
0.0
 20
0.0
  9
$PLIMMAX
 10
12.0
 20
9.0
  9
$UNITMODE
 70
     0
  9
$VISRETAIN
 70
     1
  9
$PLINEGEN
 70
     0
  9
$PSLTSCALE
 70
     1
  9
$TREEDEPTH
 70
  3020
  9
$CMLSTYLE
  2
Standard
  9
$CMLJUST
 70
     0
  9
$CMLSCALE
 40
1.0
  9
$PROXYGRAPHICS
 70
     1
  9
$MEASUREMENT
 70
     0
  9
$CELWEIGHT
370
    -1
  9
$ENDCAPS
280
     0
  9
$JOINSTYLE
280
     0
  9
$LWDISPLAY
290
     0
  9
$INSUNITS
 70
     1
  9
$HYPERLINKBASE
  1

  9
$STYLESHEET
  1

  9
$XEDIT
290
     1
  9
$CEPSNTYPE
380
     0
  9
$PSTYLEMODE
290
     1
  9
$FINGERPRINTGUID
  2
{7FDD7D97-CFCA-4AE2-8E56-32E79FA98C7A}
  9
$VERSIONGUID
  2
{FAEB1C32-E019-11D5-929B-00C0DF256EC4}
  9
$EXTNAMES
290
     1
  9
$PSVPSCALE
 40
0.0
  9
$OLESTARTUP
290
     0
  9
$SORTENTS
280
   127
  9
$INDEXCTL
280
     0
  9
$HIDETEXT
280
     1
  9
$XCLIPFRAME
280
     2
  9
$HALOGAP
280
     0
  9
$OBSCOLOR
 70
   257
  9
$OBSLTYPE
280
     0
  9
$INTERSECTIONDISPLAY
280
     0
  9
$INTERSECTIONCOLOR
 70
   257
  9
$DIMASSOC
280
     2
  9
$PROJECTNAME
  1

  9
$CAMERADISPLAY
290
     0
  9
$LENSLENGTH
 40
50.0
  9
$CAMERAHEIGHT
 40
0.0
  9
$STEPSPERSEC
 40
2.0
  9
$STEPSIZE
 40
6.0
  9
$3DDWFPREC
 40
2.0
  9
$PSOLWIDTH
 40
0.25
  9
$PSOLHEIGHT
 40
4.0
  9
$LOFTANG1
 40
1.570796326794897
  9
$LOFTANG2
 40
1.570796326794897
  9
$LOFTMAG1
 40
0.0
  9
$LOFTMAG2
 40
0.0
  9
$LOFTPARAM
 70
     7
  9
$LOFTNORMALS
280
     1
  9
$LATITUDE
 40
37.795
  9
$LONGITUDE
 40
-122.394
  9
$NORTHDIRECTION
 40
0.0
  9
$TIMEZONE
 70
 -8000
  9
$LIGHTGLYPHDISPLAY
280
     1
  9
$TILEMODELIGHTSYNCH
280
     1
  9
$CMATERIAL
347
44
  9
$SOLIDHIST
280
     0
  9
$SHOWHIST
280
     1
  9
$DWFFRAME
280
     2
  9
$DGNFRAME
280
     2
  9
$REALWORLDSCALE
290
     1
  9
$INTERFERECOLOR
 62
   256
  9
$CSHADOW
280
     0
  9
$SHADOWPLANELOCATION
 40
0.0
  0
ENDSEC
  0
SECTION
  2
CLASSES
  0
CLASS
  1
ACDBDICTIONARYWDFLT
  2
AcDbDictionaryWithDefault
  3
ObjectDBX Classes
 90
        0
 91
        4
280
     0
281
     0
  0
CLASS
  1
VISUALSTYLE
  2
AcDbVisualStyle
  3
ObjectDBX Classes
 90
     4095
 91
        4
280
     0
281
     0
  0
CLASS
  1
MATERIAL
  2
AcDbMaterial
  3
ObjectDBX Classes
 90
     1153
 91
        4
280
     0
281
     0
  0
CLASS
  1
SCALE
  2
AcDbScale
  3
ObjectDBX Classes
 90
     1153
 91
        4
280
     0
281
     0
  0
CLASS
  1
TABLESTYLE
  2
AcDbTableStyle
  3
ObjectDBX Classes
 90
     4095
 91
        4
280
     0
281
     0
  0
CLASS
  1
MLEADERSTYLE
  2
AcDbMLeaderStyle
  3
ACDB_MLEADERSTYLE_CLASS
 90
     4095
 91
        4
280
     0
281
     0
  0
CLASS
  1
SUN
  2
AcDbSun
  3
SCENEOE
 90
     1153
 91
        4
280
     0
281
     0
  0
CLASS
  1
DICTIONARYVAR
  2
AcDbDictionaryVar
  3
ObjectDBX Classes
 90
        0
 91
        4
280
     0
281
     0
  0
CLASS
  1
CELLSTYLEMAP
  2
AcDbCellStyleMap
  3
ObjectDBX Classes
 90
     1152
 91
        4
280
     0
281
     0
  0
ENDSEC
  0
SECTION
  2
TABLES
  0
TABLE
  2
VPORT
  5
8
330
0
100
AcDbSymbolTable
 70
     1
  0
VPORT
  5
29
330
8
100
AcDbSymbolTableRecord
100
AcDbViewportTableRecord
  2
*Active
 70
     0
 10
0.0
 20
0.0
 11
1.0
 21
1.0
 12
0.0
 22
0.0
 13
0.0
 23
0.0
 14
0.5
 24
0.5
 15
0.5
 25
0.5
 16
0.0
 26
0.0
 36
1.0
 17
0.0
 27
0.0
 37
0.0
 40
8.031479999999998
 41
0.9124174498348995
 42
50.0
 43
0.0
 44
0.0
 50
0.0
 51
0.0
 71
     0
 72
   100
 73
     1
 74
     3
 75
     0
 76
     0
 77
     0
 78
     0
281
     0
 65
     1
110
0.0
120
0.0
130
0.0
111
1.0
121
0.0
131
0.0
112
0.0
122
1.0
132
0.0
 79
     0
146
0.0
348
2F
 60
     3
 61
     5
292
     1
282
     1
141
0.0
142
0.0
 63
   250
361
6D
  0
ENDTAB
  0
TABLE
  2
LTYPE
  5
5
330
0
100
AcDbSymbolTable
 70
     3
  0
LTYPE
  5
14
330
5
100
AcDbSymbolTableRecord
100
AcDbLinetypeTableRecord
  2
ByBlock
 70
     0
  3

 72
    65
 73
     0
 40
0.0
  0
LTYPE
  5
15
330
5
100
AcDbSymbolTableRecord
100
AcDbLinetypeTableRecord
  2
ByLayer
 70
     0
  3

 72
    65
 73
     0
 40
0.0
  0
LTYPE
  5
16
330
5
100
AcDbSymbolTableRecord
100
AcDbLinetypeTableRecord
  2
Continuous
 70
     0
  3
Solid line
 72
    65
 73
     0
 40
0.0
  0
LTYPE
  5
9C
330
5
100
AcDbSymbolTableRecord
100
AcDbLinetypeTableRecord
  2
Dashed
 70
     0
  3

 72
    65
 73
     2
 40
2.0
 49
1.0
 74
     0
 49
-1.0
 74
     0
  0
LTYPE
  5
16C
330
5
100
AcDbSymbolTableRecord
100
AcDbLinetypeTableRecord
  2
Center
 70
     0
  3

 72
    65
 73
     4
 40
1.5
 49
0.45
 74
     0
 49
-0.5
 74
     0
 49
0.05
 74
     0
 49
-0.5
 74
     0
  0
ENDTAB
  0
TABLE
  2
LAYER
  5
2
330
0
100
AcDbSymbolTable
 70
     7
  0
LAYER
  5
10
330
2
100
AcDbSymbolTableRecord
100
AcDbLayerTableRecord
  2
0
 70
     0
 62
     7
  6
Continuous
370
    -3
390
F
347
46
348
0
  0
LAYER
  5
72
330
2
100
AcDbSymbolTableRecord
100
AcDbLayerTableRecord
  2
AM_6
 70
     0
 62
    -2
  6
Continuous
370
    35
390
F
347
46
348
0
  0
LAYER
  5
9D
330
2
100
AcDbSymbolTableRecord
100
AcDbLayerTableRecord
  2
AM_9
 70
     0
 62
     6
  6
Dashed
370
    25
390
F
347
46
348
0
  0
LAYER
  5
B2
330
2
100
AcDbSymbolTableRecord
100
AcDbLayerTableRecord
  2
AM_5
 70
     0
 62
     3
  6
Continuous
370
    25
390
F
347
46
348
0
  0
LAYER
  5
B7
330
2
100
AcDbSymbolTableRecord
100
AcDbLayerTableRecord
  2
AM_4
 70
     0
 62
     7
  6
Continuous
370
    50
390
F
347
46
348
0
  0
LAYER
  5
16D
330
2
100
AcDbSymbolTableRecord
100
AcDbLayerTableRecord
  2
AM_7
 70
     0
 62
     7
  6
Center
370
    25
390
F
347
46
348
0
  0
LAYER
  5
19B
330
2
100
AcDbSymbolTableRecord
100
AcDbLayerTableRecord
  2
ConnectionPoints
 70
     0
 62
     7
  6
Continuous
370
    50
390
F
347
46
348
0
  0
ENDTAB
  0
TABLE
  2
STYLE
  5
3
330
0
100
AcDbSymbolTable
 70
     1
  0
STYLE
  5
11
330
3
100
AcDbSymbolTableRecord
100
AcDbTextStyleTableRecord
  2
Standard
 70
     0
 40
0.0
 41
1.0
 50
0.0
 71
     0
 42
0.2
  3
txt
  4

  0
ENDTAB
  0
TABLE
  2
VIEW
  5
6
330
0
100
AcDbSymbolTable
 70
     0
  0
ENDTAB
  0
TABLE
  2
UCS
  5
7
330
0
100
AcDbSymbolTable
 70
     0
  0
ENDTAB
  0
TABLE
  2
APPID
  5
9
330
0
100
AcDbSymbolTable
 70
     1
  0
APPID
  5
12
330
9
100
AcDbSymbolTableRecord
100
AcDbRegAppTableRecord
  2
ACAD
 70
     0
  0
ENDTAB
  0
TABLE
  2
DIMSTYLE
  5
A
330
0
100
AcDbSymbolTable
 70
     1
100
AcDbDimStyleTable
  0
DIMSTYLE
105
27
330
A
100
AcDbSymbolTableRecord
100
AcDbDimStyleTableRecord
  2
Standard
 70
     0
178
     0
340
11
  0
ENDTAB
  0
TABLE
  2
BLOCK_RECORD
  5
1
330
0
100
AcDbSymbolTable
 70
     5
  0
BLOCK_RECORD
  5
1F
330
1
100
AcDbSymbolTableRecord
100
AcDbBlockTableRecord
  2
*Model_Space
340
22
 70
     0
280
     1
281
     0
  0
BLOCK_RECORD
  5
1B
330
1
100
AcDbSymbolTableRecord
100
AcDbBlockTableRecord
  2
*Paper_Space
340
1E
 70
     0
280
     1
281
     0
  0
BLOCK_RECORD
  5
23
330
1
100
AcDbSymbolTableRecord
100
AcDbBlockTableRecord
  2
*Paper_Space0
340
26
 70
     0
280
     1
281
     0
  0
BLOCK_RECORD
  5
6E
330
1
100
AcDbSymbolTableRecord
100
AcDbBlockTableRecord
  2
1_070014_0
340
0
102
{BLKREFS
331
6F
102
}
 70
     0
280
     1
281
     0
  0
BLOCK_RECORD
  5
83
330
1
100
AcDbSymbolTableRecord
100
AcDbBlockTableRecord
  2
2_4_7_16CS2i_1_0_in_070014_0
340
0
102
{BLKREFS
331
84
102
}
 70
     0
280
     1
281
     0
  0
BLOCK_RECORD
  5
D3
330
1
100
AcDbSymbolTableRecord
100
AcDbBlockTableRecord
  2
3_4_7_16CS2i_2_0_in_070014_0
340
0
102
{BLKREFS
331
D4
102
}
 70
     0
280
     1
281
     0
  0
BLOCK_RECORD
  5
11E
330
1
100
AcDbSymbolTableRecord
100
AcDbBlockTableRecord
  2
4_070014i_0_in_070014_0
340
0
102
{BLKREFS
331
11F
102
}
 70
     0
280
     1
281
     0
  0
ENDTAB
  0
ENDSEC
  0
SECTION
  2
BLOCKS
  0
BLOCK
  5
20
330
1F
100
AcDbEntity
  8
0
100
AcDbBlockBegin
  2
*Model_Space
 70
     0
 10
0.0
 20
0.0
 30
0.0
  3
*Model_Space
  1

  0
ENDBLK
  5
21
330
1F
100
AcDbEntity
  8
0
100
AcDbBlockEnd
  0
BLOCK
  5
1C
330
1B
100
AcDbEntity
 67
     1
  8
0
100
AcDbBlockBegin
  2
*Paper_Space
 70
     0
 10
0.0
 20
0.0
 30
0.0
  3
*Paper_Space
  1

  0
ENDBLK
  5
1D
330
1B
100
AcDbEntity
 67
     1
  8
0
100
AcDbBlockEnd
  0
BLOCK
  5
24
330
23
100
AcDbEntity
  8
0
100
AcDbBlockBegin
  2
*Paper_Space0
 70
     0
 10
0.0
 20
0.0
 30
0.0
  3
*Paper_Space0
  1

  0
ENDBLK
  5
25
330
23
100
AcDbEntity
  8
0
100
AcDbBlockEnd
  0
BLOCK
  5
70
330
6E
100
AcDbEntity
  8
0
100
AcDbBlockBegin
  2
1_070014_0
 70
     2
 10
0.0
 20
0.0
 30
0.0
  3
1_070014_0
  1

  0
ATTDEF
  5
73
330
6E
100
AcDbEntity
  8
AM_6
100
AcDbText
 10
8.5921875
 20
3.936999999999999
 30
0.0
 40
0.5
  1
INS-IP-207-415-Inch
100
AcDbAttributeDefinition
  3

  2
NN
 70
     8
280
     0
  0
ATTDEF
  5
74
330
6E
100
AcDbEntity
  8
AM_6
100
AcDbText
 10
8.5921875
 20
3.436999999999999
 30
0.0
 40
0.5
  1
S-2000 Bearings 207-415 Inch Bore
100
AcDbAttributeDefinition
  3

  2
NT
 70
     8
280
     0
  0
ATTDEF
  5
75
330
6E
100
AcDbEntity
  8
AM_6
100
AcDbText
 10
8.5921875
 20
2.936999999999999
 30
0.0
 40
0.5
  1
070014
100
AcDbAttributeDefinition
  3

  2
NB
 70
     8
280
     0
  0
ATTDEF
  5
76
330
6E
100
AcDbEntity
  8
AM_6
100
AcDbText
 10
8.5921875
 20
2.436999999999999
 30
0.0
 40
0.5
  1
$PN.
100
AcDbAttributeDefinition
  3

  2
NBSYN
 70
     8
280
     0
  0
ATTDEF
  5
77
330
6E
100
AcDbEntity
  8
AM_6
100
AcDbText
 10
8.5921875
 20
1.936999999999999
 30
0.0
 40
0.5
  1
070014
100
AcDbAttributeDefinition
  3

  2
LINA
 70
     8
280
     0
  0
ATTDEF
  5
78
330
6E
100
AcDbEntity
  8
AM_6
100
AcDbText
 10
8.5921875
 20
1.436999999999999
 30
0.0
 40
0.5
  1
4-7/16
100
AcDbAttributeDefinition
  3

  2
SS
 70
     8
280
     0
  0
ATTDEF
  5
79
330
6E
100
AcDbEntity
  8
AM_6
100
AcDbText
 10
8.5921875
 20
0.9369999999999994
 30
0.0
 40
0.5
  1
070014
100
AcDbAttributeDefinition
  3

  2
PN
 70
     8
280
     0
  0
ATTDEF
  5
7A
330
6E
100
AcDbEntity
  8
AM_6
100
AcDbText
 10
8.5921875
 20
0.4369999999999994
 30
0.0
 40
0.5
  1
INS-S2-407R
100
AcDbAttributeDefinition
  3

  2
DESCRIPTION
 70
     8
280
     0
  0
ATTDEF
  5
7B
330
6E
100
AcDbEntity
  8
AM_6
100
AcDbText
 10
8.5921875
 20
-0.0630000000000006
 30
0.0
 40
0.5
  1
Contact Seal
100
AcDbAttributeDefinition
  3

  2
ST
 70
     8
280
     0
  0
ATTDEF
  5
7C
330
6E
100
AcDbEntity
  8
AM_6
100
AcDbText
 10
8.5921875
 20
-0.5630000000000006
 30
0.0
 40
0.5
  1
7.8740
100
AcDbAttributeDefinition
  3

  2
A
 70
     8
280
     0
  0
ATTDEF
  5
7D
330
6E
100
AcDbEntity
  8
AM_6
100
AcDbText
 10
8.5921875
 20
-1.063000000000001
 30
0.0
 40
0.5
  1
2-5/32
100
AcDbAttributeDefinition
  3

  2
B
 70
     8
280
     0
  0
ATTDEF
  5
7E
330
6E
100
AcDbEntity
  8
AM_6
100
AcDbText
 10
8.5921875
 20
-1.563000000000001
 30
0.0
 40
0.5
  1
6-17/32
100
AcDbAttributeDefinition
  3

  2
C
 70
     8
280
     0
  0
ATTDEF
  5
7F
330
6E
100
AcDbEntity
  8
AM_6
100
AcDbText
 10
8.5921875
 20
-2.063000000000001
 30
0.0
 40
0.5
  1
3.266
100
AcDbAttributeDefinition
  3

  2
D
 70
     8
280
     0
  0
ATTDEF
  5
80
330
6E
100
AcDbEntity
  8
AM_6
100
AcDbText
 10
8.5921875
 20
-2.563000000000001
 30
0.0
 40
0.5
  1
6-29/64
100
AcDbAttributeDefinition
  3

  2
E
 70
     8
280
     0
  0
ATTDEF
  5
81
330
6E
100
AcDbEntity
  8
AM_6
100
AcDbText
 10
8.5921875
 20
-3.063000000000001
 30
0.0
 40
0.5
  1
7/16
100
AcDbAttributeDefinition
  3

  2
F
 70
     8
280
     0
  0
ATTDEF
  5
82
330
6E
100
AcDbEntity
  8
AM_6
100
AcDbText
 10
8.5921875
 20
-3.563000000000001
 30
0.0
 40
0.5
  1
baldor
100
AcDbAttributeDefinition
  3

  2
COMPANY
 70
     8
280
     0
  0
INSERT
  5
84
330
6E
100
AcDbEntity
  8
0
100
AcDbBlockReference
  2
2_4_7_16CS2i_1_0_in_070014_0
 10
0.0
 20
0.0
 30
0.0
  0
INSERT
  5
D4
330
6E
100
AcDbEntity
  8
0
100
AcDbBlockReference
  2
3_4_7_16CS2i_2_0_in_070014_0
 10
0.0
 20
0.0
 30
0.0
  0
INSERT
  5
11F
330
6E
100
AcDbEntity
  8
0
100
AcDbBlockReference
  2
4_070014i_0_in_070014_0
 10
0.0
 20
0.0
 30
0.0
  0
ENDBLK
  5
71
330
6E
100
AcDbEntity
  8
0
100
AcDbBlockEnd
  0
BLOCK
  5
85
330
83
100
AcDbEntity
  8
0
100
AcDbBlockBegin
  2
2_4_7_16CS2i_1_0_in_070014_0
 70
     2
 10
0.0
 20
0.0
 30
0.0
  3
2_4_7_16CS2i_1_0_in_070014_0
  1

  0
ATTDEF
  5
87
330
83
100
AcDbEntity
  8
AM_6
100
AcDbText
 10
2.974375
 20
3.22656
 30
0.0
 40
0.5
  1
S-2000 Collar -Inch
100
AcDbAttributeDefinition
  3

  2
NN
 70
     8
280
     0
  0
ATTDEF
  5
88
330
83
100
AcDbEntity
  8
AM_6
100
AcDbText
 10
2.974375
 20
2.72656
 30
0.0
 40
0.5
  1
S-2000 Bearings
100
AcDbAttributeDefinition
  3

  2
NT
 70
     8
280
     0
  0
ATTDEF
  5
89
330
83
100
AcDbEntity
  8
AM_6
100
AcDbText
 10
2.974375
 20
2.22656
 30
0.0
 40
0.5
  1
4-7/16CS2i
100
AcDbAttributeDefinition
  3

  2
NB
 70
     8
280
     0
  0
ATTDEF
  5
8A
330
83
100
AcDbEntity
  8
AM_6
100
AcDbText
 10
2.974375
 20
1.72656
 30
0.0
 40
0.5
  1
$BORE.CS2i
100
AcDbAttributeDefinition
  3

  2
NBSYN
 70
     8
280
     0
  0
ATTDEF
  5
8B
330
83
100
AcDbEntity
  8
AM_6
100
AcDbText
 10
2.974375
 20
1.22656
 30
0.0
 40
0.5
  1
4-7/16CS2i
100
AcDbAttributeDefinition
  3

  2
LINA
 70
     8
280
     0
  0
ATTDEF
  5
8C
330
83
100
AcDbEntity
  8
AM_6
100
AcDbText
 10
2.974375
 20
0.7265600000000001
 30
0.0
 40
0.5
  1
4-7/16
100
AcDbAttributeDefinition
  3

  2
BORE
 70
     8
280
     0
  0
ATTDEF
  5
8D
330
83
100
AcDbEntity
  8
AM_6
100
AcDbText
 10
2.974375
 20
0.2265600000000001
 30
0.0
 40
0.5
  1
4.437500
100
AcDbAttributeDefinition
  3

  2
BORE1
 70
     8
280
     0
  0
ATTDEF
  5
8E
330
83
100
AcDbEntity
  8
AM_6
100
AcDbText
 10
2.974375
 20
-0.2734399999999999
 30
0.0
 40
0.5
  1
6-29/64
100
AcDbAttributeDefinition
  3

  2
L1
 70
     8
280
     0
  0
ATTDEF
  5
8F
330
83
100
AcDbEntity
  8
AM_6
100
AcDbText
 10
2.974375
 20
-0.7734399999999999
 30
0.0
 40
0.5
  1
6.45313
100
AcDbAttributeDefinition
  3

  2
L
 70
     8
280
     0
  0
ATTDEF
  5
90
330
83
100
AcDbEntity
  8
AM_6
100
AcDbText
 10
2.974375
 20
-1.27344
 30
0.0
 40
0.5
  1
6.45312
100
AcDbAttributeDefinition
  3

  2
L2
 70
     8
280
     0
  0
ATTDEF
  5
91
330
83
100
AcDbEntity
  8
AM_6
100
AcDbText
 10
2.974375
 20
-1.77344
 30
0.0
 40
0.5
  1
6.75
100
AcDbAttributeDefinition
  3

  2
A
 70
     8
280
     0
  0
ATTDEF
  5
92
330
83
100
AcDbEntity
  8
AM_6
100
AcDbText
 10
2.974375
 20
-2.27344
 30
0.0
 40
0.5
  1
3.25
100
AcDbAttributeDefinition
  3

  2
B
 70
     8
280
     0
  0
ATTDEF
  5
93
330
83
100
AcDbEntity
  8
AM_6
100
AcDbText
 10
2.974375
 20
-2.77344
 30
0.0
 40
0.5
  1
5.00
100
AcDbAttributeDefinition
  3

  2
C
 70
     8
280
     0
  0
ATTDEF
  5
94
330
83
100
AcDbEntity
  8
AM_6
100
AcDbText
 10
2.974375
 20
-3.27344
 30
0.0
 40
0.5
  1
7.00
100
AcDbAttributeDefinition
  3

  2
D
 70
     8
280
     0
  0
ATTDEF
  5
95
330
83
100
AcDbEntity
  8
AM_6
100
AcDbText
 10
2.974375
 20
-3.77344
 30
0.0
 40
0.5
  1
0.78
100
AcDbAttributeDefinition
  3

  2
E
 70
     8
280
     0
  0
ATTDEF
  5
96
330
83
100
AcDbEntity
  8
AM_6
100
AcDbText
 10
2.974375
 20
-4.27344
 30
0.0
 40
0.5
  1
0.620
100
AcDbAttributeDefinition
  3

  2
F
 70
     8
280
     0
  0
ATTDEF
  5
97
330
83
100
AcDbEntity
  8
AM_6
100
AcDbText
 10
2.974375
 20
-4.77344
 30
0.0
 40
0.5
  1
5/8-11
100
AcDbAttributeDefinition
  3

  2
CS
 70
     8
280
     0
  0
ATTDEF
  5
98
330
83
100
AcDbEntity
  8
AM_6
100
AcDbText
 10
2.974375
 20
-5.27344
 30
0.0
 40
0.5
  1
0.6250
100
AcDbAttributeDefinition
  3

  2
NDM
 70
     8
280
     0
  0
ATTDEF
  5
99
330
83
100
AcDbEntity
  8
AM_6
100
AcDbText
 10
2.974375
 20
-5.77344
 30
0.0
 40
0.5
  1
0.5270
100
AcDbAttributeDefinition
  3

  2
KDM
 70
     8
280
     0
  0
ATTDEF
  5
9A
330
83
100
AcDbEntity
  8
AM_6
100
AcDbText
 10
2.974375
 20
-6.27344
 30
0.0
 40
0.5
  1
2
100
AcDbAttributeDefinition
  3

  2
DD
 70
     8
280
     0
  0
ATTDEF
  5
9B
330
83
100
AcDbEntity
  8
AM_6
100
AcDbText
 10
2.974375
 20
-6.77344
 30
0.0
 40
0.5
  1
baldor
100
AcDbAttributeDefinition
  3

  2
COMPANY
 70
     8
280
     0
  0
LINE
  5
9E
330
83
100
AcDbEntity
  8
AM_9
100
AcDbLine
 10
-2.382325
 20
2.507533333333335
 30
0.0
 11
-2.382325
 21
3.177365
 31
0.0
  0
LINE
  5
9F
330
83
100
AcDbEntity
  8
AM_9
100
AcDbLine
 10
-2.908925
 20
3.177365
 30
0.0
 11
-2.908925
 21
2.507533333333335
 31
0.0
  0
LINE
  5
A0
330
83
100
AcDbEntity
  8
AM_9
100
AcDbLine
 10
-2.908925
 20
2.507533333333335
 30
0.0
 11
-2.382325
 21
2.507533333333335
 31
0.0
  0
LINE
  5
A1
330
83
100
AcDbEntity
  8
AM_9
100
AcDbLine
 10
-2.908925
 20
2.507533333333335
 30
0.0
 11
-2.916025636618071
 21
2.500432696715263
 31
0.0
  0
LINE
  5
A2
330
83
100
AcDbEntity
  8
AM_9
100
AcDbLine
 10
-2.375165982907156
 20
2.500374316240491
 30
0.0
 11
-2.382325
 21
2.507533333333335
 31
0.0
  0
LINE
  5
A3
330
83
100
AcDbEntity
  8
AM_9
100
AcDbLine
 10
-2.908925
 20
3.177365
 30
0.0
 11
-2.382325
 21
3.177365
 31
0.0
  0
LINE
  5
A4
330
83
100
AcDbEntity
  8
AM_9
100
AcDbLine
 10
-2.382325
 20
3.177365
 30
0.0
 11
-2.361931779562012
 21
3.197758220437988
 31
0.0
  0
LINE
  5
A5
330
83
100
AcDbEntity
  8
AM_9
100
AcDbLine
 10
-2.957909171870776
 20
3.226349171870776
 30
0.0
 11
-2.908925
 21
3.177365
 31
0.0
  0
LWPOLYLINE
  5
A6
330
83
100
AcDbEntity
  8
AM_9
100
AcDbPolyline
 90
       33
 70
     0
 43
0.0
 10
-2.377560790336656
 20
1.093482218564832
 10
-2.383561690580129
 20
1.121724958276815
 10
-2.399511846836243
 20
1.163869812700173
 10
-2.42400963061327
 20
1.203766694468156
 10
-2.454444030695508
 20
1.237354656631544
 10
-2.492348027356618
 20
1.266403615936105
 10
-2.532298209141604
 20
1.287268705532796
 10
-2.577390161661826
 20
1.302033135557267
 10
-2.620470622454929
 20
1.308951792209102
 10
-2.66568726263029
 20
1.309341618737821
 10
-2.707248810947481
 20
1.303526870863969
 10
-2.748236573709105
 20
1.291541850219381
 10
-2.785715616498539
 20
1.274227810547267
 10
-2.820388357779448
 20
1.251290732745154
 10
-2.851113759461327
 20
1.223062032636301
 10
-2.876978949484822
 20
1.189880168172136
 10
-2.897140432420793
 20
1.152028132347617
 10
-2.910527687899306
 20
1.110349618095996
 10
-2.91626787397405
 20
1.066282779068711
 10
-2.913830932498214
 20
1.020289950101286
 10
-2.903182715902776
 20
0.9754786605871415
 10
-2.883897110291939
 20
0.9313398975396536
 10
-2.857788330753046
 20
0.8921557285875863
 10
-2.82371848390803
 20
0.8565160227943482
 10
-2.786179143292769
 20
0.8289054698545221
 10
-2.742615272575162
 20
0.8073050474413171
 10
-2.69991139005019
 20
0.7946506606332991
 10
-2.654083310322242
 20
0.7891938322363391
 10
-2.611681316374696
 20
0.7912326050631486
 10
-2.569030773149242
 20
0.8002992611271948
 10
-2.529971790633993
 20
0.8153785203193634
 10
-2.493023153368126
 20
0.8367226134527722
 10
-2.444022228143253
 20
0.879697638618922
  0
LWPOLYLINE
  5
A7
330
83
100
AcDbEntity
  8
AM_9
100
AcDbPolyline
 90
        5
 70
     0
 43
0.0
 10
-2.444022228143253
 20
0.879697638618922
 10
-2.419996923010357
 20
0.9105387122156396
 10
-2.400481192188113
 20
0.9447451521887856
 10
-2.384594214820762
 20
0.9867393339263201
 10
-2.37772720531315
 20
1.018225597850385
  0
LINE
  5
A8
330
83
100
AcDbEntity
  8
AM_9
100
AcDbLine
 10
-3.265625
 20
-2.5
 30
0.0
 11
-2.025625
 21
-2.5
 31
0.0
  0
LINE
  5
A9
330
83
100
AcDbEntity
  8
AM_9
100
AcDbLine
 10
-2.025625
 20
2.5
 30
0.0
 11
-2.375647078063075
 21
2.5
 31
0.0
  0
LINE
  5
AA
330
83
100
AcDbEntity
  8
AM_9
100
AcDbLine
 10
-2.915470612614719
 20
2.5
 30
0.0
 11
-3.265625
 21
2.5
 31
0.0
  0
LWPOLYLINE
  5
AB
330
83
100
AcDbEntity
  8
AM_9
100
AcDbPolyline
 90
       21
 70
     0
 43
0.0
 10
-2.916458333333177
 20
2.499999999999981
 10
-2.915868196418069
 20
2.499924663806467
 10
-2.90867108257448
 20
2.499067096784265
 10
-2.893070323439968
 20
2.497275315305671
 10
-2.869538561748869
 20
2.494781034802652
 10
-2.839070010730463
 20
2.491912625272731
 10
-2.802176847804662
 20
2.488990361644827
 10
-2.761781169484282
 20
2.486497267900843
 10
-2.717552023532753
 20
2.484601550150497
 10
-2.673790803003549
 20
2.483611754094194
 10
-2.629166870743099
 20
2.483485924378374
 10
-2.586903228914739
 20
2.484214335806315
 10
-2.546272191448044
 20
2.48566943308255
 10
-2.508116300392792
 20
2.487723783783497
 10
-2.473600868315245
 20
2.490141433594235
 10
-2.442174868077672
 20
2.492808689216079
 10
-2.416225058956833
 20
2.495341360597533
 10
-2.395331849796729
 20
2.497594371749055
 10
-2.381556137430504
 20
2.499188116207189
 10
-2.375150129861821
 20
2.499952869678728
 10
-2.374791666666988
 20
2.499999999999961
  0
ELLIPSE
  5
AC
330
83
100
AcDbEntity
  8
AM_9
100
AcDbEllipse
 10
-2.645624999999995
 20
1.059729378590194
 30
0.0
 11
0.2633000000000041
 21
0.0
 31
0.0
210
0.0
220
0.0
230
1.0
 40
0.9063077870366526
 41
2.506638986525525
 42
3.141592653589793
  0
LINE
  5
AD
330
83
100
AcDbEntity
  8
AM_9
100
AcDbLine
 10
-2.382325
 20
1.059729378590196
 30
0.0
 11
-2.382325
 21
1.342812473215738
 31
0.0
  0
LINE
  5
AE
330
83
100
AcDbEntity
  8
AM_9
100
AcDbLine
 10
-2.908925
 20
1.342812473215738
 30
0.0
 11
-2.908925
 21
1.059729378590196
 31
0.0
  0
ELLIPSE
  5
AF
330
83
100
AcDbEntity
  8
AM_9
100
AcDbEllipse
 10
-2.645624999999999
 20
1.059729378590196
 30
0.0
 11
0.2632999999999996
 21
0.0
 31
0.0
210
0.0
220
0.0
230
1.0
 40
0.90630778703665
 41
3.141592653589793
 42
6.283185307179586
  0
ELLIPSE
  5
B0
330
83
100
AcDbEntity
  8
AM_9
100
AcDbEllipse
 10
-2.645625000000001
 20
1.059729378590194
 30
0.0
 11
0.263300000000001
 21
0.0
 31
0.0
210
0.0
220
0.0
230
1.0
 40
0.9063077870366522
 41
0.0
 42
0.6349536670642748
  0
LINE
  5
B1
330
83
100
AcDbEntity
  8
AM_9
100
AcDbLine
 10
-2.37856049474528
 20
1.221577432609382
 30
0.0
 11
-2.37856049474528
 21
1.502481439719928
 31
0.0
  0
LINE
  5
B3
330
83
100
AcDbEntity
  8
AM_5
100
AcDbLine
 10
-2.958125
 20
3.22656
 30
0.0
 11
-2.958125
 21
2.5
 31
0.0
  0
LINE
  5
B4
330
83
100
AcDbEntity
  8
AM_5
100
AcDbLine
 10
-2.801874999999999
 20
2.458333333333333
 30
0.0
 11
-2.958125
 21
2.458333333333333
 31
0.0
  0
LINE
  5
B5
330
83
100
AcDbEntity
  8
AM_5
100
AcDbLine
 10
-2.333125
 20
3.147863414634147
 30
0.0
 11
-2.333125
 21
2.5
 31
0.0
  0
LINE
  5
B6
330
83
100
AcDbEntity
  8
AM_5
100
AcDbLine
 10
-2.489375
 20
2.458333333333333
 30
0.0
 11
-2.333125
 21
2.458333333333333
 31
0.0
  0
ELLIPSE
  5
B8
330
83
100
AcDbEntity
  8
AM_4
100
AcDbEllipse
 10
-2.645624999999999
 20
1.059729378590194
 30
0.0
 11
0.2633000000000014
 21
0.0
 31
0.0
210
0.0
220
0.0
230
1.0
 40
0.9063077870366524
 41
1.570796326794897
 42
2.506638986525518
  0
ELLIPSE
  5
B9
330
83
100
AcDbEntity
  8
AM_4
100
AcDbEllipse
 10
-2.645625
 20
1.059729378590195
 30
0.0
 11
0.2633000000000005
 21
0.0
 31
0.0
210
0.0
220
0.0
230
1.0
 40
0.9063077870366529
 41
0.6349536670642735
 42
1.570796326794897
  0
LINE
  5
BA
330
83
100
AcDbEntity
  8
AM_4
100
AcDbLine
 10
-2.154009204413472
 20
-3.072914285714285
 30
0.0
 11
-2.025625
 21
-3.072914285714285
 31
0.0
  0
LINE
  5
BB
330
83
100
AcDbEntity
  8
AM_4
100
AcDbLine
 10
-2.025625
 20
3.072914285714285
 30
0.0
 11
-2.154009204413472
 21
3.072914285714285
 31
0.0
  0
LINE
  5
BC
330
83
100
AcDbEntity
  8
AM_4
100
AcDbLine
 10
-2.025625
 20
3.072914285714285
 30
0.0
 11
-2.025625
 21
-3.072914285714285
 31
0.0
  0
LINE
  5
BD
330
83
100
AcDbEntity
  8
AM_4
100
AcDbLine
 10
-2.333125
 20
-3.147863414634147
 30
0.0
 11
-2.228958333333333
 21
-3.147863414634147
 31
0.0
  0
LINE
  5
BE
330
83
100
AcDbEntity
  8
AM_4
100
AcDbLine
 10
-2.228958333333333
 20
3.147863414634147
 30
0.0
 11
-2.333125
 21
3.147863414634147
 31
0.0
  0
LINE
  5
BF
330
83
100
AcDbEntity
  8
AM_4
100
AcDbLine
 10
-2.154009204413472
 20
3.072914285714285
 30
0.0
 11
-2.228958333333333
 21
3.147863414634147
 31
0.0
  0
LINE
  5
C0
330
83
100
AcDbEntity
  8
AM_4
100
AcDbLine
 10
-2.228958333333333
 20
-3.147863414634147
 30
0.0
 11
-2.154009204413472
 21
-3.072914285714285
 31
0.0
  0
LINE
  5
C1
330
83
100
AcDbEntity
  8
AM_4
100
AcDbLine
 10
-2.228958333333333
 20
3.147863414634147
 30
0.0
 11
-2.228958333333333
 21
-3.147863414634147
 31
0.0
  0
LINE
  5
C2
330
83
100
AcDbEntity
  8
AM_4
100
AcDbLine
 10
-2.154009204413472
 20
3.072914285714285
 30
0.0
 11
-2.154009204413472
 21
-3.072914285714285
 31
0.0
  0
LINE
  5
C3
330
83
100
AcDbEntity
  8
AM_4
100
AcDbLine
 10
-3.265625
 20
3.019893333333334
 30
0.0
 11
-3.265625
 21
-3.019893333333334
 31
0.0
  0
ARC
  5
C4
330
83
100
AcDbEntity
  8
AM_4
100
AcDbCircle
 10
-3.058958333333333
 20
-3.019893333333334
 30
0.0
 40
0.2066666666666666
100
AcDbArc
 50
180.0
 51
270.0
  0
ARC
  5
C5
330
83
100
AcDbEntity
  8
AM_4
100
AcDbCircle
 10
-3.058958333333333
 20
3.019893333333334
 30
0.0
 40
0.2066666666666666
100
AcDbArc
 50
90.0
 51
180.0
  0
LWPOLYLINE
  5
C6
330
83
100
AcDbEntity
  8
AM_4
100
AcDbPolyline
 90
       33
 70
     0
 43
0.0
 10
-2.378560494745271
 20
1.221577432609382
 10
-2.397908605239229
 20
1.196527395197765
 10
-2.428710387299967
 20
1.16582417066471
 10
-2.464844401432455
 20
1.13900534815023
 10
-2.5092771637208
 20
1.115368005751427
 10
-2.558505120862031
 20
1.098291694660081
 10
-2.610457979063808
 20
1.088882786573911
 10
-2.664826737815234
 20
1.087620518286083
 10
-2.718146627863358
 20
1.094804607493173
 10
-2.770912721891285
 20
1.110771513629945
 10
-2.818446543636781
 20
1.134101153266826
 10
-2.862273055151899
 20
1.165594765229252
 10
-2.89750951856995
 20
1.201456347704374
 10
-2.926315100976485
 20
1.243593349152508
 10
-2.94518208014457
 20
1.286118052148152
 10
-2.956008159691911
 20
1.332138402695378
 10
-2.957813847278148
 20
1.375559216531143
 10
-2.951284794698018
 20
1.419603493486944
 10
-2.937281343286656
 20
1.459959986721753
 10
-2.915488158718347
 20
1.498502709815464
 10
-2.887116023066943
 20
1.532941682173372
 10
-2.851930103818515
 20
1.563523540561664
 10
-2.8109811564712
 20
1.589002047163048
 10
-2.764659683201819
 20
1.608827545018115
 10
-2.714546270586168
 20
1.62202260528788
 10
-2.661180837769852
 20
1.628091673208683
 10
-2.607533994886097
 20
1.626478738670369
 10
-2.553443497585177
 20
1.616860318285507
 10
-2.503280489763925
 20
1.599876525514029
 10
-2.455827468423491
 20
1.574865749341195
 10
-2.416049580879627
 20
1.544456325385533
 10
-2.381920061246174
 20
1.507055170784908
 10
-2.37856049474528
 20
1.502481439719928
  0
LWPOLYLINE
  5
C7
330
83
100
AcDbEntity
  8
AM_4
100
AcDbPolyline
 90
       18
 70
     0
 43
0.0
 10
-2.378560494745277
 20
3.222836208153097
 10
-2.382618445623101
 20
3.222531646011223
 10
-2.413230991497145
 20
3.220383897091899
 10
-2.44958108233278
 20
3.218173499344149
 10
-2.492589243849798
 20
3.216044335784745
 10
-2.539516840296611
 20
3.214311783870828
 10
-2.591186612531739
 20
3.21313651883622
 10
-2.64432357172315
 20
3.212709536815578
 10
-2.698692286362504
 20
3.213116038791989
 10
-2.751565707861313
 20
3.214306732308329
 10
-2.801437085551073
 20
3.21616707681108
 10
-2.846778752591529
 20
3.218461586518835
 10
-2.88527432152366
 20
3.220869483906609
 10
-2.916737201670082
 20
3.223144592617836
 10
-2.939100501406689
 20
3.22492933441963
 10
-2.953111763229928
 20
3.226121266999712
 10
-2.958049413699202
 20
3.226551362034796
 10
-2.958119999999916
 20
3.226559999999993
  0
LINE
  5
C8
330
83
100
AcDbEntity
  8
AM_4
100
AcDbLine
 10
-3.058958333333333
 20
-3.22656
 30
0.0
 11
-2.37856049474528
 21
-3.22656
 31
0.0
  0
LINE
  5
C9
330
83
100
AcDbEntity
  8
AM_4
100
AcDbLine
 10
-2.957733665729131
 20
3.22656
 30
0.0
 11
-3.058958333333333
 21
3.22656
 31
0.0
  0
LINE
  5
CA
330
83
100
AcDbEntity
  8
AM_4
100
AcDbLine
 10
-3.058958333333333
 20
3.22656
 30
0.0
 11
-3.058958333333333
 21
-3.22656
 31
0.0
  0
LINE
  5
CB
330
83
100
AcDbEntity
  8
AM_4
100
AcDbLine
 10
-2.378560494745277
 20
3.222836208153097
 30
0.0
 11
-2.37856049474528
 21
1.502481439719928
 31
0.0
  0
LWPOLYLINE
  5
CC
330
83
100
AcDbEntity
  8
AM_4
100
AcDbPolyline
 90
        5
 70
     0
 43
0.0
 10
-2.37856049474528
 20
1.502481439719928
 10
-2.366549094510197
 20
1.428007099274373
 10
-2.361935806074765
 20
1.353603628003569
 10
-2.366000027564243
 20
1.284927065333099
 10
-2.378560494745271
 20
1.221577432609382
  0
LINE
  5
CD
330
83
100
AcDbEntity
  8
AM_4
100
AcDbLine
 10
-2.378560494745271
 20
1.221577432609382
 30
0.0
 11
-2.37856049474528
 21
-3.22656
 31
0.0
  0
LINE
  5
CE
330
83
100
AcDbEntity
  8
AM_4
100
AcDbLine
 10
-2.333125
 20
3.147863414634147
 30
0.0
 11
-2.361931779562012
 21
3.197758220437988
 31
0.0
  0
LINE
  5
CF
330
83
100
AcDbEntity
  8
AM_4
100
AcDbLine
 10
-2.37856049474528
 20
-3.22656
 30
0.0
 11
-2.333125
 21
-3.147863414634147
 31
0.0
  0
LINE
  5
D0
330
83
100
AcDbEntity
  8
AM_4
100
AcDbLine
 10
-2.361931779562016
 20
3.197758220437995
 30
0.0
 11
-2.378560494745279
 21
3.222836208153095
 31
0.0
  0
LINE
  5
D1
330
83
100
AcDbEntity
  8
AM_4
100
AcDbLine
 10
-2.333125
 20
3.147863414634147
 30
0.0
 11
-2.333125
 21
-3.147863414634147
 31
0.0
  0
ELLIPSE
  5
D2
330
83
100
AcDbEntity
  8
AM_4
100
AcDbEllipse
 10
-2.645625000000001
 20
1.342812473215737
 30
0.0
 11
0.263300000000001
 21
0.0
 31
0.0
210
0.0
220
0.0
230
1.0
 40
0.9063077870366496
 41
0.0
 42
6.283185307179586
  0
ENDBLK
  5
86
330
83
100
AcDbEntity
  8
0
100
AcDbBlockEnd
  0
BLOCK
  5
D5
330
D3
100
AcDbEntity
  8
0
100
AcDbBlockBegin
  2
3_4_7_16CS2i_2_0_in_070014_0
 70
     2
 10
0.0
 20
0.0
 30
0.0
  3
3_4_7_16CS2i_2_0_in_070014_0
  1

  0
ATTDEF
  5
D7
330
D3
100
AcDbEntity
  8
AM_6
100
AcDbText
 10
8.265625
 20
3.226560000000001
 30
0.0
 40
0.5
  1
S-2000 Collar -Inch
100
AcDbAttributeDefinition
  3

  2
NN
 70
     8
280
     0
  0
ATTDEF
  5
D8
330
D3
100
AcDbEntity
  8
AM_6
100
AcDbText
 10
8.265625
 20
2.726560000000001
 30
0.0
 40
0.5
  1
S-2000 Bearings
100
AcDbAttributeDefinition
  3

  2
NT
 70
     8
280
     0
  0
ATTDEF
  5
D9
330
D3
100
AcDbEntity
  8
AM_6
100
AcDbText
 10
8.265625
 20
2.226560000000001
 30
0.0
 40
0.5
  1
4-7/16CS2i
100
AcDbAttributeDefinition
  3

  2
NB
 70
     8
280
     0
  0
ATTDEF
  5
DA
330
D3
100
AcDbEntity
  8
AM_6
100
AcDbText
 10
8.265625
 20
1.726560000000001
 30
0.0
 40
0.5
  1
$BORE.CS2i
100
AcDbAttributeDefinition
  3

  2
NBSYN
 70
     8
280
     0
  0
ATTDEF
  5
DB
330
D3
100
AcDbEntity
  8
AM_6
100
AcDbText
 10
8.265625
 20
1.226560000000001
 30
0.0
 40
0.5
  1
4-7/16CS2i
100
AcDbAttributeDefinition
  3

  2
LINA
 70
     8
280
     0
  0
ATTDEF
  5
DC
330
D3
100
AcDbEntity
  8
AM_6
100
AcDbText
 10
8.265625
 20
0.726560000000001
 30
0.0
 40
0.5
  1
4-7/16
100
AcDbAttributeDefinition
  3

  2
BORE
 70
     8
280
     0
  0
ATTDEF
  5
DD
330
D3
100
AcDbEntity
  8
AM_6
100
AcDbText
 10
8.265625
 20
0.226560000000001
 30
0.0
 40
0.5
  1
4.437500
100
AcDbAttributeDefinition
  3

  2
BORE1
 70
     8
280
     0
  0
ATTDEF
  5
DE
330
D3
100
AcDbEntity
  8
AM_6
100
AcDbText
 10
8.265625
 20
-0.273439999999999
 30
0.0
 40
0.5
  1
6-29/64
100
AcDbAttributeDefinition
  3

  2
L1
 70
     8
280
     0
  0
ATTDEF
  5
DF
330
D3
100
AcDbEntity
  8
AM_6
100
AcDbText
 10
8.265625
 20
-0.773439999999999
 30
0.0
 40
0.5
  1
6.45313
100
AcDbAttributeDefinition
  3

  2
L
 70
     8
280
     0
  0
ATTDEF
  5
E0
330
D3
100
AcDbEntity
  8
AM_6
100
AcDbText
 10
8.265625
 20
-1.273439999999999
 30
0.0
 40
0.5
  1
6.45312
100
AcDbAttributeDefinition
  3

  2
L2
 70
     8
280
     0
  0
ATTDEF
  5
E1
330
D3
100
AcDbEntity
  8
AM_6
100
AcDbText
 10
8.265625
 20
-1.773439999999999
 30
0.0
 40
0.5
  1
6.75
100
AcDbAttributeDefinition
  3

  2
A
 70
     8
280
     0
  0
ATTDEF
  5
E2
330
D3
100
AcDbEntity
  8
AM_6
100
AcDbText
 10
8.265625
 20
-2.273439999999999
 30
0.0
 40
0.5
  1
3.25
100
AcDbAttributeDefinition
  3

  2
B
 70
     8
280
     0
  0
ATTDEF
  5
E3
330
D3
100
AcDbEntity
  8
AM_6
100
AcDbText
 10
8.265625
 20
-2.773439999999999
 30
0.0
 40
0.5
  1
5.00
100
AcDbAttributeDefinition
  3

  2
C
 70
     8
280
     0
  0
ATTDEF
  5
E4
330
D3
100
AcDbEntity
  8
AM_6
100
AcDbText
 10
8.265625
 20
-3.273439999999999
 30
0.0
 40
0.5
  1
7.00
100
AcDbAttributeDefinition
  3

  2
D
 70
     8
280
     0
  0
ATTDEF
  5
E5
330
D3
100
AcDbEntity
  8
AM_6
100
AcDbText
 10
8.265625
 20
-3.773439999999999
 30
0.0
 40
0.5
  1
0.78
100
AcDbAttributeDefinition
  3

  2
E
 70
     8
280
     0
  0
ATTDEF
  5
E6
330
D3
100
AcDbEntity
  8
AM_6
100
AcDbText
 10
8.265625
 20
-4.273439999999999
 30
0.0
 40
0.5
  1
0.620
100
AcDbAttributeDefinition
  3

  2
F
 70
     8
280
     0
  0
ATTDEF
  5
E7
330
D3
100
AcDbEntity
  8
AM_6
100
AcDbText
 10
8.265625
 20
-4.773439999999999
 30
0.0
 40
0.5
  1
5/8-11
100
AcDbAttributeDefinition
  3

  2
CS
 70
     8
280
     0
  0
ATTDEF
  5
E8
330
D3
100
AcDbEntity
  8
AM_6
100
AcDbText
 10
8.265625
 20
-5.273439999999999
 30
0.0
 40
0.5
  1
0.6250
100
AcDbAttributeDefinition
  3

  2
NDM
 70
     8
280
     0
  0
ATTDEF
  5
E9
330
D3
100
AcDbEntity
  8
AM_6
100
AcDbText
 10
8.265625
 20
-5.773439999999999
 30
0.0
 40
0.5
  1
0.5270
100
AcDbAttributeDefinition
  3

  2
KDM
 70
     8
280
     0
  0
ATTDEF
  5
EA
330
D3
100
AcDbEntity
  8
AM_6
100
AcDbText
 10
8.265625
 20
-6.273439999999999
 30
0.0
 40
0.5
  1
2
100
AcDbAttributeDefinition
  3

  2
DD
 70
     8
280
     0
  0
ATTDEF
  5
EB
330
D3
100
AcDbEntity
  8
AM_6
100
AcDbText
 10
8.265625
 20
-6.773439999999999
 30
0.0
 40
0.5
  1
baldor
100
AcDbAttributeDefinition
  3

  2
COMPANY
 70
     8
280
     0
  0
LINE
  5
EC
330
D3
100
AcDbEntity
  8
AM_9
100
AcDbLine
 10
2.382325
 20
2.507533333333335
 30
0.0
 11
2.375232405996764
 21
2.5004407393301
 31
0.0
  0
LINE
  5
ED
330
D3
100
AcDbEntity
  8
AM_9
100
AcDbLine
 10
2.916147499620292
 20
2.500310833713042
 30
0.0
 11
2.908925
 21
2.507533333333335
 31
0.0
  0
LINE
  5
EE
330
D3
100
AcDbEntity
  8
AM_9
100
AcDbLine
 10
2.908925
 20
3.177365
 30
0.0
 11
2.957682527342593
 21
3.226122527342593
 31
0.0
  0
LINE
  5
EF
330
D3
100
AcDbEntity
  8
AM_9
100
AcDbLine
 10
2.361931779562012
 20
3.197758220437989
 30
0.0
 11
2.382325
 21
3.177365
 31
0.0
  0
LINE
  5
F0
330
D3
100
AcDbEntity
  8
AM_9
100
AcDbLine
 10
2.382325
 20
3.177365
 30
0.0
 11
2.908925
 21
3.177365
 31
0.0
  0
LINE
  5
F1
330
D3
100
AcDbEntity
  8
AM_9
100
AcDbLine
 10
2.382325
 20
2.507533333333335
 30
0.0
 11
2.908925
 21
2.507533333333335
 31
0.0
  0
LINE
  5
F2
330
D3
100
AcDbEntity
  8
AM_9
100
AcDbLine
 10
2.908925
 20
2.507533333333335
 30
0.0
 11
2.908925
 21
3.177365
 31
0.0
  0
LINE
  5
F3
330
D3
100
AcDbEntity
  8
AM_9
100
AcDbLine
 10
2.382325
 20
3.177365
 30
0.0
 11
2.382325
 21
2.507533333333335
 31
0.0
  0
ELLIPSE
  5
F4
330
D3
100
AcDbEntity
  8
AM_9
100
AcDbEllipse
 10
2.645624999999995
 20
1.059729378590199
 30
0.0
 11
0.2632999999999948
 21
0.0
 31
0.0
210
0.0
220
0.0
230
1.0
 40
0.9063077870366484
 41
2.506638986525524
 42
3.141592653589793
  0
ELLIPSE
  5
F5
330
D3
100
AcDbEntity
  8
AM_9
100
AcDbEllipse
 10
2.645625000000005
 20
1.059729378590199
 30
0.0
 11
0.2632999999999943
 21
3.923475742340003E-9
 31
0.0
210
0.0
220
0.0
230
1.0
 40
0.9063077870366482
 41
3.141592653589793
 42
6.918138958835375
  0
LINE
  5
F6
330
D3
100
AcDbEntity
  8
AM_9
100
AcDbLine
 10
2.908925
 20
1.059729378590196
 30
0.0
 11
2.908925
 21
1.342812473215738
 31
0.0
  0
LINE
  5
F7
330
D3
100
AcDbEntity
  8
AM_9
100
AcDbLine
 10
2.382325
 20
1.342812473215738
 30
0.0
 11
2.382325
 21
1.059729378590196
 31
0.0
  0
LWPOLYLINE
  5
F8
330
D3
100
AcDbEntity
  8
AM_9
100
AcDbPolyline
 90
        5
 70
     0
 43
0.0
 10
2.377979400560039
 20
1.016616113545538
 10
2.387092614248012
 20
0.9785528390890358
 10
2.405460484649315
 20
0.9348526719806408
 10
2.426199102201326
 20
0.901694586169952
 10
2.45176293604528
 20
0.8714411925917833
  0
LWPOLYLINE
  5
F9
330
D3
100
AcDbEntity
  8
AM_9
100
AcDbPolyline
 90
       34
 70
     0
 43
0.0
 10
2.45176293604528
 20
0.8714411925917833
 10
2.481927086858131
 20
0.8447751244550378
 10
2.515986504859066
 20
0.8225626441473476
 10
2.557965915323669
 20
0.8039104535125804
 10
2.602755709932782
 20
0.7925335056963374
 10
2.646411541689404
 20
0.7890925148757026
 10
2.690044076317278
 20
0.7927908788247182
 10
2.731205349753514
 20
0.8031880394597111
 10
2.770042343416291
 20
0.819761007005603
 10
2.806343940027149
 20
0.84254047937082
 10
2.838394979336694
 20
0.8703293707194034
 10
2.866844514002438
 20
0.9041956461473571
 10
2.889245850913378
 20
0.9416105804883027
 10
2.905789551082581
 20
0.9838372300644276
 10
2.914786448187614
 20
1.027620855336041
 10
2.915868196418069
 20
1.073273392147605
 10
2.90867108257448
 20
1.118043958558644
 10
2.893070323439968
 20
1.161032432331966
 10
2.869538561748869
 20
1.200667587066356
 10
2.839070010730463
 20
1.235196568174819
 10
2.802176847804662
 20
1.264299655709331
 10
2.761781169484282
 20
1.286019708953716
 10
2.717552023532753
 20
1.301128000018057
 10
2.673790803003549
 20
1.30865120116257
 10
2.629166870743099
 20
1.309564179180463
 10
2.586903228914739
 20
1.304108298837959
 10
2.546272191448044
 20
1.292742280128255
 10
2.508116300392792
 20
1.275622054205542
 10
2.473600868315245
 20
1.253399129971431
 10
2.442174868077672
 20
1.225211467563067
 10
2.416225058956833
 20
1.192834056199437
 10
2.395331849796729
 20
1.154801739218291
 10
2.381556137430504
 20
1.113941953453929
 10
2.377532639254607
 20
1.093295647425522
  0
LINE
  5
FA
330
D3
100
AcDbEntity
  8
AM_9
100
AcDbLine
 10
3.265625
 20
2.5
 30
0.0
 11
2.915750054317803
 21
2.5
 31
0.0
  0
LINE
  5
FB
330
D3
100
AcDbEntity
  8
AM_9
100
AcDbLine
 10
2.375794844186811
 20
2.5
 30
0.0
 11
2.025625
 21
2.5
 31
0.0
  0
LINE
  5
FC
330
D3
100
AcDbEntity
  8
AM_9
100
AcDbLine
 10
2.025625
 20
-2.5
 30
0.0
 11
3.265625
 21
-2.5
 31
0.0
  0
LWPOLYLINE
  5
FD
330
D3
100
AcDbEntity
  8
AM_9
100
AcDbPolyline
 90
       21
 70
     0
 43
0.0
 10
2.374791666666697
 20
2.499999999999996
 10
2.375587089025935
 20
2.499903497635898
 10
2.383561690580129
 20
2.498951241250801
 10
2.399511846836243
 20
2.497129984839264
 10
2.42400963061327
 20
2.494550268040473
 10
2.454444030695508
 20
2.491714881993043
 10
2.492348027356618
 20
2.488760482026858
 10
2.532298209141604
 20
2.48634452101742
 10
2.577390161661826
 20
2.484483842185862
 10
2.620470622454929
 20
2.483568309691009
 10
2.66568726263029
 20
2.483515891196557
 10
2.707248810947481
 20
2.48428854580457
 10
2.748236573709105
 20
2.485818969123251
 10
2.785715616498539
 20
2.487883605008898
 10
2.820388357779448
 20
2.490356382367662
 10
2.851113759461327
 20
2.492996674997758
 10
2.876978949484822
 20
2.495544129930834
 10
2.897140432420793
 20
2.497734366829319
 10
2.910527687899306
 20
2.499287115484823
 10
2.91626787397405
 20
2.4999768679742
 10
2.916458333332923
 20
2.49999999999995
  0
LINE
  5
FE
330
D3
100
AcDbEntity
  8
AM_9
100
AcDbLine
 10
2.37856049474528
 20
1.502481439719925
 30
0.0
 11
2.37856049474528
 21
1.221577432609368
 31
0.0
  0
LINE
  5
FF
330
D3
100
AcDbEntity
  8
AM_5
100
AcDbLine
 10
2.958125
 20
3.226560000000001
 30
0.0
 11
2.958125
 21
2.5
 31
0.0
  0
LINE
  5
100
330
D3
100
AcDbEntity
  8
AM_5
100
AcDbLine
 10
2.801874999999999
 20
2.458333333333333
 30
0.0
 11
2.958125
 21
2.458333333333333
 31
0.0
  0
LINE
  5
101
330
D3
100
AcDbEntity
  8
AM_5
100
AcDbLine
 10
2.333125
 20
3.147863414634147
 30
0.0
 11
2.333125
 21
2.5
 31
0.0
  0
LINE
  5
102
330
D3
100
AcDbEntity
  8
AM_5
100
AcDbLine
 10
2.489375
 20
2.458333333333333
 30
0.0
 11
2.333125
 21
2.458333333333333
 31
0.0
  0
ELLIPSE
  5
103
330
D3
100
AcDbEntity
  8
AM_4
100
AcDbEllipse
 10
2.645624999999999
 20
1.059729378590196
 30
0.0
 11
0.2633000000000001
 21
0.0
 31
0.0
210
0.0
220
0.0
230
1.0
 40
0.9063077870366502
 41
0.6349536670642673
 42
2.506638986525524
  0
ELLIPSE
  5
104
330
D3
100
AcDbEntity
  8
AM_4
100
AcDbEllipse
 10
2.645624999999999
 20
1.342812473215737
 30
0.0
 11
0.2632999999999996
 21
0.0
 31
0.0
210
0.0
220
0.0
230
1.0
 40
0.90630778703665
 41
3.141592653589793
 42
6.283185307179586
  0
ELLIPSE
  5
105
330
D3
100
AcDbEntity
  8
AM_4
100
AcDbEllipse
 10
2.645624999999999
 20
1.342812473215738
 30
0.0
 11
0.2632999999999996
 21
0.0
 31
0.0
210
0.0
220
0.0
230
1.0
 40
0.90630778703665
 41
0.0
 42
3.141592653589793
  0
LINE
  5
106
330
D3
100
AcDbEntity
  8
AM_4
100
AcDbLine
 10
2.025625
 20
-3.072914285714285
 30
0.0
 11
2.025625
 21
3.072914285714285
 31
0.0
  0
LINE
  5
107
330
D3
100
AcDbEntity
  8
AM_4
100
AcDbLine
 10
2.154009204413472
 20
3.072914285714285
 30
0.0
 11
2.025625
 21
3.072914285714285
 31
0.0
  0
LINE
  5
108
330
D3
100
AcDbEntity
  8
AM_4
100
AcDbLine
 10
2.025625
 20
-3.072914285714285
 30
0.0
 11
2.154009204413472
 21
-3.072914285714285
 31
0.0
  0
LINE
  5
109
330
D3
100
AcDbEntity
  8
AM_4
100
AcDbLine
 10
2.154009204413472
 20
-3.072914285714285
 30
0.0
 11
2.154009204413472
 21
3.072914285714285
 31
0.0
  0
LINE
  5
10A
330
D3
100
AcDbEntity
  8
AM_4
100
AcDbLine
 10
2.154009204413472
 20
-3.072914285714285
 30
0.0
 11
2.228958333333333
 21
-3.147863414634147
 31
0.0
  0
LINE
  5
10B
330
D3
100
AcDbEntity
  8
AM_4
100
AcDbLine
 10
2.228958333333333
 20
3.147863414634147
 30
0.0
 11
2.154009204413472
 21
3.072914285714285
 31
0.0
  0
LINE
  5
10C
330
D3
100
AcDbEntity
  8
AM_4
100
AcDbLine
 10
2.228958333333333
 20
-3.147863414634147
 30
0.0
 11
2.228958333333333
 21
3.147863414634147
 31
0.0
  0
LINE
  5
10D
330
D3
100
AcDbEntity
  8
AM_4
100
AcDbLine
 10
2.333125
 20
3.147863414634147
 30
0.0
 11
2.228958333333333
 21
3.147863414634147
 31
0.0
  0
LINE
  5
10E
330
D3
100
AcDbEntity
  8
AM_4
100
AcDbLine
 10
2.228958333333333
 20
-3.147863414634147
 30
0.0
 11
2.333125
 21
-3.147863414634147
 31
0.0
  0
LINE
  5
10F
330
D3
100
AcDbEntity
  8
AM_4
100
AcDbLine
 10
3.265625
 20
-3.019893333333333
 30
0.0
 11
3.265625
 21
3.019893333333333
 31
0.0
  0
ARC
  5
110
330
D3
100
AcDbEntity
  8
AM_4
100
AcDbCircle
 10
3.058958333333333
 20
3.019893333333333
 30
0.0
 40
0.206666666666667
100
AcDbArc
 50
0.0
 51
90.0
  0
ARC
  5
111
330
D3
100
AcDbEntity
  8
AM_4
100
AcDbCircle
 10
3.058958333333332
 20
-3.019893333333332
 30
0.0
 40
0.2066666666666674
100
AcDbArc
 50
270.0
 51
0.0
  0
LINE
  5
112
330
D3
100
AcDbEntity
  8
AM_4
100
AcDbLine
 10
3.058958333333333
 20
-3.22656
 30
0.0
 11
3.058958333333333
 21
3.22656
 31
0.0
  0
LWPOLYLINE
  5
113
330
D3
100
AcDbEntity
  8
AM_4
100
AcDbPolyline
 90
       33
 70
     0
 43
0.0
 10
2.378560494745277
 20
1.502481439719925
 10
2.382618445623101
 20
1.507980063050908
 10
2.413230991497145
 20
1.541821302021923
 10
2.44958108233278
 20
1.570760855226788
 10
2.492589243849798
 20
1.595068373134748
 10
2.539516840296611
 20
1.61298351587133
 10
2.591186612531739
 20
1.624422740411229
 10
2.64432357172315
 20
1.628411019195383
 10
2.698692286362504
 20
1.624619469302828
 10
2.751565707861313
 20
1.613033769452893
 10
2.801437085551073
 20
1.593744018971557
 10
2.846778752591529
 20
1.567236666521951
 10
2.88527432152366
 20
1.53476405508652
 10
2.916737201670082
 20
1.496673576864699
 10
2.939100501406689
 20
1.455731596758203
 10
2.953111763229928
 20
1.411639845361197
 10
2.958049413699202
 20
1.36772814432399
 10
2.954667826115447
 20
1.323389265646299
 10
2.943298457623017
 20
1.280843925046047
 10
2.924472711434315
 20
1.240325771213022
 10
2.898296234731019
 20
1.202450898775202
 10
2.865908288341223
 20
1.16877013469628
 10
2.826577641299385
 20
1.139143443383474
 10
2.782679971192199
 20
1.115677950384886
 10
2.733236537729465
 20
1.098448150702826
 10
2.681470132696373
 20
1.088952970807481
 10
2.627212058207073
 20
1.087606430951911
 10
2.573466135093939
 20
1.094726561262093
 10
2.521355434535356
 20
1.110404934715309
 10
2.472827434418701
 20
1.134086858167136
 10
2.438842834168937
 20
1.157481105654755
 10
2.408560472918605
 20
1.184867340331588
 10
2.37856049474528
 20
1.221577432609368
  0
LINE
  5
114
330
D3
100
AcDbEntity
  8
AM_4
100
AcDbLine
 10
3.058958333333333
 20
3.22656
 30
0.0
 11
2.957315409785676
 21
3.22656
 31
0.0
  0
LINE
  5
115
330
D3
100
AcDbEntity
  8
AM_4
100
AcDbLine
 10
2.37856049474528
 20
-3.22656
 30
0.0
 11
3.058958333333333
 21
-3.22656
 31
0.0
  0
LWPOLYLINE
  5
116
330
D3
100
AcDbEntity
  8
AM_4
100
AcDbPolyline
 90
       18
 70
     0
 43
0.0
 10
2.958119999999902
 20
3.226559999999992
 10
2.957813847278148
 20
3.226532980058195
 10
2.951284794698018
 20
3.225962958155766
 10
2.937281343286656
 20
3.224780423781392
 10
2.915488158718347
 20
3.2230489418715
 10
2.887116023066943
 20
3.220993941714276
 10
2.851930103818515
 20
3.218759467686689
 10
2.8109811564712
 20
3.216598452155592
 10
2.764659683201819
 20
3.214725772060353
 10
2.714546270586168
 20
3.213385562887231
 10
2.661180837769852
 20
3.212743752680266
 10
2.607533994886097
 20
3.212915888234834
 10
2.553443497585177
 20
3.213918872375139
 10
2.503280489763925
 20
3.215592135196067
 10
2.455827468423491
 20
3.217831342071409
 10
2.416049580879627
 20
3.220198245832166
 10
2.381920061246174
 20
3.222583733497722
 10
2.37856049474528
 20
3.222836208153096
  0
LWPOLYLINE
  5
117
330
D3
100
AcDbEntity
  8
AM_4
100
AcDbPolyline
 90
        5
 70
     0
 43
0.0
 10
2.37856049474528
 20
1.221577432609368
 10
2.366549094510198
 20
1.280744371101927
 10
2.361935806074765
 20
1.349263550279204
 10
2.366000027564242
 20
1.423124214752044
 10
2.378560494745277
 20
1.502481439719925
  0
LINE
  5
118
330
D3
100
AcDbEntity
  8
AM_4
100
AcDbLine
 10
2.378560494745277
 20
1.502481439719925
 30
0.0
 11
2.37856049474528
 21
3.222836208153096
 31
0.0
  0
LINE
  5
119
330
D3
100
AcDbEntity
  8
AM_4
100
AcDbLine
 10
2.37856049474528
 20
3.222836208153096
 30
0.0
 11
2.361931779562016
 21
3.197758220437995
 31
0.0
  0
LINE
  5
11A
330
D3
100
AcDbEntity
  8
AM_4
100
AcDbLine
 10
2.333125
 20
-3.147863414634147
 30
0.0
 11
2.333125
 21
3.147863414634147
 31
0.0
  0
LINE
  5
11B
330
D3
100
AcDbEntity
  8
AM_4
100
AcDbLine
 10
2.333125
 20
-3.147863414634147
 30
0.0
 11
2.37856049474528
 21
-3.22656
 31
0.0
  0
LINE
  5
11C
330
D3
100
AcDbEntity
  8
AM_4
100
AcDbLine
 10
2.361931779562012
 20
3.197758220437989
 30
0.0
 11
2.333125
 21
3.147863414634147
 31
0.0
  0
LINE
  5
11D
330
D3
100
AcDbEntity
  8
AM_4
100
AcDbLine
 10
2.37856049474528
 20
-3.22656
 30
0.0
 11
2.37856049474528
 21
1.221577432609368
 31
0.0
  0
ENDBLK
  5
D6
330
D3
100
AcDbEntity
  8
0
100
AcDbBlockEnd
  0
BLOCK
  5
120
330
11E
100
AcDbEntity
  8
0
100
AcDbBlockBegin
  2
4_070014i_0_in_070014_0
 70
     2
 10
0.0
 20
0.0
 30
0.0
  3
4_070014i_0_in_070014_0
  1

  0
ATTDEF
  5
122
330
11E
100
AcDbEntity
  8
AM_6
100
AcDbText
 10
8.5921875
 20
3.936999999999999
 30
0.0
 40
0.5
  1
S-2000 Insert -Inch
100
AcDbAttributeDefinition
  3

  2
NN
 70
     8
280
     0
  0
ATTDEF
  5
123
330
11E
100
AcDbEntity
  8
AM_6
100
AcDbText
 10
8.5921875
 20
3.436999999999999
 30
0.0
 40
0.5
  1
S-2000 Bearings
100
AcDbAttributeDefinition
  3

  2
NT
 70
     8
280
     0
  0
ATTDEF
  5
124
330
11E
100
AcDbEntity
  8
AM_6
100
AcDbText
 10
8.5921875
 20
2.936999999999999
 30
0.0
 40
0.5
  1
070014i
100
AcDbAttributeDefinition
  3

  2
NB
 70
     8
280
     0
  0
ATTDEF
  5
125
330
11E
100
AcDbEntity
  8
AM_6
100
AcDbText
 10
8.5921875
 20
2.436999999999999
 30
0.0
 40
0.5
  1
$PN.i
100
AcDbAttributeDefinition
  3

  2
NBSYN
 70
     8
280
     0
  0
ATTDEF
  5
126
330
11E
100
AcDbEntity
  8
AM_6
100
AcDbText
 10
8.5921875
 20
1.936999999999999
 30
0.0
 40
0.5
  1
070014i
100
AcDbAttributeDefinition
  3

  2
LINA
 70
     8
280
     0
  0
ATTDEF
  5
127
330
11E
100
AcDbEntity
  8
AM_6
100
AcDbText
 10
8.5921875
 20
1.436999999999999
 30
0.0
 40
0.5
  1
4-7/16
100
AcDbAttributeDefinition
  3

  2
SS
 70
     8
280
     0
  0
ATTDEF
  5
128
330
11E
100
AcDbEntity
  8
AM_6
100
AcDbText
 10
8.5921875
 20
0.9369999999999994
 30
0.0
 40
0.5
  1
5.00
100
AcDbAttributeDefinition
  3

  2
CC
 70
     8
280
     0
  0
ATTDEF
  5
129
330
11E
100
AcDbEntity
  8
AM_6
100
AcDbText
 10
8.5921875
 20
0.4369999999999994
 30
0.0
 40
0.5
  1
4.437500
100
AcDbAttributeDefinition
  3

  2
SS1
 70
     8
280
     0
  0
ATTDEF
  5
12A
330
11E
100
AcDbEntity
  8
AM_6
100
AcDbText
 10
8.5921875
 20
-0.0630000000000006
 30
0.0
 40
0.5
  1
070014
100
AcDbAttributeDefinition
  3

  2
PN
 70
     8
280
     0
  0
ATTDEF
  5
12B
330
11E
100
AcDbEntity
  8
AM_6
100
AcDbText
 10
8.5921875
 20
-0.5630000000000006
 30
0.0
 40
0.5
  1
INS-S2-407R
100
AcDbAttributeDefinition
  3

  2
DESCRIPTION
 70
     8
280
     0
  0
ATTDEF
  5
12C
330
11E
100
AcDbEntity
  8
AM_6
100
AcDbText
 10
8.5921875
 20
-1.063000000000001
 30
0.0
 40
0.5
  1
Contact Seal
100
AcDbAttributeDefinition
  3

  2
ST
 70
     8
280
     0
  0
ATTDEF
  5
12D
330
11E
100
AcDbEntity
  8
AM_6
100
AcDbText
 10
8.5921875
 20
-1.563000000000001
 30
0.0
 40
0.5
  1
1
100
AcDbAttributeDefinition
  3

  2
ST1
 70
     8
280
     0
  0
ATTDEF
  5
12E
330
11E
100
AcDbEntity
  8
AM_6
100
AcDbText
 10
8.5921875
 20
-2.063000000000001
 30
0.0
 40
0.5
  1
7.8740
100
AcDbAttributeDefinition
  3

  2
A
 70
     8
280
     0
  0
ATTDEF
  5
12F
330
11E
100
AcDbEntity
  8
AM_6
100
AcDbText
 10
8.5921875
 20
-2.563000000000001
 30
0.0
 40
0.5
  1
2-5/32
100
AcDbAttributeDefinition
  3

  2
B
 70
     8
280
     0
  0
ATTDEF
  5
130
330
11E
100
AcDbEntity
  8
AM_6
100
AcDbText
 10
8.5921875
 20
-3.063000000000001
 30
0.0
 40
0.5
  1
6-17/32
100
AcDbAttributeDefinition
  3

  2
C
 70
     8
280
     0
  0
ATTDEF
  5
131
330
11E
100
AcDbEntity
  8
AM_6
100
AcDbText
 10
8.5921875
 20
-3.563000000000001
 30
0.0
 40
0.5
  1
3.266
100
AcDbAttributeDefinition
  3

  2
D
 70
     8
280
     0
  0
ATTDEF
  5
132
330
11E
100
AcDbEntity
  8
AM_6
100
AcDbText
 10
8.5921875
 20
-4.063000000000001
 30
0.0
 40
0.5
  1
6-29/64
100
AcDbAttributeDefinition
  3

  2
E
 70
     8
280
     0
  0
ATTDEF
  5
133
330
11E
100
AcDbEntity
  8
AM_6
100
AcDbText
 10
8.5921875
 20
-4.563000000000001
 30
0.0
 40
0.5
  1
0.43750
100
AcDbAttributeDefinition
  3

  2
F
 70
     8
280
     0
  0
ATTDEF
  5
134
330
11E
100
AcDbEntity
  8
AM_6
100
AcDbText
 10
8.5921875
 20
-5.063000000000001
 30
0.0
 40
0.5
  1
2
100
AcDbAttributeDefinition
  3

  2
DD
 70
     8
280
     0
  0
ATTDEF
  5
135
330
11E
100
AcDbEntity
  8
AM_6
100
AcDbText
 10
8.5921875
 20
-5.563000000000001
 30
0.0
 40
0.5
  1
baldor
100
AcDbAttributeDefinition
  3

  2
COMPANY
 70
     8
280
     0
  0
LINE
  5
136
330
11E
100
AcDbEntity
  8
AM_9
100
AcDbLine
 10
2.255625
 20
2.5
 30
0.0
 11
2.255625
 21
2.21875
 31
0.0
  0
LINE
  5
137
330
11E
100
AcDbEntity
  8
AM_9
100
AcDbLine
 10
3.035625
 20
2.21875
 30
0.0
 11
3.035625
 21
2.5
 31
0.0
  0
LINE
  5
138
330
11E
100
AcDbEntity
  8
AM_9
100
AcDbLine
 10
-3.035625
 20
2.5
 30
0.0
 11
-3.035625
 21
2.21875
 31
0.0
  0
LINE
  5
139
330
11E
100
AcDbEntity
  8
AM_9
100
AcDbLine
 10
-2.255624999999999
 20
2.21875
 30
0.0
 11
-2.255625
 21
2.5
 31
0.0
  0
LINE
  5
13A
330
11E
100
AcDbEntity
  8
AM_9
100
AcDbLine
 10
-3.265625
 20
-2.21875
 30
0.0
 11
3.265625
 21
-2.21875
 31
0.0
  0
LINE
  5
13B
330
11E
100
AcDbEntity
  8
AM_9
100
AcDbLine
 10
3.265625
 20
2.21875
 30
0.0
 11
3.035625
 21
2.21875
 31
0.0
  0
LINE
  5
13C
330
11E
100
AcDbEntity
  8
AM_9
100
AcDbLine
 10
2.256937659583498
 20
2.21875
 30
0.0
 11
-2.255625
 21
2.21875
 31
0.0
  0
LINE
  5
13D
330
11E
100
AcDbEntity
  8
AM_9
100
AcDbLine
 10
-3.0343123404165
 20
2.21875
 30
0.0
 11
-3.265625
 21
2.21875
 31
0.0
  0
LWPOLYLINE
  5
13E
330
11E
100
AcDbEntity
  8
AM_9
100
AcDbPolyline
 90
       21
 70
     0
 43
0.0
 10
2.255625000001141
 20
2.218749999999799
 10
2.257923539812068
 20
2.21834712899759
 10
2.270012805257823
 20
2.216266248296678
 10
2.292914163160799
 20
2.21250005580199
 10
2.324892424899619
 20
2.207627900537253
 10
2.366740149215257
 20
2.201937402038765
 10
2.415735619656227
 20
2.196269721526671
 10
2.472805710546125
 20
2.191031279855982
 10
2.533265203423344
 20
2.187093113332568
 10
2.598851248592958
 20
2.184705780264402
 10
2.663056725805031
 20
2.184274576962462
 10
2.728629016805556
 20
2.185781606040699
 10
2.789599148652859
 20
2.188944978289842
 10
2.848208299569005
 20
2.193579621478159
 10
2.90018140495214
 20
2.198988523344803
 10
2.946395520685539
 20
2.204816198374243
 10
2.983446541482301
 20
2.210175322545584
 10
3.011804049670411
 20
2.214687034078975
 10
3.028974332003746
 20
2.217590645914552
 10
3.035589707150293
 20
2.218743796683794
 10
3.035624999999107
 20
2.218749999999843
  0
LINE
  5
13F
330
11E
100
AcDbEntity
  8
AM_9
100
AcDbLine
 10
2.65621631658004
 20
2.184230697176216
 30
0.0
 11
2.645625
 21
2.184205018422035
 31
0.0
  0
LINE
  5
140
330
11E
100
AcDbEntity
  8
AM_9
100
AcDbLine
 10
3.035624999999107
 20
2.218749999999843
 30
0.0
 11
3.005642550811023
 21
2.21367662484654
 31
0.0
  0
LWPOLYLINE
  5
141
330
11E
100
AcDbEntity
  8
AM_9
100
AcDbPolyline
 90
       21
 70
     0
 43
0.0
 10
-3.035624999998859
 20
2.218749999999799
 10
-3.033326460187932
 20
2.21834712899759
 10
-3.021237194742176
 20
2.216266248296678
 10
-2.998335836839201
 20
2.21250005580199
 10
-2.96635757510038
 20
2.207627900537253
 10
-2.924509850784742
 20
2.201937402038765
 10
-2.875514380343772
 20
2.196269721526671
 10
-2.818444289453875
 20
2.191031279855982
 10
-2.757984796576655
 20
2.187093113332568
 10
-2.692398751407041
 20
2.184705780264402
 10
-2.628193274194968
 20
2.184274576962462
 10
-2.562620983194444
 20
2.185781606040699
 10
-2.50165085134714
 20
2.188944978289842
 10
-2.443041700430994
 20
2.193579621478159
 10
-2.39106859504786
 20
2.198988523344803
 10
-2.34485447931446
 20
2.204816198374243
 10
-2.307803458517697
 20
2.210175322545584
 10
-2.279445950329588
 20
2.214687034078975
 10
-2.262275667996254
 20
2.217590645914552
 10
-2.255660292849706
 20
2.218743796683794
 10
-2.255625000000893
 20
2.218749999999843
  0
LINE
  5
142
330
11E
100
AcDbEntity
  8
AM_9
100
AcDbLine
 10
-2.63503368341996
 20
2.184230697176216
 30
0.0
 11
-2.645625
 21
2.184205018422035
 31
0.0
  0
LINE
  5
143
330
11E
100
AcDbEntity
  8
AM_9
100
AcDbLine
 10
-2.255625000000893
 20
2.218749999999843
 30
0.0
 11
-2.276674587126598
 21
2.2151469408731
 31
0.0
  0
LWPOLYLINE
  5
144
330
11E
100
AcDbEntity
  8
AM_9
100
AcDbPolyline
 90
        3
 70
     0
 43
0.0
 10
2.260619626705419
 20
0.9937026203163755
 10
2.256374256703123
 20
0.9595279313130183
 10
2.255625001208184
 20
0.9377120902325597
  0
LWPOLYLINE
  5
145
330
11E
100
AcDbEntity
  8
AM_9
100
AcDbPolyline
 90
        7
 70
     0
 43
0.0
 10
2.422547364240109
 20
1.217815149341735
 10
2.404153040285473
 20
1.206268884361157
 10
2.356930311041578
 20
1.168758323024814
 10
2.316613192161694
 20
1.123285688414097
 10
2.286382283651582
 20
1.073068760360858
 10
2.265686397687812
 20
1.016714975967846
 10
2.260619626705419
 20
0.9937026203163755
  0
LWPOLYLINE
  5
146
330
11E
100
AcDbEntity
  8
AM_9
100
AcDbPolyline
 90
        3
 70
     0
 43
0.0
 10
2.47807085290521
 20
1.244973835023818
 10
2.459083779638512
 20
1.236850567330175
 10
2.422547364240109
 20
1.217815149341735
  0
LINE
  5
147
330
11E
100
AcDbEntity
  8
AM_9
100
AcDbLine
 10
2.255625
 20
1.056528564642282
 30
0.0
 11
2.255625
 21
0.9375870180619441
 31
0.0
  0
LINE
  5
148
330
11E
100
AcDbEntity
  8
AM_9
100
AcDbLine
 10
3.035625
 20
0.9376551109290004
 30
0.0
 11
3.035625
 21
1.056460310998439
 31
0.0
  0
LWPOLYLINE
  5
149
330
11E
100
AcDbEntity
  8
AM_9
100
AcDbPolyline
 90
       21
 70
     0
 43
0.0
 10
2.255625001208184
 20
0.9377120902325597
 10
2.257923539812068
 20
0.8991955354898414
 10
2.270012805257823
 20
0.8415133702196976
 10
2.292914163160799
 20
0.784216685640583
 10
2.324892424899619
 20
0.7318925374125358
 10
2.366740149215258
 20
0.6834987094279859
 10
2.415735619656228
 20
0.6426595213366791
 10
2.472805710546125
 20
0.6091073464606971
 10
2.533265203423345
 20
0.5858322593761385
 10
2.598851248592958
 20
0.5723877881629332
 10
2.663056725805031
 20
0.5700075353177735
 10
2.728629016805556
 20
0.5783892850840321
 10
2.789599148652859
 20
0.596595061476182
 10
2.848208299569005
 20
0.6250136933704161
 10
2.90018140495214
 20
0.6615482217761102
 10
2.946395520685539
 20
0.7067881958540096
 10
2.983446541482302
 20
0.7574429312091129
 10
3.011804049670412
 20
0.8143296599637424
 10
3.028974332003746
 20
0.8721968713341696
 10
3.035589707150293
 20
0.9329265805876527
 10
3.035624999053039
 20
0.9376596367712278
  0
LWPOLYLINE
  5
14A
330
11E
100
AcDbEntity
  8
AM_9
100
AcDbPolyline
 90
        4
 70
     0
 43
0.0
 10
2.867724532184435
 20
1.218389392211485
 10
2.860238034908873
 20
1.222659980649622
 10
2.803124051851194
 20
1.248836782663306
 10
2.802371449251241
 20
1.249114205810983
  0
LWPOLYLINE
  5
14B
330
11E
100
AcDbEntity
  8
AM_9
100
AcDbPolyline
 90
        6
 70
     0
 43
0.0
 10
3.029759797269805
 20
0.9983214073058022
 10
3.015841592378627
 20
1.047397105676596
 10
2.990877531087242
 20
1.098936688691609
 10
2.955614583710023
 20
1.146819005284687
 10
2.912351696317423
 20
1.187813178221265
 10
2.867724532184435
 20
1.218389392211485
  0
LWPOLYLINE
  5
14C
330
11E
100
AcDbEntity
  8
AM_9
100
AcDbPolyline
 90
        3
 70
     0
 43
0.0
 10
3.035624999053039
 20
0.9376596367712278
 10
3.031194471820949
 20
0.9904837756138323
 10
3.029759797269805
 20
0.9983214073058022
  0
LWPOLYLINE
  5
14D
330
11E
100
AcDbEntity
  8
AM_9
100
AcDbPolyline
 90
       21
 70
     0
 43
0.0
 10
3.03562499864546
 20
1.05657511332714
 10
3.033259767135848
 20
1.017521436408424
 10
3.020731300942309
 20
0.9589601236243518
 10
2.997896767002876
 20
0.9025091834840715
 10
2.965127688320051
 20
0.8496744687384333
 10
2.92354594929481
 20
0.8022284011251353
 10
2.873616683562923
 20
0.761322920379709
 10
2.817219961787085
 20
0.7287184589946256
 10
2.755788043916934
 20
0.7056257166852505
 10
2.691176228580024
 20
0.6927471157620628
 10
2.625916145552835
 20
0.6906768698473424
 10
2.56121672187396
 20
0.6991376610028984
 10
2.499278846068313
 20
0.7178511026523977
 10
2.441414672848685
 20
0.7460410440198891
 10
2.388870363428506
 20
0.7832274661769665
 10
2.343484047162198
 20
0.8278989501780306
 10
2.306313633153686
 20
0.8792319762311559
 10
2.278744203831432
 20
0.935177533417663
 10
2.261775302469211
 20
0.9938261171321776
 10
2.255638554850737
 20
1.053597852504476
 10
2.255625000497208
 20
1.056527806209292
  0
LWPOLYLINE
  5
14E
330
11E
100
AcDbEntity
  8
AM_9
100
AcDbPolyline
 90
        6
 70
     0
 43
0.0
 10
2.386558389322743
 20
1.313545617849178
 10
2.433423539295421
 20
1.344015292701408
 10
2.49161028365234
 20
1.3703335303917
 10
2.554230976800184
 20
1.387942471194554
 10
2.599600350843435
 20
1.394774003612801
 10
2.645625
 20
1.397070461119055
  0
LWPOLYLINE
  5
14F
330
11E
100
AcDbEntity
  8
AM_9
100
AcDbPolyline
 90
        7
 70
     0
 43
0.0
 10
2.255625000497208
 20
1.056527806209292
 10
2.260569241783896
 20
1.112098611384051
 10
2.276140152766537
 20
1.168356534705558
 10
2.302008544291509
 20
1.220776784846519
 10
2.337306190989225
 20
1.26816641741471
 10
2.38166126726359
 20
1.30970693810963
 10
2.386558389322743
 20
1.313545617849178
  0
LWPOLYLINE
  5
150
330
11E
100
AcDbEntity
  8
AM_9
100
AcDbPolyline
 90
        3
 70
     0
 43
0.0
 10
-3.030630373294581
 20
0.9937026203163752
 10
-3.034875743296876
 20
0.9595279313130183
 10
-3.035624998791815
 20
0.9377120902325599
  0
LWPOLYLINE
  5
151
330
11E
100
AcDbEntity
  8
AM_9
100
AcDbPolyline
 90
        7
 70
     0
 43
0.0
 10
-2.867473607244008
 20
1.218536092993764
 10
-2.887096959714527
 20
1.206268884361157
 10
-2.934319688958421
 20
1.168758323024814
 10
-2.974636807838305
 20
1.123285688414097
 10
-3.004867716348418
 20
1.073068760360858
 10
-3.025563602312187
 20
1.016714975967846
 10
-3.030630373294581
 20
0.9937026203163752
  0
LWPOLYLINE
  5
152
330
11E
100
AcDbEntity
  8
AM_9
100
AcDbPolyline
 90
        3
 70
     0
 43
0.0
 10
-2.805852665570546
 20
1.247817426005371
 10
-2.832166220361488
 20
1.236850567330175
 10
-2.867473607244008
 20
1.218536092993764
  0
LINE
  5
153
330
11E
100
AcDbEntity
  8
AM_9
100
AcDbLine
 10
-3.035625
 20
1.056528564642282
 30
0.0
 11
-3.035625
 21
0.9375870180619441
 31
0.0
  0
LINE
  5
154
330
11E
100
AcDbEntity
  8
AM_9
100
AcDbLine
 10
-2.255625
 20
0.9376551109290004
 30
0.0
 11
-2.255625
 21
1.056460310998439
 31
0.0
  0
LWPOLYLINE
  5
155
330
11E
100
AcDbEntity
  8
AM_9
100
AcDbPolyline
 90
       21
 70
     0
 43
0.0
 10
-3.035624998791815
 20
0.9377120902325599
 10
-3.033326460187932
 20
0.8991955354898415
 10
-3.021237194742176
 20
0.8415133702196977
 10
-2.998335836839201
 20
0.784216685640583
 10
-2.96635757510038
 20
0.7318925374125359
 10
-2.924509850784742
 20
0.683498709427986
 10
-2.875514380343771
 20
0.642659521336679
 10
-2.818444289453875
 20
0.6091073464606971
 10
-2.757984796576655
 20
0.5858322593761385
 10
-2.692398751407041
 20
0.5723877881629332
 10
-2.628193274194968
 20
0.5700075353177735
 10
-2.562620983194444
 20
0.5783892850840321
 10
-2.50165085134714
 20
0.596595061476182
 10
-2.443041700430995
 20
0.6250136933704163
 10
-2.39106859504786
 20
0.6615482217761101
 10
-2.34485447931446
 20
0.7067881958540092
 10
-2.307803458517697
 20
0.7574429312091124
 10
-2.279445950329588
 20
0.8143296599637423
 10
-2.262275667996254
 20
0.8721968713341691
 10
-2.255660292849706
 20
0.9329265805876523
 10
-2.255625000946961
 20
0.937659636771228
  0
LWPOLYLINE
  5
156
330
11E
100
AcDbEntity
  8
AM_9
100
AcDbPolyline
 90
        3
 70
     0
 43
0.0
 10
-2.423335961986078
 20
1.2182784328705
 10
-2.431011965091126
 20
1.222659980649621
 10
-2.482920249222138
 20
1.246873507484717
  0
LWPOLYLINE
  5
157
330
11E
100
AcDbEntity
  8
AM_9
100
AcDbPolyline
 90
        6
 70
     0
 43
0.0
 10
-2.261490202730195
 20
0.9983214073058022
 10
-2.275408407621372
 20
1.047397105676596
 10
-2.300372468912758
 20
1.098936688691609
 10
-2.335635416289977
 20
1.146819005284686
 10
-2.378898303682576
 20
1.187813178221265
 10
-2.423335961986078
 20
1.2182784328705
  0
LWPOLYLINE
  5
158
330
11E
100
AcDbEntity
  8
AM_9
100
AcDbPolyline
 90
        3
 70
     0
 43
0.0
 10
-2.255625000946961
 20
0.937659636771228
 10
-2.260055528179051
 20
0.9904837756138322
 10
-2.261490202730195
 20
0.9983214073058022
  0
LWPOLYLINE
  5
159
330
11E
100
AcDbEntity
  8
AM_9
100
AcDbPolyline
 90
       21
 70
     0
 43
0.0
 10
-2.25562500135454
 20
1.05657511332714
 10
-2.257990232864151
 20
1.017521436408424
 10
-2.27051869905769
 20
0.9589601236243518
 10
-2.293353232997124
 20
0.9025091834840715
 10
-2.326122311679949
 20
0.8496744687384333
 10
-2.36770405070519
 20
0.802228401125135
 10
-2.417633316437076
 20
0.7613229203797091
 10
-2.474030038212914
 20
0.7287184589946257
 10
-2.535461956083065
 20
0.7056257166852505
 10
-2.600073771419975
 20
0.6927471157620628
 10
-2.665333854447165
 20
0.6906768698473424
 10
-2.73003327812604
 20
0.6991376610028984
 10
-2.791971153931686
 20
0.7178511026523977
 10
-2.849835327151315
 20
0.7460410440198891
 10
-2.902379636571492
 20
0.7832274661769665
 10
-2.947765952837801
 20
0.8278989501780306
 10
-2.984936366846313
 20
0.879231976231156
 10
-3.012505796168568
 20
0.935177533417663
 10
-3.029474697530789
 20
0.9938261171321778
 10
-3.035611445149262
 20
1.053597852504476
 10
-3.035624999502792
 20
1.056527806209292
  0
LWPOLYLINE
  5
15A
330
11E
100
AcDbEntity
  8
AM_9
100
AcDbPolyline
 90
        6
 70
     0
 43
0.0
 10
-2.906601000684498
 20
1.312082074736188
 10
-2.857826460704578
 20
1.344015292701409
 10
-2.799639716347659
 20
1.3703335303917
 10
-2.737019023199816
 20
1.387942471194554
 10
-2.691649649156564
 20
1.394774003612801
 10
-2.645625
 20
1.397070461119055
  0
LWPOLYLINE
  5
15B
330
11E
100
AcDbEntity
  8
AM_9
100
AcDbPolyline
 90
        7
 70
     0
 43
0.0
 10
-3.035624999502792
 20
1.056527806209292
 10
-3.030680758216103
 20
1.112098611384051
 10
-3.015109847233462
 20
1.168356534705558
 10
-2.98924145570849
 20
1.220776784846519
 10
-2.953943809010775
 20
1.268166417414711
 10
-2.909588732736409
 20
1.30970693810963
 10
-2.906601000684498
 20
1.312082074736188
  0
LWPOLYLINE
  5
15C
330
11E
100
AcDbEntity
  8
AM_9
100
AcDbPolyline
 90
        7
 70
     0
 43
0.0
 10
2.905960275961645
 20
1.312575403966648
 10
2.935338594016299
 20
1.287342606091801
 10
2.974999438616161
 20
1.242122617388041
 10
3.00544210996393
 20
1.190878479432815
 10
3.025681915059462
 20
1.135202756078344
 10
3.034927052014112
 20
1.077008873495259
 10
3.03562499864546
 20
1.05657511332714
  0
LWPOLYLINE
  5
15D
330
11E
100
AcDbEntity
  8
AM_9
100
AcDbPolyline
 90
        6
 70
     0
 43
0.0
 10
2.645625
 20
1.397070461119055
 10
2.710646506400927
 20
1.392453681661012
 10
2.773824353951454
 20
1.378833657248018
 10
2.833311620187096
 20
1.356422579829304
 10
2.887557398030443
 20
1.325837583207038
 10
2.905960275961645
 20
1.312575403966648
  0
LINE
  5
15E
330
11E
100
AcDbEntity
  8
AM_9
100
AcDbLine
 10
2.025625
 20
-2.5
 30
0.0
 11
3.265625
 21
-2.5
 31
0.0
  0
LINE
  5
15F
330
11E
100
AcDbEntity
  8
AM_9
100
AcDbLine
 10
3.265625
 20
2.5
 30
0.0
 11
3.034325008444987
 21
2.5
 31
0.0
  0
LINE
  5
160
330
11E
100
AcDbEntity
  8
AM_9
100
AcDbLine
 10
2.255625
 20
2.5
 30
0.0
 11
2.025625
 21
2.5
 31
0.0
  0
LWPOLYLINE
  5
161
330
11E
100
AcDbEntity
  8
AM_9
100
AcDbPolyline
 90
       21
 70
     0
 43
0.0
 10
3.035624999999212
 20
2.499999999999878
 10
3.033259767135848
 20
2.499632115470687
 10
3.021019343273251
 20
2.497763181921288
 10
2.997896767002876
 20
2.494392791407826
 10
2.965680361593365
 20
2.490047275552145
 10
2.92354594929481
 20
2.484982908202173
 10
2.874402800452291
 20
2.479967596961659
 10
2.817219961787085
 20
2.475347416204584
 10
2.756726972350225
 20
2.471890703138008
 10
2.691176228580024
 20
2.469812728614287
 10
2.626859719984815
 20
2.469463936917089
 10
2.561216721873959
 20
2.470834830055664
 10
2.500112295962742
 20
2.473676200927728
 10
2.441414672848685
 20
2.477821998795565
 10
2.38953855226474
 20
2.482635750309269
 10
2.343484047162198
 20
2.487808102603924
 10
2.30675072240921
 20
2.492536012982096
 10
2.278744203831432
 20
2.496497850709526
 10
2.261906331773174
 20
2.499027814240124
 10
2.255638554850737
 20
2.499997885479138
 10
2.255625000000264
 20
2.499999999999959
  0
LINE
  5
162
330
11E
100
AcDbEntity
  8
AM_9
100
AcDbLine
 10
2.633921813263298
 20
2.469420370163774
 30
0.0
 11
2.645625
 21
2.469392637876771
 31
0.0
  0
LINE
  5
163
330
11E
100
AcDbEntity
  8
AM_9
100
AcDbLine
 10
2.255625000000264
 20
2.499999999999959
 30
0.0
 11
2.285172786787577
 21
2.495561219046677
 31
0.0
  0
LWPOLYLINE
  5
164
330
11E
100
AcDbEntity
  8
AM_9
100
AcDbPolyline
 90
        7
 70
     0
 43
0.0
 10
-2.385650557393113
 20
1.312852241730103
 10
-2.3559114059837
 20
1.287342606091801
 10
-2.316250561383839
 20
1.242122617388041
 10
-2.285807890036069
 20
1.190878479432815
 10
-2.265568084940538
 20
1.135202756078344
 10
-2.256322947985888
 20
1.077008873495259
 10
-2.25562500135454
 20
1.05657511332714
  0
LWPOLYLINE
  5
165
330
11E
100
AcDbEntity
  8
AM_9
100
AcDbPolyline
 90
        6
 70
     0
 43
0.0
 10
-2.645625
 20
1.397070461119055
 10
-2.580603493599073
 20
1.392453681661012
 10
-2.517425646048546
 20
1.378833657248018
 10
-2.457938379812903
 20
1.356422579829304
 10
-2.403692601969556
 20
1.325837583207038
 10
-2.385650557393113
 20
1.312852241730103
  0
LINE
  5
166
330
11E
100
AcDbEntity
  8
AM_9
100
AcDbLine
 10
-3.265625
 20
-2.5
 30
0.0
 11
-2.025624999999999
 21
-2.5
 31
0.0
  0
LINE
  5
167
330
11E
100
AcDbEntity
  8
AM_9
100
AcDbLine
 10
-2.025624999999999
 20
2.5
 30
0.0
 11
-2.256924991555013
 21
2.5
 31
0.0
  0
LINE
  5
168
330
11E
100
AcDbEntity
  8
AM_9
100
AcDbLine
 10
-3.035625
 20
2.5
 30
0.0
 11
-3.265625
 21
2.5
 31
0.0
  0
LWPOLYLINE
  5
169
330
11E
100
AcDbEntity
  8
AM_9
100
AcDbPolyline
 90
       21
 70
     0
 43
0.0
 10
-2.255625000000787
 20
2.499999999999878
 10
-2.257990232864151
 20
2.499632115470687
 10
-2.270230656726748
 20
2.497763181921288
 10
-2.293353232997124
 20
2.494392791407826
 10
-2.325569638406634
 20
2.490047275552145
 10
-2.36770405070519
 20
2.484982908202173
 10
-2.416847199547708
 20
2.479967596961659
 10
-2.474030038212915
 20
2.475347416204584
 10
-2.534523027649775
 20
2.471890703138007
 10
-2.600073771419975
 20
2.469812728614287
 10
-2.664390280015184
 20
2.469463936917089
 10
-2.73003327812604
 20
2.470834830055664
 10
-2.791137704037257
 20
2.473676200927728
 10
-2.849835327151315
 20
2.477821998795565
 10
-2.90171144773526
 20
2.482635750309269
 10
-2.947765952837801
 20
2.487808102603924
 10
-2.984499277590789
 20
2.492536012982096
 10
-3.012505796168568
 20
2.496497850709526
 10
-3.029343668226825
 20
2.499027814240124
 10
-3.035611445149262
 20
2.499997885479138
 10
-3.035624999999735
 20
2.499999999999959
  0
LINE
  5
16A
330
11E
100
AcDbEntity
  8
AM_9
100
AcDbLine
 10
-2.657328186736702
 20
2.469420370163774
 30
0.0
 11
-2.645625
 21
2.469392637876771
 31
0.0
  0
LINE
  5
16B
330
11E
100
AcDbEntity
  8
AM_9
100
AcDbLine
 10
-3.035624999999735
 20
2.499999999999959
 30
0.0
 11
-3.006077213212399
 21
2.495561219046673
 31
0.0
  0
LINE
  5
16E
330
11E
100
AcDbEntity
  8
AM_7
100
AcDbLine
 10
-3.5921875
 20
0.0
 30
0.0
 11
3.5921875
 21
0.0
 31
0.0
  0
LINE
  5
16F
330
11E
100
AcDbEntity
  8
AM_7
100
AcDbLine
 10
2.645625
 20
-0.1282051282051282
 30
0.0
 11
2.645625
 21
3.264976583333333
 31
0.0
  0
LINE
  5
170
330
11E
100
AcDbEntity
  8
AM_7
100
AcDbLine
 10
-2.645625
 20
-0.1282051282051282
 30
0.0
 11
-2.645625
 21
3.264976583333333
 31
0.0
  0
LWPOLYLINE
  5
171
330
11E
100
AcDbEntity
  8
AM_4
100
AcDbPolyline
 90
        4
 70
     0
 43
0.0
 10
2.645625
 20
1.276544965115126
 10
2.581646215620637
 20
1.272152321802197
 10
2.517667431241275
 20
1.258561576244807
 10
2.47807085290521
 20
1.244973835023818
  0
LWPOLYLINE
  5
172
330
11E
100
AcDbEntity
  8
AM_4
100
AcDbPolyline
 90
        4
 70
     0
 43
0.0
 10
2.802371449251241
 20
1.249114205810983
 10
2.739673976117389
 20
1.26696882051411
 10
2.693371586162431
 20
1.274106588031014
 10
2.645625
 20
1.276544965115126
  0
LWPOLYLINE
  5
173
330
11E
100
AcDbEntity
  8
AM_4
100
AcDbPolyline
 90
        4
 70
     0
 43
0.0
 10
-2.645625
 20
1.276544965115126
 10
-2.709603784379362
 20
1.272152321802197
 10
-2.773582568758725
 20
1.258561576244807
 10
-2.805852665570546
 20
1.247817426005371
  0
LWPOLYLINE
  5
174
330
11E
100
AcDbEntity
  8
AM_4
100
AcDbPolyline
 90
        5
 70
     0
 43
0.0
 10
-2.482920249222138
 20
1.246873507484717
 10
-2.488125948148805
 20
1.248836782663306
 10
-2.55157602388261
 20
1.26696882051411
 10
-2.597878413837569
 20
1.274106588031014
 10
-2.645625
 20
1.276544965115126
  0
LINE
  5
175
330
11E
100
AcDbEntity
  8
AM_4
100
AcDbLine
 10
1.588125
 20
-2.5
 30
0.0
 11
2.025625
 21
-2.5
 31
0.0
  0
LINE
  5
176
330
11E
100
AcDbEntity
  8
AM_4
100
AcDbLine
 10
2.025625
 20
2.5
 30
0.0
 11
1.588125
 21
2.5
 31
0.0
  0
LINE
  5
177
330
11E
100
AcDbEntity
  8
AM_4
100
AcDbLine
 10
-2.025624999999999
 20
-2.5
 30
0.0
 11
-1.588125
 21
-2.5
 31
0.0
  0
LINE
  5
178
330
11E
100
AcDbEntity
  8
AM_4
100
AcDbLine
 10
-1.588125
 20
2.5
 30
0.0
 11
-2.025624999999999
 21
2.5
 31
0.0
  0
LINE
  5
179
330
11E
100
AcDbEntity
  8
AM_4
100
AcDbLine
 10
-1.588125
 20
2.933974999999999
 30
0.0
 11
-1.588125
 21
-2.933974999999999
 31
0.0
  0
ARC
  5
17A
330
11E
100
AcDbEntity
  8
AM_4
100
AcDbCircle
 10
-1.3725
 20
-2.933974999999999
 30
0.0
 40
0.215625
100
AcDbArc
 50
180.0
 51
270.0
  0
ARC
  5
17B
330
11E
100
AcDbEntity
  8
AM_4
100
AcDbCircle
 10
-1.3725
 20
2.933974999999999
 30
0.0
 40
0.2156250000000002
100
AcDbArc
 50
90.0
 51
180.0
  0
LINE
  5
17C
330
11E
100
AcDbEntity
  8
AM_4
100
AcDbLine
 10
-1.3725
 20
-3.1496
 30
0.0
 11
-1.078125
 21
-3.1496
 31
0.0
  0
LINE
  5
17D
330
11E
100
AcDbEntity
  8
AM_4
100
AcDbLine
 10
-1.078125
 20
3.1496
 30
0.0
 11
-1.3725
 21
3.1496
 31
0.0
  0
LINE
  5
17E
330
11E
100
AcDbEntity
  8
AM_4
100
AcDbLine
 10
-1.3725
 20
3.1496
 30
0.0
 11
-1.3725
 21
-3.1496
 31
0.0
  0
LINE
  5
17F
330
11E
100
AcDbEntity
  8
AM_4
100
AcDbLine
 10
1.078125
 20
-3.1496
 30
0.0
 11
1.3725
 21
-3.1496
 31
0.0
  0
LINE
  5
180
330
11E
100
AcDbEntity
  8
AM_4
100
AcDbLine
 10
1.3725
 20
3.1496
 30
0.0
 11
1.078125
 21
3.1496
 31
0.0
  0
LINE
  5
181
330
11E
100
AcDbEntity
  8
AM_4
100
AcDbLine
 10
1.588125
 20
2.933975
 30
0.0
 11
1.588125
 21
-2.933975
 31
0.0
  0
ARC
  5
182
330
11E
100
AcDbEntity
  8
AM_4
100
AcDbCircle
 10
1.3725
 20
-2.933975
 30
0.0
 40
0.2156249999999997
100
AcDbArc
 50
270.0
 51
0.0
  0
ARC
  5
183
330
11E
100
AcDbEntity
  8
AM_4
100
AcDbCircle
 10
1.3725
 20
2.933975
 30
0.0
 40
0.215625
100
AcDbArc
 50
0.0
 51
90.0
  0
LINE
  5
184
330
11E
100
AcDbEntity
  8
AM_4
100
AcDbLine
 10
1.3725
 20
3.1496
 30
0.0
 11
1.3725
 21
-3.1496
 31
0.0
  0
LINE
  5
185
330
11E
100
AcDbEntity
  8
AM_4
100
AcDbLine
 10
-0.1078125000000053
 20
-3.77952
 30
0.0
 11
0.1078125000000053
 21
-3.77952
 31
0.0
  0
LINE
  5
186
330
11E
100
AcDbEntity
  8
AM_4
100
AcDbLine
 10
0.1078125000000053
 20
3.77952
 30
0.0
 11
-0.1078125000000053
 21
3.77952
 31
0.0
  0
LINE
  5
187
330
11E
100
AcDbEntity
  8
AM_4
100
AcDbLine
 10
-0.1078125000000053
 20
3.77952
 30
0.0
 11
-0.1987336203919874
 21
3.936999999999999
 31
0.0
  0
LINE
  5
188
330
11E
100
AcDbEntity
  8
AM_4
100
AcDbLine
 10
-0.1987336203919874
 20
-3.936999999999999
 30
0.0
 11
-0.1078125000000053
 21
-3.77952
 31
0.0
  0
LINE
  5
189
330
11E
100
AcDbEntity
  8
AM_4
100
AcDbLine
 10
-0.1078125000000053
 20
3.77952
 30
0.0
 11
-0.1078125000000053
 21
-3.77952
 31
0.0
  0
LINE
  5
18A
330
11E
100
AcDbEntity
  8
AM_4
100
AcDbLine
 10
-1.078125
 20
3.721374999999999
 30
0.0
 11
-1.078125
 21
-3.721374999999999
 31
0.0
  0
ARC
  5
18B
330
11E
100
AcDbEntity
  8
AM_4
100
AcDbCircle
 10
-0.8624999999999995
 20
-3.721374999999998
 30
0.0
 40
0.2156250000000007
100
AcDbArc
 50
180.0
 51
270.0
  0
ARC
  5
18C
330
11E
100
AcDbEntity
  8
AM_4
100
AcDbCircle
 10
-0.8624999999999997
 20
3.721374999999998
 30
0.0
 40
0.2156250000000011
100
AcDbArc
 50
90.0
 51
179.9999991462263
  0
LINE
  5
18D
330
11E
100
AcDbEntity
  8
AM_4
100
AcDbLine
 10
0.1078125000000053
 20
-3.77952
 30
0.0
 11
0.1987336203919874
 21
-3.936999999999999
 31
0.0
  0
LINE
  5
18E
330
11E
100
AcDbEntity
  8
AM_4
100
AcDbLine
 10
0.1987336203919874
 20
3.936999999999999
 30
0.0
 11
0.1078125000000053
 21
3.77952
 31
0.0
  0
LINE
  5
18F
330
11E
100
AcDbEntity
  8
AM_4
100
AcDbLine
 10
0.1078125000000053
 20
3.77952
 30
0.0
 11
0.1078125000000053
 21
-3.77952
 31
0.0
  0
LINE
  5
190
330
11E
100
AcDbEntity
  8
AM_4
100
AcDbLine
 10
0.1987336203919874
 20
-3.936999999999999
 30
0.0
 11
0.8624999999999999
 21
-3.936999999999999
 31
0.0
  0
LINE
  5
191
330
11E
100
AcDbEntity
  8
AM_4
100
AcDbLine
 10
0.8624999999999999
 20
3.936999999999999
 30
0.0
 11
0.1987336203919874
 21
3.936999999999999
 31
0.0
  0
LINE
  5
192
330
11E
100
AcDbEntity
  8
AM_4
100
AcDbLine
 10
0.1987336203919874
 20
3.936999999999999
 30
0.0
 11
0.1987336203919874
 21
-3.936999999999999
 31
0.0
  0
LINE
  5
193
330
11E
100
AcDbEntity
  8
AM_4
100
AcDbLine
 10
1.078125
 20
3.721375000000001
 30
0.0
 11
1.078125
 21
-3.721375000000001
 31
0.0
  0
ARC
  5
194
330
11E
100
AcDbEntity
  8
AM_4
100
AcDbCircle
 10
0.8624999999999997
 20
-3.721374999999998
 30
0.0
 40
0.2156250000000011
100
AcDbArc
 50
270.0
 51
0.0000008537736463
  0
ARC
  5
195
330
11E
100
AcDbEntity
  8
AM_4
100
AcDbCircle
 10
0.8624999999999995
 20
3.721374999999998
 30
0.0
 40
0.2156250000000007
100
AcDbArc
 50
0.0
 51
90.0
  0
LINE
  5
196
330
11E
100
AcDbEntity
  8
AM_4
100
AcDbLine
 10
0.8624999999999999
 20
3.936999999999999
 30
0.0
 11
0.8624999999999999
 21
-3.936999999999999
 31
0.0
  0
LINE
  5
197
330
11E
100
AcDbEntity
  8
AM_4
100
AcDbLine
 10
-0.8624999999999999
 20
-3.936999999999999
 30
0.0
 11
-0.1987336203919874
 21
-3.936999999999999
 31
0.0
  0
LINE
  5
198
330
11E
100
AcDbEntity
  8
AM_4
100
AcDbLine
 10
-0.1987336203919874
 20
3.936999999999999
 30
0.0
 11
-0.8624999999999999
 21
3.936999999999999
 31
0.0
  0
LINE
  5
199
330
11E
100
AcDbEntity
  8
AM_4
100
AcDbLine
 10
-0.8624999999999999
 20
3.936999999999999
 30
0.0
 11
-0.8624999999999999
 21
-3.936999999999999
 31
0.0
  0
LINE
  5
19A
330
11E
100
AcDbEntity
  8
AM_4
100
AcDbLine
 10
-0.1987336203919874
 20
3.936999999999999
 30
0.0
 11
-0.1987336203919874
 21
-3.936999999999999
 31
0.0
  0
ENDBLK
  5
121
330
11E
100
AcDbEntity
  8
0
100
AcDbBlockEnd
  0
ENDSEC
  0
SECTION
  2
ENTITIES
  0
INSERT
  5
6F
330
1F
100
AcDbEntity
  8
0
100
AcDbBlockReference
  2
1_070014_0
 10
0.0
 20
0.0
 30
0.0
  0
POINT
  5
19C
330
1F
100
AcDbEntity
  8
ConnectionPoints
100
AcDbPoint
 10
3.265625
 20
0.0
 30
0.0
  0
POINT
  5
19D
330
1F
100
AcDbEntity
  8
ConnectionPoints
100
AcDbPoint
 10
3.265625
 20
0.0
 30
0.0
  0
POINT
  5
19E
330
1F
100
AcDbEntity
  8
ConnectionPoints
100
AcDbPoint
 10
-3.265625
 20
0.0
 30
0.0
  0
POINT
  5
19F
330
1F
100
AcDbEntity
  8
ConnectionPoints
100
AcDbPoint
 10
3.265625
 20
0.0
 30
0.0
  0
ENDSEC
  0
SECTION
  2
OBJECTS
  0
DICTIONARY
  5
C
330
0
100
AcDbDictionary
281
     1
  3
ACAD_DETAILVIEWSTYLE
350
1A7
  3
ACAD_GROUP
350
D
  3
ACAD_LAYOUT
350
1A
  3
ACAD_MATERIAL
350
43
  3
ACAD_MLEADERSTYLE
350
6B
  3
ACAD_MLINESTYLE
350
17
  3
ACAD_PLOTSETTINGS
350
19
  3
ACAD_PLOTSTYLENAME
350
E
  3
ACAD_SCALELIST
350
47
  3
ACAD_SECTIONVIEWSTYLE
350
1A8
  3
ACAD_TABLESTYLE
350
69
  3
ACAD_VISUALSTYLE
350
2A
  3
ACDB_RECOMPOSE_DATA
350
1A4
  3
AcDbVariableDictionary
350
1A0
  0
SUN
  5
6D
330
29
100
AcDbSun
 90
        1
290
     0
 63
     7
421
 16777215
 40
1.0
291
     1
 91
  2455826
 92
 54000000
292
     0
 70
     2
 71
   256
280
     1
  0
DICTIONARY
  5
1A7
102
{ACAD_REACTORS
330
C
102
}
330
C
100
AcDbDictionary
281
     1
  0
DICTIONARY
  5
D
102
{ACAD_REACTORS
330
C
102
}
330
C
100
AcDbDictionary
281
     1
  0
DICTIONARY
  5
1A
102
{ACAD_REACTORS
330
C
102
}
330
C
100
AcDbDictionary
281
     1
  3
Layout1
350
1E
  3
Layout2
350
26
  3
Model
350
22
  0
DICTIONARY
  5
43
102
{ACAD_REACTORS
330
C
102
}
330
C
100
AcDbDictionary
281
     1
  3
ByBlock
350
45
  3
ByLayer
350
44
  3
Global
350
46
  0
DICTIONARY
  5
6B
102
{ACAD_REACTORS
330
C
102
}
330
C
100
AcDbDictionary
281
     1
  3
Standard
350
6C
  0
DICTIONARY
  5
17
102
{ACAD_REACTORS
330
C
102
}
330
C
100
AcDbDictionary
281
     1
  3
Standard
350
18
  0
DICTIONARY
  5
19
102
{ACAD_REACTORS
330
C
102
}
330
C
100
AcDbDictionary
281
     1
  0
ACDBDICTIONARYWDFLT
  5
E
102
{ACAD_REACTORS
330
C
102
}
330
C
100
AcDbDictionary
281
     1
  3
Normal
350
F
100
AcDbDictionaryWithDefault
340
F
  0
DICTIONARY
  5
47
102
{ACAD_REACTORS
330
C
102
}
330
C
100
AcDbDictionary
281
     1
  3
A0
350
48
  3
A1
350
49
  3
A2
350
4A
  3
A3
350
4B
  3
A4
350
4C
  3
A5
350
4D
  3
A6
350
4E
  3
A7
350
4F
  3
A8
350
50
  3
A9
350
51
  3
B0
350
52
  3
B1
350
53
  3
B2
350
54
  3
B3
350
55
  3
B4
350
56
  3
B5
350
57
  3
B6
350
58
  3
B7
350
59
  3
B8
350
5A
  3
B9
350
5B
  3
C0
350
5C
  3
C1
350
5D
  3
C2
350
5E
  3
C3
350
5F
  3
C4
350
60
  3
C5
350
61
  3
C6
350
62
  3
C7
350
63
  3
C8
350
64
  3
C9
350
65
  3
D0
350
66
  3
D1
350
67
  3
D2
350
68
  0
DICTIONARY
  5
1A8
102
{ACAD_REACTORS
330
C
102
}
330
C
100
AcDbDictionary
281
     1
  0
DICTIONARY
  5
69
102
{ACAD_REACTORS
330
C
102
}
330
C
100
AcDbDictionary
281
     1
  3
Standard
350
6A
  0
DICTIONARY
  5
2A
102
{ACAD_REACTORS
330
C
102
}
330
C
100
AcDbDictionary
281
     1
  3
2dWireframe
350
2F
  3
Basic
350
32
  3
Brighten
350
36
  3
ColorChange
350
3A
  3
Conceptual
350
34
  3
Dim
350
35
  3
EdgeColorOff
350
3D
  3
Facepattern
350
39
  3
Flat
350
2B
  3
FlatWithEdges
350
2C
  3
Gouraud
350
2D
  3
GouraudWithEdges
350
2E
  3
Hidden
350
31
  3
JitterOff
350
3B
  3
Linepattern
350
38
  3
OverhangOff
350
3C
  3
Realistic
350
33
  3
Shaded
350
42
  3
Shaded with edges
350
41
  3
Shades of Gray
350
3E
  3
Sketchy
350
3F
  3
Thicken
350
37
  3
Wireframe
350
30
  3
X-Ray
350
40
  0
XRECORD
  5
1A4
102
{ACAD_REACTORS
330
C
102
}
330
C
100
AcDbXrecord
280
     1
 90
        1
330
6A
  0
DICTIONARY
  5
1A0
102
{ACAD_REACTORS
330
C
102
}
330
C
100
AcDbDictionary
281
     1
  3
CANNOSCALE
350
1A1
  3
CMLEADERSTYLE
350
1A6
  3
CTABLESTYLE
350
1A5
  0
LAYOUT
  5
1E
102
{ACAD_REACTORS
330
1A
102
}
330
1A
100
AcDbPlotSettings
  1

  2
none_device
  4

  6

 40
0.0
 41
0.0
 42
0.0
 43
0.0
 44
0.0
 45
0.0
 46
0.0
 47
0.0
 48
0.0
 49
0.0
140
0.0
141
0.0
142
1.0
143
1.0
 70
   688
 72
     0
 73
     0
 74
     5
  7

 75
    16
 76
     0
 77
     2
 78
   300
147
1.0
148
0.0
149
0.0
100
AcDbLayout
  1
Layout1
 70
     1
 71
     1
 10
0.0
 20
0.0
 11
12.0
 21
9.0
 12
0.0
 22
0.0
 32
0.0
 14
1.000000000000000E+20
 24
1.000000000000000E+20
 34
1.000000000000000E+20
 15
-1.000000000000000E+20
 25
-1.000000000000000E+20
 35
-1.000000000000000E+20
146
0.0
 13
0.0
 23
0.0
 33
0.0
 16
1.0
 26
0.0
 36
0.0
 17
0.0
 27
1.0
 37
0.0
 76
     0
330
1B
  0
LAYOUT
  5
26
102
{ACAD_REACTORS
330
1A
102
}
330
1A
100
AcDbPlotSettings
  1

  2
none_device
  4

  6

 40
0.0
 41
0.0
 42
0.0
 43
0.0
 44
0.0
 45
0.0
 46
0.0
 47
0.0
 48
0.0
 49
0.0
140
0.0
141
0.0
142
1.0
143
1.0
 70
   688
 72
     0
 73
     0
 74
     5
  7

 75
    16
 76
     0
 77
     2
 78
   300
147
1.0
148
0.0
149
0.0
100
AcDbLayout
  1
Layout2
 70
     1
 71
     2
 10
0.0
 20
0.0
 11
0.0
 21
0.0
 12
0.0
 22
0.0
 32
0.0
 14
0.0
 24
0.0
 34
0.0
 15
0.0
 25
0.0
 35
0.0
146
0.0
 13
0.0
 23
0.0
 33
0.0
 16
1.0
 26
0.0
 36
0.0
 17
0.0
 27
1.0
 37
0.0
 76
     0
330
23
  0
LAYOUT
  5
22
102
{ACAD_REACTORS
330
1A
102
}
330
1A
100
AcDbPlotSettings
  1

  2
none_device
  4
Letter_(8.50_x_11.00_Inches)
  6

 40
6.35
 41
6.35
 42
6.35000508
 43
6.35000508
 44
215.9
 45
279.4
 46
0.0
 47
0.0
 48
0.0
 49
0.0
140
0.0
141
0.0
142
1.0
143
1.0
 70
  1712
 72
     0
 73
     0
 74
     0
  7

 75
     0
 76
     0
 77
     2
 78
   300
147
1.0
148
0.0
149
0.0
100
AcDbLayout
  1
Model
 70
     1
 71
     0
 10
0.0
 20
0.0
 11
12.0
 21
9.0
 12
0.0
 22
0.0
 32
0.0
 14
1.000000000000000E+20
 24
1.000000000000000E+20
 34
1.000000000000000E+20
 15
-1.000000000000000E+20
 25
-1.000000000000000E+20
 35
-1.000000000000000E+20
146
0.0
 13
0.0
 23
0.0
 33
0.0
 16
1.0
 26
0.0
 36
0.0
 17
0.0
 27
1.0
 37
0.0
 76
     0
330
1F
331
29
  0
MATERIAL
  5
45
102
{ACAD_REACTORS
330
43
102
}
330
43
100
AcDbMaterial
  1
ByBlock
 72
     1
 94
      127
  0
MATERIAL
  5
44
102
{ACAD_REACTORS
330
43
102
}
330
43
100
AcDbMaterial
  1
ByLayer
 72
     1
 94
      127
  0
MATERIAL
  5
46
102
{ACAD_REACTORS
330
43
102
}
330
43
100
AcDbMaterial
  1
Global
 72
     1
 94
      127
  0
MLEADERSTYLE
  5
6C
102
{ACAD_REACTORS
330
6B
102
}
330
6B
100
AcDbMLeaderStyle
179
     2
170
     2
171
     1
172
     0
 90
        2
 40
0.0
 41
0.0
173
     1
 91
-1056964608
340
14
 92
       -2
290
     1
 42
0.09
291
     1
 43
0.36
  3
Standard
341
0
 44
0.18
300

342
11
174
     1
178
     6
175
     1
176
     0
 93
-1056964608
 45
0.18
292
     0
297
     0
 46
0.18
343
0
 94
-1056964608
 47
1.0
 49
1.0
140
1.0
293
     1
141
0.0
294
     1
177
     0
142
1.0
295
     0
296
     0
143
0.125
271
     0
272
     9
273
     9
298
     0
  0
MLINESTYLE
  5
18
102
{ACAD_REACTORS
330
17
102
}
330
17
100
AcDbMlineStyle
  2
Standard
 70
     0
  3

 62
   256
 51
90.0
 52
90.0
 71
     2
 49
0.5
 62
   256
  6
BYLAYER
 49
-0.5
 62
   256
  6
BYLAYER
  0
ACDBPLACEHOLDER
  5
F
102
{ACAD_REACTORS
330
E
102
}
330
E
  0
SCALE
  5
48
102
{ACAD_REACTORS
330
47
102
}
330
47
100
AcDbScale
 70
     0
300
1:1
140
1.0
141
1.0
290
     1
  0
SCALE
  5
49
102
{ACAD_REACTORS
330
47
102
}
330
47
100
AcDbScale
 70
     0
300
1:2
140
1.0
141
2.0
290
     0
  0
SCALE
  5
4A
102
{ACAD_REACTORS
330
47
102
}
330
47
100
AcDbScale
 70
     0
300
1:4
140
1.0
141
4.0
290
     0
  0
SCALE
  5
4B
102
{ACAD_REACTORS
330
47
102
}
330
47
100
AcDbScale
 70
     0
300
1:5
140
1.0
141
5.0
290
     0
  0
SCALE
  5
4C
102
{ACAD_REACTORS
330
47
102
}
330
47
100
AcDbScale
 70
     0
300
1:8
140
1.0
141
8.0
290
     0
  0
SCALE
  5
4D
102
{ACAD_REACTORS
330
47
102
}
330
47
100
AcDbScale
 70
     0
300
1:10
140
1.0
141
10.0
290
     0
  0
SCALE
  5
4E
102
{ACAD_REACTORS
330
47
102
}
330
47
100
AcDbScale
 70
     0
300
1:16
140
1.0
141
16.0
290
     0
  0
SCALE
  5
4F
102
{ACAD_REACTORS
330
47
102
}
330
47
100
AcDbScale
 70
     0
300
1:20
140
1.0
141
20.0
290
     0
  0
SCALE
  5
50
102
{ACAD_REACTORS
330
47
102
}
330
47
100
AcDbScale
 70
     0
300
1:30
140
1.0
141
30.0
290
     0
  0
SCALE
  5
51
102
{ACAD_REACTORS
330
47
102
}
330
47
100
AcDbScale
 70
     0
300
1:40
140
1.0
141
40.0
290
     0
  0
SCALE
  5
52
102
{ACAD_REACTORS
330
47
102
}
330
47
100
AcDbScale
 70
     0
300
1:50
140
1.0
141
50.0
290
     0
  0
SCALE
  5
53
102
{ACAD_REACTORS
330
47
102
}
330
47
100
AcDbScale
 70
     0
300
1:100
140
1.0
141
100.0
290
     0
  0
SCALE
  5
54
102
{ACAD_REACTORS
330
47
102
}
330
47
100
AcDbScale
 70
     0
300
2:1
140
2.0
141
1.0
290
     0
  0
SCALE
  5
55
102
{ACAD_REACTORS
330
47
102
}
330
47
100
AcDbScale
 70
     0
300
4:1
140
4.0
141
1.0
290
     0
  0
SCALE
  5
56
102
{ACAD_REACTORS
330
47
102
}
330
47
100
AcDbScale
 70
     0
300
8:1
140
8.0
141
1.0
290
     0
  0
SCALE
  5
57
102
{ACAD_REACTORS
330
47
102
}
330
47
100
AcDbScale
 70
     0
300
10:1
140
10.0
141
1.0
290
     0
  0
SCALE
  5
58
102
{ACAD_REACTORS
330
47
102
}
330
47
100
AcDbScale
 70
     0
300
100:1
140
100.0
141
1.0
290
     0
  0
SCALE
  5
59
102
{ACAD_REACTORS
330
47
102
}
330
47
100
AcDbScale
 70
     0
300
1/128" = 1'-0"
140
0.0078125
141
12.0
290
     0
  0
SCALE
  5
5A
102
{ACAD_REACTORS
330
47
102
}
330
47
100
AcDbScale
 70
     0
300
1/64" = 1'-0"
140
0.015625
141
12.0
290
     0
  0
SCALE
  5
5B
102
{ACAD_REACTORS
330
47
102
}
330
47
100
AcDbScale
 70
     0
300
1/32" = 1'-0"
140
0.03125
141
12.0
290
     0
  0
SCALE
  5
5C
102
{ACAD_REACTORS
330
47
102
}
330
47
100
AcDbScale
 70
     0
300
1/16" = 1'-0"
140
0.0625
141
12.0
290
     0
  0
SCALE
  5
5D
102
{ACAD_REACTORS
330
47
102
}
330
47
100
AcDbScale
 70
     0
300
3/32" = 1'-0"
140
0.09375
141
12.0
290
     0
  0
SCALE
  5
5E
102
{ACAD_REACTORS
330
47
102
}
330
47
100
AcDbScale
 70
     0
300
1/8" = 1'-0"
140
0.125
141
12.0
290
     0
  0
SCALE
  5
5F
102
{ACAD_REACTORS
330
47
102
}
330
47
100
AcDbScale
 70
     0
300
3/16" = 1'-0"
140
0.1875
141
12.0
290
     0
  0
SCALE
  5
60
102
{ACAD_REACTORS
330
47
102
}
330
47
100
AcDbScale
 70
     0
300
1/4" = 1'-0"
140
0.25
141
12.0
290
     0
  0
SCALE
  5
61
102
{ACAD_REACTORS
330
47
102
}
330
47
100
AcDbScale
 70
     0
300
3/8" = 1'-0"
140
0.375
141
12.0
290
     0
  0
SCALE
  5
62
102
{ACAD_REACTORS
330
47
102
}
330
47
100
AcDbScale
 70
     0
300
1/2" = 1'-0"
140
0.5
141
12.0
290
     0
  0
SCALE
  5
63
102
{ACAD_REACTORS
330
47
102
}
330
47
100
AcDbScale
 70
     0
300
3/4" = 1'-0"
140
0.75
141
12.0
290
     0
  0
SCALE
  5
64
102
{ACAD_REACTORS
330
47
102
}
330
47
100
AcDbScale
 70
     0
300
1" = 1'-0"
140
1.0
141
12.0
290
     0
  0
SCALE
  5
65
102
{ACAD_REACTORS
330
47
102
}
330
47
100
AcDbScale
 70
     0
300
1-1/2" = 1'-0"
140
1.5
141
12.0
290
     0
  0
SCALE
  5
66
102
{ACAD_REACTORS
330
47
102
}
330
47
100
AcDbScale
 70
     0
300
3" = 1'-0"
140
3.0
141
12.0
290
     0
  0
SCALE
  5
67
102
{ACAD_REACTORS
330
47
102
}
330
47
100
AcDbScale
 70
     0
300
6" = 1'-0"
140
6.0
141
12.0
290
     0
  0
SCALE
  5
68
102
{ACAD_REACTORS
330
47
102
}
330
47
100
AcDbScale
 70
     0
300
1'-0" = 1'-0"
140
12.0
141
12.0
290
     0
  0
TABLESTYLE
  5
6A
102
{ACAD_REACTORS
330
69
102
}
102
{ACAD_XDICTIONARY
360
1A2
102
}
330
69
100
AcDbTableStyle
  3
Standard
 70
     0
 71
     0
 40
0.06
 41
0.06
280
     0
281
     0
  7
Standard
140
0.18
170
     2
 62
     0
 63
   257
283
     0
 90
        4
 91
        0
  1

274
    -2
284
     1
 64
     0
275
    -2
285
     1
 65
     0
276
    -2
286
     1
 66
     0
277
    -2
287
     1
 67
     0
278
    -2
288
     1
 68
     0
279
    -2
289
     1
 69
     0
  7
Standard
140
0.25
170
     5
 62
     0
 63
   257
283
     0
 90
        4
 91
        0
  1

274
    -2
284
     1
 64
     0
275
    -2
285
     1
 65
     0
276
    -2
286
     1
 66
     0
277
    -2
287
     1
 67
     0
278
    -2
288
     1
 68
     0
279
    -2
289
     1
 69
     0
  7
Standard
140
0.18
170
     5
 62
     0
 63
   257
283
     0
 90
        4
 91
        0
  1

274
    -2
284
     1
 64
     0
275
    -2
285
     1
 65
     0
276
    -2
286
     1
 66
     0
277
    -2
287
     1
 67
     0
278
    -2
288
     1
 68
     0
279
    -2
289
     1
 69
     0
  0
VISUALSTYLE
  5
2F
102
{ACAD_REACTORS
330
2A
102
}
330
2A
100
AcDbVisualStyle
  2
2dWireframe
 70
     4
177
     3
291
     0
 70
    58
 90
        0
176
     1
 90
        2
176
     1
 90
        0
176
     1
 90
        0
176
     1
 40
0.6
176
     1
 40
30.0
176
     1
 62
     7
420
 16777215
176
     1
 90
        1
176
     1
 90
        4
176
     1
 62
     7
176
     1
 62
   257
176
     1
 90
        1
176
     1
 90
        1
176
     1
 40
1.0
176
     1
 90
        0
176
     1
 62
   257
176
     1
 40
1.0
176
     1
 90
        1
176
     1
 90
        6
176
     1
 90
        2
176
     1
 62
     7
176
     1
 90
        5
176
     1
 90
        0
176
     1
 90
        0
176
     1
290
     0
176
     1
 90
        1
176
     1
 40
0.0
176
     1
 90
        0
176
     1
290
     1
176
     1
290
     1
176
     1
290
     0
176
     1
290
     0
176
     1
290
     0
176
     1
290
     0
176
     1
290
     0
176
     1
290
     0
176
     1
290
     0
176
     1
 90
       50
176
     1
 40
0.0
176
     1
 40
1.0
176
     1
 90
        0
176
     1
 62
    18
420
        0
176
     1
 90
       50
176
     1
 90
        3
176
     1
 62
     5
420
      255
176
     1
290
     0
176
     1
 90
       50
176
     1
 90
       50
176
     1
 90
       50
176
     1
290
     0
176
     1
 90
       50
176
     1
 62
   256
176
     0
 40
1.0
176
     0
 90
        2
176
     1
  1
strokes_ogs.tif
176
     1
290
     0
176
     1
 40
1.0
176
     1
 40
1.0
176
     1
  0
VISUALSTYLE
  5
32
102
{ACAD_REACTORS
330
2A
102
}
330
2A
100
AcDbVisualStyle
  2
Basic
 70
     7
177
     3
291
     1
 70
    58
 90
        1
176
     1
 90
        0
176
     1
 90
        1
176
     1
 90
        0
176
     1
 40
0.6
176
     1
 40
30.0
176
     1
 62
     7
420
 16777215
176
     1
 90
        0
176
     1
 90
        4
176
     1
 62
     7
176
     1
 62
   257
176
     1
 90
        1
176
     1
 90
        1
176
     1
 40
1.0
176
     1
 90
        8
176
     1
 62
     7
176
     1
 40
1.0
176
     1
 90
        1
176
     1
 90
        6
176
     1
 90
        2
176
     1
 62
     7
176
     1
 90
        5
176
     1
 90
        0
176
     1
 90
        0
176
     1
290
     0
176
     1
 90
        1
176
     1
 40
0.0
176
     1
 90
        0
176
     1
290
     0
176
     1
290
     1
176
     1
290
     1
176
     1
290
     0
176
     1
290
     0
176
     1
290
     0
176
     1
290
     0
176
     1
290
     0
176
     1
290
     0
176
     1
 90
       50
176
     1
 40
0.0
176
     1
 40
1.0
176
     1
 90
        0
176
     1
 62
    18
420
        0
176
     1
 90
       50
176
     1
 90
        3
176
     1
 62
     5
420
      255
176
     1
290
     0
176
     1
 90
       50
176
     1
 90
       50
176
     1
 90
       50
176
     1
290
     0
176
     1
 90
       50
176
     1
 62
   256
176
     0
 40
1.0
176
     0
 90
        2
176
     1
  1
strokes_ogs.tif
176
     1
290
     0
176
     1
 40
1.0
176
     1
 40
1.0
176
     1
  0
VISUALSTYLE
  5
36
102
{ACAD_REACTORS
330
2A
102
}
330
2A
100
AcDbVisualStyle
  2
Brighten
 70
    12
177
     3
291
     1
 70
    58
 90
        2
176
     1
 90
        2
176
     1
 90
        0
176
     1
 90
        0
176
     1
 40
0.6
176
     1
 40
30.0
176
     1
 62
     7
420
 16777215
176
     1
 90
        1
176
     1
 90
        4
176
     1
 62
     7
176
     1
 62
   257
176
     1
 90
        1
176
     1
 90
        1
176
     1
 40
1.0
176
     1
 90
        8
176
     1
 62
     7
176
     1
 40
1.0
176
     1
 90
        1
176
     1
 90
        6
176
     1
 90
        2
176
     1
 62
     7
176
     1
 90
        5
176
     1
 90
        0
176
     1
 90
        0
176
     1
290
     0
176
     1
 90
        1
176
     1
 40
50.0
176
     1
 90
        0
176
     1
290
     0
176
     1
290
     1
176
     1
290
     1
176
     1
290
     0
176
     1
290
     0
176
     1
290
     0
176
     1
290
     0
176
     1
290
     0
176
     1
290
     0
176
     1
 90
       50
176
     1
 40
0.0
176
     1
 40
1.0
176
     1
 90
        0
176
     1
 62
    18
420
        0
176
     1
 90
       50
176
     1
 90
        3
176
     1
 62
     5
420
      255
176
     1
290
     0
176
     1
 90
       50
176
     1
 90
       50
176
     1
 90
       50
176
     1
290
     0
176
     1
 90
       50
176
     1
 62
   256
176
     0
 40
1.0
176
     0
 90
        2
176
     1
  1
strokes_ogs.tif
176
     1
290
     0
176
     1
 40
1.0
176
     1
 40
1.0
176
     1
  0
VISUALSTYLE
  5
3A
102
{ACAD_REACTORS
330
2A
102
}
330
2A
100
AcDbVisualStyle
  2
ColorChange
 70
    16
177
     3
291
     1
 70
    58
 90
        2
176
     1
 90
        2
176
     1
 90
        3
176
     1
 90
        0
176
     1
 40
0.6
176
     1
 40
30.0
176
     1
 62
     8
420
  8421504
176
     1
 90
        1
176
     1
 90
        4
176
     1
 62
     7
176
     1
 62
   257
176
     1
 90
        1
176
     1
 90
        1
176
     1
 40
1.0
176
     1
 90
        8
176
     1
 62
     8
420
  8421504
176
     1
 40
1.0
176
     1
 90
        1
176
     1
 90
        6
176
     1
 90
        2
176
     1
 62
     7
176
     1
 90
        5
176
     1
 90
        0
176
     1
 90
        0
176
     1
290
     0
176
     1
 90
        1
176
     1
 40
0.0
176
     1
 90
        0
176
     1
290
     0
176
     1
290
     1
176
     1
290
     1
176
     1
290
     0
176
     1
290
     0
176
     1
290
     0
176
     1
290
     0
176
     1
290
     0
176
     1
290
     0
176
     1
 90
       50
176
     1
 40
0.0
176
     1
 40
1.0
176
     1
 90
        0
176
     1
 62
    18
420
        0
176
     1
 90
       50
176
     1
 90
        3
176
     1
 62
     5
420
      255
176
     1
290
     0
176
     1
 90
       50
176
     1
 90
       50
176
     1
 90
       50
176
     1
290
     0
176
     1
 90
       50
176
     1
 62
   256
176
     0
 40
1.0
176
     0
 90
        2
176
     1
  1
strokes_ogs.tif
176
     1
290
     0
176
     1
 40
1.0
176
     1
 40
1.0
176
     1
  0
VISUALSTYLE
  5
34
102
{ACAD_REACTORS
330
2A
102
}
330
2A
100
AcDbVisualStyle
  2
Conceptual
 70
     9
177
     3
291
     0
 70
    58
 90
        3
176
     1
 90
        2
176
     1
 90
        0
176
     1
 90
        0
176
     1
 40
0.6
176
     1
 40
30.0
176
     1
 62
     7
420
 16777215
176
     1
 90
        2
176
     1
 90
        2
176
     1
 62
     7
176
     1
 62
   257
176
     1
 90
        1
176
     1
 90
        1
176
     1
 40
179.0
176
     1
 90
        8
176
     1
 62
     7
176
     1
 40
1.0
176
     1
 90
        1
176
     1
 90
        6
176
     1
 90
        2
176
     1
 62
     7
176
     1
 90
        3
176
     1
 90
        0
176
     1
 90
        0
176
     1
290
     0
176
     1
 90
        1
176
     1
 40
0.0
176
     1
 90
        0
176
     1
290
     0
176
     1
290
     1
176
     1
290
     1
176
     1
290
     0
176
     1
290
     0
176
     1
290
     0
176
     1
290
     0
176
     1
290
     0
176
     1
290
     0
176
     1
 90
       50
176
     1
 40
0.0
176
     1
 40
1.0
176
     1
 90
        0
176
     1
 62
    18
420
        0
176
     1
 90
       50
176
     1
 90
        3
176
     1
 62
     5
420
      255
176
     1
290
     0
176
     1
 90
       50
176
     1
 90
       50
176
     1
 90
       50
176
     1
290
     0
176
     1
 90
       50
176
     1
 62
   256
176
     0
 40
1.0
176
     0
 90
        2
176
     1
  1
strokes_ogs.tif
176
     1
290
     0
176
     1
 40
1.0
176
     1
 40
1.0
176
     1
  0
VISUALSTYLE
  5
35
102
{ACAD_REACTORS
330
2A
102
}
330
2A
100
AcDbVisualStyle
  2
Dim
 70
    11
177
     3
291
     1
 70
    58
 90
        2
176
     1
 90
        2
176
     1
 90
        0
176
     1
 90
        0
176
     1
 40
0.6
176
     1
 40
30.0
176
     1
 62
     7
420
 16777215
176
     1
 90
        1
176
     1
 90
        4
176
     1
 62
     7
176
     1
 62
   257
176
     1
 90
        1
176
     1
 90
        1
176
     1
 40
1.0
176
     1
 90
        8
176
     1
 62
     7
176
     1
 40
1.0
176
     1
 90
        1
176
     1
 90
        6
176
     1
 90
        2
176
     1
 62
     7
176
     1
 90
        5
176
     1
 90
        0
176
     1
 90
        0
176
     1
290
     0
176
     1
 90
        1
176
     1
 40
-50.0
176
     1
 90
        0
176
     1
290
     0
176
     1
290
     1
176
     1
290
     1
176
     1
290
     0
176
     1
290
     0
176
     1
290
     0
176
     1
290
     0
176
     1
290
     0
176
     1
290
     0
176
     1
 90
       50
176
     1
 40
0.0
176
     1
 40
1.0
176
     1
 90
        0
176
     1
 62
    18
420
        0
176
     1
 90
       50
176
     1
 90
        3
176
     1
 62
     5
420
      255
176
     1
290
     0
176
     1
 90
       50
176
     1
 90
       50
176
     1
 90
       50
176
     1
290
     0
176
     1
 90
       50
176
     1
 62
   256
176
     0
 40
1.0
176
     0
 90
        2
176
     1
  1
strokes_ogs.tif
176
     1
290
     0
176
     1
 40
1.0
176
     1
 40
1.0
176
     1
  0
VISUALSTYLE
  5
3D
102
{ACAD_REACTORS
330
2A
102
}
330
2A
100
AcDbVisualStyle
  2
EdgeColorOff
 70
    22
177
     3
291
     1
 70
    58
 90
        2
176
     0
 90
        2
176
     0
 90
        0
176
     0
 90
        0
176
     0
 40
0.6
176
     0
 40
30.0
176
     0
 62
     7
420
 16777215
176
     0
 90
        1
176
     0
 90
        4
176
     0
 62
     7
176
     0
 62
   257
176
     0
 90
        1
176
     0
 90
        1
176
     0
 40
1.0
176
     0
 90
        8
176
     2
 62
     7
176
     0
 40
1.0
176
     0
 90
        1
176
     0
 90
        6
176
     0
 90
        2
176
     0
 62
     7
176
     0
 90
        5
176
     0
 90
        0
176
     0
 90
        0
176
     0
290
     0
176
     0
 90
        1
176
     0
 40
0.0
176
     0
 90
        0
176
     0
290
     0
176
     0
290
     1
176
     0
290
     1
176
     0
290
     0
176
     0
290
     0
176
     0
290
     0
176
     0
290
     0
176
     0
290
     0
176
     0
290
     0
176
     0
 90
       50
176
     0
 40
0.0
176
     0
 40
1.0
176
     0
 90
        0
176
     0
 62
    18
420
        0
176
     0
 90
       50
176
     0
 90
        3
176
     0
 62
     5
420
      255
176
     0
290
     0
176
     0
 90
       50
176
     0
 90
       50
176
     0
 90
       50
176
     0
290
     0
176
     0
 90
       50
176
     0
 62
   256
176
     0
 40
1.0
176
     0
 90
        2
176
     0
  1
strokes_ogs.tif
176
     0
290
     0
176
     0
 40
1.0
176
     0
 40
1.0
176
     0
  0
VISUALSTYLE
  5
39
102
{ACAD_REACTORS
330
2A
102
}
330
2A
100
AcDbVisualStyle
  2
Facepattern
 70
    15
177
     3
291
     1
 70
    58
 90
        2
176
     1
 90
        2
176
     1
 90
        0
176
     1
 90
        0
176
     1
 40
0.6
176
     1
 40
30.0
176
     1
 62
     7
420
 16777215
176
     1
 90
        1
176
     1
 90
        4
176
     1
 62
     7
176
     1
 62
   257
176
     1
 90
        1
176
     1
 90
        1
176
     1
 40
1.0
176
     1
 90
        8
176
     1
 62
     7
176
     1
 40
1.0
176
     1
 90
        1
176
     1
 90
        6
176
     1
 90
        2
176
     1
 62
     7
176
     1
 90
        5
176
     1
 90
        0
176
     1
 90
        0
176
     1
290
     0
176
     1
 90
        1
176
     1
 40
0.0
176
     1
 90
        0
176
     1
290
     0
176
     1
290
     1
176
     1
290
     1
176
     1
290
     0
176
     1
290
     0
176
     1
290
     0
176
     1
290
     0
176
     1
290
     0
176
     1
290
     0
176
     1
 90
       50
176
     1
 40
0.0
176
     1
 40
1.0
176
     1
 90
        0
176
     1
 62
    18
420
        0
176
     1
 90
       50
176
     1
 90
        3
176
     1
 62
     5
420
      255
176
     1
290
     0
176
     1
 90
       50
176
     1
 90
       50
176
     1
 90
       50
176
     1
290
     0
176
     1
 90
       50
176
     1
 62
   256
176
     0
 40
1.0
176
     0
 90
        2
176
     1
  1
strokes_ogs.tif
176
     1
290
     0
176
     1
 40
1.0
176
     1
 40
1.0
176
     1
  0
VISUALSTYLE
  5
2B
102
{ACAD_REACTORS
330
2A
102
}
330
2A
100
AcDbVisualStyle
  2
Flat
 70
     0
177
     3
291
     1
 70
    58
 90
        2
176
     1
 90
        1
176
     1
 90
        1
176
     1
 90
        2
176
     1
 40
0.6
176
     1
 40
30.0
176
     1
 62
     7
420
 16777215
176
     1
 90
        0
176
     1
 90
        0
176
     1
 62
     7
176
     1
 62
   257
176
     1
 90
        1
176
     1
 90
        1
176
     1
 40
1.0
176
     1
 90
        8
176
     1
 62
     7
176
     1
 40
1.0
176
     1
 90
        1
176
     1
 90
        6
176
     1
 90
        2
176
     1
 62
     7
176
     1
 90
        5
176
     1
 90
        0
176
     1
 90
        0
176
     1
290
     0
176
     1
 90
       13
176
     1
 40
0.0
176
     1
 90
        0
176
     1
290
     0
176
     1
290
     1
176
     1
290
     1
176
     1
290
     0
176
     1
290
     0
176
     1
290
     0
176
     1
290
     0
176
     1
290
     0
176
     1
290
     0
176
     1
 90
       50
176
     1
 40
0.0
176
     1
 40
1.0
176
     1
 90
        0
176
     1
 62
    18
420
        0
176
     1
 90
       50
176
     1
 90
        3
176
     1
 62
     5
420
      255
176
     1
290
     0
176
     1
 90
       50
176
     1
 90
       50
176
     1
 90
       50
176
     1
290
     0
176
     1
 90
       50
176
     1
 62
   256
176
     0
 40
1.0
176
     0
 90
        2
176
     1
  1
strokes_ogs.tif
176
     1
290
     0
176
     1
 40
1.0
176
     1
 40
1.0
176
     1
  0
VISUALSTYLE
  5
2C
102
{ACAD_REACTORS
330
2A
102
}
330
2A
100
AcDbVisualStyle
  2
FlatWithEdges
 70
     1
177
     3
291
     1
 70
    58
 90
        2
176
     1
 90
        1
176
     1
 90
        1
176
     1
 90
        2
176
     1
 40
0.6
176
     1
 40
30.0
176
     1
 62
     7
420
 16777215
176
     1
 90
        1
176
     1
 90
        0
176
     1
 62
     7
176
     1
 62
   257
176
     1
 90
        1
176
     1
 90
        1
176
     1
 40
1.0
176
     1
 90
        0
176
     1
 62
   257
176
     1
 40
1.0
176
     1
 90
        1
176
     1
 90
        6
176
     1
 90
        2
176
     1
 62
     7
176
     1
 90
        5
176
     1
 90
        0
176
     1
 90
        0
176
     1
290
     0
176
     1
 90
       13
176
     1
 40
0.0
176
     1
 90
        0
176
     1
290
     0
176
     1
290
     1
176
     1
290
     1
176
     1
290
     0
176
     1
290
     0
176
     1
290
     0
176
     1
290
     0
176
     1
290
     0
176
     1
290
     0
176
     1
 90
       50
176
     1
 40
0.0
176
     1
 40
1.0
176
     1
 90
        0
176
     1
 62
    18
420
        0
176
     1
 90
       50
176
     1
 90
        3
176
     1
 62
     5
420
      255
176
     1
290
     0
176
     1
 90
       50
176
     1
 90
       50
176
     1
 90
       50
176
     1
290
     0
176
     1
 90
       50
176
     1
 62
   256
176
     0
 40
1.0
176
     0
 90
        2
176
     1
  1
strokes_ogs.tif
176
     1
290
     0
176
     1
 40
1.0
176
     1
 40
1.0
176
     1
  0
VISUALSTYLE
  5
2D
102
{ACAD_REACTORS
330
2A
102
}
330
2A
100
AcDbVisualStyle
  2
Gouraud
 70
     2
177
     3
291
     1
 70
    58
 90
        2
176
     1
 90
        2
176
     1
 90
        1
176
     1
 90
        2
176
     1
 40
0.6
176
     1
 40
30.0
176
     1
 62
     7
420
 16777215
176
     1
 90
        0
176
     1
 90
        0
176
     1
 62
     7
176
     1
 62
   257
176
     1
 90
        1
176
     1
 90
        1
176
     1
 40
1.0
176
     1
 90
        0
176
     1
 62
     7
176
     1
 40
1.0
176
     1
 90
        1
176
     1
 90
        6
176
     1
 90
        2
176
     1
 62
     7
176
     1
 90
        5
176
     1
 90
        0
176
     1
 90
        0
176
     1
290
     0
176
     1
 90
       13
176
     1
 40
0.0
176
     1
 90
        0
176
     1
290
     0
176
     1
290
     1
176
     1
290
     1
176
     1
290
     0
176
     1
290
     0
176
     1
290
     0
176
     1
290
     0
176
     1
290
     0
176
     1
290
     0
176
     1
 90
       50
176
     1
 40
0.0
176
     1
 40
1.0
176
     1
 90
        0
176
     1
 62
    18
420
        0
176
     1
 90
       50
176
     1
 90
        3
176
     1
 62
     5
420
      255
176
     1
290
     0
176
     1
 90
       50
176
     1
 90
       50
176
     1
 90
       50
176
     1
290
     0
176
     1
 90
       50
176
     1
 62
   256
176
     0
 40
1.0
176
     0
 90
        2
176
     1
  1
strokes_ogs.tif
176
     1
290
     0
176
     1
 40
1.0
176
     1
 40
1.0
176
     1
  0
VISUALSTYLE
  5
2E
102
{ACAD_REACTORS
330
2A
102
}
330
2A
100
AcDbVisualStyle
  2
GouraudWithEdges
 70
     3
177
     3
291
     1
 70
    58
 90
        2
176
     1
 90
        2
176
     1
 90
        1
176
     1
 90
        2
176
     1
 40
0.6
176
     1
 40
30.0
176
     1
 62
     7
420
 16777215
176
     1
 90
        1
176
     1
 90
        0
176
     1
 62
     7
176
     1
 62
   257
176
     1
 90
        1
176
     1
 90
        1
176
     1
 40
1.0
176
     1
 90
        0
176
     1
 62
   257
176
     1
 40
1.0
176
     1
 90
        1
176
     1
 90
        6
176
     1
 90
        2
176
     1
 62
     7
176
     1
 90
        5
176
     1
 90
        0
176
     1
 90
        0
176
     1
290
     0
176
     1
 90
       13
176
     1
 40
0.0
176
     1
 90
        0
176
     1
290
     0
176
     1
290
     1
176
     1
290
     1
176
     1
290
     0
176
     1
290
     0
176
     1
290
     0
176
     1
290
     0
176
     1
290
     0
176
     1
290
     0
176
     1
 90
       50
176
     1
 40
0.0
176
     1
 40
1.0
176
     1
 90
        0
176
     1
 62
    18
420
        0
176
     1
 90
       50
176
     1
 90
        3
176
     1
 62
     5
420
      255
176
     1
290
     0
176
     1
 90
       50
176
     1
 90
       50
176
     1
 90
       50
176
     1
290
     0
176
     1
 90
       50
176
     1
 62
   256
176
     0
 40
1.0
176
     0
 90
        2
176
     1
  1
strokes_ogs.tif
176
     1
290
     0
176
     1
 40
1.0
176
     1
 40
1.0
176
     1
  0
VISUALSTYLE
  5
31
102
{ACAD_REACTORS
330
2A
102
}
330
2A
100
AcDbVisualStyle
  2
Hidden
 70
     6
177
     3
291
     0
 70
    58
 90
        1
176
     1
 90
        2
176
     1
 90
        2
176
     1
 90
        0
176
     1
 40
0.6
176
     1
 40
30.0
176
     1
 62
     7
420
 16777215
176
     1
 90
        2
176
     1
 90
        2
176
     1
 62
     7
176
     1
 62
   257
176
     1
 90
        2
176
     1
 90
        1
176
     1
 40
40.0
176
     1
 90
        0
176
     1
 62
   257
176
     1
 40
1.0
176
     1
 90
        1
176
     1
 90
        6
176
     1
 90
        2
176
     1
 62
     7
176
     1
 90
        3
176
     1
 90
        0
176
     1
 90
        0
176
     1
290
     0
176
     1
 90
        1
176
     1
 40
0.0
176
     1
 90
        0
176
     1
290
     0
176
     1
290
     1
176
     1
290
     1
176
     1
290
     0
176
     1
290
     0
176
     1
290
     0
176
     1
290
     0
176
     1
290
     0
176
     1
290
     0
176
     1
 90
       50
176
     1
 40
0.0
176
     1
 40
1.0
176
     1
 90
        0
176
     1
 62
    18
420
        0
176
     1
 90
       50
176
     1
 90
        3
176
     1
 62
     5
420
      255
176
     1
290
     0
176
     1
 90
       50
176
     1
 90
       50
176
     1
 90
       50
176
     1
290
     0
176
     1
 90
       50
176
     1
 62
   256
176
     0
 40
1.0
176
     0
 90
        2
176
     1
  1
strokes_ogs.tif
176
     1
290
     0
176
     1
 40
1.0
176
     1
 40
1.0
176
     1
  0
VISUALSTYLE
  5
3B
102
{ACAD_REACTORS
330
2A
102
}
330
2A
100
AcDbVisualStyle
  2
JitterOff
 70
    20
177
     3
291
     1
 70
    58
 90
        2
176
     0
 90
        2
176
     0
 90
        0
176
     0
 90
        0
176
     0
 40
0.6
176
     0
 40
30.0
176
     0
 62
     7
420
 16777215
176
     0
 90
        1
176
     0
 90
        4
176
     0
 62
     7
176
     0
 62
   257
176
     0
 90
        1
176
     0
 90
        1
176
     0
 40
1.0
176
     0
 90
       10
176
     2
 62
     7
176
     0
 40
1.0
176
     0
 90
        1
176
     0
 90
        6
176
     0
 90
        2
176
     0
 62
     7
176
     0
 90
        5
176
     0
 90
        0
176
     0
 90
        0
176
     0
290
     0
176
     0
 90
        1
176
     0
 40
0.0
176
     0
 90
        0
176
     0
290
     0
176
     0
290
     1
176
     0
290
     1
176
     0
290
     0
176
     0
290
     0
176
     0
290
     0
176
     0
290
     0
176
     0
290
     0
176
     0
290
     0
176
     0
 90
       50
176
     0
 40
0.0
176
     0
 40
1.0
176
     0
 90
        0
176
     0
 62
    18
420
        0
176
     0
 90
       50
176
     0
 90
        3
176
     0
 62
     5
420
      255
176
     0
290
     0
176
     0
 90
       50
176
     0
 90
       50
176
     0
 90
       50
176
     0
290
     0
176
     0
 90
       50
176
     0
 62
   256
176
     0
 40
1.0
176
     0
 90
        2
176
     0
  1
strokes_ogs.tif
176
     0
290
     0
176
     0
 40
1.0
176
     0
 40
1.0
176
     0
  0
VISUALSTYLE
  5
38
102
{ACAD_REACTORS
330
2A
102
}
330
2A
100
AcDbVisualStyle
  2
Linepattern
 70
    14
177
     3
291
     1
 70
    58
 90
        2
176
     1
 90
        2
176
     1
 90
        0
176
     1
 90
        0
176
     1
 40
0.6
176
     1
 40
30.0
176
     1
 62
     7
420
 16777215
176
     1
 90
        1
176
     1
 90
        4
176
     1
 62
     7
176
     1
 62
   257
176
     1
 90
        7
176
     1
 90
        7
176
     1
 40
1.0
176
     1
 90
        8
176
     1
 62
     7
176
     1
 40
1.0
176
     1
 90
        1
176
     1
 90
        6
176
     1
 90
        2
176
     1
 62
     7
176
     1
 90
        5
176
     1
 90
        0
176
     1
 90
        0
176
     1
290
     0
176
     1
 90
        1
176
     1
 40
0.0
176
     1
 90
        0
176
     1
290
     0
176
     1
290
     1
176
     1
290
     1
176
     1
290
     0
176
     1
290
     0
176
     1
290
     0
176
     1
290
     0
176
     1
290
     0
176
     1
290
     0
176
     1
 90
       50
176
     1
 40
0.0
176
     1
 40
1.0
176
     1
 90
        0
176
     1
 62
    18
420
        0
176
     1
 90
       50
176
     1
 90
        3
176
     1
 62
     5
420
      255
176
     1
290
     0
176
     1
 90
       50
176
     1
 90
       50
176
     1
 90
       50
176
     1
290
     0
176
     1
 90
       50
176
     1
 62
   256
176
     0
 40
1.0
176
     0
 90
        2
176
     1
  1
strokes_ogs.tif
176
     1
290
     0
176
     1
 40
1.0
176
     1
 40
1.0
176
     1
  0
VISUALSTYLE
  5
3C
102
{ACAD_REACTORS
330
2A
102
}
330
2A
100
AcDbVisualStyle
  2
OverhangOff
 70
    21
177
     3
291
     1
 70
    58
 90
        2
176
     0
 90
        2
176
     0
 90
        0
176
     0
 90
        0
176
     0
 40
0.6
176
     0
 40
30.0
176
     0
 62
     7
420
 16777215
176
     0
 90
        1
176
     0
 90
        4
176
     0
 62
     7
176
     0
 62
   257
176
     0
 90
        1
176
     0
 90
        1
176
     0
 40
1.0
176
     0
 90
        9
176
     2
 62
     7
176
     0
 40
1.0
176
     0
 90
        1
176
     0
 90
        6
176
     0
 90
        2
176
     0
 62
     7
176
     0
 90
        5
176
     0
 90
        0
176
     0
 90
        0
176
     0
290
     0
176
     0
 90
        1
176
     0
 40
0.0
176
     0
 90
        0
176
     0
290
     0
176
     0
290
     1
176
     0
290
     1
176
     0
290
     0
176
     0
290
     0
176
     0
290
     0
176
     0
290
     0
176
     0
290
     0
176
     0
290
     0
176
     0
 90
       50
176
     0
 40
0.0
176
     0
 40
1.0
176
     0
 90
        0
176
     0
 62
    18
420
        0
176
     0
 90
       50
176
     0
 90
        3
176
     0
 62
     5
420
      255
176
     0
290
     0
176
     0
 90
       50
176
     0
 90
       50
176
     0
 90
       50
176
     0
290
     0
176
     0
 90
       50
176
     0
 62
   256
176
     0
 40
1.0
176
     0
 90
        2
176
     0
  1
strokes_ogs.tif
176
     0
290
     0
176
     0
 40
1.0
176
     0
 40
1.0
176
     0
  0
VISUALSTYLE
  5
33
102
{ACAD_REACTORS
330
2A
102
}
330
2A
100
AcDbVisualStyle
  2
Realistic
 70
     8
177
     3
291
     0
 70
    58
 90
        2
176
     1
 90
        3
176
     1
 90
        0
176
     1
 90
        2
176
     1
 40
0.6
176
     1
 40
30.0
176
     1
 62
     7
420
 16777215
176
     1
 90
        0
176
     1
 90
        0
176
     1
 62
     7
176
     1
 62
   257
176
     1
 90
        1
176
     1
 90
        1
176
     1
 40
1.0
176
     1
 90
        8
176
     1
 62
   257
176
     1
 40
1.0
176
     1
 90
        1
176
     1
 90
        6
176
     1
 90
        2
176
     1
 62
     7
176
     1
 90
        3
176
     1
 90
        0
176
     1
 90
        0
176
     1
290
     0
176
     1
 90
       13
176
     1
 40
0.0
176
     1
 90
        0
176
     1
290
     0
176
     1
290
     1
176
     1
290
     1
176
     1
290
     0
176
     1
290
     0
176
     1
290
     0
176
     1
290
     0
176
     1
290
     0
176
     1
290
     0
176
     1
 90
       50
176
     1
 40
0.0
176
     1
 40
1.0
176
     1
 90
        0
176
     1
 62
    18
420
        0
176
     1
 90
       50
176
     1
 90
        3
176
     1
 62
     5
420
      255
176
     1
290
     0
176
     1
 90
       50
176
     1
 90
       50
176
     1
 90
       50
176
     1
290
     0
176
     1
 90
       50
176
     1
 62
   256
176
     0
 40
1.0
176
     0
 90
        2
176
     1
  1
strokes_ogs.tif
176
     1
290
     0
176
     1
 40
1.0
176
     1
 40
1.0
176
     1
  0
VISUALSTYLE
  5
42
102
{ACAD_REACTORS
330
2A
102
}
330
2A
100
AcDbVisualStyle
  2
Shaded
 70
    27
177
     3
291
     0
 70
    58
 90
        2
176
     1
 90
        2
176
     1
 90
        1
176
     1
 90
        2
176
     1
 40
0.6
176
     1
 40
30.0
176
     1
 62
     7
420
 16777215
176
     1
 90
        0
176
     1
 90
        4
176
     1
 62
     7
176
     1
 62
   257
176
     1
 90
        1
176
     1
 90
        1
176
     1
 40
1.0
176
     1
 90
        8
176
     1
 62
   257
176
     1
 40
1.0
176
     1
 90
        1
176
     1
 90
        6
176
     1
 90
        2
176
     1
 62
     8
420
  7895160
176
     1
 90
        3
176
     1
 90
        0
176
     1
 90
        0
176
     1
290
     0
176
     1
 90
        5
176
     1
 40
0.0
176
     1
 90
        0
176
     1
290
     0
176
     1
290
     1
176
     1
290
     1
176
     1
290
     0
176
     1
290
     0
176
     1
290
     0
176
     1
290
     0
176
     1
290
     0
176
     1
290
     0
176
     1
 90
       50
176
     1
 40
0.0
176
     1
 40
1.0
176
     1
 90
        0
176
     1
 62
    18
420
        0
176
     1
 90
       50
176
     1
 90
        3
176
     1
 62
     5
420
      255
176
     1
290
     0
176
     1
 90
       50
176
     1
 90
       50
176
     1
 90
       50
176
     1
290
     0
176
     1
 90
       50
176
     1
 62
   256
176
     0
 40
1.0
176
     0
 90
        2
176
     1
  1
strokes_ogs.tif
176
     1
290
     0
176
     1
 40
1.0
176
     1
 40
1.0
176
     1
  0
VISUALSTYLE
  5
41
102
{ACAD_REACTORS
330
2A
102
}
330
2A
100
AcDbVisualStyle
  2
Shaded with edges
 70
    26
177
     3
291
     0
 70
    58
 90
        2
176
     1
 90
        2
176
     1
 90
        1
176
     1
 90
        2
176
     1
 40
0.6
176
     1
 40
30.0
176
     1
 62
     7
420
 16777215
176
     1
 90
        1
176
     1
 90
       10
176
     1
 62
     7
176
     1
 62
   257
176
     1
 90
        2
176
     1
 90
        1
176
     1
 40
1.0
176
     1
 90
        8
176
     1
 62
   257
176
     1
 40
1.0
176
     1
 90
        1
176
     1
 90
        6
176
     1
 90
        2
176
     1
 62
     7
176
     1
 90
        3
176
     1
 90
        0
176
     1
 90
        0
176
     1
290
     0
176
     1
 90
        5
176
     1
 40
0.0
176
     1
 90
        0
176
     1
290
     0
176
     1
290
     1
176
     1
290
     1
176
     1
290
     0
176
     1
290
     0
176
     1
290
     0
176
     1
290
     0
176
     1
290
     0
176
     1
290
     0
176
     1
 90
       50
176
     1
 40
0.0
176
     1
 40
1.0
176
     1
 90
        0
176
     1
 62
    18
420
        0
176
     1
 90
       50
176
     1
 90
        3
176
     1
 62
     5
420
      255
176
     1
290
     0
176
     1
 90
       50
176
     1
 90
       50
176
     1
 90
       50
176
     1
290
     0
176
     1
 90
       50
176
     1
 62
   256
176
     0
 40
1.0
176
     0
 90
        2
176
     1
  1
strokes_ogs.tif
176
     1
290
     0
176
     1
 40
1.0
176
     1
 40
1.0
176
     1
  0
VISUALSTYLE
  5
3E
102
{ACAD_REACTORS
330
2A
102
}
330
2A
100
AcDbVisualStyle
  2
Shades of Gray
 70
    23
177
     3
291
     0
 70
    58
 90
        2
176
     1
 90
        2
176
     1
 90
        3
176
     1
 90
        0
176
     1
 40
0.6
176
     1
 40
30.0
176
     1
 62
     7
420
 16777215
176
     1
 90
        2
176
     1
 90
        2
176
     1
 62
     7
176
     1
 62
     7
176
     1
 90
        1
176
     1
 90
        1
176
     1
 40
40.0
176
     1
 90
        8
176
     1
 62
     7
176
     1
 40
1.0
176
     1
 90
        1
176
     1
 90
        6
176
     1
 90
        2
176
     1
 62
     7
176
     1
 90
        3
176
     1
 90
        0
176
     1
 90
        0
176
     1
290
     0
176
     1
 90
        1
176
     1
 40
0.0
176
     1
 90
        0
176
     1
290
     0
176
     1
290
     1
176
     1
290
     1
176
     1
290
     0
176
     1
290
     0
176
     1
290
     0
176
     1
290
     0
176
     1
290
     0
176
     1
290
     0
176
     1
 90
       50
176
     1
 40
0.0
176
     1
 40
1.0
176
     1
 90
        0
176
     1
 62
    18
420
        0
176
     1
 90
       50
176
     1
 90
        3
176
     1
 62
     5
420
      255
176
     1
290
     0
176
     1
 90
       50
176
     1
 90
       50
176
     1
 90
       50
176
     1
290
     0
176
     1
 90
       50
176
     1
 62
   256
176
     0
 40
1.0
176
     0
 90
        2
176
     1
  1
strokes_ogs.tif
176
     1
290
     0
176
     1
 40
1.0
176
     1
 40
1.0
176
     1
  0
VISUALSTYLE
  5
3F
102
{ACAD_REACTORS
330
2A
102
}
330
2A
100
AcDbVisualStyle
  2
Sketchy
 70
    24
177
     3
291
     0
 70
    58
 90
        1
176
     1
 90
        2
176
     1
 90
        2
176
     1
 90
        0
176
     1
 40
0.6
176
     1
 40
30.0
176
     1
 62
     7
420
 16777215
176
     1
 90
        2
176
     1
 90
        2
176
     1
 62
     7
176
     1
 62
     7
176
     1
 90
        1
176
     1
 90
        1
176
     1
 40
40.0
176
     1
 90
       11
176
     1
 62
     7
176
     1
 40
1.0
176
     1
 90
        1
176
     1
 90
        6
176
     1
 90
        2
176
     1
 62
     7
176
     1
 90
        6
176
     1
 90
        0
176
     1
 90
        0
176
     1
290
     0
176
     1
 90
        1
176
     1
 40
0.0
176
     1
 90
        0
176
     1
290
     0
176
     1
290
     1
176
     1
290
     1
176
     1
290
     0
176
     1
290
     0
176
     1
290
     0
176
     1
290
     0
176
     1
290
     0
176
     1
290
     0
176
     1
 90
       50
176
     1
 40
0.0
176
     1
 40
1.0
176
     1
 90
        0
176
     1
 62
    18
420
        0
176
     1
 90
       50
176
     1
 90
        3
176
     1
 62
     5
420
      255
176
     1
290
     0
176
     1
 90
       50
176
     1
 90
       50
176
     1
 90
       50
176
     1
290
     0
176
     1
 90
       50
176
     1
 62
   256
176
     0
 40
1.0
176
     0
 90
        2
176
     1
  1
strokes_ogs.tif
176
     1
290
     0
176
     1
 40
1.0
176
     1
 40
1.0
176
     1
  0
VISUALSTYLE
  5
37
102
{ACAD_REACTORS
330
2A
102
}
330
2A
100
AcDbVisualStyle
  2
Thicken
 70
    13
177
     3
291
     1
 70
    58
 90
        2
176
     1
 90
        2
176
     1
 90
        0
176
     1
 90
        0
176
     1
 40
0.6
176
     1
 40
30.0
176
     1
 62
     7
420
 16777215
176
     1
 90
        1
176
     1
 90
        4
176
     1
 62
     7
176
     1
 62
   257
176
     1
 90
        1
176
     1
 90
        1
176
     1
 40
1.0
176
     1
 90
       12
176
     1
 62
     7
176
     1
 40
1.0
176
     1
 90
        1
176
     1
 90
        6
176
     1
 90
        2
176
     1
 62
     7
176
     1
 90
        5
176
     1
 90
        0
176
     1
 90
        0
176
     1
290
     0
176
     1
 90
        1
176
     1
 40
0.0
176
     1
 90
        0
176
     1
290
     0
176
     1
290
     1
176
     1
290
     1
176
     1
290
     0
176
     1
290
     0
176
     1
290
     0
176
     1
290
     0
176
     1
290
     0
176
     1
290
     0
176
     1
 90
       50
176
     1
 40
0.0
176
     1
 40
1.0
176
     1
 90
        0
176
     1
 62
    18
420
        0
176
     1
 90
       50
176
     1
 90
        3
176
     1
 62
     5
420
      255
176
     1
290
     0
176
     1
 90
       50
176
     1
 90
       50
176
     1
 90
       50
176
     1
290
     0
176
     1
 90
       50
176
     1
 62
   256
176
     0
 40
1.0
176
     0
 90
        2
176
     1
  1
strokes_ogs.tif
176
     1
290
     0
176
     1
 40
1.0
176
     1
 40
1.0
176
     1
  0
VISUALSTYLE
  5
30
102
{ACAD_REACTORS
330
2A
102
}
330
2A
100
AcDbVisualStyle
  2
Wireframe
 70
     5
177
     3
291
     0
 70
    58
 90
        0
176
     1
 90
        2
176
     1
 90
        0
176
     1
 90
        0
176
     1
 40
0.6
176
     1
 40
30.0
176
     1
 62
     7
420
 16777215
176
     1
 90
        1
176
     1
 90
        4
176
     1
 62
     7
176
     1
 62
   257
176
     1
 90
        1
176
     1
 90
        1
176
     1
 40
1.0
176
     1
 90
        0
176
     1
 62
   257
176
     1
 40
1.0
176
     1
 90
        1
176
     1
 90
        6
176
     1
 90
        2
176
     1
 62
     7
176
     1
 90
        3
176
     1
 90
        0
176
     1
 90
        0
176
     1
290
     0
176
     1
 90
        1
176
     1
 40
0.0
176
     1
 90
        0
176
     1
290
     0
176
     1
290
     1
176
     1
290
     1
176
     1
290
     0
176
     1
290
     0
176
     1
290
     0
176
     1
290
     0
176
     1
290
     0
176
     1
290
     0
176
     1
 90
       50
176
     1
 40
0.0
176
     1
 40
1.0
176
     1
 90
        0
176
     1
 62
    18
420
        0
176
     1
 90
       50
176
     1
 90
        3
176
     1
 62
     5
420
      255
176
     1
290
     0
176
     1
 90
       50
176
     1
 90
       50
176
     1
 90
       50
176
     1
290
     0
176
     1
 90
       50
176
     1
 62
   256
176
     0
 40
1.0
176
     0
 90
        2
176
     1
  1
strokes_ogs.tif
176
     1
290
     0
176
     1
 40
1.0
176
     1
 40
1.0
176
     1
  0
VISUALSTYLE
  5
40
102
{ACAD_REACTORS
330
2A
102
}
330
2A
100
AcDbVisualStyle
  2
X-Ray
 70
    25
177
     3
291
     0
 70
    58
 90
        2
176
     1
 90
        2
176
     1
 90
        1
176
     1
 90
        1
176
     1
 40
0.5
176
     1
 40
30.0
176
     1
 62
     7
420
 16777215
176
     1
 90
        1
176
     1
 90
        0
176
     1
 62
     7
176
     1
 62
   257
176
     1
 90
        1
176
     1
 90
        1
176
     1
 40
1.0
176
     1
 90
        8
176
     1
 62
     7
176
     1
 40
1.0
176
     1
 90
        1
176
     1
 90
        6
176
     1
 90
        2
176
     1
 62
     7
176
     1
 90
        3
176
     1
 90
        0
176
     1
 90
        0
176
     1
290
     0
176
     1
 90
       13
176
     1
 40
0.0
176
     1
 90
        0
176
     1
290
     0
176
     1
290
     1
176
     1
290
     1
176
     1
290
     0
176
     1
290
     0
176
     1
290
     0
176
     1
290
     0
176
     1
290
     0
176
     1
290
     0
176
     1
 90
       50
176
     1
 40
0.0
176
     1
 40
1.0
176
     1
 90
        0
176
     1
 62
    18
420
        0
176
     1
 90
       50
176
     1
 90
        3
176
     1
 62
     5
420
      255
176
     1
290
     0
176
     1
 90
       50
176
     1
 90
       50
176
     1
 90
       50
176
     1
290
     0
176
     1
 90
       50
176
     1
 62
   256
176
     0
 40
1.0
176
     0
 90
        2
176
     1
  1
strokes_ogs.tif
176
     1
290
     0
176
     1
 40
1.0
176
     1
 40
1.0
176
     1
  0
DICTIONARYVAR
  5
1A1
102
{ACAD_REACTORS
330
1A0
102
}
330
1A0
100
DictionaryVariables
280
     0
  1
1:1
  0
DICTIONARYVAR
  5
1A6
102
{ACAD_REACTORS
330
1A0
102
}
330
1A0
100
DictionaryVariables
280
     0
  1
Standard
  0
DICTIONARYVAR
  5
1A5
102
{ACAD_REACTORS
330
1A0
102
}
330
1A0
100
DictionaryVariables
280
     0
  1
Standard
  0
DICTIONARY
  5
1A2
330
6A
100
AcDbDictionary
280
     1
281
     1
  3
ACAD_ROUNDTRIP_2008_TABLESTYLE_CELLSTYLEMAP
360
1A3
  0
CELLSTYLEMAP
  5
1A3
102
{ACAD_REACTORS
330
1A2
102
}
330
1A2
100
AcDbCellStyleMap
 90
        3
300
CELLSTYLE
  1
TABLEFORMAT_BEGIN
 90
        5
170
     1
 91
        0
 92
    32768
 62
   257
 93
        1
300
CONTENTFORMAT
  1
CONTENTFORMAT_BEGIN
 90
        0
 91
        0
 92
        4
 93
        0
300

 40
0.0
140
1.0
 94
        5
 62
     0
340
11
144
0.25
309
CONTENTFORMAT_END
171
     1
301
MARGIN
  1
CELLMARGIN_BEGIN
 40
0.06
 40
0.06
 40
0.06
 40
0.06
 40
0.06
 40
0.06
309
CELLMARGIN_END
 94
        6
 95
        1
302
GRIDFORMAT
  1
GRIDFORMAT_BEGIN
 90
        0
 91
        1
 62
     0
 92
       -2
340
14
 93
        0
 40
0.045
309
GRIDFORMAT_END
 95
        2
302
GRIDFORMAT
  1
GRIDFORMAT_BEGIN
 90
        0
 91
        1
 62
     0
 92
       -2
340
14
 93
        0
 40
0.045
309
GRIDFORMAT_END
 95
        4
302
GRIDFORMAT
  1
GRIDFORMAT_BEGIN
 90
        0
 91
        1
 62
     0
 92
       -2
340
14
 93
        0
 40
0.045
309
GRIDFORMAT_END
 95
        8
302
GRIDFORMAT
  1
GRIDFORMAT_BEGIN
 90
        0
 91
        1
 62
     0
 92
       -2
340
14
 93
        0
 40
0.045
309
GRIDFORMAT_END
 95
       16
302
GRIDFORMAT
  1
GRIDFORMAT_BEGIN
 90
        0
 91
        1
 62
     0
 92
       -2
340
14
 93
        0
 40
0.045
309
GRIDFORMAT_END
 95
       32
302
GRIDFORMAT
  1
GRIDFORMAT_BEGIN
 90
        0
 91
        1
 62
     0
 92
       -2
340
14
 93
        0
 40
0.045
309
GRIDFORMAT_END
309
TABLEFORMAT_END
  1
CELLSTYLE_BEGIN
 90
        1
 91
        1
300
_TITLE
309
CELLSTYLE_END
300
CELLSTYLE
  1
TABLEFORMAT_BEGIN
 90
        5
170
     1
 91
        0
 92
        0
 62
   257
 93
        1
300
CONTENTFORMAT
  1
CONTENTFORMAT_BEGIN
 90
        0
 91
        0
 92
        4
 93
        0
300

 40
0.0
140
1.0
 94
        5
 62
     0
340
11
144
0.18
309
CONTENTFORMAT_END
171
     1
301
MARGIN
  1
CELLMARGIN_BEGIN
 40
0.06
 40
0.06
 40
0.06
 40
0.06
 40
0.06
 40
0.06
309
CELLMARGIN_END
 94
        6
 95
        1
302
GRIDFORMAT
  1
GRIDFORMAT_BEGIN
 90
        0
 91
        1
 62
     0
 92
       -2
340
14
 93
        0
 40
0.045
309
GRIDFORMAT_END
 95
        2
302
GRIDFORMAT
  1
GRIDFORMAT_BEGIN
 90
        0
 91
        1
 62
     0
 92
       -2
340
14
 93
        0
 40
0.045
309
GRIDFORMAT_END
 95
        4
302
GRIDFORMAT
  1
GRIDFORMAT_BEGIN
 90
        0
 91
        1
 62
     0
 92
       -2
340
14
 93
        0
 40
0.045
309
GRIDFORMAT_END
 95
        8
302
GRIDFORMAT
  1
GRIDFORMAT_BEGIN
 90
        0
 91
        1
 62
     0
 92
       -2
340
14
 93
        0
 40
0.045
309
GRIDFORMAT_END
 95
       16
302
GRIDFORMAT
  1
GRIDFORMAT_BEGIN
 90
        0
 91
        1
 62
     0
 92
       -2
340
14
 93
        0
 40
0.045
309
GRIDFORMAT_END
 95
       32
302
GRIDFORMAT
  1
GRIDFORMAT_BEGIN
 90
        0
 91
        1
 62
     0
 92
       -2
340
14
 93
        0
 40
0.045
309
GRIDFORMAT_END
309
TABLEFORMAT_END
  1
CELLSTYLE_BEGIN
 90
        2
 91
        1
300
_HEADER
309
CELLSTYLE_END
300
CELLSTYLE
  1
TABLEFORMAT_BEGIN
 90
        5
170
     1
 91
        0
 92
        0
 62
   257
 93
        1
300
CONTENTFORMAT
  1
CONTENTFORMAT_BEGIN
 90
        0
 91
        0
 92
        4
 93
        0
300

 40
0.0
140
1.0
 94
        2
 62
     0
340
11
144
0.18
309
CONTENTFORMAT_END
171
     1
301
MARGIN
  1
CELLMARGIN_BEGIN
 40
0.06
 40
0.06
 40
0.06
 40
0.06
 40
0.06
 40
0.06
309
CELLMARGIN_END
 94
        6
 95
        1
302
GRIDFORMAT
  1
GRIDFORMAT_BEGIN
 90
        0
 91
        1
 62
     0
 92
       -2
340
14
 93
        0
 40
0.045
309
GRIDFORMAT_END
 95
        2
302
GRIDFORMAT
  1
GRIDFORMAT_BEGIN
 90
        0
 91
        1
 62
     0
 92
       -2
340
14
 93
        0
 40
0.045
309
GRIDFORMAT_END
 95
        4
302
GRIDFORMAT
  1
GRIDFORMAT_BEGIN
 90
        0
 91
        1
 62
     0
 92
       -2
340
14
 93
        0
 40
0.045
309
GRIDFORMAT_END
 95
        8
302
GRIDFORMAT
  1
GRIDFORMAT_BEGIN
 90
        0
 91
        1
 62
     0
 92
       -2
340
14
 93
        0
 40
0.045
309
GRIDFORMAT_END
 95
       16
302
GRIDFORMAT
  1
GRIDFORMAT_BEGIN
 90
        0
 91
        1
 62
     0
 92
       -2
340
14
 93
        0
 40
0.045
309
GRIDFORMAT_END
 95
       32
302
GRIDFORMAT
  1
GRIDFORMAT_BEGIN
 90
        0
 91
        1
 62
     0
 92
       -2
340
14
 93
        0
 40
0.045
309
GRIDFORMAT_END
309
TABLEFORMAT_END
  1
CELLSTYLE_BEGIN
 90
        3
 91
        2
300
_DATA
309
CELLSTYLE_END
  0
ENDSEC
  0
EOF