0
SECTION
  2
HEADER
  9
$ACADVER
  1
AC1027
  9
$ACADMAINTVER
 70
     8
  9
$DWGCODEPAGE
  3
ANSI_1252
  9
$REQUIREDVERSIONS
160
                 0
  9
$COMMENTS
  1
File was created by Cadenas
  9
$CUSTOMPROPERTYTAG
  1
NN
  9
$CUSTOMPROPERTY
  1
Imperial - IP Piloted Flange Labyrinth Seal
  9
$CUSTOMPROPERTYTAG
  1
NT
  9
$CUSTOMPROPERTY
  1
Imperial Piloted Flange Bearings
  9
$CUSTOMPROPERTYTAG
  1
NB
  9
$CUSTOMPROPERTY
  1
069932
  9
$CUSTOMPROPERTYTAG
  1
NBSYN
  9
$CUSTOMPROPERTY
  1
$PN.
  9
$CUSTOMPROPERTYTAG
  1
LINA
  9
$CUSTOMPROPERTY
  1
069932
  9
$CUSTOMPROPERTYTAG
  1
SS
  9
$CUSTOMPROPERTY
  1
5
  9
$CUSTOMPROPERTYTAG
  1
PN
  9
$CUSTOMPROPERTY
  1
069932
  9
$CUSTOMPROPERTYTAG
  1
DESCRIPTION
  9
$CUSTOMPROPERTY
  1
FC-IP-500LE
  9
$CUSTOMPROPERTYTAG
  1
EF
  9
$CUSTOMPROPERTY
  1
Expansion Type
  9
$CUSTOMPROPERTYTAG
  1
ST
  9
$CUSTOMPROPERTY
  1
Labyrinth Seal
  9
$CUSTOMPROPERTYTAG
  1
A
  9
$CUSTOMPROPERTY
  1
5-63/64
  9
$CUSTOMPROPERTYTAG
  1
B
  9
$CUSTOMPROPERTY
  1
14-3/4
  9
$CUSTOMPROPERTYTAG
  1
C
  9
$CUSTOMPROPERTY
  1
4-3/8
  9
$CUSTOMPROPERTYTAG
  1
D
  9
$CUSTOMPROPERTY
  1
9-1/64
  9
$CUSTOMPROPERTYTAG
  1
DD
  9
$CUSTOMPROPERTY
  1
12-3/4
  9
$CUSTOMPROPERTYTAG
  1
E
  9
$CUSTOMPROPERTY
  1
1-45/64
  9
$CUSTOMPROPERTYTAG
  1
F
  9
$CUSTOMPROPERTY
  1
7/8
  9
$CUSTOMPROPERTYTAG
  1
G
  9
$CUSTOMPROPERTY
  1
3-55/64
  9
$CUSTOMPROPERTYTAG
  1
H
  9
$CUSTOMPROPERTY
  1
1-1/4
  9
$CUSTOMPROPERTYTAG
  1
K
  9
$CUSTOMPROPERTY
  1
11.000
  9
$CUSTOMPROPERTYTAG
  1
L
  9
$CUSTOMPROPERTY
  1
7-5/8
  9
$CUSTOMPROPERTYTAG
  1
M
  9
$CUSTOMPROPERTY
  1
3/4-10
  9
$CUSTOMPROPERTYTAG
  1
N
  9
$CUSTOMPROPERTY
  1
6-9/32
  9
$CUSTOMPROPERTYTAG
  1
P
  9
$CUSTOMPROPERTY
  1
2-1/8
  9
$CUSTOMPROPERTYTAG
  1
Q
  9
$CUSTOMPROPERTY
  1
2-27/64
  9
$CUSTOMPROPERTYTAG
  1
X
  9
$CUSTOMPROPERTY
  1
3/8
  9
$CUSTOMPROPERTYTAG
  1
Y
  9
$CUSTOMPROPERTY
  1
0.036
  9
$CUSTOMPROPERTYTAG
  1
Z
  9
$CUSTOMPROPERTY
  1
5-27/32
  9
$CUSTOMPROPERTYTAG
  1
COMPANY
  9
$CUSTOMPROPERTY
  1
baldor
  9
$INSBASE
 10
0.0
 20
0.0
 30
0.0
  9
$EXTMIN
 10
1.000000000000000E+20
 20
1.000000000000000E+20
 30
1.000000000000000E+20
  9
$EXTMAX
 10
-1.000000000000000E+20
 20
-1.000000000000000E+20
 30
-1.000000000000000E+20
  9
$LIMMIN
 10
0.0
 20
0.0
  9
$LIMMAX
 10
12.0
 20
9.0
  9
$ORTHOMODE
 70
     0
  9
$REGENMODE
 70
     1
  9
$FILLMODE
 70
     1
  9
$QTEXTMODE
 70
     0
  9
$MIRRTEXT
 70
     1
  9
$LTSCALE
 40
1.0
  9
$ATTMODE
 70
     1
  9
$TEXTSIZE
 40
0.2
  9
$TRACEWID
 40
0.05
  9
$TEXTSTYLE
  7
Standard
  9
$CLAYER
  8
0
  9
$CELTYPE
  6
ByLayer
  9
$CECOLOR
 62
   256
  9
$CELTSCALE
 40
1.0
  9
$DISPSILH
 70
     0
  9
$DIMSCALE
 40
1.0
  9
$DIMASZ
 40
0.18
  9
$DIMEXO
 40
0.0625
  9
$DIMDLI
 40
0.38
  9
$DIMRND
 40
0.0
  9
$DIMDLE
 40
0.0
  9
$DIMEXE
 40
0.18
  9
$DIMTP
 40
0.0
  9
$DIMTM
 40
0.0
  9
$DIMTXT
 40
0.18
  9
$DIMCEN
 40
0.09
  9
$DIMTSZ
 40
0.0
  9
$DIMTOL
 70
     0
  9
$DIMLIM
 70
     0
  9
$DIMTIH
 70
     1
  9
$DIMTOH
 70
     1
  9
$DIMSE1
 70
     0
  9
$DIMSE2
 70
     0
  9
$DIMTAD
 70
     0
  9
$DIMZIN
 70
     0
  9
$DIMBLK
  1

  9
$DIMASO
 70
     1
  9
$DIMSHO
 70
     1
  9
$DIMPOST
  1

  9
$DIMAPOST
  1

  9
$DIMALT
 70
     0
  9
$DIMALTD
 70
     2
  9
$DIMALTF
 40
25.4
  9
$DIMLFAC
 40
1.0
  9
$DIMTOFL
 70
     0
  9
$DIMTVP
 40
0.0
  9
$DIMTIX
 70
     0
  9
$DIMSOXD
 70
     0
  9
$DIMSAH
 70
     0
  9
$DIMBLK1
  1

  9
$DIMBLK2
  1

  9
$DIMSTYLE
  2
Standard
  9
$DIMCLRD
 70
     0
  9
$DIMCLRE
 70
     0
  9
$DIMCLRT
 70
     0
  9
$DIMTFAC
 40
1.0
  9
$DIMGAP
 40
0.09
  9
$DIMJUST
 70
     0
  9
$DIMSD1
 70
     0
  9
$DIMSD2
 70
     0
  9
$DIMTOLJ
 70
     1
  9
$DIMTZIN
 70
     0
  9
$DIMALTZ
 70
     0
  9
$DIMALTTZ
 70
     0
  9
$DIMUPT
 70
     0
  9
$DIMDEC
 70
     4
  9
$DIMTDEC
 70
     4
  9
$DIMALTU
 70
     2
  9
$DIMALTTD
 70
     2
  9
$DIMTXSTY
  7
Standard
  9
$DIMAUNIT
 70
     0
  9
$DIMADEC
 70
     0
  9
$DIMALTRND
 40
0.0
  9
$DIMAZIN
 70
     0
  9
$DIMDSEP
 70
    46
  9
$DIMATFIT
 70
     3
  9
$DIMFRAC
 70
     0
  9
$DIMLDRBLK
  1

  9
$DIMLUNIT
 70
     2
  9
$DIMLWD
 70
    -2
  9
$DIMLWE
 70
    -2
  9
$DIMTMOVE
 70
     0
  9
$DIMFXL
 40
1.0
  9
$DIMFXLON
 70
     0
  9
$DIMJOGANG
 40
0.7853981633974483
  9
$DIMTFILL
 70
     0
  9
$DIMTFILLCLR
 70
     0
  9
$DIMARCSYM
 70
     0
  9
$DIMLTYPE
  6

  9
$DIMLTEX1
  6

  9
$DIMLTEX2
  6

  9
$DIMTXTDIRECTION
 70
     0
  9
$LUNITS
 70
     2
  9
$LUPREC
 70
     4
  9
$SKETCHINC
 40
0.1
  9
$FILLETRAD
 40
0.5
  9
$AUNITS
 70
     0
  9
$AUPREC
 70
     0
  9
$MENU
  1
.
  9
$ELEVATION
 40
0.0
  9
$PELEVATION
 40
0.0
  9
$THICKNESS
 40
0.0
  9
$LIMCHECK
 70
     0
  9
$CHAMFERA
 40
0.0
  9
$CHAMFERB
 40
0.0
  9
$CHAMFERC
 40
0.0
  9
$CHAMFERD
 40
0.0
  9
$SKPOLY
 70
     0
  9
$TDCREATE
 40
2458168.989777349
  9
$TDUCREATE
 40
2458168.948110683
  9
$TDUPDATE
 40
2458168.989777523
  9
$TDUUPDATE
 40
2458168.948110857
  9
$TDINDWG
 40
0.0000000116
  9
$TDUSRTIMER
 40
0.0000000116
  9
$USRTIMER
 70
     1
  9
$ANGBASE
 50
0.0
  9
$ANGDIR
 70
     0
  9
$PDMODE
 70
     0
  9
$PDSIZE
 40
0.0
  9
$PLINEWID
 40
0.0
  9
$SPLFRAME
 70
     0
  9
$SPLINETYPE
 70
     6
  9
$SPLINESEGS
 70
     8
  9
$HANDSEED
  5
28F
  9
$SURFTAB1
 70
     6
  9
$SURFTAB2
 70
     6
  9
$SURFTYPE
 70
     6
  9
$SURFU
 70
     6
  9
$SURFV
 70
     6
  9
$UCSBASE
  2

  9
$UCSNAME
  2

  9
$UCSORG
 10
0.0
 20
0.0
 30
0.0
  9
$UCSXDIR
 10
1.0
 20
0.0
 30
0.0
  9
$UCSYDIR
 10
0.0
 20
1.0
 30
0.0
  9
$UCSORTHOREF
  2

  9
$UCSORTHOVIEW
 70
     0
  9
$UCSORGTOP
 10
0.0
 20
0.0
 30
0.0
  9
$UCSORGBOTTOM
 10
0.0
 20
0.0
 30
0.0
  9
$UCSORGLEFT
 10
0.0
 20
0.0
 30
0.0
  9
$UCSORGRIGHT
 10
0.0
 20
0.0
 30
0.0
  9
$UCSORGFRONT
 10
0.0
 20
0.0
 30
0.0
  9
$UCSORGBACK
 10
0.0
 20
0.0
 30
0.0
  9
$PUCSBASE
  2

  9
$PUCSNAME
  2

  9
$PUCSORG
 10
0.0
 20
0.0
 30
0.0
  9
$PUCSXDIR
 10
1.0
 20
0.0
 30
0.0
  9
$PUCSYDIR
 10
0.0
 20
1.0
 30
0.0
  9
$PUCSORTHOREF
  2

  9
$PUCSORTHOVIEW
 70
     0
  9
$PUCSORGTOP
 10
0.0
 20
0.0
 30
0.0
  9
$PUCSORGBOTTOM
 10
0.0
 20
0.0
 30
0.0
  9
$PUCSORGLEFT
 10
0.0
 20
0.0
 30
0.0
  9
$PUCSORGRIGHT
 10
0.0
 20
0.0
 30
0.0
  9
$PUCSORGFRONT
 10
0.0
 20
0.0
 30
0.0
  9
$PUCSORGBACK
 10
0.0
 20
0.0
 30
0.0
  9
$USERI1
 70
     0
  9
$USERI2
 70
     0
  9
$USERI3
 70
     0
  9
$USERI4
 70
     0
  9
$USERI5
 70
     0
  9
$USERR1
 40
0.0
  9
$USERR2
 40
0.0
  9
$USERR3
 40
0.0
  9
$USERR4
 40
0.0
  9
$USERR5
 40
0.0
  9
$WORLDVIEW
 70
     1
  9
$SHADEDGE
 70
     3
  9
$SHADEDIF
 70
    70
  9
$TILEMODE
 70
     1
  9
$MAXACTVP
 70
    64
  9
$PINSBASE
 10
0.0
 20
0.0
 30
0.0
  9
$PLIMCHECK
 70
     0
  9
$PEXTMIN
 10
1.000000000000000E+20
 20
1.000000000000000E+20
 30
1.000000000000000E+20
  9
$PEXTMAX
 10
-1.000000000000000E+20
 20
-1.000000000000000E+20
 30
-1.000000000000000E+20
  9
$PLIMMIN
 10
0.0
 20
0.0
  9
$PLIMMAX
 10
12.0
 20
9.0
  9
$UNITMODE
 70
     0
  9
$VISRETAIN
 70
     1
  9
$PLINEGEN
 70
     0
  9
$PSLTSCALE
 70
     1
  9
$TREEDEPTH
 70
  3020
  9
$CMLSTYLE
  2
Standard
  9
$CMLJUST
 70
     0
  9
$CMLSCALE
 40
1.0
  9
$PROXYGRAPHICS
 70
     1
  9
$MEASUREMENT
 70
     0
  9
$CELWEIGHT
370
    -1
  9
$ENDCAPS
280
     0
  9
$JOINSTYLE
280
     0
  9
$LWDISPLAY
290
     0
  9
$INSUNITS
 70
     1
  9
$HYPERLINKBASE
  1

  9
$STYLESHEET
  1

  9
$XEDIT
290
     1
  9
$CEPSNTYPE
380
     0
  9
$PSTYLEMODE
290
     1
  9
$FINGERPRINTGUID
  2
{D08B7CEB-C7FC-49BC-BA57-7A5FB5F7B78D}
  9
$VERSIONGUID
  2
{FAEB1C32-E019-11D5-929B-00C0DF256EC4}
  9
$EXTNAMES
290
     1
  9
$PSVPSCALE
 40
0.0
  9
$OLESTARTUP
290
     0
  9
$SORTENTS
280
   127
  9
$INDEXCTL
280
     0
  9
$HIDETEXT
280
     1
  9
$XCLIPFRAME
280
     2
  9
$HALOGAP
280
     0
  9
$OBSCOLOR
 70
   257
  9
$OBSLTYPE
280
     0
  9
$INTERSECTIONDISPLAY
280
     0
  9
$INTERSECTIONCOLOR
 70
   257
  9
$DIMASSOC
280
     2
  9
$PROJECTNAME
  1

  9
$CAMERADISPLAY
290
     0
  9
$LENSLENGTH
 40
50.0
  9
$CAMERAHEIGHT
 40
0.0
  9
$STEPSPERSEC
 40
2.0
  9
$STEPSIZE
 40
6.0
  9
$3DDWFPREC
 40
2.0
  9
$PSOLWIDTH
 40
0.25
  9
$PSOLHEIGHT
 40
4.0
  9
$LOFTANG1
 40
1.570796326794897
  9
$LOFTANG2
 40
1.570796326794897
  9
$LOFTMAG1
 40
0.0
  9
$LOFTMAG2
 40
0.0
  9
$LOFTPARAM
 70
     7
  9
$LOFTNORMALS
280
     1
  9
$LATITUDE
 40
37.795
  9
$LONGITUDE
 40
-122.394
  9
$NORTHDIRECTION
 40
0.0
  9
$TIMEZONE
 70
 -8000
  9
$LIGHTGLYPHDISPLAY
280
     1
  9
$TILEMODELIGHTSYNCH
280
     1
  9
$CMATERIAL
347
44
  9
$SOLIDHIST
280
     0
  9
$SHOWHIST
280
     1
  9
$DWFFRAME
280
     2
  9
$DGNFRAME
280
     2
  9
$REALWORLDSCALE
290
     1
  9
$INTERFERECOLOR
 62
   256
  9
$CSHADOW
280
     0
  9
$SHADOWPLANELOCATION
 40
0.0
  0
ENDSEC
  0
SECTION
  2
CLASSES
  0
CLASS
  1
ACDBDICTIONARYWDFLT
  2
AcDbDictionaryWithDefault
  3
ObjectDBX Classes
 90
        0
 91
        4
280
     0
281
     0
  0
CLASS
  1
VISUALSTYLE
  2
AcDbVisualStyle
  3
ObjectDBX Classes
 90
     4095
 91
        4
280
     0
281
     0
  0
CLASS
  1
MATERIAL
  2
AcDbMaterial
  3
ObjectDBX Classes
 90
     1153
 91
        4
280
     0
281
     0
  0
CLASS
  1
SCALE
  2
AcDbScale
  3
ObjectDBX Classes
 90
     1153
 91
        4
280
     0
281
     0
  0
CLASS
  1
TABLESTYLE
  2
AcDbTableStyle
  3
ObjectDBX Classes
 90
     4095
 91
        4
280
     0
281
     0
  0
CLASS
  1
MLEADERSTYLE
  2
AcDbMLeaderStyle
  3
ACDB_MLEADERSTYLE_CLASS
 90
     4095
 91
        4
280
     0
281
     0
  0
CLASS
  1
SUN
  2
AcDbSun
  3
SCENEOE
 90
     1153
 91
        4
280
     0
281
     0
  0
CLASS
  1
DICTIONARYVAR
  2
AcDbDictionaryVar
  3
ObjectDBX Classes
 90
        0
 91
        4
280
     0
281
     0
  0
CLASS
  1
CELLSTYLEMAP
  2
AcDbCellStyleMap
  3
ObjectDBX Classes
 90
     1152
 91
        4
280
     0
281
     0
  0
ENDSEC
  0
SECTION
  2
TABLES
  0
TABLE
  2
VPORT
  5
8
330
0
100
AcDbSymbolTable
 70
     1
  0
VPORT
  5
29
330
8
100
AcDbSymbolTableRecord
100
AcDbViewportTableRecord
  2
*Active
 70
     0
 10
0.0
 20
0.0
 11
1.0
 21
1.0
 12
-0.3312500000000007
 22
0.0
 13
0.0
 23
0.0
 14
0.5
 24
0.5
 15
0.5
 25
0.5
 16
0.0
 26
0.0
 36
1.0
 17
0.0
 27
0.0
 37
0.0
 40
15.045
 41
0.4783898305084745
 42
50.0
 43
0.0
 44
0.0
 50
0.0
 51
0.0
 71
     0
 72
   100
 73
     1
 74
     3
 75
     0
 76
     0
 77
     0
 78
     0
281
     0
 65
     1
110
0.0
120
0.0
130
0.0
111
1.0
121
0.0
131
0.0
112
0.0
122
1.0
132
0.0
 79
     0
146
0.0
348
2F
 60
     3
 61
     5
292
     1
282
     1
141
0.0
142
0.0
 63
   250
361
6D
  0
ENDTAB
  0
TABLE
  2
LTYPE
  5
5
330
0
100
AcDbSymbolTable
 70
     3
  0
LTYPE
  5
14
330
5
100
AcDbSymbolTableRecord
100
AcDbLinetypeTableRecord
  2
ByBlock
 70
     0
  3

 72
    65
 73
     0
 40
0.0
  0
LTYPE
  5
15
330
5
100
AcDbSymbolTableRecord
100
AcDbLinetypeTableRecord
  2
ByLayer
 70
     0
  3

 72
    65
 73
     0
 40
0.0
  0
LTYPE
  5
16
330
5
100
AcDbSymbolTableRecord
100
AcDbLinetypeTableRecord
  2
Continuous
 70
     0
  3
Solid line
 72
    65
 73
     0
 40
0.0
  0
LTYPE
  5
9C
330
5
100
AcDbSymbolTableRecord
100
AcDbLinetypeTableRecord
  2
Dashed
 70
     0
  3

 72
    65
 73
     2
 40
2.0
 49
1.0
 74
     0
 49
-1.0
 74
     0
  0
LTYPE
  5
AA
330
5
100
AcDbSymbolTableRecord
100
AcDbLinetypeTableRecord
  2
Center
 70
     0
  3

 72
    65
 73
     4
 40
1.5
 49
0.45
 74
     0
 49
-0.5
 74
     0
 49
0.05
 74
     0
 49
-0.5
 74
     0
  0
ENDTAB
  0
TABLE
  2
LAYER
  5
2
330
0
100
AcDbSymbolTable
 70
     7
  0
LAYER
  5
10
330
2
100
AcDbSymbolTableRecord
100
AcDbLayerTableRecord
  2
0
 70
     0
 62
     7
  6
Continuous
370
    -3
390
F
347
46
348
0
  0
LAYER
  5
72
330
2
100
AcDbSymbolTableRecord
100
AcDbLayerTableRecord
  2
AM_6
 70
     0
 62
    -2
  6
Continuous
370
    35
390
F
347
46
348
0
  0
LAYER
  5
9D
330
2
100
AcDbSymbolTableRecord
100
AcDbLayerTableRecord
  2
AM_9
 70
     0
 62
     6
  6
Dashed
370
    25
390
F
347
46
348
0
  0
LAYER
  5
A4
330
2
100
AcDbSymbolTableRecord
100
AcDbLayerTableRecord
  2
AM_5
 70
     0
 62
     3
  6
Continuous
370
    25
390
F
347
46
348
0
  0
LAYER
  5
AB
330
2
100
AcDbSymbolTableRecord
100
AcDbLayerTableRecord
  2
AM_7
 70
     0
 62
     7
  6
Center
370
    25
390
F
347
46
348
0
  0
LAYER
  5
AD
330
2
100
AcDbSymbolTableRecord
100
AcDbLayerTableRecord
  2
AM_4
 70
     0
 62
     7
  6
Continuous
370
    50
390
F
347
46
348
0
  0
LAYER
  5
277
330
2
100
AcDbSymbolTableRecord
100
AcDbLayerTableRecord
  2
ConnectionPoints
 70
     0
 62
     7
  6
Continuous
370
    50
390
F
347
46
348
0
  0
ENDTAB
  0
TABLE
  2
STYLE
  5
3
330
0
100
AcDbSymbolTable
 70
     1
  0
STYLE
  5
11
330
3
100
AcDbSymbolTableRecord
100
AcDbTextStyleTableRecord
  2
Standard
 70
     0
 40
0.0
 41
1.0
 50
0.0
 71
     0
 42
0.2
  3
txt
  4

  0
ENDTAB
  0
TABLE
  2
VIEW
  5
6
330
0
100
AcDbSymbolTable
 70
     0
  0
ENDTAB
  0
TABLE
  2
UCS
  5
7
330
0
100
AcDbSymbolTable
 70
     0
  0
ENDTAB
  0
TABLE
  2
APPID
  5
9
330
0
100
AcDbSymbolTable
 70
     1
  0
APPID
  5
12
330
9
100
AcDbSymbolTableRecord
100
AcDbRegAppTableRecord
  2
ACAD
 70
     0
  0
ENDTAB
  0
TABLE
  2
DIMSTYLE
  5
A
330
0
100
AcDbSymbolTable
 70
     1
100
AcDbDimStyleTable
  0
DIMSTYLE
105
27
330
A
100
AcDbSymbolTableRecord
100
AcDbDimStyleTableRecord
  2
Standard
 70
     0
178
     0
340
11
  0
ENDTAB
  0
TABLE
  2
BLOCK_RECORD
  5
1
330
0
100
AcDbSymbolTable
 70
     8
  0
BLOCK_RECORD
  5
1F
330
1
100
AcDbSymbolTableRecord
100
AcDbBlockTableRecord
  2
*Model_Space
340
22
 70
     0
280
     1
281
     0
  0
BLOCK_RECORD
  5
1B
330
1
100
AcDbSymbolTableRecord
100
AcDbBlockTableRecord
  2
*Paper_Space
340
1E
 70
     0
280
     1
281
     0
  0
BLOCK_RECORD
  5
23
330
1
100
AcDbSymbolTableRecord
100
AcDbBlockTableRecord
  2
*Paper_Space0
340
26
 70
     0
280
     1
281
     0
  0
BLOCK_RECORD
  5
6E
330
1
100
AcDbSymbolTableRecord
100
AcDbBlockTableRecord
  2
1_069932_2
340
0
102
{BLKREFS
331
6F
102
}
 70
     0
280
     1
281
     0
  0
BLOCK_RECORD
  5
90
330
1
100
AcDbSymbolTableRecord
100
AcDbBlockTableRecord
  2
2_405015E_Inch_0_in_069932_2
340
0
102
{BLKREFS
331
91
102
}
 70
     0
280
     1
281
     0
  0
BLOCK_RECORD
  5
CC
330
1
100
AcDbSymbolTableRecord
100
AcDbBlockTableRecord
  2
3_ASME_B18_3_5_16_1_0_in_069932_2
340
0
102
{BLKREFS
331
CD
102
}
 70
     0
280
     1
281
     0
  0
BLOCK_RECORD
  5
F0
330
1
100
AcDbSymbolTableRecord
100
AcDbBlockTableRecord
  2
4_ASME_B18_3_5_16_2_0_in_069932_2
340
0
102
{BLKREFS
331
F1
102
}
 70
     0
280
     1
281
     0
  0
BLOCK_RECORD
  5
114
330
1
100
AcDbSymbolTableRecord
100
AcDbBlockTableRecord
  2
5_070911LW_0_in_069932_2
340
0
102
{BLKREFS
331
115
102
}
 70
     0
280
     1
281
     0
  0
BLOCK_RECORD
  5
14A
330
1
100
AcDbSymbolTableRecord
100
AcDbBlockTableRecord
  2
6_070943I_0_in_069932_2
340
0
102
{BLKREFS
331
14B
102
}
 70
     0
280
     1
281
     0
  0
BLOCK_RECORD
  5
1D3
330
1
100
AcDbSymbolTableRecord
100
AcDbBlockTableRecord
  2
7_069932H_0_in_069932_2
340
0
102
{BLKREFS
331
1D4
102
}
 70
     0
280
     1
281
     0
  0
ENDTAB
  0
ENDSEC
  0
SECTION
  2
BLOCKS
  0
BLOCK
  5
20
330
1F
100
AcDbEntity
  8
0
100
AcDbBlockBegin
  2
*Model_Space
 70
     0
 10
0.0
 20
0.0
 30
0.0
  3
*Model_Space
  1

  0
ENDBLK
  5
21
330
1F
100
AcDbEntity
  8
0
100
AcDbBlockEnd
  0
BLOCK
  5
1C
330
1B
100
AcDbEntity
 67
     1
  8
0
100
AcDbBlockBegin
  2
*Paper_Space
 70
     0
 10
0.0
 20
0.0
 30
0.0
  3
*Paper_Space
  1

  0
ENDBLK
  5
1D
330
1B
100
AcDbEntity
 67
     1
  8
0
100
AcDbBlockEnd
  0
BLOCK
  5
24
330
23
100
AcDbEntity
  8
0
100
AcDbBlockBegin
  2
*Paper_Space0
 70
     0
 10
0.0
 20
0.0
 30
0.0
  3
*Paper_Space0
  1

  0
ENDBLK
  5
25
330
23
100
AcDbEntity
  8
0
100
AcDbBlockEnd
  0
BLOCK
  5
70
330
6E
100
AcDbEntity
  8
0
100
AcDbBlockBegin
  2
1_069932_2
 70
     2
 10
0.0
 20
0.0
 30
0.0
  3
1_069932_2
  1

  0
ATTDEF
  5
73
330
6E
100
AcDbEntity
  8
AM_6
100
AcDbText
 10
8.196875
 20
7.375
 30
0.0
 40
0.5
  1
Imperial - IP Piloted Flange Labyrinth Seal
100
AcDbAttributeDefinition
  3

  2
NN
 70
     8
280
     0
  0
ATTDEF
  5
74
330
6E
100
AcDbEntity
  8
AM_6
100
AcDbText
 10
8.196875
 20
6.875
 30
0.0
 40
0.5
  1
Imperial Piloted Flange Bearings
100
AcDbAttributeDefinition
  3

  2
NT
 70
     8
280
     0
  0
ATTDEF
  5
75
330
6E
100
AcDbEntity
  8
AM_6
100
AcDbText
 10
8.196875
 20
6.375
 30
0.0
 40
0.5
  1
069932
100
AcDbAttributeDefinition
  3

  2
NB
 70
     8
280
     0
  0
ATTDEF
  5
76
330
6E
100
AcDbEntity
  8
AM_6
100
AcDbText
 10
8.196875
 20
5.875
 30
0.0
 40
0.5
  1
$PN.
100
AcDbAttributeDefinition
  3

  2
NBSYN
 70
     8
280
     0
  0
ATTDEF
  5
77
330
6E
100
AcDbEntity
  8
AM_6
100
AcDbText
 10
8.196875
 20
5.375
 30
0.0
 40
0.5
  1
069932
100
AcDbAttributeDefinition
  3

  2
LINA
 70
     8
280
     0
  0
ATTDEF
  5
78
330
6E
100
AcDbEntity
  8
AM_6
100
AcDbText
 10
8.196875
 20
4.875
 30
0.0
 40
0.5
  1
5
100
AcDbAttributeDefinition
  3

  2
SS
 70
     8
280
     0
  0
ATTDEF
  5
79
330
6E
100
AcDbEntity
  8
AM_6
100
AcDbText
 10
8.196875
 20
4.375
 30
0.0
 40
0.5
  1
069932
100
AcDbAttributeDefinition
  3

  2
PN
 70
     8
280
     0
  0
ATTDEF
  5
7A
330
6E
100
AcDbEntity
  8
AM_6
100
AcDbText
 10
8.196875
 20
3.875
 30
0.0
 40
0.5
  1
FC-IP-500LE
100
AcDbAttributeDefinition
  3

  2
DESCRIPTION
 70
     8
280
     0
  0
ATTDEF
  5
7B
330
6E
100
AcDbEntity
  8
AM_6
100
AcDbText
 10
8.196875
 20
3.375
 30
0.0
 40
0.5
  1
Expansion Type
100
AcDbAttributeDefinition
  3

  2
EF
 70
     8
280
     0
  0
ATTDEF
  5
7C
330
6E
100
AcDbEntity
  8
AM_6
100
AcDbText
 10
8.196875
 20
2.875
 30
0.0
 40
0.5
  1
Labyrinth Seal
100
AcDbAttributeDefinition
  3

  2
ST
 70
     8
280
     0
  0
ATTDEF
  5
7D
330
6E
100
AcDbEntity
  8
AM_6
100
AcDbText
 10
8.196875
 20
2.375
 30
0.0
 40
0.5
  1
5-63/64
100
AcDbAttributeDefinition
  3

  2
A
 70
     8
280
     0
  0
ATTDEF
  5
7E
330
6E
100
AcDbEntity
  8
AM_6
100
AcDbText
 10
8.196875
 20
1.875
 30
0.0
 40
0.5
  1
14-3/4
100
AcDbAttributeDefinition
  3

  2
B
 70
     8
280
     0
  0
ATTDEF
  5
7F
330
6E
100
AcDbEntity
  8
AM_6
100
AcDbText
 10
8.196875
 20
1.375
 30
0.0
 40
0.5
  1
4-3/8
100
AcDbAttributeDefinition
  3

  2
C
 70
     8
280
     0
  0
ATTDEF
  5
80
330
6E
100
AcDbEntity
  8
AM_6
100
AcDbText
 10
8.196875
 20
0.875
 30
0.0
 40
0.5
  1
9-1/64
100
AcDbAttributeDefinition
  3

  2
D
 70
     8
280
     0
  0
ATTDEF
  5
81
330
6E
100
AcDbEntity
  8
AM_6
100
AcDbText
 10
8.196875
 20
0.375
 30
0.0
 40
0.5
  1
12-3/4
100
AcDbAttributeDefinition
  3

  2
DD
 70
     8
280
     0
  0
ATTDEF
  5
82
330
6E
100
AcDbEntity
  8
AM_6
100
AcDbText
 10
8.196875
 20
-0.125
 30
0.0
 40
0.5
  1
1-45/64
100
AcDbAttributeDefinition
  3

  2
E
 70
     8
280
     0
  0
ATTDEF
  5
83
330
6E
100
AcDbEntity
  8
AM_6
100
AcDbText
 10
8.196875
 20
-0.625
 30
0.0
 40
0.5
  1
7/8
100
AcDbAttributeDefinition
  3

  2
F
 70
     8
280
     0
  0
ATTDEF
  5
84
330
6E
100
AcDbEntity
  8
AM_6
100
AcDbText
 10
8.196875
 20
-1.125
 30
0.0
 40
0.5
  1
3-55/64
100
AcDbAttributeDefinition
  3

  2
G
 70
     8
280
     0
  0
ATTDEF
  5
85
330
6E
100
AcDbEntity
  8
AM_6
100
AcDbText
 10
8.196875
 20
-1.625
 30
0.0
 40
0.5
  1
1-1/4
100
AcDbAttributeDefinition
  3

  2
H
 70
     8
280
     0
  0
ATTDEF
  5
86
330
6E
100
AcDbEntity
  8
AM_6
100
AcDbText
 10
8.196875
 20
-2.125
 30
0.0
 40
0.5
  1
11.000
100
AcDbAttributeDefinition
  3

  2
K
 70
     8
280
     0
  0
ATTDEF
  5
87
330
6E
100
AcDbEntity
  8
AM_6
100
AcDbText
 10
8.196875
 20
-2.625
 30
0.0
 40
0.5
  1
7-5/8
100
AcDbAttributeDefinition
  3

  2
L
 70
     8
280
     0
  0
ATTDEF
  5
88
330
6E
100
AcDbEntity
  8
AM_6
100
AcDbText
 10
8.196875
 20
-3.125
 30
0.0
 40
0.5
  1
3/4-10
100
AcDbAttributeDefinition
  3

  2
M
 70
     8
280
     0
  0
ATTDEF
  5
89
330
6E
100
AcDbEntity
  8
AM_6
100
AcDbText
 10
8.196875
 20
-3.625
 30
0.0
 40
0.5
  1
6-9/32
100
AcDbAttributeDefinition
  3

  2
N
 70
     8
280
     0
  0
ATTDEF
  5
8A
330
6E
100
AcDbEntity
  8
AM_6
100
AcDbText
 10
8.196875
 20
-4.125
 30
0.0
 40
0.5
  1
2-1/8
100
AcDbAttributeDefinition
  3

  2
P
 70
     8
280
     0
  0
ATTDEF
  5
8B
330
6E
100
AcDbEntity
  8
AM_6
100
AcDbText
 10
8.196875
 20
-4.625
 30
0.0
 40
0.5
  1
2-27/64
100
AcDbAttributeDefinition
  3

  2
Q
 70
     8
280
     0
  0
ATTDEF
  5
8C
330
6E
100
AcDbEntity
  8
AM_6
100
AcDbText
 10
8.196875
 20
-5.125
 30
0.0
 40
0.5
  1
3/8
100
AcDbAttributeDefinition
  3

  2
X
 70
     8
280
     0
  0
ATTDEF
  5
8D
330
6E
100
AcDbEntity
  8
AM_6
100
AcDbText
 10
8.196875
 20
-5.625
 30
0.0
 40
0.5
  1
0.036
100
AcDbAttributeDefinition
  3

  2
Y
 70
     8
280
     0
  0
ATTDEF
  5
8E
330
6E
100
AcDbEntity
  8
AM_6
100
AcDbText
 10
8.196875
 20
-6.125
 30
0.0
 40
0.5
  1
5-27/32
100
AcDbAttributeDefinition
  3

  2
Z
 70
     8
280
     0
  0
ATTDEF
  5
8F
330
6E
100
AcDbEntity
  8
AM_6
100
AcDbText
 10
8.196875
 20
-6.625
 30
0.0
 40
0.5
  1
baldor
100
AcDbAttributeDefinition
  3

  2
COMPANY
 70
     8
280
     0
  0
INSERT
  5
91
330
6E
100
AcDbEntity
  8
0
100
AcDbBlockReference
  2
2_405015E_Inch_0_in_069932_2
 10
0.0
 20
0.0
 30
0.0
  0
INSERT
  5
CD
330
6E
100
AcDbEntity
  8
0
100
AcDbBlockReference
  2
3_ASME_B18_3_5_16_1_0_in_069932_2
 10
0.0
 20
0.0
 30
0.0
  0
INSERT
  5
F1
330
6E
100
AcDbEntity
  8
0
100
AcDbBlockReference
  2
4_ASME_B18_3_5_16_2_0_in_069932_2
 10
0.0
 20
0.0
 30
0.0
  0
INSERT
  5
115
330
6E
100
AcDbEntity
  8
0
100
AcDbBlockReference
  2
5_070911LW_0_in_069932_2
 10
0.0
 20
0.0
 30
0.0
  0
INSERT
  5
14B
330
6E
100
AcDbEntity
  8
0
100
AcDbBlockReference
  2
6_070943I_0_in_069932_2
 10
0.0
 20
0.0
 30
0.0
  0
INSERT
  5
1D4
330
6E
100
AcDbEntity
  8
0
100
AcDbBlockReference
  2
7_069932H_0_in_069932_2
 10
0.0
 20
0.0
 30
0.0
  0
ENDBLK
  5
71
330
6E
100
AcDbEntity
  8
0
100
AcDbBlockEnd
  0
BLOCK
  5
92
330
90
100
AcDbEntity
  8
0
100
AcDbBlockBegin
  2
2_405015E_Inch_0_in_069932_2
 70
     2
 10
0.0
 20
0.0
 30
0.0
  3
2_405015E_Inch_0_in_069932_2
  1

  0
ATTDEF
  5
94
330
90
100
AcDbEntity
  8
AM_6
100
AcDbText
 10
3.834385668239011
 20
6.600986109059686
 30
0.0
 40
0.5
  1
405015E -Inch
100
AcDbAttributeDefinition
  3

  2
NN
 70
     8
280
     0
  0
ATTDEF
  5
95
330
90
100
AcDbEntity
  8
AM_6
100
AcDbText
 10
3.834385668239011
 20
6.100986109059686
 30
0.0
 40
0.5
  1
Grease Fitting
100
AcDbAttributeDefinition
  3

  2
NT
 70
     8
280
     0
  0
ATTDEF
  5
96
330
90
100
AcDbEntity
  8
AM_6
100
AcDbText
 10
3.834385668239011
 20
5.600986109059686
 30
0.0
 40
0.5
  1
405015E-Inch
100
AcDbAttributeDefinition
  3

  2
NB
 70
     8
280
     0
  0
ATTDEF
  5
97
330
90
100
AcDbEntity
  8
AM_6
100
AcDbText
 10
3.834385668239011
 20
5.100986109059686
 30
0.0
 40
0.5
  1
$MN.-Inch
100
AcDbAttributeDefinition
  3

  2
NBSYN
 70
     8
280
     0
  0
ATTDEF
  5
98
330
90
100
AcDbEntity
  8
AM_6
100
AcDbText
 10
3.834385668239011
 20
4.600986109059686
 30
0.0
 40
0.5
  1
405015E
100
AcDbAttributeDefinition
  3

  2
LINA
 70
     8
280
     0
  0
ATTDEF
  5
99
330
90
100
AcDbEntity
  8
AM_6
100
AcDbText
 10
3.834385668239011
 20
4.100986109059686
 30
0.0
 40
0.5
  1
405015E
100
AcDbAttributeDefinition
  3

  2
MN
 70
     8
280
     0
  0
ATTDEF
  5
9A
330
90
100
AcDbEntity
  8
AM_6
100
AcDbText
 10
3.834385668239011
 20
3.600986109059686
 30
0.0
 40
0.5
  1
1/8 x 27PTF
100
AcDbAttributeDefinition
  3

  2
T
 70
     8
280
     0
  0
ATTDEF
  5
9B
330
90
100
AcDbEntity
  8
AM_6
100
AcDbText
 10
3.834385668239011
 20
3.100986109059686
 30
0.0
 40
0.5
  1
baldor
100
AcDbAttributeDefinition
  3

  2
COMPANY
 70
     8
280
     0
  0
LINE
  5
9E
330
90
100
AcDbEntity
  8
AM_9
100
AcDbLine
 10
-1.165614331760989
 20
6.332276438084915
 30
0.0
 11
-1.179052864531768
 21
6.38242972516464
 31
0.0
  0
LINE
  5
9F
330
90
100
AcDbEntity
  8
AM_9
100
AcDbLine
 10
-1.377670491312983
 20
6.038413904300823
 30
0.0
 11
-1.327517204233258
 21
6.051852437071601
 31
0.0
  0
LINE
  5
A0
330
90
100
AcDbEntity
  8
AM_9
100
AcDbLine
 10
-1.327517204233258
 20
6.051852437071601
 30
0.0
 11
-1.165614331760989
 21
6.332276438084915
 31
0.0
  0
LINE
  5
A1
330
90
100
AcDbEntity
  8
AM_9
100
AcDbLine
 10
-1.179052864531768
 20
6.38242972516464
 30
0.0
 11
-1.373186551388465
 21
6.502750807450282
 31
0.0
  0
LINE
  5
A2
330
90
100
AcDbEntity
  8
AM_9
100
AcDbLine
 10
-1.578938448611535
 20
6.146378067706236
 30
0.0
 11
-1.377670491312983
 21
6.038413904300823
 31
0.0
  0
LINE
  5
A3
330
90
100
AcDbEntity
  8
AM_9
100
AcDbLine
 10
-1.377670491312983
 20
6.038413904300823
 30
0.0
 11
-1.179052864531768
 21
6.38242972516464
 31
0.0
  0
LINE
  5
A5
330
90
100
AcDbEntity
  8
AM_5
100
AcDbLine
 10
-1.503732903870092
 20
6.146378067706236
 30
0.0
 11
-1.327517204233258
 21
6.051852437071601
 31
0.0
  0
LINE
  5
A6
330
90
100
AcDbEntity
  8
AM_5
100
AcDbLine
 10
-1.578938448611534
 20
6.146378067706236
 30
0.0
 11
-1.503732903870092
 21
6.146378067706236
 31
0.0
  0
LINE
  5
A7
330
90
100
AcDbEntity
  8
AM_5
100
AcDbLine
 10
-1.317800098568139
 20
6.468423133283029
 30
0.0
 11
-1.521516584319696
 21
6.115575829621951
 31
0.0
  0
LINE
  5
A8
330
90
100
AcDbEntity
  8
AM_5
100
AcDbLine
 10
-1.335583779017744
 20
6.437620895198745
 30
0.0
 11
-1.165614331760989
 21
6.332276438084915
 31
0.0
  0
LINE
  5
A9
330
90
100
AcDbEntity
  8
AM_5
100
AcDbLine
 10
-1.373186551388466
 20
6.502750807450282
 30
0.0
 11
-1.335583779017744
 21
6.437620895198745
 31
0.0
  0
LINE
  5
AC
330
90
100
AcDbEntity
  8
AM_7
100
AcDbLine
 10
-1.828534839340266
 20
6.528064437578259
 30
0.0
 11
-1.218852955076022
 21
6.176064437578259
 31
0.0
  0
LINE
  5
AE
330
90
100
AcDbEntity
  8
AM_4
100
AcDbLine
 10
-1.60109770777581
 20
6.517997104975624
 30
0.0
 11
-1.627078469889343
 21
6.532997104975625
 31
0.0
  0
LINE
  5
AF
330
90
100
AcDbEntity
  8
AM_4
100
AcDbLine
 10
-1.732078469889343
 20
6.351131770180892
 30
0.0
 11
-1.70609770777581
 21
6.336131770180892
 31
0.0
  0
LINE
  5
B0
330
90
100
AcDbEntity
  8
AM_4
100
AcDbLine
 10
-1.70609770777581
 20
6.336131770180892
 30
0.0
 11
-1.60109770777581
 21
6.517997104975624
 31
0.0
  0
LINE
  5
B1
330
90
100
AcDbEntity
  8
AM_4
100
AcDbLine
 10
-1.70609770777581
 20
6.336131770180892
 30
0.0
 11
-1.685081137272195
 21
6.308039781331152
 31
0.0
  0
LINE
  5
B2
330
90
100
AcDbEntity
  8
AM_4
100
AcDbLine
 10
-1.566261046537298
 20
6.513842215443938
 30
0.0
 11
-1.60109770777581
 21
6.517997104975624
 31
0.0
  0
LINE
  5
B3
330
90
100
AcDbEntity
  8
AM_4
100
AcDbLine
 10
-1.852160977385758
 20
6.42314276609683
 30
0.0
 11
-1.749483075452571
 21
6.600986109059686
 31
0.0
  0
LINE
  5
B4
330
90
100
AcDbEntity
  8
AM_4
100
AcDbLine
 10
-1.852160977385758
 20
6.42314276609683
 30
0.0
 11
-1.799039994116409
 21
6.355151008067359
 31
0.0
  0
LINE
  5
B5
330
90
100
AcDbEntity
  8
AM_4
100
AcDbLine
 10
-1.664039994116409
 20
6.588977867089159
 30
0.0
 11
-1.749483075452571
 21
6.600986109059686
 31
0.0
  0
LINE
  5
B6
330
90
100
AcDbEntity
  8
AM_4
100
AcDbLine
 10
-1.799039994116409
 20
6.355151008067359
 30
0.0
 11
-1.664039994116409
 21
6.588977867089159
 31
0.0
  0
LINE
  5
B7
330
90
100
AcDbEntity
  8
AM_4
100
AcDbLine
 10
-1.732078469889343
 20
6.351131770180892
 30
0.0
 11
-1.627078469889343
 21
6.532997104975625
 31
0.0
  0
LINE
  5
B8
330
90
100
AcDbEntity
  8
AM_4
100
AcDbLine
 10
-1.627078469889343
 20
6.532997104975625
 30
0.0
 11
-1.664039994116409
 21
6.588977867089159
 31
0.0
  0
LINE
  5
B9
330
90
100
AcDbEntity
  8
AM_4
100
AcDbLine
 10
-1.799039994116409
 20
6.355151008067359
 30
0.0
 11
-1.732078469889343
 21
6.351131770180892
 31
0.0
  0
LINE
  5
BA
330
90
100
AcDbEntity
  8
AM_4
100
AcDbLine
 10
-1.685081137272195
 20
6.308039781331152
 30
0.0
 11
-1.566261046537298
 21
6.513842215443938
 31
0.0
  0
LINE
  5
BB
330
90
100
AcDbEntity
  8
AM_4
100
AcDbLine
 10
-1.685081137272195
 20
6.308039781331152
 30
0.0
 11
-1.664796092307922
 21
6.23430466368771
 31
0.0
  0
LINE
  5
BC
330
90
100
AcDbEntity
  8
AM_4
100
AcDbLine
 10
-1.492262039024907
 20
6.533142410009688
 30
0.0
 11
-1.566261046537298
 21
6.513842215443938
 31
0.0
  0
LINE
  5
BD
330
90
100
AcDbEntity
  8
AM_4
100
AcDbLine
 10
-1.3666875
 20
6.514007494656105
 30
0.0
 11
-1.453290040378444
 21
6.564007494656105
 31
0.0
  0
LINE
  5
BE
330
90
100
AcDbEntity
  8
AM_4
100
AcDbLine
 10
-1.672040040378444
 20
6.185121380500412
 30
0.0
 11
-1.453290040378444
 21
6.564007494656105
 31
0.0
  0
LINE
  5
BF
330
90
100
AcDbEntity
  8
AM_4
100
AcDbLine
 10
-1.672040040378444
 20
6.185121380500412
 30
0.0
 11
-1.5854375
 21
6.135121380500412
 31
0.0
  0
LINE
  5
C0
330
90
100
AcDbEntity
  8
AM_4
100
AcDbLine
 10
-1.664796092307922
 20
6.23430466368771
 30
0.0
 11
-1.492262039024907
 21
6.533142410009688
 31
0.0
  0
LINE
  5
C1
330
90
100
AcDbEntity
  8
AM_4
100
AcDbLine
 10
-1.664796092307922
 20
6.23430466368771
 30
0.0
 11
-1.669540040378444
 21
6.189451507519335
 31
0.0
  0
LINE
  5
C2
330
90
100
AcDbEntity
  8
AM_4
100
AcDbLine
 10
-1.455790040378444
 20
6.559677367637183
 30
0.0
 11
-1.492262039024907
 21
6.533142410009688
 31
0.0
  0
LWPOLYLINE
  5
C3
330
90
100
AcDbEntity
  8
AM_4
100
AcDbPolyline
 90
        3
 70
     0
 43
0.0
 10
-1.507977540378444
 20
6.469285966117182
 10
-1.478561061817674
 20
6.515450039994126
 10
-1.445437268689828
 20
6.559473694807798
  0
LWPOLYLINE
  5
C4
330
90
100
AcDbEntity
  8
AM_4
100
AcDbPolyline
 90
        3
 70
     0
 43
0.0
 10
-1.374540271688616
 20
6.518541294504411
 10
-1.395999345081517
 20
6.468066939610569
 10
-1.421375
 20
6.419285966117181
  0
LWPOLYLINE
  5
C5
330
90
100
AcDbEntity
  8
AM_4
100
AcDbPolyline
 90
        3
 70
     0
 43
0.0
 10
-1.421375
 20
6.419285966117181
 10
-1.450791478560769
 20
6.373121892240238
 10
-1.483915271688616
 20
6.329098237426566
  0
LINE
  5
C6
330
90
100
AcDbEntity
  8
AM_4
100
AcDbLine
 10
-1.554812268689828
 20
6.370030637729951
 30
0.0
 11
-1.483915271688616
 21
6.329098237426566
 31
0.0
  0
LWPOLYLINE
  5
C7
330
90
100
AcDbEntity
  8
AM_4
100
AcDbPolyline
 90
        3
 70
     0
 43
0.0
 10
-1.664187268689828
 20
6.180587580652105
 10
-1.642728195296927
 20
6.231061935545949
 10
-1.617352540378444
 20
6.279842909039336
  0
LWPOLYLINE
  5
C8
330
90
100
AcDbEntity
  8
AM_4
100
AcDbPolyline
 90
        3
 70
     0
 43
0.0
 10
-1.53075
 20
6.229842909039336
 10
-1.560166478560769
 20
6.183678835162391
 10
-1.593290271688616
 20
6.13965518034872
  0
LWPOLYLINE
  5
C9
330
90
100
AcDbEntity
  8
AM_4
100
AcDbPolyline
 90
        3
 70
     0
 43
0.0
 10
-1.483915271688616
 20
6.329098237426566
 10
-1.505374345081517
 20
6.278623882532723
 10
-1.53075
 20
6.229842909039336
  0
LWPOLYLINE
  5
CA
330
90
100
AcDbEntity
  8
AM_4
100
AcDbPolyline
 90
        3
 70
     0
 43
0.0
 10
-1.617352540378444
 20
6.279842909039336
 10
-1.587936061817674
 20
6.326006982916279
 10
-1.554812268689828
 20
6.370030637729951
  0
LWPOLYLINE
  5
CB
330
90
100
AcDbEntity
  8
AM_4
100
AcDbPolyline
 90
        3
 70
     0
 43
0.0
 10
-1.554812268689828
 20
6.370030637729951
 10
-1.533353195296927
 20
6.420504992623794
 10
-1.507977540378444
 20
6.469285966117182
  0
ENDBLK
  5
93
330
90
100
AcDbEntity
  8
0
100
AcDbBlockEnd
  0
BLOCK
  5
CE
330
CC
100
AcDbEntity
  8
0
100
AcDbBlockBegin
  2
3_ASME_B18_3_5_16_1_0_in_069932_2
 70
     2
 10
0.0
 20
0.0
 30
0.0
  3
3_ASME_B18_3_5_16_1_0_in_069932_2
  1

  0
ATTDEF
  5
D0
330
CC
100
AcDbEntity
  8
AM_6
100
AcDbText
 10
2.866791666666667
 20
-3.021638888888889
 30
0.0
 40
0.5
  1
ANSI/ASME B18.3-1998
100
AcDbAttributeDefinition
  3

  2
NN
 70
     8
280
     0
  0
ATTDEF
  5
D1
330
CC
100
AcDbEntity
  8
AM_6
100
AcDbText
 10
2.866791666666667
 20
-3.521638888888889
 30
0.0
 40
0.5
  1
Socket Button Head Cap Screws
100
AcDbAttributeDefinition
  3

  2
NT
 70
     8
280
     0
  0
ATTDEF
  5
D2
330
CC
100
AcDbEntity
  8
AM_6
100
AcDbText
 10
2.866791666666667
 20
-4.021638888888889
 30
0.0
 40
0.5
  1
ASME B18.3-5/16
100
AcDbAttributeDefinition
  3

  2
NB
 70
     8
280
     0
  0
ATTDEF
  5
D3
330
CC
100
AcDbEntity
  8
AM_6
100
AcDbText
 10
2.866791666666667
 20
-4.521638888888889
 30
0.0
 40
0.5
  1
ASME B18.3-$NS.
100
AcDbAttributeDefinition
  3

  2
NBSYN
 70
     8
280
     0
  0
ATTDEF
  5
D4
330
CC
100
AcDbEntity
  8
AM_6
100
AcDbText
 10
2.866791666666667
 20
-5.021638888888889
 30
0.0
 40
0.5
  1
ASME B18.3-5/16
100
AcDbAttributeDefinition
  3

  2
LINA
 70
     8
280
     0
  0
ATTDEF
  5
D5
330
CC
100
AcDbEntity
  8
AM_6
100
AcDbText
 10
2.866791666666667
 20
-5.521638888888889
 30
0.0
 40
0.5
  1
5/16
100
AcDbAttributeDefinition
  3

  2
NS
 70
     8
280
     0
  0
ATTDEF
  5
D6
330
CC
100
AcDbEntity
  8
AM_6
100
AcDbText
 10
2.866791666666667
 20
-6.021638888888889
 30
0.0
 40
0.5
  1
0.547
100
AcDbAttributeDefinition
  3

  2
A
 70
     8
280
     0
  0
ATTDEF
  5
D7
330
CC
100
AcDbEntity
  8
AM_6
100
AcDbText
 10
2.866791666666667
 20
-6.521638888888889
 30
0.0
 40
0.5
  1
0.166
100
AcDbAttributeDefinition
  3

  2
H
 70
     8
280
     0
  0
ATTDEF
  5
D8
330
CC
100
AcDbEntity
  8
AM_6
100
AcDbText
 10
2.866791666666667
 20
-7.021638888888889
 30
0.0
 40
0.5
  1
1.000
100
AcDbAttributeDefinition
  3

  2
L
 70
     8
280
     0
  0
ATTDEF
  5
D9
330
CC
100
AcDbEntity
  8
AM_6
100
AcDbText
 10
2.866791666666667
 20
-7.521638888888889
 30
0.0
 40
0.5
  1
0.031
100
AcDbAttributeDefinition
  3

  2
S
 70
     8
280
     0
  0
ATTDEF
  5
DA
330
CC
100
AcDbEntity
  8
AM_6
100
AcDbText
 10
2.866791666666667
 20
-8.021638888888889
 30
0.0
 40
0.5
  1
0.187500
100
AcDbAttributeDefinition
  3

  2
J
 70
     8
280
     0
  0
ATTDEF
  5
DB
330
CC
100
AcDbEntity
  8
AM_6
100
AcDbText
 10
2.866791666666667
 20
-8.521638888888889
 30
0.0
 40
0.5
  1
baldor
100
AcDbAttributeDefinition
  3

  2
COMPANY
 70
     8
280
     0
  0
LINE
  5
DC
330
CC
100
AcDbEntity
  8
AM_9
100
AcDbLine
 10
-3.195208333333333
 20
-3.403392064361944
 30
0.0
 11
-3.299208333333333
 21
-3.403392064361944
 31
0.0
  0
LINE
  5
DD
330
CC
100
AcDbEntity
  8
AM_9
100
AcDbLine
 10
-3.195208333333333
 20
-3.186885713415834
 30
0.0
 11
-3.299208333333333
 21
-3.186885713415834
 31
0.0
  0
LINE
  5
DE
330
CC
100
AcDbEntity
  8
AM_9
100
AcDbLine
 10
-3.195208333333333
 20
-3.349265476625416
 30
0.0
 11
-3.299208333333333
 21
-3.349265476625416
 31
0.0
  0
LINE
  5
DF
330
CC
100
AcDbEntity
  8
AM_9
100
AcDbLine
 10
-3.195208333333333
 20
-3.186885713415834
 30
0.0
 11
-3.195208333333333
 21
-3.403392064361944
 31
0.0
  0
LINE
  5
E0
330
CC
100
AcDbEntity
  8
AM_9
100
AcDbLine
 10
-3.195208333333333
 20
-3.241012301152362
 30
0.0
 11
-3.299208333333333
 21
-3.241012301152362
 31
0.0
  0
LINE
  5
E1
330
CC
100
AcDbEntity
  8
AM_9
100
AcDbLine
 10
-2.133208333333333
 20
-3.157488888888889
 30
0.0
 11
-2.133208333333333
 21
-3.432788888888889
 31
0.0
  0
LINE
  5
E2
330
CC
100
AcDbEntity
  8
AM_9
100
AcDbLine
 10
-2.133208333333333
 20
-3.157488888888889
 30
0.0
 11
-2.151808333333333
 21
-3.138888888888889
 31
0.0
  0
LINE
  5
E3
330
CC
100
AcDbEntity
  8
AM_9
100
AcDbLine
 10
-2.151808333333333
 20
-3.451388888888889
 30
0.0
 11
-2.133208333333333
 21
-3.432788888888889
 31
0.0
  0
LINE
  5
E4
330
CC
100
AcDbEntity
  8
AM_9
100
AcDbLine
 10
-2.151808333333333
 20
-3.138888888888889
 30
0.0
 11
-2.151808333333333
 21
-3.451388888888889
 31
0.0
  0
LINE
  5
E5
330
CC
100
AcDbEntity
  8
AM_9
100
AcDbLine
 10
-3.133208333333333
 20
-3.451388888888889
 30
0.0
 11
-2.151808333333333
 21
-3.451388888888889
 31
0.0
  0
LINE
  5
E6
330
CC
100
AcDbEntity
  8
AM_9
100
AcDbLine
 10
-2.151808333333333
 20
-3.138888888888889
 30
0.0
 11
-3.133208333333333
 21
-3.138888888888889
 31
0.0
  0
LINE
  5
E7
330
CC
100
AcDbEntity
  8
AM_5
100
AcDbLine
 10
-3.053208333333334
 20
-3.432788888888889
 30
0.0
 11
-3.085424478354115
 21
-3.451388888888889
 31
0.0
  0
LINE
  5
E8
330
CC
100
AcDbEntity
  8
AM_5
100
AcDbLine
 10
-3.053208333333333
 20
-3.138888898849395
 30
0.0
 11
-3.053208333333334
 21
-3.451388923982121
 31
0.0
  0
LINE
  5
E9
330
CC
100
AcDbEntity
  8
AM_5
100
AcDbLine
 10
-3.053208333333333
 20
-3.157488888888889
 30
0.0
 11
-3.085424478354115
 21
-3.138888888888889
 31
0.0
  0
LINE
  5
EA
330
CC
100
AcDbEntity
  8
AM_4
100
AcDbLine
 10
-3.164208333333333
 20
-3.568638888888889
 30
0.0
 11
-3.133208333333333
 21
-3.568638888888889
 31
0.0
  0
LINE
  5
EB
330
CC
100
AcDbEntity
  8
AM_4
100
AcDbLine
 10
-3.133208333333333
 20
-3.021638888888889
 30
0.0
 11
-3.164208333333333
 21
-3.021638888888889
 31
0.0
  0
LINE
  5
EC
330
CC
100
AcDbEntity
  8
AM_4
100
AcDbLine
 10
-3.299208333333333
 20
-3.156638888888889
 30
0.0
 11
-3.299208333333333
 21
-3.433638888888889
 31
0.0
  0
LINE
  5
ED
330
CC
100
AcDbEntity
  8
AM_4
100
AcDbLine
 10
-3.164208333333333
 20
-3.021638888888889
 30
0.0
 11
-3.164208333333333
 21
-3.568638888888889
 31
0.0
  0
ARC
  5
EE
330
CC
100
AcDbEntity
  8
AM_4
100
AcDbCircle
 10
-3.164208333333333
 20
-3.433638888888889
 30
0.0
 40
0.1350000000000002
100
AcDbArc
 50
180.0
 51
270.0
  0
ARC
  5
EF
330
CC
100
AcDbEntity
  8
AM_4
100
AcDbCircle
 10
-3.164208333333333
 20
-3.156638888888889
 30
0.0
 40
0.1350000000000002
100
AcDbArc
 50
90.0
 51
180.0
  0
ENDBLK
  5
CF
330
CC
100
AcDbEntity
  8
0
100
AcDbBlockEnd
  0
BLOCK
  5
F2
330
F0
100
AcDbEntity
  8
0
100
AcDbBlockBegin
  2
4_ASME_B18_3_5_16_2_0_in_069932_2
 70
     2
 10
0.0
 20
0.0
 30
0.0
  3
4_ASME_B18_3_5_16_2_0_in_069932_2
  1

  0
ATTDEF
  5
F4
330
F0
100
AcDbEntity
  8
AM_6
100
AcDbText
 10
2.866791666666667
 20
3.568638888888889
 30
0.0
 40
0.5
  1
ANSI/ASME B18.3-1998
100
AcDbAttributeDefinition
  3

  2
NN
 70
     8
280
     0
  0
ATTDEF
  5
F5
330
F0
100
AcDbEntity
  8
AM_6
100
AcDbText
 10
2.866791666666667
 20
3.068638888888889
 30
0.0
 40
0.5
  1
Socket Button Head Cap Screws
100
AcDbAttributeDefinition
  3

  2
NT
 70
     8
280
     0
  0
ATTDEF
  5
F6
330
F0
100
AcDbEntity
  8
AM_6
100
AcDbText
 10
2.866791666666667
 20
2.568638888888889
 30
0.0
 40
0.5
  1
ASME B18.3-5/16
100
AcDbAttributeDefinition
  3

  2
NB
 70
     8
280
     0
  0
ATTDEF
  5
F7
330
F0
100
AcDbEntity
  8
AM_6
100
AcDbText
 10
2.866791666666667
 20
2.068638888888889
 30
0.0
 40
0.5
  1
ASME B18.3-$NS.
100
AcDbAttributeDefinition
  3

  2
NBSYN
 70
     8
280
     0
  0
ATTDEF
  5
F8
330
F0
100
AcDbEntity
  8
AM_6
100
AcDbText
 10
2.866791666666667
 20
1.568638888888889
 30
0.0
 40
0.5
  1
ASME B18.3-5/16
100
AcDbAttributeDefinition
  3

  2
LINA
 70
     8
280
     0
  0
ATTDEF
  5
F9
330
F0
100
AcDbEntity
  8
AM_6
100
AcDbText
 10
2.866791666666667
 20
1.068638888888889
 30
0.0
 40
0.5
  1
5/16
100
AcDbAttributeDefinition
  3

  2
NS
 70
     8
280
     0
  0
ATTDEF
  5
FA
330
F0
100
AcDbEntity
  8
AM_6
100
AcDbText
 10
2.866791666666667
 20
0.5686388888888891
 30
0.0
 40
0.5
  1
0.547
100
AcDbAttributeDefinition
  3

  2
A
 70
     8
280
     0
  0
ATTDEF
  5
FB
330
F0
100
AcDbEntity
  8
AM_6
100
AcDbText
 10
2.866791666666667
 20
0.0686388888888891
 30
0.0
 40
0.5
  1
0.166
100
AcDbAttributeDefinition
  3

  2
H
 70
     8
280
     0
  0
ATTDEF
  5
FC
330
F0
100
AcDbEntity
  8
AM_6
100
AcDbText
 10
2.866791666666667
 20
-0.4313611111111109
 30
0.0
 40
0.5
  1
1.000
100
AcDbAttributeDefinition
  3

  2
L
 70
     8
280
     0
  0
ATTDEF
  5
FD
330
F0
100
AcDbEntity
  8
AM_6
100
AcDbText
 10
2.866791666666667
 20
-0.9313611111111109
 30
0.0
 40
0.5
  1
0.031
100
AcDbAttributeDefinition
  3

  2
S
 70
     8
280
     0
  0
ATTDEF
  5
FE
330
F0
100
AcDbEntity
  8
AM_6
100
AcDbText
 10
2.866791666666667
 20
-1.431361111111111
 30
0.0
 40
0.5
  1
0.187500
100
AcDbAttributeDefinition
  3

  2
J
 70
     8
280
     0
  0
ATTDEF
  5
FF
330
F0
100
AcDbEntity
  8
AM_6
100
AcDbText
 10
2.866791666666667
 20
-1.931361111111111
 30
0.0
 40
0.5
  1
baldor
100
AcDbAttributeDefinition
  3

  2
COMPANY
 70
     8
280
     0
  0
LINE
  5
100
330
F0
100
AcDbEntity
  8
AM_9
100
AcDbLine
 10
-3.195208333333333
 20
3.186885713415834
 30
0.0
 11
-3.299208333333333
 21
3.186885713415834
 31
0.0
  0
LINE
  5
101
330
F0
100
AcDbEntity
  8
AM_9
100
AcDbLine
 10
-3.195208333333333
 20
3.403392064361944
 30
0.0
 11
-3.299208333333333
 21
3.403392064361944
 31
0.0
  0
LINE
  5
102
330
F0
100
AcDbEntity
  8
AM_9
100
AcDbLine
 10
-3.195208333333333
 20
3.403392064361944
 30
0.0
 11
-3.195208333333333
 21
3.186885713415834
 31
0.0
  0
LINE
  5
103
330
F0
100
AcDbEntity
  8
AM_9
100
AcDbLine
 10
-3.195208333333333
 20
3.241012301152362
 30
0.0
 11
-3.299208333333333
 21
3.241012301152362
 31
0.0
  0
LINE
  5
104
330
F0
100
AcDbEntity
  8
AM_9
100
AcDbLine
 10
-3.195208333333333
 20
3.349265476625416
 30
0.0
 11
-3.299208333333333
 21
3.349265476625416
 31
0.0
  0
LINE
  5
105
330
F0
100
AcDbEntity
  8
AM_9
100
AcDbLine
 10
-2.133208333333333
 20
3.432788888888889
 30
0.0
 11
-2.133208333333333
 21
3.157488888888889
 31
0.0
  0
LINE
  5
106
330
F0
100
AcDbEntity
  8
AM_9
100
AcDbLine
 10
-2.133208333333333
 20
3.432788888888889
 30
0.0
 11
-2.151808333333333
 21
3.451388888888889
 31
0.0
  0
LINE
  5
107
330
F0
100
AcDbEntity
  8
AM_9
100
AcDbLine
 10
-2.151808333333333
 20
3.138888888888889
 30
0.0
 11
-2.133208333333333
 21
3.157488888888889
 31
0.0
  0
LINE
  5
108
330
F0
100
AcDbEntity
  8
AM_9
100
AcDbLine
 10
-2.151808333333333
 20
3.451388888888889
 30
0.0
 11
-2.151808333333333
 21
3.138888888888889
 31
0.0
  0
LINE
  5
109
330
F0
100
AcDbEntity
  8
AM_9
100
AcDbLine
 10
-3.133208333333333
 20
3.138888888888889
 30
0.0
 11
-2.151808333333333
 21
3.138888888888889
 31
0.0
  0
LINE
  5
10A
330
F0
100
AcDbEntity
  8
AM_9
100
AcDbLine
 10
-2.151808333333333
 20
3.451388888888889
 30
0.0
 11
-3.133208333333333
 21
3.451388888888889
 31
0.0
  0
LINE
  5
10B
330
F0
100
AcDbEntity
  8
AM_5
100
AcDbLine
 10
-3.053208333333334
 20
3.157488888888889
 30
0.0
 11
-3.085424478354115
 21
3.138888888888889
 31
0.0
  0
LINE
  5
10C
330
F0
100
AcDbEntity
  8
AM_5
100
AcDbLine
 10
-3.053208333333333
 20
3.451388923982119
 30
0.0
 11
-3.053208333333334
 21
3.138888898849397
 31
0.0
  0
LINE
  5
10D
330
F0
100
AcDbEntity
  8
AM_5
100
AcDbLine
 10
-3.053208333333333
 20
3.432788888888889
 30
0.0
 11
-3.085424478354115
 21
3.451388888888889
 31
0.0
  0
LINE
  5
10E
330
F0
100
AcDbEntity
  8
AM_4
100
AcDbLine
 10
-3.164208333333333
 20
3.021638888888889
 30
0.0
 11
-3.133208333333333
 21
3.021638888888889
 31
0.0
  0
LINE
  5
10F
330
F0
100
AcDbEntity
  8
AM_4
100
AcDbLine
 10
-3.133208333333333
 20
3.568638888888889
 30
0.0
 11
-3.164208333333333
 21
3.568638888888889
 31
0.0
  0
LINE
  5
110
330
F0
100
AcDbEntity
  8
AM_4
100
AcDbLine
 10
-3.299208333333333
 20
3.433638888888889
 30
0.0
 11
-3.299208333333333
 21
3.156638888888889
 31
0.0
  0
LINE
  5
111
330
F0
100
AcDbEntity
  8
AM_4
100
AcDbLine
 10
-3.164208333333333
 20
3.568638888888889
 30
0.0
 11
-3.164208333333333
 21
3.021638888888889
 31
0.0
  0
ARC
  5
112
330
F0
100
AcDbEntity
  8
AM_4
100
AcDbCircle
 10
-3.164208333333333
 20
3.156638888888889
 30
0.0
 40
0.1350000000000002
100
AcDbArc
 50
180.0
 51
270.0
  0
ARC
  5
113
330
F0
100
AcDbEntity
  8
AM_4
100
AcDbCircle
 10
-3.164208333333333
 20
3.433638888888889
 30
0.0
 40
0.1349999999999998
100
AcDbArc
 50
90.0
 51
180.0
  0
ENDBLK
  5
F3
330
F0
100
AcDbEntity
  8
0
100
AcDbBlockEnd
  0
BLOCK
  5
116
330
114
100
AcDbEntity
  8
0
100
AcDbBlockBegin
  2
5_070911LW_0_in_069932_2
 70
     2
 10
0.0
 20
0.0
 30
0.0
  3
5_070911LW_0_in_069932_2
  1

  0
ATTDEF
  5
118
330
114
100
AcDbEntity
  8
AM_6
100
AcDbText
 10
2.366791666666667
 20
3.8125
 30
0.0
 40
0.5
  1
Imperial Insert Lockwasher -Inch
100
AcDbAttributeDefinition
  3

  2
NN
 70
     8
280
     0
  0
ATTDEF
  5
119
330
114
100
AcDbEntity
  8
AM_6
100
AcDbText
 10
2.366791666666667
 20
3.3125
 30
0.0
 40
0.5
  1
Imperial Bearings
100
AcDbAttributeDefinition
  3

  2
NT
 70
     8
280
     0
  0
ATTDEF
  5
11A
330
114
100
AcDbEntity
  8
AM_6
100
AcDbText
 10
2.366791666666667
 20
2.8125
 30
0.0
 40
0.5
  1
070911LW
100
AcDbAttributeDefinition
  3

  2
NB
 70
     8
280
     0
  0
ATTDEF
  5
11B
330
114
100
AcDbEntity
  8
AM_6
100
AcDbText
 10
2.366791666666667
 20
2.3125
 30
0.0
 40
0.5
  1
$PN.LW
100
AcDbAttributeDefinition
  3

  2
NBSYN
 70
     8
280
     0
  0
ATTDEF
  5
11C
330
114
100
AcDbEntity
  8
AM_6
100
AcDbText
 10
2.366791666666667
 20
1.8125
 30
0.0
 40
0.5
  1
070911
100
AcDbAttributeDefinition
  3

  2
LINA
 70
     8
280
     0
  0
ATTDEF
  5
11D
330
114
100
AcDbEntity
  8
AM_6
100
AcDbText
 10
2.366791666666667
 20
1.3125
 30
0.0
 40
0.5
  1
5
100
AcDbAttributeDefinition
  3

  2
SS
 70
     8
280
     0
  0
ATTDEF
  5
11E
330
114
100
AcDbEntity
  8
AM_6
100
AcDbText
 10
2.366791666666667
 20
0.8125
 30
0.0
 40
0.5
  1
5.000000
100
AcDbAttributeDefinition
  3

  2
SS1
 70
     8
280
     0
  0
ATTDEF
  5
11F
330
114
100
AcDbEntity
  8
AM_6
100
AcDbText
 10
2.366791666666667
 20
0.3125
 30
0.0
 40
0.5
  1
070911
100
AcDbAttributeDefinition
  3

  2
PN
 70
     8
280
     0
  0
ATTDEF
  5
120
330
114
100
AcDbEntity
  8
AM_6
100
AcDbText
 10
2.366791666666667
 20
-0.1875
 30
0.0
 40
0.5
  1
INS-IP-500R
100
AcDbAttributeDefinition
  3

  2
DESCRIPTION
 70
     8
280
     0
  0
ATTDEF
  5
121
330
114
100
AcDbEntity
  8
AM_6
100
AcDbText
 10
2.366791666666667
 20
-0.6875
 30
0.0
 40
0.5
  1
9.0551
100
AcDbAttributeDefinition
  3

  2
A
 70
     8
280
     0
  0
ATTDEF
  5
122
330
114
100
AcDbEntity
  8
AM_6
100
AcDbText
 10
2.366791666666667
 20
-1.1875
 30
0.0
 40
0.5
  1
2-19/32
100
AcDbAttributeDefinition
  3

  2
B
 70
     8
280
     0
  0
ATTDEF
  5
123
330
114
100
AcDbEntity
  8
AM_6
100
AcDbText
 10
2.366791666666667
 20
-1.6875
 30
0.0
 40
0.5
  1
5-63/64
100
AcDbAttributeDefinition
  3

  2
C
 70
     8
280
     0
  0
ATTDEF
  5
124
330
114
100
AcDbEntity
  8
AM_6
100
AcDbText
 10
2.366791666666667
 20
-2.1875
 30
0.0
 40
0.5
  1
2.107
100
AcDbAttributeDefinition
  3

  2
D
 70
     8
280
     0
  0
ATTDEF
  5
125
330
114
100
AcDbEntity
  8
AM_6
100
AcDbText
 10
2.366791666666667
 20
-2.6875
 30
0.0
 40
0.5
  1
7-5/8
100
AcDbAttributeDefinition
  3

  2
E
 70
     8
280
     0
  0
ATTDEF
  5
126
330
114
100
AcDbEntity
  8
AM_6
100
AcDbText
 10
2.366791666666667
 20
-3.1875
 30
0.0
 40
0.5
  1
0.3125
100
AcDbAttributeDefinition
  3

  2
NDM
 70
     8
280
     0
  0
ATTDEF
  5
127
330
114
100
AcDbEntity
  8
AM_6
100
AcDbText
 10
2.366791666666667
 20
-3.6875
 30
0.0
 40
0.5
  1
0.2580
100
AcDbAttributeDefinition
  3

  2
KDM
 70
     8
280
     0
  0
ATTDEF
  5
128
330
114
100
AcDbEntity
  8
AM_6
100
AcDbText
 10
2.366791666666667
 20
-4.1875
 30
0.0
 40
0.5
  1
6.80
100
AcDbAttributeDefinition
  3

  2
AL
 70
     8
280
     0
  0
ATTDEF
  5
129
330
114
100
AcDbEntity
  8
AM_6
100
AcDbText
 10
2.366791666666667
 20
-4.6875
 30
0.0
 40
0.5
  1
0.50
100
AcDbAttributeDefinition
  3

  2
BL
 70
     8
280
     0
  0
ATTDEF
  5
12A
330
114
100
AcDbEntity
  8
AM_6
100
AcDbText
 10
2.366791666666667
 20
-5.1875
 30
0.0
 40
0.5
  1
0.07
100
AcDbAttributeDefinition
  3

  2
CL
 70
     8
280
     0
  0
ATTDEF
  5
12B
330
114
100
AcDbEntity
  8
AM_6
100
AcDbText
 10
2.366791666666667
 20
-5.6875
 30
0.0
 40
0.5
  1
0.50
100
AcDbAttributeDefinition
  3

  2
DL
 70
     8
280
     0
  0
ATTDEF
  5
12C
330
114
100
AcDbEntity
  8
AM_6
100
AcDbText
 10
2.366791666666667
 20
-6.1875
 30
0.0
 40
0.5
  1
baldor
100
AcDbAttributeDefinition
  3

  2
COMPANY
 70
     8
280
     0
  0
LINE
  5
12D
330
114
100
AcDbEntity
  8
AM_9
100
AcDbLine
 10
-3.063208333333333
 20
2.446464261501835
 30
0.0
 11
-3.133208333333333
 21
2.446464261501835
 31
0.0
  0
LINE
  5
12E
330
114
100
AcDbEntity
  8
AM_9
100
AcDbLine
 10
-2.633208333333333
 20
2.380682182413508
 30
0.0
 11
-3.063208333333333
 21
2.380682182413508
 31
0.0
  0
LINE
  5
12F
330
114
100
AcDbEntity
  8
AM_9
100
AcDbLine
 10
-2.633208333333333
 20
2.258974471982175
 30
0.0
 11
-2.633208333333333
 21
2.476353040504781
 31
0.0
  0
LINE
  5
130
330
114
100
AcDbEntity
  8
AM_9
100
AcDbLine
 10
-2.633208333333333
 20
2.258974471982175
 30
0.0
 11
-3.133208333333333
 21
2.258974471982175
 31
0.0
  0
LINE
  5
131
330
114
100
AcDbEntity
  8
AM_9
100
AcDbLine
 10
-3.063208333333333
 20
2.476353040504781
 30
0.0
 11
-2.633208333333333
 21
2.476353040504781
 31
0.0
  0
LINE
  5
132
330
114
100
AcDbEntity
  8
AM_9
100
AcDbLine
 10
-2.633208333333333
 20
2.354645330073448
 30
0.0
 11
-3.133208333333333
 21
2.354645330073448
 31
0.0
  0
LINE
  5
133
330
114
100
AcDbEntity
  8
AM_9
100
AcDbLine
 10
-3.063208333333333
 20
2.542135119593107
 30
0.0
 11
-3.133208333333333
 21
2.542135119593107
 31
0.0
  0
LINE
  5
134
330
114
100
AcDbEntity
  8
AM_9
100
AcDbLine
 10
-3.063208333333333
 20
3.295138888888888
 30
0.0
 11
-3.133208333333333
 21
3.295138888888888
 31
0.0
  0
LINE
  5
135
330
114
100
AcDbEntity
  8
AM_9
100
AcDbLine
 10
-3.063208333333333
 20
3.451432848133548
 30
0.0
 11
-3.133208333333333
 21
3.451432848133548
 31
0.0
  0
LINE
  5
136
330
114
100
AcDbEntity
  8
AM_9
100
AcDbLine
 10
-3.063208333333333
 20
-3.295138888888889
 30
0.0
 11
-3.133208333333333
 21
-3.295138888888889
 31
0.0
  0
LINE
  5
137
330
114
100
AcDbEntity
  8
AM_9
100
AcDbLine
 10
-3.133208333333333
 20
-3.451432848133548
 30
0.0
 11
-3.063208333333333
 21
-3.451432848133548
 31
0.0
  0
LINE
  5
138
330
114
100
AcDbEntity
  8
AM_9
100
AcDbLine
 10
-3.063208333333333
 20
2.698182320877611
 30
0.0
 11
-3.133208333333333
 21
2.698182320877611
 31
0.0
  0
LINE
  5
139
330
114
100
AcDbEntity
  8
AM_9
100
AcDbLine
 10
-3.063208333333333
 20
-2.698182320877612
 30
0.0
 11
-3.133208333333333
 21
-2.698182320877612
 31
0.0
  0
LINE
  5
13A
330
114
100
AcDbEntity
  8
AM_9
100
AcDbLine
 10
-3.063208333333333
 20
-2.018388450530614
 30
0.0
 11
-3.133208333333333
 21
-2.018388450530614
 31
0.0
  0
LINE
  5
13B
330
114
100
AcDbEntity
  8
AM_9
100
AcDbLine
 10
-3.063208333333333
 20
2.018388450530615
 30
0.0
 11
-3.133208333333333
 21
2.018388450530609
 31
0.0
  0
LINE
  5
13C
330
114
100
AcDbEntity
  8
AM_9
100
AcDbLine
 10
-3.063208333333333
 20
1.797417581409818
 30
0.0
 11
-3.133208333333333
 21
1.797417581409818
 31
0.0
  0
LINE
  5
13D
330
114
100
AcDbEntity
  8
AM_9
100
AcDbLine
 10
-3.063208333333333
 20
-1.797417581409817
 30
0.0
 11
-3.133208333333333
 21
-1.797417581409817
 31
0.0
  0
LINE
  5
13E
330
114
100
AcDbEntity
  8
AM_9
100
AcDbLine
 10
-3.063208333333333
 20
2.440500487845238
 30
0.0
 11
-3.133208333333333
 21
2.440500487845238
 31
0.0
  0
LINE
  5
13F
330
114
100
AcDbEntity
  8
AM_9
100
AcDbLine
 10
-3.063208333333333
 20
2.219529618724441
 30
0.0
 11
-3.133208333333333
 21
2.219529618724441
 31
0.0
  0
LINE
  5
140
330
114
100
AcDbEntity
  8
AM_9
100
AcDbLine
 10
-3.063208333333333
 20
2.486296138975497
 30
0.0
 11
-3.133208333333333
 21
2.486296138975497
 31
0.0
  0
LINE
  5
141
330
114
100
AcDbEntity
  8
AM_9
100
AcDbLine
 10
-3.063208333333333
 20
-2.21952961872444
 30
0.0
 11
-3.133208333333333
 21
-2.21952961872444
 31
0.0
  0
LINE
  5
142
330
114
100
AcDbEntity
  8
AM_9
100
AcDbLine
 10
-3.063208333333333
 20
-2.440500487845215
 30
0.0
 11
-3.133208333333333
 21
-2.440500487845215
 31
0.0
  0
LINE
  5
143
330
114
100
AcDbEntity
  8
AM_9
100
AcDbLine
 10
-3.133208333333333
 20
-2.486296138975496
 30
0.0
 11
-3.063208333333333
 21
-2.486296138975496
 31
0.0
  0
LINE
  5
144
330
114
100
AcDbEntity
  8
AM_9
100
AcDbLine
 10
-3.063208333333333
 20
0.1562500000000011
 30
0.0
 11
-3.133208333333333
 21
0.1562500000000011
 31
0.0
  0
LINE
  5
145
330
114
100
AcDbEntity
  8
AM_9
100
AcDbLine
 10
-3.063208333333333
 20
-0.1562499999999989
 30
0.0
 11
-3.133208333333333
 21
-0.1562499999999989
 31
0.0
  0
LINE
  5
146
330
114
100
AcDbEntity
  8
AM_4
100
AcDbLine
 10
-3.063208333333333
 20
3.8125
 30
0.0
 11
-3.133208333333333
 21
3.8125
 31
0.0
  0
LINE
  5
147
330
114
100
AcDbEntity
  8
AM_4
100
AcDbLine
 10
-3.133208333333333
 20
-3.8125
 30
0.0
 11
-3.063208333333333
 21
-3.8125
 31
0.0
  0
LINE
  5
148
330
114
100
AcDbEntity
  8
AM_4
100
AcDbLine
 10
-3.133208333333333
 20
3.8125
 30
0.0
 11
-3.133208333333333
 21
-3.8125
 31
0.0
  0
LINE
  5
149
330
114
100
AcDbEntity
  8
AM_4
100
AcDbLine
 10
-3.063208333333333
 20
3.8125
 30
0.0
 11
-3.063208333333333
 21
-3.8125
 31
0.0
  0
ENDBLK
  5
117
330
114
100
AcDbEntity
  8
0
100
AcDbBlockEnd
  0
BLOCK
  5
14C
330
14A
100
AcDbEntity
  8
0
100
AcDbBlockBegin
  2
6_070943I_0_in_069932_2
 70
     2
 10
0.0
 20
0.0
 30
0.0
  3
6_070943I_0_in_069932_2
  1

  0
ATTDEF
  5
14E
330
14A
100
AcDbEntity
  8
AM_6
100
AcDbText
 10
7.536000000000003
 20
4.52755
 30
0.0
 40
0.5
  1
Imperial Insert -Inch
100
AcDbAttributeDefinition
  3

  2
NN
 70
     8
280
     0
  0
ATTDEF
  5
14F
330
14A
100
AcDbEntity
  8
AM_6
100
AcDbText
 10
7.536000000000003
 20
4.02755
 30
0.0
 40
0.5
  1
Imperial Bearings
100
AcDbAttributeDefinition
  3

  2
NT
 70
     8
280
     0
  0
ATTDEF
  5
150
330
14A
100
AcDbEntity
  8
AM_6
100
AcDbText
 10
7.536000000000003
 20
3.52755
 30
0.0
 40
0.5
  1
070943I
100
AcDbAttributeDefinition
  3

  2
NB
 70
     8
280
     0
  0
ATTDEF
  5
151
330
14A
100
AcDbEntity
  8
AM_6
100
AcDbText
 10
7.536000000000003
 20
3.02755
 30
0.0
 40
0.5
  1
$PN.I
100
AcDbAttributeDefinition
  3

  2
NBSYN
 70
     8
280
     0
  0
ATTDEF
  5
152
330
14A
100
AcDbEntity
  8
AM_6
100
AcDbText
 10
7.536000000000003
 20
2.52755
 30
0.0
 40
0.5
  1
070943
100
AcDbAttributeDefinition
  3

  2
LINA
 70
     8
280
     0
  0
ATTDEF
  5
153
330
14A
100
AcDbEntity
  8
AM_6
100
AcDbText
 10
7.536000000000003
 20
2.02755
 30
0.0
 40
0.5
  1
5
100
AcDbAttributeDefinition
  3

  2
SS
 70
     8
280
     0
  0
ATTDEF
  5
154
330
14A
100
AcDbEntity
  8
AM_6
100
AcDbText
 10
7.536000000000003
 20
1.52755
 30
0.0
 40
0.5
  1
5.000000
100
AcDbAttributeDefinition
  3

  2
SS1
 70
     8
280
     0
  0
ATTDEF
  5
155
330
14A
100
AcDbEntity
  8
AM_6
100
AcDbText
 10
7.536000000000003
 20
1.02755
 30
0.0
 40
0.5
  1
070943
100
AcDbAttributeDefinition
  3

  2
PN
 70
     8
280
     0
  0
ATTDEF
  5
156
330
14A
100
AcDbEntity
  8
AM_6
100
AcDbText
 10
7.536000000000003
 20
0.5275499999999997
 30
0.0
 40
0.5
  1
INS-IP-500L
100
AcDbAttributeDefinition
  3

  2
DESCRIPTION
 70
     8
280
     0
  0
ATTDEF
  5
157
330
14A
100
AcDbEntity
  8
AM_6
100
AcDbText
 10
7.536000000000003
 20
0.0275499999999997
 30
0.0
 40
0.5
  1
Labyrinth Seal
100
AcDbAttributeDefinition
  3

  2
ST
 70
     8
280
     0
  0
ATTDEF
  5
158
330
14A
100
AcDbEntity
  8
AM_6
100
AcDbText
 10
7.536000000000003
 20
-0.4724500000000003
 30
0.0
 40
0.5
  1
9.0551
100
AcDbAttributeDefinition
  3

  2
A
 70
     8
280
     0
  0
ATTDEF
  5
159
330
14A
100
AcDbEntity
  8
AM_6
100
AcDbText
 10
7.536000000000003
 20
-0.9724500000000003
 30
0.0
 40
0.5
  1
2-19/32
100
AcDbAttributeDefinition
  3

  2
B
 70
     8
280
     0
  0
ATTDEF
  5
15A
330
14A
100
AcDbEntity
  8
AM_6
100
AcDbText
 10
7.536000000000003
 20
-1.47245
 30
0.0
 40
0.5
  1
5-63/64
100
AcDbAttributeDefinition
  3

  2
C
 70
     8
280
     0
  0
ATTDEF
  5
15B
330
14A
100
AcDbEntity
  8
AM_6
100
AcDbText
 10
7.536000000000003
 20
-1.97245
 30
0.0
 40
0.5
  1
2.107
100
AcDbAttributeDefinition
  3

  2
D
 70
     8
280
     0
  0
ATTDEF
  5
15C
330
14A
100
AcDbEntity
  8
AM_6
100
AcDbText
 10
7.536000000000003
 20
-2.47245
 30
0.0
 40
0.5
  1
7-5/8
100
AcDbAttributeDefinition
  3

  2
E
 70
     8
280
     0
  0
ATTDEF
  5
15D
330
14A
100
AcDbEntity
  8
AM_6
100
AcDbText
 10
7.536000000000003
 20
-2.97245
 30
0.0
 40
0.5
  1
0.3125
100
AcDbAttributeDefinition
  3

  2
NDM
 70
     8
280
     0
  0
ATTDEF
  5
15E
330
14A
100
AcDbEntity
  8
AM_6
100
AcDbText
 10
7.536000000000003
 20
-3.47245
 30
0.0
 40
0.5
  1
0.166
100
AcDbAttributeDefinition
  3

  2
H
 70
     8
280
     0
  0
ATTDEF
  5
15F
330
14A
100
AcDbEntity
  8
AM_6
100
AcDbText
 10
7.536000000000003
 20
-3.97245
 30
0.0
 40
0.5
  1
0.2580
100
AcDbAttributeDefinition
  3

  2
KDM
 70
     8
280
     0
  0
ATTDEF
  5
160
330
14A
100
AcDbEntity
  8
AM_6
100
AcDbText
 10
7.536000000000003
 20
-4.47245
 30
0.0
 40
0.5
  1
6.80
100
AcDbAttributeDefinition
  3

  2
AL
 70
     8
280
     0
  0
ATTDEF
  5
161
330
14A
100
AcDbEntity
  8
AM_6
100
AcDbText
 10
7.536000000000003
 20
-4.97245
 30
0.0
 40
0.5
  1
0.50
100
AcDbAttributeDefinition
  3

  2
BL
 70
     8
280
     0
  0
ATTDEF
  5
162
330
14A
100
AcDbEntity
  8
AM_6
100
AcDbText
 10
7.536000000000003
 20
-5.47245
 30
0.0
 40
0.5
  1
0.07
100
AcDbAttributeDefinition
  3

  2
CL
 70
     8
280
     0
  0
ATTDEF
  5
163
330
14A
100
AcDbEntity
  8
AM_6
100
AcDbText
 10
7.536000000000003
 20
-5.97245
 30
0.0
 40
0.5
  1
0.50
100
AcDbAttributeDefinition
  3

  2
DL
 70
     8
280
     0
  0
ATTDEF
  5
164
330
14A
100
AcDbEntity
  8
AM_6
100
AcDbText
 10
7.536000000000003
 20
-6.47245
 30
0.0
 40
0.5
  1
1.0000
100
AcDbAttributeDefinition
  3

  2
LL
 70
     8
280
     0
  0
ATTDEF
  5
165
330
14A
100
AcDbEntity
  8
AM_6
100
AcDbText
 10
7.536000000000003
 20
-6.97245
 30
0.0
 40
0.5
  1
0.036
100
AcDbAttributeDefinition
  3

  2
Y
 70
     8
280
     0
  0
ATTDEF
  5
166
330
14A
100
AcDbEntity
  8
AM_6
100
AcDbText
 10
7.536000000000003
 20
-7.47245
 30
0.0
 40
0.5
  1
0.036000
100
AcDbAttributeDefinition
  3

  2
Y1
 70
     8
280
     0
  0
ATTDEF
  5
167
330
14A
100
AcDbEntity
  8
AM_6
100
AcDbText
 10
7.536000000000003
 20
-7.97245
 30
0.0
 40
0.5
  1
5-27/32
100
AcDbAttributeDefinition
  3

  2
Z
 70
     8
280
     0
  0
ATTDEF
  5
168
330
14A
100
AcDbEntity
  8
AM_6
100
AcDbText
 10
7.536000000000003
 20
-8.47245
 30
0.0
 40
0.5
  1
5.843750
100
AcDbAttributeDefinition
  3

  2
Z1
 70
     8
280
     0
  0
ATTDEF
  5
169
330
14A
100
AcDbEntity
  8
AM_6
100
AcDbText
 10
7.536000000000003
 20
-8.97245
 30
0.0
 40
0.5
  1
baldor
100
AcDbAttributeDefinition
  3

  2
COMPANY
 70
     8
280
     0
  0
LINE
  5
16A
330
14A
100
AcDbEntity
  8
AM_9
100
AcDbLine
 10
1.689875
 20
2.482775209641407
 30
0.0
 11
-3.063208333333333
 21
2.482775209641407
 31
0.0
  0
LINE
  5
16B
330
14A
100
AcDbEntity
  8
AM_9
100
AcDbLine
 10
1.689875
 20
2.387104351550134
 30
0.0
 11
-3.063208333333333
 21
2.387104351550134
 31
0.0
  0
LINE
  5
16C
330
14A
100
AcDbEntity
  8
AM_9
100
AcDbLine
 10
-2.013208333333333
 20
3.295138888888889
 30
0.0
 11
-2.072056359792493
 21
3.421338888888889
 31
0.0
  0
LINE
  5
16D
330
14A
100
AcDbEntity
  8
AM_9
100
AcDbLine
 10
-2.072056359792493
 20
3.168938888888889
 30
0.0
 11
-2.013208333333333
 21
3.295138888888889
 31
0.0
  0
LINE
  5
16E
330
14A
100
AcDbEntity
  8
AM_9
100
AcDbLine
 10
-2.013208333333331
 20
-3.295138888888889
 30
0.0
 11
-2.07205635979249
 21
-3.168938888888889
 31
0.0
  0
LINE
  5
16F
330
14A
100
AcDbEntity
  8
AM_9
100
AcDbLine
 10
-2.07205635979249
 20
-3.421338888888889
 30
0.0
 11
-2.013208333333331
 21
-3.295138888888889
 31
0.0
  0
LINE
  5
170
330
14A
100
AcDbEntity
  8
AM_9
100
AcDbLine
 10
-3.033158333333348
 20
-3.421338888888889
 30
0.0
 11
-2.07205635979249
 21
-3.421338888888889
 31
0.0
  0
LINE
  5
171
330
14A
100
AcDbEntity
  8
AM_9
100
AcDbLine
 10
-2.07205635979249
 20
-3.168938888888889
 30
0.0
 11
-3.033158333333348
 21
-3.168938888888889
 31
0.0
  0
LINE
  5
172
330
14A
100
AcDbEntity
  8
AM_9
100
AcDbLine
 10
-2.07205635979249
 20
-3.168938888888889
 30
0.0
 11
-2.07205635979249
 21
-3.421338888888889
 31
0.0
  0
LINE
  5
173
330
14A
100
AcDbEntity
  8
AM_9
100
AcDbLine
 10
-2.072056359792493
 20
3.168938888888889
 30
0.0
 11
-2.072056359792493
 21
3.421338888888889
 31
0.0
  0
LINE
  5
174
330
14A
100
AcDbEntity
  8
AM_9
100
AcDbLine
 10
-2.072056359792493
 20
3.421338888888889
 30
0.0
 11
-3.033158333333333
 21
3.421338888888889
 31
0.0
  0
LINE
  5
175
330
14A
100
AcDbEntity
  8
AM_9
100
AcDbLine
 10
-3.033158333333333
 20
3.168938888888889
 30
0.0
 11
-2.072056359792493
 21
3.168938888888889
 31
0.0
  0
LINE
  5
176
330
14A
100
AcDbEntity
  8
AM_9
100
AcDbLine
 10
-3.033158333333348
 20
-3.168938888888889
 30
0.0
 11
-3.06320833333334
 21
-3.138888888888889
 31
0.0
  0
LINE
  5
177
330
14A
100
AcDbEntity
  8
AM_9
100
AcDbLine
 10
-3.06320833333334
 20
-3.451388888888889
 30
0.0
 11
-3.033158333333348
 21
-3.421338888888889
 31
0.0
  0
LINE
  5
178
330
14A
100
AcDbEntity
  8
AM_9
100
AcDbLine
 10
-3.033158333333348
 20
-3.168938888888889
 30
0.0
 11
-3.033158333333348
 21
-3.421338888888889
 31
0.0
  0
LINE
  5
179
330
14A
100
AcDbEntity
  8
AM_9
100
AcDbLine
 10
-3.033158333333333
 20
3.168938888888889
 30
0.0
 11
-3.033158333333333
 21
3.421338888888889
 31
0.0
  0
LINE
  5
17A
330
14A
100
AcDbEntity
  8
AM_9
100
AcDbLine
 10
-3.033158333333333
 20
3.421338888888889
 30
0.0
 11
-3.063208333333333
 21
3.451388888888889
 31
0.0
  0
LINE
  5
17B
330
14A
100
AcDbEntity
  8
AM_9
100
AcDbLine
 10
-3.063208333333333
 20
3.138888888888889
 30
0.0
 11
-3.033158333333333
 21
3.168938888888889
 31
0.0
  0
LINE
  5
17C
330
14A
100
AcDbEntity
  8
AM_9
100
AcDbLine
 10
1.689875
 20
2.354645330073448
 30
0.0
 11
-3.484375
 21
2.354645330073448
 31
0.0
  0
LINE
  5
17D
330
14A
100
AcDbEntity
  8
AM_9
100
AcDbLine
 10
-3.484375
 20
2.258974471982175
 30
0.0
 11
1.689875
 21
2.258974471982175
 31
0.0
  0
LINE
  5
17E
330
14A
100
AcDbEntity
  8
AM_9
100
AcDbLine
 10
1.689875
 20
2.5
 30
0.0
 11
-3.484375
 21
2.5
 31
0.0
  0
LINE
  5
17F
330
14A
100
AcDbEntity
  8
AM_9
100
AcDbLine
 10
-3.484375
 20
-2.5
 30
0.0
 11
1.689875
 21
-2.5
 31
0.0
  0
LINE
  5
180
330
14A
100
AcDbEntity
  8
AM_9
100
AcDbLine
 10
-2.563208333333333
 20
-2.227386360737625
 30
0.0
 11
-3.063208333333333
 21
-2.227386360737625
 31
0.0
  0
LINE
  5
181
330
14A
100
AcDbEntity
  8
AM_9
100
AcDbLine
 10
-2.563208333333333
 20
2.227386360737624
 30
0.0
 11
-3.063208333333333
 21
2.227386360737624
 31
0.0
  0
LINE
  5
182
330
14A
100
AcDbEntity
  8
AM_9
100
AcDbLine
 10
2.5
 20
2.631578947368421
 30
0.0
 11
1.689875
 21
2.631578947368421
 31
0.0
  0
LINE
  5
183
330
14A
100
AcDbEntity
  8
AM_9
100
AcDbLine
 10
1.689875
 20
-2.631578947368421
 30
0.0
 11
2.5
 21
-2.631578947368421
 31
0.0
  0
LINE
  5
184
330
14A
100
AcDbEntity
  8
AM_9
100
AcDbLine
 10
-3.484375
 20
2.476353040504781
 30
0.0
 11
-3.063208333333333
 21
2.476353040504781
 31
0.0
  0
LINE
  5
185
330
14A
100
AcDbEntity
  8
AM_9
100
AcDbLine
 10
-3.063208333333333
 20
2.380682182413508
 30
0.0
 11
-3.484375
 21
2.380682182413508
 31
0.0
  0
LINE
  5
186
330
14A
100
AcDbEntity
  8
AM_9
100
AcDbLine
 10
-3.063208333333333
 20
2.631578947368421
 30
0.0
 11
-3.133208333333333
 21
2.631578947368421
 31
0.0
  0
LINE
  5
187
330
14A
100
AcDbEntity
  8
AM_9
100
AcDbLine
 10
-3.133208333333333
 20
-2.631578947368421
 30
0.0
 11
-3.063208333333333
 21
-2.631578947368421
 31
0.0
  0
LINE
  5
188
330
14A
100
AcDbEntity
  8
AM_9
100
AcDbLine
 10
-2.563208333333333
 20
-2.227386360737625
 30
0.0
 11
-2.563208333333333
 21
-2.525638571526984
 31
0.0
  0
LINE
  5
189
330
14A
100
AcDbEntity
  8
AM_9
100
AcDbLine
 10
-2.563208333333333
 20
2.525638571526983
 30
0.0
 11
-2.563208333333333
 21
2.227386360737624
 31
0.0
  0
LINE
  5
18A
330
14A
100
AcDbEntity
  8
AM_9
100
AcDbLine
 10
2.5
 20
-2.921875
 30
0.0
 11
2.5
 21
2.921875
 31
0.0
  0
LINE
  5
18B
330
14A
100
AcDbEntity
  8
AM_9
100
AcDbLine
 10
2.536000000000004
 20
2.921875
 30
0.0
 11
2.5
 21
2.921875
 31
0.0
  0
LINE
  5
18C
330
14A
100
AcDbEntity
  8
AM_9
100
AcDbLine
 10
2.5
 20
-2.921875
 30
0.0
 11
2.536000000000004
 21
-2.921875
 31
0.0
  0
LINE
  5
18D
330
14A
100
AcDbEntity
  8
AM_9
100
AcDbLine
 10
2.421875
 20
3.246527777777778
 30
0.0
 11
2.208624999999999
 21
3.246527777777778
 31
0.0
  0
LINE
  5
18E
330
14A
100
AcDbEntity
  8
AM_9
100
AcDbLine
 10
2.208624999999999
 20
-3.246527777777778
 30
0.0
 11
2.421875
 21
-3.246527777777778
 31
0.0
  0
LINE
  5
18F
330
14A
100
AcDbEntity
  8
AM_9
100
AcDbLine
 10
-1.953125
 20
-3.851264964199963
 30
0.0
 11
-0.9038750000000002
 21
-3.88790558158918
 31
0.0
  0
LINE
  5
190
330
14A
100
AcDbEntity
  8
AM_9
100
AcDbLine
 10
-0.9038750000000002
 20
3.88790558158918
 30
0.0
 11
-1.953125
 21
3.851264964199963
 31
0.0
  0
LINE
  5
191
330
14A
100
AcDbEntity
  8
AM_9
100
AcDbLine
 10
2.208625
 20
-3.970314520938919
 30
0.0
 11
2.208625
 21
3.970314520938919
 31
0.0
  0
ARC
  5
192
330
14A
100
AcDbEntity
  8
AM_9
100
AcDbCircle
 10
2.108625
 20
3.970314520938918
 30
0.0
 40
0.1000000000000005
100
AcDbArc
 50
0.0
 51
59.99999999999964
  0
ARC
  5
193
330
14A
100
AcDbEntity
  8
AM_9
100
AcDbCircle
 10
2.108625
 20
-3.970314520938918
 30
0.0
 40
0.1000000000000003
100
AcDbArc
 50
300.0000000000004
 51
0.0
  0
LINE
  5
194
330
14A
100
AcDbEntity
  8
AM_9
100
AcDbLine
 10
2.158625
 20
-4.056917061317362
 30
0.0
 11
2.158625
 21
4.056917061317362
 31
0.0
  0
LINE
  5
195
330
14A
100
AcDbEntity
  8
AM_9
100
AcDbLine
 10
2.158625
 20
4.056917061317362
 30
0.0
 11
1.689875
 21
4.32755
 31
0.0
  0
LINE
  5
196
330
14A
100
AcDbEntity
  8
AM_9
100
AcDbLine
 10
1.689875
 20
-4.32755
 30
0.0
 11
2.158625
 21
-4.056917061317362
 31
0.0
  0
LINE
  5
197
330
14A
100
AcDbEntity
  8
AM_9
100
AcDbLine
 10
0.4678751130355288
 20
4.397862499999999
 30
0.0
 11
0.3181248869644698
 21
4.397862499999999
 31
0.0
  0
LINE
  5
198
330
14A
100
AcDbEntity
  8
AM_9
100
AcDbLine
 10
0.3181248869644698
 20
-4.397862499999999
 30
0.0
 11
0.4678751130355288
 21
-4.397862499999999
 31
0.0
  0
LINE
  5
199
330
14A
100
AcDbEntity
  8
AM_9
100
AcDbLine
 10
0.4678751130355288
 20
-4.3978625
 30
0.0
 11
0.4678751130355288
 21
4.3978625
 31
0.0
  0
LINE
  5
19A
330
14A
100
AcDbEntity
  8
AM_9
100
AcDbLine
 10
0.4678751130355288
 20
-4.3978625
 30
0.0
 11
0.5427502260710588
 21
-4.52755
 31
0.0
  0
LINE
  5
19B
330
14A
100
AcDbEntity
  8
AM_9
100
AcDbLine
 10
0.5427502260710588
 20
4.52755
 30
0.0
 11
0.4678751130355288
 21
4.3978625
 31
0.0
  0
LINE
  5
19C
330
14A
100
AcDbEntity
  8
AM_9
100
AcDbLine
 10
0.5427502260710588
 20
-4.52755
 30
0.0
 11
0.5427502260710588
 21
4.52755
 31
0.0
  0
LINE
  5
19D
330
14A
100
AcDbEntity
  8
AM_9
100
AcDbLine
 10
1.639874999999999
 20
4.52755
 30
0.0
 11
0.5427502260710588
 21
4.52755
 31
0.0
  0
LINE
  5
19E
330
14A
100
AcDbEntity
  8
AM_9
100
AcDbLine
 10
0.5427502260710588
 20
-4.52755
 30
0.0
 11
1.639874999999999
 21
-4.52755
 31
0.0
  0
LINE
  5
19F
330
14A
100
AcDbEntity
  8
AM_9
100
AcDbLine
 10
0.2432497739289397
 20
4.52755
 30
0.0
 11
-0.8538749999999999
 21
4.52755
 31
0.0
  0
LINE
  5
1A0
330
14A
100
AcDbEntity
  8
AM_9
100
AcDbLine
 10
-0.8538749999999999
 20
-4.52755
 30
0.0
 11
0.2432497739289397
 21
-4.52755
 31
0.0
  0
LINE
  5
1A1
330
14A
100
AcDbEntity
  8
AM_9
100
AcDbLine
 10
-0.8538749999999999
 20
-4.52755
 30
0.0
 11
-0.8538749999999999
 21
4.52755
 31
0.0
  0
LINE
  5
1A2
330
14A
100
AcDbEntity
  8
AM_9
100
AcDbLine
 10
-0.9038750000000002
 20
-4.477550000000002
 30
0.0
 11
-0.9038750000000002
 21
4.477550000000002
 31
0.0
  0
ARC
  5
1A3
330
14A
100
AcDbEntity
  8
AM_9
100
AcDbCircle
 10
-0.8538749999999989
 20
4.477549999999998
 30
0.0
 40
0.0500000000000016
100
AcDbArc
 50
90.0
 51
180.0
  0
ARC
  5
1A4
330
14A
100
AcDbEntity
  8
AM_9
100
AcDbCircle
 10
-0.853874999999999
 20
-4.477549999999998
 30
0.0
 40
0.0500000000000012
100
AcDbArc
 50
180.0
 51
270.0
  0
LINE
  5
1A5
330
14A
100
AcDbEntity
  8
AM_9
100
AcDbLine
 10
1.689875
 20
-4.477549999999998
 30
0.0
 11
1.689875
 21
4.477549999999998
 31
0.0
  0
LINE
  5
1A6
330
14A
100
AcDbEntity
  8
AM_9
100
AcDbLine
 10
1.639874999999999
 20
-4.52755
 30
0.0
 11
1.639874999999999
 21
4.52755
 31
0.0
  0
ARC
  5
1A7
330
14A
100
AcDbEntity
  8
AM_9
100
AcDbCircle
 10
1.639874999999998
 20
4.477549999999996
 30
0.0
 40
0.050000000000002
100
AcDbArc
 50
0.0
 51
90.0
  0
ARC
  5
1A8
330
14A
100
AcDbEntity
  8
AM_9
100
AcDbCircle
 10
1.639874999999998
 20
-4.477549999999996
 30
0.0
 40
0.0500000000000034
100
AcDbArc
 50
270.0
 51
0.0
  0
LINE
  5
1A9
330
14A
100
AcDbEntity
  8
AM_9
100
AcDbLine
 10
0.3181248869644698
 20
-4.397862499999999
 30
0.0
 11
0.3181248869644698
 21
4.397862499999999
 31
0.0
  0
LINE
  5
1AA
330
14A
100
AcDbEntity
  8
AM_9
100
AcDbLine
 10
0.2432497739289397
 20
-4.52755
 30
0.0
 11
0.2432497739289397
 21
4.52755
 31
0.0
  0
LINE
  5
1AB
330
14A
100
AcDbEntity
  8
AM_9
100
AcDbLine
 10
0.3181248869644698
 20
4.397862499999999
 30
0.0
 11
0.2432497739289397
 21
4.52755
 31
0.0
  0
LINE
  5
1AC
330
14A
100
AcDbEntity
  8
AM_9
100
AcDbLine
 10
0.2432497739289397
 20
-4.52755
 30
0.0
 11
0.3181248869644698
 21
-4.397862499999999
 31
0.0
  0
LINE
  5
1AD
330
14A
100
AcDbEntity
  8
AM_5
100
AcDbLine
 10
-2.113208333333334
 20
3.421338888888889
 30
0.0
 11
-2.113208333333334
 21
3.451388888888889
 31
0.0
  0
LINE
  5
1AE
330
14A
100
AcDbEntity
  8
AM_5
100
AcDbLine
 10
-2.113208333333334
 20
3.451388888888889
 30
0.0
 11
-2.095858957744185
 21
3.421338888888889
 31
0.0
  0
LINE
  5
1AF
330
14A
100
AcDbEntity
  8
AM_5
100
AcDbLine
 10
-2.113208333333334
 20
3.168938888888889
 30
0.0
 11
-2.113208333333334
 21
3.138888888888889
 31
0.0
  0
LINE
  5
1B0
330
14A
100
AcDbEntity
  8
AM_5
100
AcDbLine
 10
-2.113208333333334
 20
3.138888888888889
 30
0.0
 11
-2.095858957744185
 21
3.168938888888889
 31
0.0
  0
LINE
  5
1B1
330
14A
100
AcDbEntity
  8
AM_5
100
AcDbLine
 10
-2.113208333333348
 20
-3.421338888888889
 30
0.0
 11
-2.113208333333348
 21
-3.451388888888889
 31
0.0
  0
LINE
  5
1B2
330
14A
100
AcDbEntity
  8
AM_5
100
AcDbLine
 10
-2.113208333333348
 20
-3.451388888888889
 30
0.0
 11
-2.095858957744199
 21
-3.421338888888889
 31
0.0
  0
LINE
  5
1B3
330
14A
100
AcDbEntity
  8
AM_5
100
AcDbLine
 10
-2.113208333333348
 20
-3.168938888888889
 30
0.0
 11
-2.113208333333348
 21
-3.138888888888889
 31
0.0
  0
LINE
  5
1B4
330
14A
100
AcDbEntity
  8
AM_5
100
AcDbLine
 10
-2.113208333333348
 20
-3.138888888888889
 30
0.0
 11
-2.095858957744199
 21
-3.168938888888889
 31
0.0
  0
LINE
  5
1B5
330
14A
100
AcDbEntity
  8
AM_7
100
AcDbLine
 10
-1.960708333333333
 20
3.295138888888889
 30
0.0
 11
-3.357508333333333
 21
3.295138888888889
 31
0.0
  0
LINE
  5
1B6
330
14A
100
AcDbEntity
  8
AM_7
100
AcDbLine
 10
-1.960708333333331
 20
-3.295138888888889
 30
0.0
 11
-3.357508333333333
 21
-3.295138888888889
 31
0.0
  0
ARC
  5
1B7
330
14A
100
AcDbEntity
  8
AM_4
100
AcDbCircle
 10
-3.013208333333332
 20
-3.764215561259645
 30
0.0
 40
0.0500000000000007
100
AcDbArc
 50
180.0
 51
267.999999999999
  0
ARC
  5
1B8
330
14A
100
AcDbEntity
  8
AM_4
100
AcDbCircle
 10
-3.013208333333332
 20
3.764215561259645
 30
0.0
 40
0.0500000000000003
100
AcDbArc
 50
92.000000000001
 51
180.0
  0
LWPOLYLINE
  5
1B9
330
14A
100
AcDbEntity
  8
AM_4
100
AcDbPolyline
 90
        6
 70
     0
 43
0.0
 10
-3.063208333333333
 20
2.832602253539239
 10
-3.062652513700661
 20
2.837870907498491
 10
-3.057385286282914
 20
2.849197605330449
 10
-3.04711396535048
 20
2.858643883471232
 10
-3.033018451258616
 20
2.865135188632366
 10
-3.014953308168458
 20
2.86801321379298
  0
LWPOLYLINE
  5
1BA
330
14A
100
AcDbEntity
  8
AM_4
100
AcDbPolyline
 90
        6
 70
     0
 43
0.0
 10
-3.014953308168458
 20
-2.868013213792981
 10
-3.031362707213995
 20
-2.865616770337196
 10
-3.045732954979894
 20
-2.859513908129834
 10
-3.05645450367767
 20
-2.850386240295004
 10
-3.062322256626115
 20
-2.839243438086166
 10
-3.063208333333333
 20
-2.83260225353924
  0
LINE
  5
1BB
330
14A
100
AcDbEntity
  8
AM_4
100
AcDbLine
 10
-2.563208333333333
 20
-2.580939751330899
 30
0.0
 11
-3.063208333333333
 21
-2.580939751330899
 31
0.0
  0
LINE
  5
1BC
330
14A
100
AcDbEntity
  8
AM_4
100
AcDbLine
 10
-2.563208333333333
 20
2.580939751330899
 30
0.0
 11
-3.063208333333333
 21
2.580939751330899
 31
0.0
  0
LINE
  5
1BD
330
14A
100
AcDbEntity
  8
AM_4
100
AcDbLine
 10
-3.133208333333333
 20
2.631578947368421
 30
0.0
 11
-3.484375
 21
2.631578947368421
 31
0.0
  0
LINE
  5
1BE
330
14A
100
AcDbEntity
  8
AM_4
100
AcDbLine
 10
-3.484375
 20
-2.631578947368421
 30
0.0
 11
-3.133208333333333
 21
-2.631578947368421
 31
0.0
  0
LINE
  5
1BF
330
14A
100
AcDbEntity
  8
AM_4
100
AcDbLine
 10
-3.484375
 20
-2.631578947368421
 30
0.0
 11
-3.484375
 21
2.631578947368421
 31
0.0
  0
LINE
  5
1C0
330
14A
100
AcDbEntity
  8
AM_4
100
AcDbLine
 10
2.461080128205128
 20
3.246527777777778
 30
0.0
 11
2.421875
 21
3.246527777777778
 31
0.0
  0
LINE
  5
1C1
330
14A
100
AcDbEntity
  8
AM_4
100
AcDbLine
 10
2.421875
 20
-3.246527777777778
 30
0.0
 11
2.461080128205128
 21
-3.246527777777778
 31
0.0
  0
LINE
  5
1C2
330
14A
100
AcDbEntity
  8
AM_4
100
AcDbLine
 10
2.536
 20
-3.171607905982905
 30
0.0
 11
2.536
 21
3.171607905982905
 31
0.0
  0
LINE
  5
1C3
330
14A
100
AcDbEntity
  8
AM_4
100
AcDbLine
 10
2.461080128205128
 20
-3.246527777777778
 30
0.0
 11
2.461080128205128
 21
3.246527777777778
 31
0.0
  0
ARC
  5
1C4
330
14A
100
AcDbEntity
  8
AM_4
100
AcDbCircle
 10
2.461080128205127
 20
3.171607905982905
 30
0.0
 40
0.0749198717948736
100
AcDbArc
 50
0.0
 51
90.0
  0
ARC
  5
1C5
330
14A
100
AcDbEntity
  8
AM_4
100
AcDbCircle
 10
2.461080128205127
 20
-3.171607905982905
 30
0.0
 40
0.0749198717948731
100
AcDbArc
 50
270.0
 51
0.0
  0
LWPOLYLINE
  5
1C6
330
14A
100
AcDbEntity
  8
AM_4
100
AcDbPolyline
 90
        6
 70
     0
 43
0.0
 10
-3.014953308168458
 20
2.514459823199706
 10
-3.031362707213995
 20
2.512063379743922
 10
-3.045732954979894
 20
2.505960517536558
 10
-3.05645450367767
 20
2.496832849701729
 10
-3.062322256626115
 20
2.485690047492892
 10
-3.063208333333333
 20
2.479048862945965
  0
LWPOLYLINE
  5
1C7
330
14A
100
AcDbEntity
  8
AM_4
100
AcDbPolyline
 90
        6
 70
     0
 43
0.0
 10
-3.063208333333333
 20
-2.479048862945966
 10
-3.062652513700662
 20
-2.484317516905213
 10
-3.057385286282917
 20
-2.495644214737172
 10
-3.047113965350484
 20
-2.505090492877955
 10
-3.033018451258621
 20
-2.511581798039091
 10
-3.014953308168458
 20
-2.514459823199706
  0
LINE
  5
1C8
330
14A
100
AcDbEntity
  8
AM_4
100
AcDbLine
 10
-3.014953308168458
 20
-2.514459823199706
 30
0.0
 11
-3.014953308168458
 21
2.514459823199706
 31
0.0
  0
LINE
  5
1C9
330
14A
100
AcDbEntity
  8
AM_4
100
AcDbLine
 10
-3.014953308168458
 20
-2.514459823199706
 30
0.0
 11
-2.563208333333333
 21
-2.525638571526984
 31
0.0
  0
LINE
  5
1CA
330
14A
100
AcDbEntity
  8
AM_4
100
AcDbLine
 10
-2.563208333333333
 20
-2.525638571526984
 30
0.0
 11
-2.563208333333333
 21
-2.879191962120257
 31
0.0
  0
LINE
  5
1CB
330
14A
100
AcDbEntity
  8
AM_4
100
AcDbLine
 10
-2.563208333333333
 20
-2.879191962120257
 30
0.0
 11
-3.014953308168458
 21
-2.868013213792981
 31
0.0
  0
LINE
  5
1CC
330
14A
100
AcDbEntity
  8
AM_4
100
AcDbLine
 10
-3.014953308168458
 20
2.86801321379298
 30
0.0
 11
-3.014953308168458
 21
3.8141851026106
 31
0.0
  0
LINE
  5
1CD
330
14A
100
AcDbEntity
  8
AM_4
100
AcDbLine
 10
-3.014953308168458
 20
2.86801321379298
 30
0.0
 11
-2.563208333333333
 21
2.879191962120257
 31
0.0
  0
LINE
  5
1CE
330
14A
100
AcDbEntity
  8
AM_4
100
AcDbLine
 10
-2.563208333333333
 20
2.879191962120257
 30
0.0
 11
-2.563208333333333
 21
2.525638571526983
 31
0.0
  0
LINE
  5
1CF
330
14A
100
AcDbEntity
  8
AM_4
100
AcDbLine
 10
-2.563208333333333
 20
2.525638571526983
 30
0.0
 11
-3.014953308168458
 21
2.514459823199706
 31
0.0
  0
LINE
  5
1D0
330
14A
100
AcDbEntity
  8
AM_4
100
AcDbLine
 10
-3.014953308168458
 20
-3.8141851026106
 30
0.0
 11
-1.953125
 21
-3.851264964199963
 31
0.0
  0
LINE
  5
1D1
330
14A
100
AcDbEntity
  8
AM_4
100
AcDbLine
 10
-1.953125
 20
3.851264964199963
 30
0.0
 11
-3.014953308168458
 21
3.8141851026106
 31
0.0
  0
LINE
  5
1D2
330
14A
100
AcDbEntity
  8
AM_4
100
AcDbLine
 10
-3.014953308168458
 20
-3.8141851026106
 30
0.0
 11
-3.014953308168458
 21
-2.868013213792981
 31
0.0
  0
ENDBLK
  5
14D
330
14A
100
AcDbEntity
  8
0
100
AcDbBlockEnd
  0
BLOCK
  5
1D5
330
1D3
100
AcDbEntity
  8
0
100
AcDbBlockBegin
  2
7_069932H_0_in_069932_2
 70
     2
 10
0.0
 20
0.0
 30
0.0
  3
7_069932H_0_in_069932_2
  1

  0
ATTDEF
  5
1D7
330
1D3
100
AcDbEntity
  8
AM_6
100
AcDbText
 10
8.196875
 20
7.375
 30
0.0
 40
0.5
  1
FC-IP -(Labyrinth Seal)-Housing -Inch
100
AcDbAttributeDefinition
  3

  2
NN
 70
     8
280
     0
  0
ATTDEF
  5
1D8
330
1D3
100
AcDbEntity
  8
AM_6
100
AcDbText
 10
8.196875
 20
6.875
 30
0.0
 40
0.5
  1
Imperial Piloted Flange Bearings
100
AcDbAttributeDefinition
  3

  2
NT
 70
     8
280
     0
  0
ATTDEF
  5
1D9
330
1D3
100
AcDbEntity
  8
AM_6
100
AcDbText
 10
8.196875
 20
6.375
 30
0.0
 40
0.5
  1
069932H
100
AcDbAttributeDefinition
  3

  2
NB
 70
     8
280
     0
  0
ATTDEF
  5
1DA
330
1D3
100
AcDbEntity
  8
AM_6
100
AcDbText
 10
8.196875
 20
5.875
 30
0.0
 40
0.5
  1
$PN.H
100
AcDbAttributeDefinition
  3

  2
NBSYN
 70
     8
280
     0
  0
ATTDEF
  5
1DB
330
1D3
100
AcDbEntity
  8
AM_6
100
AcDbText
 10
8.196875
 20
5.375
 30
0.0
 40
0.5
  1
069932
100
AcDbAttributeDefinition
  3

  2
LINA
 70
     8
280
     0
  0
ATTDEF
  5
1DC
330
1D3
100
AcDbEntity
  8
AM_6
100
AcDbText
 10
8.196875
 20
4.875
 30
0.0
 40
0.5
  1
5
100
AcDbAttributeDefinition
  3

  2
SS
 70
     8
280
     0
  0
ATTDEF
  5
1DD
330
1D3
100
AcDbEntity
  8
AM_6
100
AcDbText
 10
8.196875
 20
4.375
 30
0.0
 40
0.5
  1
069932
100
AcDbAttributeDefinition
  3

  2
PN
 70
     8
280
     0
  0
ATTDEF
  5
1DE
330
1D3
100
AcDbEntity
  8
AM_6
100
AcDbText
 10
8.196875
 20
3.875
 30
0.0
 40
0.5
  1
FC-IP-500LE
100
AcDbAttributeDefinition
  3

  2
DESCRIPTION
 70
     8
280
     0
  0
ATTDEF
  5
1DF
330
1D3
100
AcDbEntity
  8
AM_6
100
AcDbText
 10
8.196875
 20
3.375
 30
0.0
 40
0.5
  1
Expansion Type
100
AcDbAttributeDefinition
  3

  2
EF
 70
     8
280
     0
  0
ATTDEF
  5
1E0
330
1D3
100
AcDbEntity
  8
AM_6
100
AcDbText
 10
8.196875
 20
2.875
 30
0.0
 40
0.5
  1
Labyrinth Seal
100
AcDbAttributeDefinition
  3

  2
ST
 70
     8
280
     0
  0
ATTDEF
  5
1E1
330
1D3
100
AcDbEntity
  8
AM_6
100
AcDbText
 10
8.196875
 20
2.375
 30
0.0
 40
0.5
  1
5-63/64
100
AcDbAttributeDefinition
  3

  2
A
 70
     8
280
     0
  0
ATTDEF
  5
1E2
330
1D3
100
AcDbEntity
  8
AM_6
100
AcDbText
 10
8.196875
 20
1.875
 30
0.0
 40
0.5
  1
14-3/4
100
AcDbAttributeDefinition
  3

  2
B
 70
     8
280
     0
  0
ATTDEF
  5
1E3
330
1D3
100
AcDbEntity
  8
AM_6
100
AcDbText
 10
8.196875
 20
1.375
 30
0.0
 40
0.5
  1
4-3/8
100
AcDbAttributeDefinition
  3

  2
C
 70
     8
280
     0
  0
ATTDEF
  5
1E4
330
1D3
100
AcDbEntity
  8
AM_6
100
AcDbText
 10
8.196875
 20
0.875
 30
0.0
 40
0.5
  1
9-1/64
100
AcDbAttributeDefinition
  3

  2
D
 70
     8
280
     0
  0
ATTDEF
  5
1E5
330
1D3
100
AcDbEntity
  8
AM_6
100
AcDbText
 10
8.196875
 20
0.375
 30
0.0
 40
0.5
  1
12-3/4
100
AcDbAttributeDefinition
  3

  2
DD
 70
     8
280
     0
  0
ATTDEF
  5
1E6
330
1D3
100
AcDbEntity
  8
AM_6
100
AcDbText
 10
8.196875
 20
-0.125
 30
0.0
 40
0.5
  1
1-45/64
100
AcDbAttributeDefinition
  3

  2
E
 70
     8
280
     0
  0
ATTDEF
  5
1E7
330
1D3
100
AcDbEntity
  8
AM_6
100
AcDbText
 10
8.196875
 20
-0.625
 30
0.0
 40
0.5
  1
7/8
100
AcDbAttributeDefinition
  3

  2
F
 70
     8
280
     0
  0
ATTDEF
  5
1E8
330
1D3
100
AcDbEntity
  8
AM_6
100
AcDbText
 10
8.196875
 20
-1.125
 30
0.0
 40
0.5
  1
3-55/64
100
AcDbAttributeDefinition
  3

  2
G
 70
     8
280
     0
  0
ATTDEF
  5
1E9
330
1D3
100
AcDbEntity
  8
AM_6
100
AcDbText
 10
8.196875
 20
-1.625
 30
0.0
 40
0.5
  1
1-1/4
100
AcDbAttributeDefinition
  3

  2
H
 70
     8
280
     0
  0
ATTDEF
  5
1EA
330
1D3
100
AcDbEntity
  8
AM_6
100
AcDbText
 10
8.196875
 20
-2.125
 30
0.0
 40
0.5
  1
11.000
100
AcDbAttributeDefinition
  3

  2
K
 70
     8
280
     0
  0
ATTDEF
  5
1EB
330
1D3
100
AcDbEntity
  8
AM_6
100
AcDbText
 10
8.196875
 20
-2.625
 30
0.0
 40
0.5
  1
7-5/8
100
AcDbAttributeDefinition
  3

  2
L
 70
     8
280
     0
  0
ATTDEF
  5
1EC
330
1D3
100
AcDbEntity
  8
AM_6
100
AcDbText
 10
8.196875
 20
-3.125
 30
0.0
 40
0.5
  1
3/4-10
100
AcDbAttributeDefinition
  3

  2
M
 70
     8
280
     0
  0
ATTDEF
  5
1ED
330
1D3
100
AcDbEntity
  8
AM_6
100
AcDbText
 10
8.196875
 20
-3.625
 30
0.0
 40
0.5
  1
6-9/32
100
AcDbAttributeDefinition
  3

  2
N
 70
     8
280
     0
  0
ATTDEF
  5
1EE
330
1D3
100
AcDbEntity
  8
AM_6
100
AcDbText
 10
8.196875
 20
-4.125
 30
0.0
 40
0.5
  1
2-1/8
100
AcDbAttributeDefinition
  3

  2
P
 70
     8
280
     0
  0
ATTDEF
  5
1EF
330
1D3
100
AcDbEntity
  8
AM_6
100
AcDbText
 10
8.196875
 20
-4.625
 30
0.0
 40
0.5
  1
2-27/64
100
AcDbAttributeDefinition
  3

  2
Q
 70
     8
280
     0
  0
ATTDEF
  5
1F0
330
1D3
100
AcDbEntity
  8
AM_6
100
AcDbText
 10
8.196875
 20
-5.125
 30
0.0
 40
0.5
  1
3/8
100
AcDbAttributeDefinition
  3

  2
X
 70
     8
280
     0
  0
ATTDEF
  5
1F1
330
1D3
100
AcDbEntity
  8
AM_6
100
AcDbText
 10
8.196875
 20
-5.625
 30
0.0
 40
0.5
  1
0.036
100
AcDbAttributeDefinition
  3

  2
Y
 70
     8
280
     0
  0
ATTDEF
  5
1F2
330
1D3
100
AcDbEntity
  8
AM_6
100
AcDbText
 10
8.196875
 20
-6.125
 30
0.0
 40
0.5
  1
5-27/32
100
AcDbAttributeDefinition
  3

  2
Z
 70
     8
280
     0
  0
ATTDEF
  5
1F3
330
1D3
100
AcDbEntity
  8
AM_6
100
AcDbText
 10
8.196875
 20
-6.625
 30
0.0
 40
0.5
  1
baldor
100
AcDbAttributeDefinition
  3

  2
COMPANY
 70
     8
280
     0
  0
LINE
  5
1F4
330
1D3
100
AcDbEntity
  8
AM_9
100
AcDbLine
 10
-0.0169000000000001
 20
-2.8294
 30
0.0
 11
-0.9831000000000005
 21
-2.8294
 31
0.0
  0
LINE
  5
1F5
330
1D3
100
AcDbEntity
  8
AM_9
100
AcDbLine
 10
-0.9831000000000005
 20
-3.545599999999999
 30
0.0
 11
-0.0169000000000001
 21
-3.545599999999999
 31
0.0
  0
LINE
  5
1F6
330
1D3
100
AcDbEntity
  8
AM_9
100
AcDbLine
 10
-0.0169000000000001
 20
-3.545599999999999
 30
0.0
 11
-0.0169000000000001
 21
-2.8294
 31
0.0
  0
LINE
  5
1F7
330
1D3
100
AcDbEntity
  8
AM_9
100
AcDbLine
 10
-0.0169000000000001
 20
-3.545599999999999
 30
0.0
 11
-0.0000000000000003
 21
-3.5625
 31
0.0
  0
LINE
  5
1F8
330
1D3
100
AcDbEntity
  8
AM_9
100
AcDbLine
 10
-0.0000000000000003
 20
-2.812499999999999
 30
0.0
 11
-0.0169000000000001
 21
-2.8294
 31
0.0
  0
LINE
  5
1F9
330
1D3
100
AcDbEntity
  8
AM_9
100
AcDbLine
 10
-0.9831000000000005
 20
-3.545599999999999
 30
0.0
 11
-0.9831000000000005
 21
-2.8294
 31
0.0
  0
LINE
  5
1FA
330
1D3
100
AcDbEntity
  8
AM_9
100
AcDbLine
 10
-0.9831000000000005
 20
-2.8294
 30
0.0
 11
-1.0
 21
-2.812499999999999
 31
0.0
  0
LINE
  5
1FB
330
1D3
100
AcDbEntity
  8
AM_9
100
AcDbLine
 10
-1.0
 20
-3.5625
 30
0.0
 11
-0.9831000000000005
 21
-3.545599999999999
 31
0.0
  0
LINE
  5
1FC
330
1D3
100
AcDbEntity
  8
AM_9
100
AcDbLine
 10
-1.946304606631899
 20
-4.384471457593985
 30
0.0
 11
-1.943511963596326
 21
-4.384675186199284
 31
0.0
  0
LWPOLYLINE
  5
1FD
330
1D3
100
AcDbEntity
  8
AM_9
100
AcDbPolyline
 90
        3
 70
     0
 43
0.0
 10
-1.953065277926916
 20
4.383411949125938
 10
-1.953004950746011
 20
4.383414147738653
 10
-1.946304596335072
 20
4.384471459233321
  0
LINE
  5
1FE
330
1D3
100
AcDbEntity
  8
AM_9
100
AcDbLine
 10
-1.212624622986773
 20
6.780852225203247
 30
0.0
 11
-1.250000000000001
 21
6.716116173264296
 31
0.0
  0
LINE
  5
1FF
330
1D3
100
AcDbEntity
  8
AM_9
100
AcDbLine
 10
-0.9999999999999999
 20
-5.428149224626185
 30
0.0
 11
-1.25
 21
-5.428149224626185
 31
0.0
  0
LINE
  5
200
330
1D3
100
AcDbEntity
  8
AM_9
100
AcDbLine
 10
-0.9999999999999999
 20
-5.33884612704782
 30
0.0
 11
-1.25
 21
-5.33884612704782
 31
0.0
  0
LINE
  5
201
330
1D3
100
AcDbEntity
  8
AM_9
100
AcDbLine
 10
-0.9999999999999999
 20
5.428149224626184
 30
0.0
 11
-1.25
 21
5.428149224626184
 31
0.0
  0
LINE
  5
202
330
1D3
100
AcDbEntity
  8
AM_9
100
AcDbLine
 10
-1.25
 20
5.33884612704782
 30
0.0
 11
-0.9999999999999999
 21
5.33884612704782
 31
0.0
  0
LINE
  5
203
330
1D3
100
AcDbEntity
  8
AM_9
100
AcDbLine
 10
-1.0
 20
5.47722557505166
 30
0.0
 11
-1.25
 21
5.47722557505166
 31
0.0
  0
LINE
  5
204
330
1D3
100
AcDbEntity
  8
AM_9
100
AcDbLine
 10
-0.9999999999999999
 20
5.345852817176175
 30
0.0
 11
-1.25
 21
5.345852817176177
 31
0.0
  0
LINE
  5
205
330
1D3
100
AcDbEntity
  8
AM_9
100
AcDbLine
 10
-0.9999999999999999
 20
-5.345852817176175
 30
0.0
 11
-1.25
 21
-5.345852817176175
 31
0.0
  0
LINE
  5
206
330
1D3
100
AcDbEntity
  8
AM_9
100
AcDbLine
 10
-1.25
 20
-5.5
 30
0.0
 11
-1.0
 21
-5.5
 31
0.0
  0
LINE
  5
207
330
1D3
100
AcDbEntity
  8
AM_9
100
AcDbLine
 10
-0.9999999999999997
 20
-5.902609099666534
 30
0.0
 11
-0.9999999999999999
 21
-6.780452380930991
 31
0.0
  0
LINE
  5
208
330
1D3
100
AcDbEntity
  8
AM_9
100
AcDbLine
 10
-0.9999999999999999
 20
-6.624571804441111
 30
0.0
 11
-1.25
 21
-6.624571804441111
 31
0.0
  0
LINE
  5
209
330
1D3
100
AcDbEntity
  8
AM_9
100
AcDbLine
 10
-0.9999999999999999
 20
6.624571804441108
 30
0.0
 11
-1.25
 21
6.624571804441108
 31
0.0
  0
LINE
  5
20A
330
1D3
100
AcDbEntity
  8
AM_9
100
AcDbLine
 10
-0.9999999999999999
 20
6.780452380930988
 30
0.0
 11
-0.9999999999999997
 21
5.902609099666526
 31
0.0
  0
LINE
  5
20B
330
1D3
100
AcDbEntity
  8
AM_9
100
AcDbLine
 10
-1.25
 20
-4.383411949125798
 30
0.0
 11
-1.953040185590043
 21
-4.383411949125798
 31
0.0
  0
LINE
  5
20C
330
1D3
100
AcDbEntity
  8
AM_9
100
AcDbLine
 10
-1.952451168223448
 20
4.383411949125797
 30
0.0
 11
-1.25
 21
4.383411949125797
 31
0.0
  0
LINE
  5
20D
330
1D3
100
AcDbEntity
  8
AM_9
100
AcDbLine
 10
-1.946304590623408
 20
-4.384471460142662
 30
0.0
 11
-1.25
 21
-4.384471460142662
 31
0.0
  0
LINE
  5
20E
330
1D3
100
AcDbEntity
  8
AM_9
100
AcDbLine
 10
-1.946304587275965
 20
4.384471460675599
 30
0.0
 11
-1.25
 21
4.384471460675599
 31
0.0
  0
LINE
  5
20F
330
1D3
100
AcDbEntity
  8
AM_9
100
AcDbLine
 10
-1.25
 20
-5.958411949125798
 30
0.0
 11
0.0000000000000002
 21
-5.958411949125798
 31
0.0
  0
LINE
  5
210
330
1D3
100
AcDbEntity
  8
AM_9
100
AcDbLine
 10
0.0000000000000002
 20
-5.083411949125798
 30
0.0
 11
-1.25
 21
-5.083411949125798
 31
0.0
  0
LINE
  5
211
330
1D3
100
AcDbEntity
  8
AM_9
100
AcDbLine
 10
-1.25
 20
5.083411949125797
 30
0.0
 11
0.0000000000000002
 21
5.083411949125797
 31
0.0
  0
LINE
  5
212
330
1D3
100
AcDbEntity
  8
AM_9
100
AcDbLine
 10
0.0000000000000002
 20
5.958411949125796
 30
0.0
 11
-1.25
 21
5.958411949125796
 31
0.0
  0
LINE
  5
213
330
1D3
100
AcDbEntity
  8
AM_9
100
AcDbLine
 10
-1.953125
 20
-4.52755
 30
0.0
 11
2.421875
 21
-4.52755
 31
0.0
  0
LINE
  5
214
330
1D3
100
AcDbEntity
  8
AM_9
100
AcDbLine
 10
2.421875
 20
4.52755
 30
0.0
 11
-1.953125
 21
4.52755
 31
0.0
  0
LINE
  5
215
330
1D3
100
AcDbEntity
  8
AM_9
100
AcDbLine
 10
-0.0168999999999994
 20
3.545600000000001
 30
0.0
 11
-0.9831
 21
3.545600000000001
 31
0.0
  0
LINE
  5
216
330
1D3
100
AcDbEntity
  8
AM_9
100
AcDbLine
 10
-0.9831
 20
2.829399999999998
 30
0.0
 11
-0.0168999999999994
 21
2.829399999999998
 31
0.0
  0
LINE
  5
217
330
1D3
100
AcDbEntity
  8
AM_9
100
AcDbLine
 10
-0.9831
 20
2.829399999999998
 30
0.0
 11
-0.9831
 21
3.545600000000001
 31
0.0
  0
LINE
  5
218
330
1D3
100
AcDbEntity
  8
AM_9
100
AcDbLine
 10
-0.9831
 20
3.545600000000001
 30
0.0
 11
-0.9999999999999997
 21
3.5625
 31
0.0
  0
LINE
  5
219
330
1D3
100
AcDbEntity
  8
AM_9
100
AcDbLine
 10
-0.9999999999999997
 20
2.812499999999998
 30
0.0
 11
-0.9831
 21
2.829399999999998
 31
0.0
  0
LINE
  5
21A
330
1D3
100
AcDbEntity
  8
AM_9
100
AcDbLine
 10
-0.0168999999999994
 20
2.829399999999998
 30
0.0
 11
-0.0168999999999994
 21
3.5456
 31
0.0
  0
LINE
  5
21B
330
1D3
100
AcDbEntity
  8
AM_9
100
AcDbLine
 10
-0.0168999999999994
 20
2.829399999999998
 30
0.0
 11
0.0000000000000003
 21
2.812499999999999
 31
0.0
  0
LINE
  5
21C
330
1D3
100
AcDbEntity
  8
AM_9
100
AcDbLine
 10
0.0000000000000003
 20
3.5625
 30
0.0
 11
-0.0168999999999994
 21
3.5456
 31
0.0
  0
LINE
  5
21D
330
1D3
100
AcDbEntity
  8
AM_9
100
AcDbLine
 10
-1.25
 20
-0.4375000000000043
 30
0.0
 11
0.0000000000000004
 21
-0.4375000000000043
 31
0.0
  0
LINE
  5
21E
330
1D3
100
AcDbEntity
  8
AM_9
100
AcDbLine
 10
0.0000000000000004
 20
0.4374999999999956
 30
0.0
 11
-1.25
 21
0.4374999999999956
 31
0.0
  0
LINE
  5
21F
330
1D3
100
AcDbEntity
  8
AM_5
100
AcDbLine
 10
0.0000000000000006
 20
2.999999999999999
 30
0.0
 11
-0.9999999999999996
 21
2.999999999999999
 31
0.0
  0
LINE
  5
220
330
1D3
100
AcDbEntity
  8
AM_5
100
AcDbLine
 10
-0.0000000000000009
 20
3.374999999999999
 30
0.0
 11
-0.9999999999999984
 21
3.374999999999999
 31
0.0
  0
LINE
  5
221
330
1D3
100
AcDbEntity
  8
AM_5
100
AcDbLine
 10
-0.0000000000000006
 20
-3.374999999999999
 30
0.0
 11
-1.0
 21
-3.374999999999999
 31
0.0
  0
LINE
  5
222
330
1D3
100
AcDbEntity
  8
AM_5
100
AcDbLine
 10
0.0000000000000008
 20
-2.999999999999999
 30
0.0
 11
-1.0
 21
-2.999999999999999
 31
0.0
  0
LINE
  5
223
330
1D3
100
AcDbEntity
  8
AM_7
100
AcDbLine
 10
0.0656249999999998
 20
5.520911949125797
 30
0.0
 11
-1.378125
 21
5.520911949125797
 31
0.0
  0
LINE
  5
224
330
1D3
100
AcDbEntity
  8
AM_7
100
AcDbLine
 10
0.0656249999999998
 20
-5.520911949125796
 30
0.0
 11
-1.378125
 21
-5.520911949125796
 31
0.0
  0
LINE
  5
225
330
1D3
100
AcDbEntity
  8
AM_7
100
AcDbLine
 10
0.0500000000000003
 20
3.187499999999999
 30
0.0
 11
-1.05
 21
3.187499999999999
 31
0.0
  0
LINE
  5
226
330
1D3
100
AcDbEntity
  8
AM_7
100
AcDbLine
 10
0.0499999999999997
 20
-3.187499999999999
 30
0.0
 11
-1.05
 21
-3.187499999999999
 31
0.0
  0
LINE
  5
227
330
1D3
100
AcDbEntity
  8
AM_7
100
AcDbLine
 10
3.196875
 20
0.0
 30
0.0
 11
-3.78539375
 21
0.0
 31
0.0
  0
LINE
  5
228
330
1D3
100
AcDbEntity
  8
AM_4
100
AcDbLine
 10
-1.952125
 20
5.499999999999999
 30
0.0
 11
-1.952125
 21
5.40646658844203
 31
0.0
  0
LINE
  5
229
330
1D3
100
AcDbEntity
  8
AM_4
100
AcDbLine
 10
-1.250000000000001
 20
6.716116173264296
 30
0.0
 11
-1.952125
 21
5.499999999999999
 31
0.0
  0
LINE
  5
22A
330
1D3
100
AcDbEntity
  8
AM_4
100
AcDbLine
 10
-0.9999999999999993
 20
7.149128875156517
 30
0.0
 11
-1.212624622986773
 21
6.780852225203247
 31
0.0
  0
LINE
  5
22B
330
1D3
100
AcDbEntity
  8
AM_4
100
AcDbLine
 10
-1.25
 20
5.47722557505166
 30
0.0
 11
-1.869791666666669
 21
5.47722557505166
 31
0.0
  0
LINE
  5
22C
330
1D3
100
AcDbEntity
  8
AM_4
100
AcDbLine
 10
-1.869791666666669
 20
-5.5
 30
0.0
 11
-1.25
 21
-5.5
 31
0.0
  0
LINE
  5
22D
330
1D3
100
AcDbEntity
  8
AM_4
100
AcDbLine
 10
-1.869791666666669
 20
5.096815696512186
 30
0.0
 11
-1.25
 21
5.096815696512186
 31
0.0
  0
LINE
  5
22E
330
1D3
100
AcDbEntity
  8
AM_4
100
AcDbLine
 10
-1.869791666666669
 20
-5.096815696512184
 30
0.0
 11
-1.25
 21
-5.096815696512184
 31
0.0
  0
LWPOLYLINE
  5
22F
330
1D3
100
AcDbEntity
  8
AM_4
100
AcDbPolyline
 90
        7
 70
     0
 43
0.0
 10
-1.946304606972785
 20
-4.995199870932535
 10
-1.936190270237099
 20
-5.020923630047184
 10
-1.922985007958927
 20
-5.044035219693862
 10
-1.902160228843601
 20
-5.070151245260037
 10
-1.878962341579699
 20
-5.09062371082025
 10
-1.870101642972685
 20
-5.096622528111802
 10
-1.869791666666669
 20
-5.096815696512185
  0
LINE
  5
230
330
1D3
100
AcDbEntity
  8
AM_4
100
AcDbLine
 10
-1.869791666666669
 20
-5.096815696512184
 30
0.0
 11
-1.869791666666669
 21
-5.499999999999999
 31
0.0
  0
ARC
  5
231
330
1D3
100
AcDbEntity
  8
AM_4
100
AcDbCircle
 10
-1.869791666666667
 20
-5.416666666666665
 30
0.0
 40
0.0833333333333335
100
AcDbArc
 50
180.0
 51
270.0
  0
LWPOLYLINE
  5
232
330
1D3
100
AcDbEntity
  8
AM_4
100
AcDbPolyline
 90
        7
 70
     0
 43
0.0
 10
-1.869791666666669
 20
5.096815696512186
 10
-1.870101642972529
 20
5.09662252811177
 10
-1.891579126398047
 20
5.080410580978019
 10
-1.912522199128676
 20
5.058309895597009
 10
-1.928355348306238
 20
5.035501317630318
 10
-1.94185446890234
 20
5.007964040213045
 10
-1.946304596335067
 20
4.995199905737765
  0
LINE
  5
233
330
1D3
100
AcDbEntity
  8
AM_4
100
AcDbLine
 10
-1.869791666666669
 20
5.47722557505166
 30
0.0
 11
-1.869791666666669
 21
5.096815696512186
 31
0.0
  0
LWPOLYLINE
  5
234
330
1D3
100
AcDbEntity
  8
AM_4
100
AcDbPolyline
 90
        6
 70
     0
 43
0.0
 10
-1.952125
 20
5.40646658844203
 10
-1.948380962083887
 20
5.421374432932454
 10
-1.93468990252819
 20
5.44603724530149
 10
-1.913640826464027
 20
5.46470419841119
 10
-1.887689656621032
 20
5.475272766106515
 10
-1.869791666666669
 20
5.47722557505166
  0
ARC
  5
235
330
1D3
100
AcDbEntity
  8
AM_4
100
AcDbCircle
 10
-1.869791666666748
 20
5.416666666666671
 30
0.0
 40
0.0833333333332519
100
AcDbArc
 50
171.1148757297665
 51
180.0
  0
LINE
  5
236
330
1D3
100
AcDbEntity
  8
AM_4
100
AcDbLine
 10
-1.25
 20
-6.780852225203251
 30
0.0
 11
-0.9999999999999999
 21
-6.780852225203251
 31
0.0
  0
LINE
  5
237
330
1D3
100
AcDbEntity
  8
AM_4
100
AcDbLine
 10
-0.9999999999999999
 20
6.780852225203247
 30
0.0
 11
-1.25
 21
6.780852225203247
 31
0.0
  0
LINE
  5
238
330
1D3
100
AcDbEntity
  8
AM_4
100
AcDbLine
 10
-1.946304606972785
 20
-4.995199870932535
 30
0.0
 11
-1.95312500000002
 21
-4.947506119966394
 31
0.0
  0
LINE
  5
239
330
1D3
100
AcDbEntity
  8
AM_4
100
AcDbLine
 10
-1.946304606972785
 20
-4.995199870932535
 30
0.0
 11
-1.25
 21
-4.995199870932535
 31
0.0
  0
LWPOLYLINE
  5
23A
330
1D3
100
AcDbEntity
  8
AM_4
100
AcDbPolyline
 90
        3
 70
     0
 43
0.0
 10
-1.953065277926915
 20
-4.383411949125939
 10
-1.953004950746011
 20
-4.383414147738653
 10
-1.946304590623413
 20
-4.384471460142661
  0
LINE
  5
23B
330
1D3
100
AcDbEntity
  8
AM_4
100
AcDbLine
 10
-1.946304596335067
 20
4.995199905737765
 30
0.0
 11
-1.25
 21
4.995199905737765
 31
0.0
  0
LWPOLYLINE
  5
23C
330
1D3
100
AcDbEntity
  8
AM_4
100
AcDbPolyline
 90
        3
 70
     0
 43
0.0
 10
-1.953125
 20
4.947506119966401
 10
-1.953004950746011
 20
4.95409989627338
 10
-1.946304596335067
 20
4.995199905737765
  0
LINE
  5
23D
330
1D3
100
AcDbEntity
  8
AM_4
100
AcDbLine
 10
-1.943438347063519
 20
-4.384675211177079
 30
0.0
 11
-1.25
 21
-4.384675211177079
 31
0.0
  0
LINE
  5
23E
330
1D3
100
AcDbEntity
  8
AM_4
100
AcDbLine
 10
-1.25
 20
4.38467521117708
 30
0.0
 11
-1.943142217652571
 21
4.38467521117708
 31
0.0
  0
LWPOLYLINE
  5
23F
330
1D3
100
AcDbEntity
  8
AM_4
100
AcDbPolyline
 90
        7
 70
     0
 43
0.0
 10
-1.94351196377785
 20
4.384675186199562
 10
-1.936189983211921
 20
4.38369222442009
 10
-1.922984334333391
 20
4.378835856992991
 10
-1.90215936219944
 20
4.366392911103326
 10
-1.878961316365422
 20
4.347389474396409
 10
-1.870101642972743
 20
4.338792860782962
 10
-1.869791666666669
 20
4.338478326432932
  0
LINE
  5
240
330
1D3
100
AcDbEntity
  8
AM_4
100
AcDbLine
 10
-0.9999999999999997
 20
-4.050600652265383
 30
0.0
 11
-1.25
 21
-4.050600652265383
 31
0.0
  0
LINE
  5
241
330
1D3
100
AcDbEntity
  8
AM_4
100
AcDbLine
 10
-0.9999999999999997
 20
4.05060065226538
 30
0.0
 11
-1.25
 21
4.05060065226538
 31
0.0
  0
LINE
  5
242
330
1D3
100
AcDbEntity
  8
AM_4
100
AcDbLine
 10
-0.9999999999999997
 20
-5.518230213046766
 30
0.0
 11
-1.25
 21
-5.518230213046766
 31
0.0
  0
LINE
  5
243
330
1D3
100
AcDbEntity
  8
AM_4
100
AcDbLine
 10
-0.9999999999999997
 20
5.518230213046762
 30
0.0
 11
-1.25
 21
5.518230213046762
 31
0.0
  0
LINE
  5
244
330
1D3
100
AcDbEntity
  8
AM_4
100
AcDbLine
 10
2.421875
 20
5.092284838172161
 30
0.0
 11
2.421875
 21
-5.092284838172161
 31
0.0
  0
ARC
  5
245
330
1D3
100
AcDbEntity
  8
AM_4
100
AcDbCircle
 10
2.296875
 20
-5.092284838172161
 30
0.0
 40
0.1249999999999994
100
AcDbArc
 50
271.9999999999998
 51
0.0
  0
ARC
  5
246
330
1D3
100
AcDbEntity
  8
AM_4
100
AcDbCircle
 10
2.296875
 20
5.092284838172161
 30
0.0
 40
0.1249999999999991
100
AcDbArc
 50
0.0
 51
88.00000000000021
  0
LINE
  5
247
330
1D3
100
AcDbEntity
  8
AM_4
100
AcDbLine
 10
2.301237437087813
 20
5.217208691549548
 30
0.0
 11
1.823762562912187
 21
5.233882481568736
 31
0.0
  0
LINE
  5
248
330
1D3
100
AcDbEntity
  8
AM_4
100
AcDbLine
 10
1.823762562912187
 20
-5.233882481568736
 30
0.0
 11
2.301237437087813
 21
-5.217208691549548
 31
0.0
  0
LINE
  5
249
330
1D3
100
AcDbEntity
  8
AM_4
100
AcDbLine
 10
2.301237437087813
 20
5.217208691549548
 30
0.0
 11
2.301237437087813
 21
-5.217208691549548
 31
0.0
  0
ARC
  5
24A
330
1D3
100
AcDbEntity
  8
AM_4
100
AcDbCircle
 10
1.828125
 20
-5.358806334946124
 30
0.0
 40
0.1250000000000004
100
AcDbArc
 50
92.0000000000005
 51
180.0
  0
ARC
  5
24B
330
1D3
100
AcDbEntity
  8
AM_4
100
AcDbCircle
 10
1.828125
 20
5.358806334946125
 30
0.0
 40
0.1250000000000007
100
AcDbArc
 50
180.0
 51
267.9999999999995
  0
LINE
  5
24C
330
1D3
100
AcDbEntity
  8
AM_4
100
AcDbLine
 10
1.823762562912187
 20
5.233882481568736
 30
0.0
 11
1.823762562912187
 21
-5.233882481568736
 31
0.0
  0
LINE
  5
24D
330
1D3
100
AcDbEntity
  8
AM_4
100
AcDbLine
 10
-1.869791666666668
 20
-4.338478343413663
 30
0.0
 11
-1.25
 21
-4.338478343413663
 31
0.0
  0
LINE
  5
24E
330
1D3
100
AcDbEntity
  8
AM_4
100
AcDbLine
 10
-0.9999999999999997
 20
-3.79270015484988
 30
0.0
 11
-1.25
 21
-3.792700154849882
 31
0.0
  0
LINE
  5
24F
330
1D3
100
AcDbEntity
  8
AM_4
100
AcDbLine
 10
-0.9999999999999997
 20
3.792700154849878
 30
0.0
 11
-1.25
 21
3.792700154849876
 31
0.0
  0
LINE
  5
250
330
1D3
100
AcDbEntity
  8
AM_4
100
AcDbLine
 10
-1.869791666666668
 20
4.338478326432933
 30
0.0
 11
-1.25
 21
4.338478326432933
 31
0.0
  0
LINE
  5
251
330
1D3
100
AcDbEntity
  8
AM_4
100
AcDbLine
 10
-1.869791666666668
 20
-0.7583373700792562
 30
0.0
 11
-1.25
 21
-0.7583373700792562
 31
0.0
  0
LINE
  5
252
330
1D3
100
AcDbEntity
  8
AM_4
100
AcDbLine
 10
-1.946304606631899
 20
-0.6107284144538827
 30
0.0
 11
-1.25
 21
-0.6107284144538827
 31
0.0
  0
LWPOLYLINE
  5
253
330
1D3
100
AcDbEntity
  8
AM_4
100
AcDbPolyline
 90
        7
 70
     0
 43
0.0
 10
-1.946304606631899
 20
-0.6107284144538827
 10
-1.936190385386202
 20
-0.6372310704518998
 10
-1.922985293114606
 20
-0.6651984804783325
 10
-1.9021605957084
 20
-0.7037570742692671
 10
-1.878962775571178
 20
-0.7432325654716879
 10
-1.870101642972667
 20
-0.7578296673288059
 10
-1.869791666666668
 20
-0.7583373700792508
  0
LINE
  5
254
330
1D3
100
AcDbEntity
  8
AM_4
100
AcDbLine
 10
-1.946304606631899
 20
-0.6107284144538827
 30
0.0
 11
-1.95312500000002
 21
-0.5640814316647061
 31
0.0
  0
LINE
  5
255
330
1D3
100
AcDbEntity
  8
AM_4
100
AcDbLine
 10
-1.953125
 20
5.416666666666668
 30
0.0
 11
-1.953125
 21
-5.416666666666668
 31
0.0
  0
LWPOLYLINE
  5
256
330
1D3
100
AcDbEntity
  8
AM_4
100
AcDbPolyline
 90
        7
 70
     0
 43
0.0
 10
-1.869791678900884
 20
-4.33847833886574
 10
-1.870101642972737
 20
-4.338792860782969
 10
-1.891579126398026
 20
-4.358353892688134
 10
-1.912522199128516
 20
-4.373190769687966
 10
-1.92835539412303
 20
-4.381170066060259
 10
-1.941854542403074
 20
-4.384612978655856
 10
-1.943534895068567
 20
-4.384675208933122
  0
LINE
  5
257
330
1D3
100
AcDbEntity
  8
AM_4
100
AcDbLine
 10
-1.869791666666668
 20
-0.7583373700792562
 30
0.0
 11
-1.869791666666668
 21
-4.338478343413663
 31
0.0
  0
LINE
  5
258
330
1D3
100
AcDbEntity
  8
AM_4
100
AcDbLine
 10
-1.946304587275964
 20
4.384471460675599
 30
0.0
 11
-1.953065034712055
 21
4.383411949183651
 31
0.0
  0
LWPOLYLINE
  5
259
330
1D3
100
AcDbEntity
  8
AM_4
100
AcDbPolyline
 90
        3
 70
     0
 43
0.0
 10
-1.953125
 20
0.5640814316647038
 10
-1.953004950746011
 20
0.570685748534728
 10
-1.946304590623408
 20
0.6107284642828941
  0
LINE
  5
25A
330
1D3
100
AcDbEntity
  8
AM_4
100
AcDbLine
 10
-1.869791666666668
 20
4.338478326432933
 30
0.0
 11
-1.869791666666668
 21
0.7583373427156298
 31
0.0
  0
LWPOLYLINE
  5
25B
330
1D3
100
AcDbEntity
  8
AM_4
100
AcDbPolyline
 90
        7
 70
     0
 43
0.0
 10
-1.869791666666668
 20
0.7583373427156298
 10
-1.870101642972445
 20
0.7578296673286727
 10
-1.891816291263876
 20
0.7216621060263843
 10
-1.912522199128741
 20
0.6851191259088235
 10
-1.928557934702953
 20
0.6539357371674468
 10
-1.941854437642136
 20
0.6233511487763094
 10
-1.946304590623408
 20
0.6107284642828941
  0
LINE
  5
25C
330
1D3
100
AcDbEntity
  8
AM_4
100
AcDbLine
 10
-1.946304590623408
 20
0.6107284642828941
 30
0.0
 11
-1.25
 21
0.6107284642828941
 31
0.0
  0
LINE
  5
25D
330
1D3
100
AcDbEntity
  8
AM_4
100
AcDbLine
 10
-1.869791666666668
 20
0.7583373427156298
 30
0.0
 11
-1.25
 21
0.7583373427156298
 31
0.0
  0
LINE
  5
25E
330
1D3
100
AcDbEntity
  8
AM_4
100
AcDbLine
 10
-0.9999999999999997
 20
-1.553152662326306
 30
0.0
 11
-1.25
 21
-1.553152662326306
 31
0.0
  0
LINE
  5
25F
330
1D3
100
AcDbEntity
  8
AM_4
100
AcDbLine
 10
-0.9999999999999997
 20
1.553152662326293
 30
0.0
 11
-1.25
 21
1.553152662326293
 31
0.0
  0
LINE
  5
260
330
1D3
100
AcDbEntity
  8
AM_4
100
AcDbLine
 10
0.0
 20
-5.5
 30
0.0
 11
1.703125
 21
-5.5
 31
0.0
  0
LINE
  5
261
330
1D3
100
AcDbEntity
  8
AM_4
100
AcDbLine
 10
1.703125
 20
5.5
 30
0.0
 11
0.0
 21
5.5
 31
0.0
  0
LINE
  5
262
330
1D3
100
AcDbEntity
  8
AM_4
100
AcDbLine
 10
1.703125
 20
5.5
 30
0.0
 11
1.703125
 21
-5.5
 31
0.0
  0
LINE
  5
263
330
1D3
100
AcDbEntity
  8
AM_4
100
AcDbLine
 10
-0.9999999999999997
 20
-1.377548572360809
 30
0.0
 11
-1.25
 21
-1.377548572360809
 31
0.0
  0
LINE
  5
264
330
1D3
100
AcDbEntity
  8
AM_4
100
AcDbLine
 10
-0.9999999999999997
 20
1.3775485723608
 30
0.0
 11
-1.25
 21
1.3775485723608
 31
0.0
  0
LINE
  5
265
330
1D3
100
AcDbEntity
  8
AM_4
100
AcDbLine
 10
-0.9999999999999996
 20
-1.106341591394354
 30
0.0
 11
-1.25
 21
-1.106341591394354
 31
0.0
  0
LINE
  5
266
330
1D3
100
AcDbEntity
  8
AM_4
100
AcDbLine
 10
-1.25
 20
-1.553152662326306
 30
0.0
 11
-1.25
 21
1.553152662326293
 31
0.0
  0
LINE
  5
267
330
1D3
100
AcDbEntity
  8
AM_4
100
AcDbLine
 10
-0.9999999999999996
 20
1.10634159139434
 30
0.0
 11
-1.25
 21
1.10634159139434
 31
0.0
  0
LINE
  5
268
330
1D3
100
AcDbEntity
  8
AM_4
100
AcDbLine
 10
-0.9999999999999997
 20
5.902609099666526
 30
0.0
 11
-1.25
 21
5.902609099666526
 31
0.0
  0
LINE
  5
269
330
1D3
100
AcDbEntity
  8
AM_4
100
AcDbLine
 10
-0.9999999999999996
 20
0.8778432812644524
 30
0.0
 11
-0.9999999999999997
 21
5.902609099666526
 31
0.0
  0
LINE
  5
26A
330
1D3
100
AcDbEntity
  8
AM_4
100
AcDbLine
 10
-1.25
 20
0.8778432812644524
 30
0.0
 11
-0.9999999999999996
 21
0.8778432812644524
 31
0.0
  0
LINE
  5
26B
330
1D3
100
AcDbEntity
  8
AM_4
100
AcDbLine
 10
-0.9999999999999996
 20
-0.8778432812644661
 30
0.0
 11
-1.25
 21
-0.8778432812644661
 31
0.0
  0
LINE
  5
26C
330
1D3
100
AcDbEntity
  8
AM_4
100
AcDbLine
 10
-0.9999999999999997
 20
-5.902609099666534
 30
0.0
 11
-0.9999999999999996
 21
-0.8778432812644661
 31
0.0
  0
LINE
  5
26D
330
1D3
100
AcDbEntity
  8
AM_4
100
AcDbLine
 10
-1.25
 20
-5.902609099666534
 30
0.0
 11
-0.9999999999999997
 21
-5.902609099666534
 31
0.0
  0
LINE
  5
26E
330
1D3
100
AcDbEntity
  8
AM_4
100
AcDbLine
 10
-1.25
 20
-3.792700154849882
 30
0.0
 11
-1.25
 21
-6.780452380930991
 31
0.0
  0
LINE
  5
26F
330
1D3
100
AcDbEntity
  8
AM_4
100
AcDbLine
 10
-0.9999999999999999
 20
-6.780452380930991
 30
0.0
 11
-1.25
 21
-6.780452380930991
 31
0.0
  0
LINE
  5
270
330
1D3
100
AcDbEntity
  8
AM_4
100
AcDbLine
 10
-0.9999999999999999
 20
6.780452380930988
 30
0.0
 11
-1.0
 21
7.375
 31
0.0
  0
LINE
  5
271
330
1D3
100
AcDbEntity
  8
AM_4
100
AcDbLine
 10
-1.25
 20
6.780452380930988
 30
0.0
 11
-0.9999999999999999
 21
6.780452380930988
 31
0.0
  0
LINE
  5
272
330
1D3
100
AcDbEntity
  8
AM_4
100
AcDbLine
 10
-1.25
 20
6.780452380930988
 30
0.0
 11
-1.25
 21
3.792700154849876
 31
0.0
  0
LINE
  5
273
330
1D3
100
AcDbEntity
  8
AM_4
100
AcDbLine
 10
-1.0
 20
-7.375
 30
0.0
 11
0.0
 21
-7.375
 31
0.0
  0
LINE
  5
274
330
1D3
100
AcDbEntity
  8
AM_4
100
AcDbLine
 10
0.0
 20
7.375
 30
0.0
 11
-1.0
 21
7.375
 31
0.0
  0
LINE
  5
275
330
1D3
100
AcDbEntity
  8
AM_4
100
AcDbLine
 10
0.0
 20
7.375
 30
0.0
 11
0.0
 21
-7.375
 31
0.0
  0
LINE
  5
276
330
1D3
100
AcDbEntity
  8
AM_4
100
AcDbLine
 10
-1.0
 20
-7.375
 30
0.0
 11
-0.9999999999999999
 21
-6.780452380930991
 31
0.0
  0
ENDBLK
  5
1D6
330
1D3
100
AcDbEntity
  8
0
100
AcDbBlockEnd
  0
ENDSEC
  0
SECTION
  2
ENTITIES
  0
INSERT
  5
6F
330
1F
100
AcDbEntity
  8
0
100
AcDbBlockReference
  2
1_069932_2
 10
0.0
 20
0.0
 30
0.0
  0
POINT
  5
278
330
1F
100
AcDbEntity
  8
ConnectionPoints
100
AcDbPoint
 10
-3.133208333333333
 20
-3.295138888888889
 30
0.0000000000000002
  0
POINT
  5
279
330
1F
100
AcDbEntity
  8
ConnectionPoints
100
AcDbPoint
 10
-3.133208333333333
 20
3.295138888888889
 30
0.0000000000000002
  0
POINT
  5
27A
330
1F
100
AcDbEntity
  8
ConnectionPoints
100
AcDbPoint
 10
-3.063208333333333
 20
0.0
 30
0.0000000000000002
  0
POINT
  5
27B
330
1F
100
AcDbEntity
  8
ConnectionPoints
100
AcDbPoint
 10
-3.484375
 20
0.0
 30
0.0000000000000002
  0
POINT
  5
27C
330
1F
100
AcDbEntity
  8
ConnectionPoints
100
AcDbPoint
 10
-3.262208333333333
 20
0.0
 30
0.0000000000000002
  0
POINT
  5
27D
330
1F
100
AcDbEntity
  8
ConnectionPoints
100
AcDbPoint
 10
-3.063208333333333
 20
3.295138888888889
 30
0.0000000000000002
  0
POINT
  5
27E
330
1F
100
AcDbEntity
  8
ConnectionPoints
100
AcDbPoint
 10
-3.318375
 20
3.295138888888889
 30
0.0000000000000002
  0
POINT
  5
27F
330
1F
100
AcDbEntity
  8
ConnectionPoints
100
AcDbPoint
 10
-3.063208333333333
 20
-3.295138888888889
 30
0.0000000000000002
  0
POINT
  5
280
330
1F
100
AcDbEntity
  8
ConnectionPoints
100
AcDbPoint
 10
-3.318375
 20
-3.295138888888889
 30
0.0000000000000002
  0
POINT
  5
281
330
1F
100
AcDbEntity
  8
ConnectionPoints
100
AcDbPoint
 10
-3.063208333333333
 20
0.0
 30
0.0000000000000002
  0
POINT
  5
282
330
1F
100
AcDbEntity
  8
ConnectionPoints
100
AcDbPoint
 10
-1.4760625
 20
6.324564437578259
 30
0.0000000000000001
  0
POINT
  5
283
330
1F
100
AcDbEntity
  8
ConnectionPoints
100
AcDbPoint
 10
-1.512239080617428
 20
6.261904761904762
 30
0.0000000000000001
  0
POINT
  5
284
330
1F
100
AcDbEntity
  8
ConnectionPoints
100
AcDbPoint
 10
-3.484375
 20
0.0
 30
0.0000000000000002
  0
POINT
  5
285
330
1F
100
AcDbEntity
  8
ConnectionPoints
100
AcDbPoint
 10
-3.859375
 20
0.0
 30
0.0000000000000002
  0
ENDSEC
  0
SECTION
  2
OBJECTS
  0
DICTIONARY
  5
C
330
0
100
AcDbDictionary
281
     1
  3
ACAD_DETAILVIEWSTYLE
350
28D
  3
ACAD_GROUP
350
D
  3
ACAD_LAYOUT
350
1A
  3
ACAD_MATERIAL
350
43
  3
ACAD_MLEADERSTYLE
350
6B
  3
ACAD_MLINESTYLE
350
17
  3
ACAD_PLOTSETTINGS
350
19
  3
ACAD_PLOTSTYLENAME
350
E
  3
ACAD_SCALELIST
350
47
  3
ACAD_SECTIONVIEWSTYLE
350
28E
  3
ACAD_TABLESTYLE
350
69
  3
ACAD_VISUALSTYLE
350
2A
  3
ACDB_RECOMPOSE_DATA
350
28A
  3
AcDbVariableDictionary
350
286
  0
SUN
  5
6D
330
29
100
AcDbSun
 90
        1
290
     0
 63
     7
421
 16777215
 40
1.0
291
     1
 91
  2455826
 92
 54000000
292
     0
 70
     2
 71
   256
280
     1
  0
DICTIONARY
  5
28D
102
{ACAD_REACTORS
330
C
102
}
330
C
100
AcDbDictionary
281
     1
  0
DICTIONARY
  5
D
102
{ACAD_REACTORS
330
C
102
}
330
C
100
AcDbDictionary
281
     1
  0
DICTIONARY
  5
1A
102
{ACAD_REACTORS
330
C
102
}
330
C
100
AcDbDictionary
281
     1
  3
Layout1
350
1E
  3
Layout2
350
26
  3
Model
350
22
  0
DICTIONARY
  5
43
102
{ACAD_REACTORS
330
C
102
}
330
C
100
AcDbDictionary
281
     1
  3
ByBlock
350
45
  3
ByLayer
350
44
  3
Global
350
46
  0
DICTIONARY
  5
6B
102
{ACAD_REACTORS
330
C
102
}
330
C
100
AcDbDictionary
281
     1
  3
Standard
350
6C
  0
DICTIONARY
  5
17
102
{ACAD_REACTORS
330
C
102
}
330
C
100
AcDbDictionary
281
     1
  3
Standard
350
18
  0
DICTIONARY
  5
19
102
{ACAD_REACTORS
330
C
102
}
330
C
100
AcDbDictionary
281
     1
  0
ACDBDICTIONARYWDFLT
  5
E
102
{ACAD_REACTORS
330
C
102
}
330
C
100
AcDbDictionary
281
     1
  3
Normal
350
F
100
AcDbDictionaryWithDefault
340
F
  0
DICTIONARY
  5
47
102
{ACAD_REACTORS
330
C
102
}
330
C
100
AcDbDictionary
281
     1
  3
A0
350
48
  3
A1
350
49
  3
A2
350
4A
  3
A3
350
4B
  3
A4
350
4C
  3
A5
350
4D
  3
A6
350
4E
  3
A7
350
4F
  3
A8
350
50
  3
A9
350
51
  3
B0
350
52
  3
B1
350
53
  3
B2
350
54
  3
B3
350
55
  3
B4
350
56
  3
B5
350
57
  3
B6
350
58
  3
B7
350
59
  3
B8
350
5A
  3
B9
350
5B
  3
C0
350
5C
  3
C1
350
5D
  3
C2
350
5E
  3
C3
350
5F
  3
C4
350
60
  3
C5
350
61
  3
C6
350
62
  3
C7
350
63
  3
C8
350
64
  3
C9
350
65
  3
D0
350
66
  3
D1
350
67
  3
D2
350
68
  0
DICTIONARY
  5
28E
102
{ACAD_REACTORS
330
C
102
}
330
C
100
AcDbDictionary
281
     1
  0
DICTIONARY
  5
69
102
{ACAD_REACTORS
330
C
102
}
330
C
100
AcDbDictionary
281
     1
  3
Standard
350
6A
  0
DICTIONARY
  5
2A
102
{ACAD_REACTORS
330
C
102
}
330
C
100
AcDbDictionary
281
     1
  3
2dWireframe
350
2F
  3
Basic
350
32
  3
Brighten
350
36
  3
ColorChange
350
3A
  3
Conceptual
350
34
  3
Dim
350
35
  3
EdgeColorOff
350
3D
  3
Facepattern
350
39
  3
Flat
350
2B
  3
FlatWithEdges
350
2C
  3
Gouraud
350
2D
  3
GouraudWithEdges
350
2E
  3
Hidden
350
31
  3
JitterOff
350
3B
  3
Linepattern
350
38
  3
OverhangOff
350
3C
  3
Realistic
350
33
  3
Shaded
350
42
  3
Shaded with edges
350
41
  3
Shades of Gray
350
3E
  3
Sketchy
350
3F
  3
Thicken
350
37
  3
Wireframe
350
30
  3
X-Ray
350
40
  0
XRECORD
  5
28A
102
{ACAD_REACTORS
330
C
102
}
330
C
100
AcDbXrecord
280
     1
 90
        1
330
6A
  0
DICTIONARY
  5
286
102
{ACAD_REACTORS
330
C
102
}
330
C
100
AcDbDictionary
281
     1
  3
CANNOSCALE
350
287
  3
CMLEADERSTYLE
350
28C
  3
CTABLESTYLE
350
28B
  0
LAYOUT
  5
1E
102
{ACAD_REACTORS
330
1A
102
}
330
1A
100
AcDbPlotSettings
  1

  2
none_device
  4

  6

 40
0.0
 41
0.0
 42
0.0
 43
0.0
 44
0.0
 45
0.0
 46
0.0
 47
0.0
 48
0.0
 49
0.0
140
0.0
141
0.0
142
1.0
143
1.0
 70
   688
 72
     0
 73
     0
 74
     5
  7

 75
    16
 76
     0
 77
     2
 78
   300
147
1.0
148
0.0
149
0.0
100
AcDbLayout
  1
Layout1
 70
     1
 71
     1
 10
0.0
 20
0.0
 11
12.0
 21
9.0
 12
0.0
 22
0.0
 32
0.0
 14
1.000000000000000E+20
 24
1.000000000000000E+20
 34
1.000000000000000E+20
 15
-1.000000000000000E+20
 25
-1.000000000000000E+20
 35
-1.000000000000000E+20
146
0.0
 13
0.0
 23
0.0
 33
0.0
 16
1.0
 26
0.0
 36
0.0
 17
0.0
 27
1.0
 37
0.0
 76
     0
330
1B
  0
LAYOUT
  5
26
102
{ACAD_REACTORS
330
1A
102
}
330
1A
100
AcDbPlotSettings
  1

  2
none_device
  4

  6

 40
0.0
 41
0.0
 42
0.0
 43
0.0
 44
0.0
 45
0.0
 46
0.0
 47
0.0
 48
0.0
 49
0.0
140
0.0
141
0.0
142
1.0
143
1.0
 70
   688
 72
     0
 73
     0
 74
     5
  7

 75
    16
 76
     0
 77
     2
 78
   300
147
1.0
148
0.0
149
0.0
100
AcDbLayout
  1
Layout2
 70
     1
 71
     2
 10
0.0
 20
0.0
 11
0.0
 21
0.0
 12
0.0
 22
0.0
 32
0.0
 14
0.0
 24
0.0
 34
0.0
 15
0.0
 25
0.0
 35
0.0
146
0.0
 13
0.0
 23
0.0
 33
0.0
 16
1.0
 26
0.0
 36
0.0
 17
0.0
 27
1.0
 37
0.0
 76
     0
330
23
  0
LAYOUT
  5
22
102
{ACAD_REACTORS
330
1A
102
}
330
1A
100
AcDbPlotSettings
  1

  2
none_device
  4
Letter_(8.50_x_11.00_Inches)
  6

 40
6.35
 41
6.35
 42
6.35000508
 43
6.35000508
 44
215.9
 45
279.4
 46
0.0
 47
0.0
 48
0.0
 49
0.0
140
0.0
141
0.0
142
1.0
143
1.0
 70
  1712
 72
     0
 73
     0
 74
     0
  7

 75
     0
 76
     0
 77
     2
 78
   300
147
1.0
148
0.0
149
0.0
100
AcDbLayout
  1
Model
 70
     1
 71
     0
 10
0.0
 20
0.0
 11
12.0
 21
9.0
 12
0.0
 22
0.0
 32
0.0
 14
1.000000000000000E+20
 24
1.000000000000000E+20
 34
1.000000000000000E+20
 15
-1.000000000000000E+20
 25
-1.000000000000000E+20
 35
-1.000000000000000E+20
146
0.0
 13
0.0
 23
0.0
 33
0.0
 16
1.0
 26
0.0
 36
0.0
 17
0.0
 27
1.0
 37
0.0
 76
     0
330
1F
331
29
  0
MATERIAL
  5
45
102
{ACAD_REACTORS
330
43
102
}
330
43
100
AcDbMaterial
  1
ByBlock
 72
     1
 94
      127
  0
MATERIAL
  5
44
102
{ACAD_REACTORS
330
43
102
}
330
43
100
AcDbMaterial
  1
ByLayer
 72
     1
 94
      127
  0
MATERIAL
  5
46
102
{ACAD_REACTORS
330
43
102
}
330
43
100
AcDbMaterial
  1
Global
 72
     1
 94
      127
  0
MLEADERSTYLE
  5
6C
102
{ACAD_REACTORS
330
6B
102
}
330
6B
100
AcDbMLeaderStyle
179
     2
170
     2
171
     1
172
     0
 90
        2
 40
0.0
 41
0.0
173
     1
 91
-1056964608
340
14
 92
       -2
290
     1
 42
0.09
291
     1
 43
0.36
  3
Standard
341
0
 44
0.18
300

342
11
174
     1
178
     6
175
     1
176
     0
 93
-1056964608
 45
0.18
292
     0
297
     0
 46
0.18
343
0
 94
-1056964608
 47
1.0
 49
1.0
140
1.0
293
     1
141
0.0
294
     1
177
     0
142
1.0
295
     0
296
     0
143
0.125
271
     0
272
     9
273
     9
298
     0
  0
MLINESTYLE
  5
18
102
{ACAD_REACTORS
330
17
102
}
330
17
100
AcDbMlineStyle
  2
Standard
 70
     0
  3

 62
   256
 51
90.0
 52
90.0
 71
     2
 49
0.5
 62
   256
  6
BYLAYER
 49
-0.5
 62
   256
  6
BYLAYER
  0
ACDBPLACEHOLDER
  5
F
102
{ACAD_REACTORS
330
E
102
}
330
E
  0
SCALE
  5
48
102
{ACAD_REACTORS
330
47
102
}
330
47
100
AcDbScale
 70
     0
300
1:1
140
1.0
141
1.0
290
     1
  0
SCALE
  5
49
102
{ACAD_REACTORS
330
47
102
}
330
47
100
AcDbScale
 70
     0
300
1:2
140
1.0
141
2.0
290
     0
  0
SCALE
  5
4A
102
{ACAD_REACTORS
330
47
102
}
330
47
100
AcDbScale
 70
     0
300
1:4
140
1.0
141
4.0
290
     0
  0
SCALE
  5
4B
102
{ACAD_REACTORS
330
47
102
}
330
47
100
AcDbScale
 70
     0
300
1:5
140
1.0
141
5.0
290
     0
  0
SCALE
  5
4C
102
{ACAD_REACTORS
330
47
102
}
330
47
100
AcDbScale
 70
     0
300
1:8
140
1.0
141
8.0
290
     0
  0
SCALE
  5
4D
102
{ACAD_REACTORS
330
47
102
}
330
47
100
AcDbScale
 70
     0
300
1:10
140
1.0
141
10.0
290
     0
  0
SCALE
  5
4E
102
{ACAD_REACTORS
330
47
102
}
330
47
100
AcDbScale
 70
     0
300
1:16
140
1.0
141
16.0
290
     0
  0
SCALE
  5
4F
102
{ACAD_REACTORS
330
47
102
}
330
47
100
AcDbScale
 70
     0
300
1:20
140
1.0
141
20.0
290
     0
  0
SCALE
  5
50
102
{ACAD_REACTORS
330
47
102
}
330
47
100
AcDbScale
 70
     0
300
1:30
140
1.0
141
30.0
290
     0
  0
SCALE
  5
51
102
{ACAD_REACTORS
330
47
102
}
330
47
100
AcDbScale
 70
     0
300
1:40
140
1.0
141
40.0
290
     0
  0
SCALE
  5
52
102
{ACAD_REACTORS
330
47
102
}
330
47
100
AcDbScale
 70
     0
300
1:50
140
1.0
141
50.0
290
     0
  0
SCALE
  5
53
102
{ACAD_REACTORS
330
47
102
}
330
47
100
AcDbScale
 70
     0
300
1:100
140
1.0
141
100.0
290
     0
  0
SCALE
  5
54
102
{ACAD_REACTORS
330
47
102
}
330
47
100
AcDbScale
 70
     0
300
2:1
140
2.0
141
1.0
290
     0
  0
SCALE
  5
55
102
{ACAD_REACTORS
330
47
102
}
330
47
100
AcDbScale
 70
     0
300
4:1
140
4.0
141
1.0
290
     0
  0
SCALE
  5
56
102
{ACAD_REACTORS
330
47
102
}
330
47
100
AcDbScale
 70
     0
300
8:1
140
8.0
141
1.0
290
     0
  0
SCALE
  5
57
102
{ACAD_REACTORS
330
47
102
}
330
47
100
AcDbScale
 70
     0
300
10:1
140
10.0
141
1.0
290
     0
  0
SCALE
  5
58
102
{ACAD_REACTORS
330
47
102
}
330
47
100
AcDbScale
 70
     0
300
100:1
140
100.0
141
1.0
290
     0
  0
SCALE
  5
59
102
{ACAD_REACTORS
330
47
102
}
330
47
100
AcDbScale
 70
     0
300
1/128" = 1'-0"
140
0.0078125
141
12.0
290
     0
  0
SCALE
  5
5A
102
{ACAD_REACTORS
330
47
102
}
330
47
100
AcDbScale
 70
     0
300
1/64" = 1'-0"
140
0.015625
141
12.0
290
     0
  0
SCALE
  5
5B
102
{ACAD_REACTORS
330
47
102
}
330
47
100
AcDbScale
 70
     0
300
1/32" = 1'-0"
140
0.03125
141
12.0
290
     0
  0
SCALE
  5
5C
102
{ACAD_REACTORS
330
47
102
}
330
47
100
AcDbScale
 70
     0
300
1/16" = 1'-0"
140
0.0625
141
12.0
290
     0
  0
SCALE
  5
5D
102
{ACAD_REACTORS
330
47
102
}
330
47
100
AcDbScale
 70
     0
300
3/32" = 1'-0"
140
0.09375
141
12.0
290
     0
  0
SCALE
  5
5E
102
{ACAD_REACTORS
330
47
102
}
330
47
100
AcDbScale
 70
     0
300
1/8" = 1'-0"
140
0.125
141
12.0
290
     0
  0
SCALE
  5
5F
102
{ACAD_REACTORS
330
47
102
}
330
47
100
AcDbScale
 70
     0
300
3/16" = 1'-0"
140
0.1875
141
12.0
290
     0
  0
SCALE
  5
60
102
{ACAD_REACTORS
330
47
102
}
330
47
100
AcDbScale
 70
     0
300
1/4" = 1'-0"
140
0.25
141
12.0
290
     0
  0
SCALE
  5
61
102
{ACAD_REACTORS
330
47
102
}
330
47
100
AcDbScale
 70
     0
300
3/8" = 1'-0"
140
0.375
141
12.0
290
     0
  0
SCALE
  5
62
102
{ACAD_REACTORS
330
47
102
}
330
47
100
AcDbScale
 70
     0
300
1/2" = 1'-0"
140
0.5
141
12.0
290
     0
  0
SCALE
  5
63
102
{ACAD_REACTORS
330
47
102
}
330
47
100
AcDbScale
 70
     0
300
3/4" = 1'-0"
140
0.75
141
12.0
290
     0
  0
SCALE
  5
64
102
{ACAD_REACTORS
330
47
102
}
330
47
100
AcDbScale
 70
     0
300
1" = 1'-0"
140
1.0
141
12.0
290
     0
  0
SCALE
  5
65
102
{ACAD_REACTORS
330
47
102
}
330
47
100
AcDbScale
 70
     0
300
1-1/2" = 1'-0"
140
1.5
141
12.0
290
     0
  0
SCALE
  5
66
102
{ACAD_REACTORS
330
47
102
}
330
47
100
AcDbScale
 70
     0
300
3" = 1'-0"
140
3.0
141
12.0
290
     0
  0
SCALE
  5
67
102
{ACAD_REACTORS
330
47
102
}
330
47
100
AcDbScale
 70
     0
300
6" = 1'-0"
140
6.0
141
12.0
290
     0
  0
SCALE
  5
68
102
{ACAD_REACTORS
330
47
102
}
330
47
100
AcDbScale
 70
     0
300
1'-0" = 1'-0"
140
12.0
141
12.0
290
     0
  0
TABLESTYLE
  5
6A
102
{ACAD_REACTORS
330
69
102
}
102
{ACAD_XDICTIONARY
360
288
102
}
330
69
100
AcDbTableStyle
  3
Standard
 70
     0
 71
     0
 40
0.06
 41
0.06
280
     0
281
     0
  7
Standard
140
0.18
170
     2
 62
     0
 63
   257
283
     0
 90
        4
 91
        0
  1

274
    -2
284
     1
 64
     0
275
    -2
285
     1
 65
     0
276
    -2
286
     1
 66
     0
277
    -2
287
     1
 67
     0
278
    -2
288
     1
 68
     0
279
    -2
289
     1
 69
     0
  7
Standard
140
0.25
170
     5
 62
     0
 63
   257
283
     0
 90
        4
 91
        0
  1

274
    -2
284
     1
 64
     0
275
    -2
285
     1
 65
     0
276
    -2
286
     1
 66
     0
277
    -2
287
     1
 67
     0
278
    -2
288
     1
 68
     0
279
    -2
289
     1
 69
     0
  7
Standard
140
0.18
170
     5
 62
     0
 63
   257
283
     0
 90
        4
 91
        0
  1

274
    -2
284
     1
 64
     0
275
    -2
285
     1
 65
     0
276
    -2
286
     1
 66
     0
277
    -2
287
     1
 67
     0
278
    -2
288
     1
 68
     0
279
    -2
289
     1
 69
     0
  0
VISUALSTYLE
  5
2F
102
{ACAD_REACTORS
330
2A
102
}
330
2A
100
AcDbVisualStyle
  2
2dWireframe
 70
     4
177
     3
291
     0
 70
    58
 90
        0
176
     1
 90
        2
176
     1
 90
        0
176
     1
 90
        0
176
     1
 40
0.6
176
     1
 40
30.0
176
     1
 62
     7
420
 16777215
176
     1
 90
        1
176
     1
 90
        4
176
     1
 62
     7
176
     1
 62
   257
176
     1
 90
        1
176
     1
 90
        1
176
     1
 40
1.0
176
     1
 90
        0
176
     1
 62
   257
176
     1
 40
1.0
176
     1
 90
        1
176
     1
 90
        6
176
     1
 90
        2
176
     1
 62
     7
176
     1
 90
        5
176
     1
 90
        0
176
     1
 90
        0
176
     1
290
     0
176
     1
 90
        1
176
     1
 40
0.0
176
     1
 90
        0
176
     1
290
     1
176
     1
290
     1
176
     1
290
     0
176
     1
290
     0
176
     1
290
     0
176
     1
290
     0
176
     1
290
     0
176
     1
290
     0
176
     1
290
     0
176
     1
 90
       50
176
     1
 40
0.0
176
     1
 40
1.0
176
     1
 90
        0
176
     1
 62
    18
420
        0
176
     1
 90
       50
176
     1
 90
        3
176
     1
 62
     5
420
      255
176
     1
290
     0
176
     1
 90
       50
176
     1
 90
       50
176
     1
 90
       50
176
     1
290
     0
176
     1
 90
       50
176
     1
 62
   256
176
     0
 40
1.0
176
     0
 90
        2
176
     1
  1
strokes_ogs.tif
176
     1
290
     0
176
     1
 40
1.0
176
     1
 40
1.0
176
     1
  0
VISUALSTYLE
  5
32
102
{ACAD_REACTORS
330
2A
102
}
330
2A
100
AcDbVisualStyle
  2
Basic
 70
     7
177
     3
291
     1
 70
    58
 90
        1
176
     1
 90
        0
176
     1
 90
        1
176
     1
 90
        0
176
     1
 40
0.6
176
     1
 40
30.0
176
     1
 62
     7
420
 16777215
176
     1
 90
        0
176
     1
 90
        4
176
     1
 62
     7
176
     1
 62
   257
176
     1
 90
        1
176
     1
 90
        1
176
     1
 40
1.0
176
     1
 90
        8
176
     1
 62
     7
176
     1
 40
1.0
176
     1
 90
        1
176
     1
 90
        6
176
     1
 90
        2
176
     1
 62
     7
176
     1
 90
        5
176
     1
 90
        0
176
     1
 90
        0
176
     1
290
     0
176
     1
 90
        1
176
     1
 40
0.0
176
     1
 90
        0
176
     1
290
     0
176
     1
290
     1
176
     1
290
     1
176
     1
290
     0
176
     1
290
     0
176
     1
290
     0
176
     1
290
     0
176
     1
290
     0
176
     1
290
     0
176
     1
 90
       50
176
     1
 40
0.0
176
     1
 40
1.0
176
     1
 90
        0
176
     1
 62
    18
420
        0
176
     1
 90
       50
176
     1
 90
        3
176
     1
 62
     5
420
      255
176
     1
290
     0
176
     1
 90
       50
176
     1
 90
       50
176
     1
 90
       50
176
     1
290
     0
176
     1
 90
       50
176
     1
 62
   256
176
     0
 40
1.0
176
     0
 90
        2
176
     1
  1
strokes_ogs.tif
176
     1
290
     0
176
     1
 40
1.0
176
     1
 40
1.0
176
     1
  0
VISUALSTYLE
  5
36
102
{ACAD_REACTORS
330
2A
102
}
330
2A
100
AcDbVisualStyle
  2
Brighten
 70
    12
177
     3
291
     1
 70
    58
 90
        2
176
     1
 90
        2
176
     1
 90
        0
176
     1
 90
        0
176
     1
 40
0.6
176
     1
 40
30.0
176
     1
 62
     7
420
 16777215
176
     1
 90
        1
176
     1
 90
        4
176
     1
 62
     7
176
     1
 62
   257
176
     1
 90
        1
176
     1
 90
        1
176
     1
 40
1.0
176
     1
 90
        8
176
     1
 62
     7
176
     1
 40
1.0
176
     1
 90
        1
176
     1
 90
        6
176
     1
 90
        2
176
     1
 62
     7
176
     1
 90
        5
176
     1
 90
        0
176
     1
 90
        0
176
     1
290
     0
176
     1
 90
        1
176
     1
 40
50.0
176
     1
 90
        0
176
     1
290
     0
176
     1
290
     1
176
     1
290
     1
176
     1
290
     0
176
     1
290
     0
176
     1
290
     0
176
     1
290
     0
176
     1
290
     0
176
     1
290
     0
176
     1
 90
       50
176
     1
 40
0.0
176
     1
 40
1.0
176
     1
 90
        0
176
     1
 62
    18
420
        0
176
     1
 90
       50
176
     1
 90
        3
176
     1
 62
     5
420
      255
176
     1
290
     0
176
     1
 90
       50
176
     1
 90
       50
176
     1
 90
       50
176
     1
290
     0
176
     1
 90
       50
176
     1
 62
   256
176
     0
 40
1.0
176
     0
 90
        2
176
     1
  1
strokes_ogs.tif
176
     1
290
     0
176
     1
 40
1.0
176
     1
 40
1.0
176
     1
  0
VISUALSTYLE
  5
3A
102
{ACAD_REACTORS
330
2A
102
}
330
2A
100
AcDbVisualStyle
  2
ColorChange
 70
    16
177
     3
291
     1
 70
    58
 90
        2
176
     1
 90
        2
176
     1
 90
        3
176
     1
 90
        0
176
     1
 40
0.6
176
     1
 40
30.0
176
     1
 62
     8
420
  8421504
176
     1
 90
        1
176
     1
 90
        4
176
     1
 62
     7
176
     1
 62
   257
176
     1
 90
        1
176
     1
 90
        1
176
     1
 40
1.0
176
     1
 90
        8
176
     1
 62
     8
420
  8421504
176
     1
 40
1.0
176
     1
 90
        1
176
     1
 90
        6
176
     1
 90
        2
176
     1
 62
     7
176
     1
 90
        5
176
     1
 90
        0
176
     1
 90
        0
176
     1
290
     0
176
     1
 90
        1
176
     1
 40
0.0
176
     1
 90
        0
176
     1
290
     0
176
     1
290
     1
176
     1
290
     1
176
     1
290
     0
176
     1
290
     0
176
     1
290
     0
176
     1
290
     0
176
     1
290
     0
176
     1
290
     0
176
     1
 90
       50
176
     1
 40
0.0
176
     1
 40
1.0
176
     1
 90
        0
176
     1
 62
    18
420
        0
176
     1
 90
       50
176
     1
 90
        3
176
     1
 62
     5
420
      255
176
     1
290
     0
176
     1
 90
       50
176
     1
 90
       50
176
     1
 90
       50
176
     1
290
     0
176
     1
 90
       50
176
     1
 62
   256
176
     0
 40
1.0
176
     0
 90
        2
176
     1
  1
strokes_ogs.tif
176
     1
290
     0
176
     1
 40
1.0
176
     1
 40
1.0
176
     1
  0
VISUALSTYLE
  5
34
102
{ACAD_REACTORS
330
2A
102
}
330
2A
100
AcDbVisualStyle
  2
Conceptual
 70
     9
177
     3
291
     0
 70
    58
 90
        3
176
     1
 90
        2
176
     1
 90
        0
176
     1
 90
        0
176
     1
 40
0.6
176
     1
 40
30.0
176
     1
 62
     7
420
 16777215
176
     1
 90
        2
176
     1
 90
        2
176
     1
 62
     7
176
     1
 62
   257
176
     1
 90
        1
176
     1
 90
        1
176
     1
 40
179.0
176
     1
 90
        8
176
     1
 62
     7
176
     1
 40
1.0
176
     1
 90
        1
176
     1
 90
        6
176
     1
 90
        2
176
     1
 62
     7
176
     1
 90
        3
176
     1
 90
        0
176
     1
 90
        0
176
     1
290
     0
176
     1
 90
        1
176
     1
 40
0.0
176
     1
 90
        0
176
     1
290
     0
176
     1
290
     1
176
     1
290
     1
176
     1
290
     0
176
     1
290
     0
176
     1
290
     0
176
     1
290
     0
176
     1
290
     0
176
     1
290
     0
176
     1
 90
       50
176
     1
 40
0.0
176
     1
 40
1.0
176
     1
 90
        0
176
     1
 62
    18
420
        0
176
     1
 90
       50
176
     1
 90
        3
176
     1
 62
     5
420
      255
176
     1
290
     0
176
     1
 90
       50
176
     1
 90
       50
176
     1
 90
       50
176
     1
290
     0
176
     1
 90
       50
176
     1
 62
   256
176
     0
 40
1.0
176
     0
 90
        2
176
     1
  1
strokes_ogs.tif
176
     1
290
     0
176
     1
 40
1.0
176
     1
 40
1.0
176
     1
  0
VISUALSTYLE
  5
35
102
{ACAD_REACTORS
330
2A
102
}
330
2A
100
AcDbVisualStyle
  2
Dim
 70
    11
177
     3
291
     1
 70
    58
 90
        2
176
     1
 90
        2
176
     1
 90
        0
176
     1
 90
        0
176
     1
 40
0.6
176
     1
 40
30.0
176
     1
 62
     7
420
 16777215
176
     1
 90
        1
176
     1
 90
        4
176
     1
 62
     7
176
     1
 62
   257
176
     1
 90
        1
176
     1
 90
        1
176
     1
 40
1.0
176
     1
 90
        8
176
     1
 62
     7
176
     1
 40
1.0
176
     1
 90
        1
176
     1
 90
        6
176
     1
 90
        2
176
     1
 62
     7
176
     1
 90
        5
176
     1
 90
        0
176
     1
 90
        0
176
     1
290
     0
176
     1
 90
        1
176
     1
 40
-50.0
176
     1
 90
        0
176
     1
290
     0
176
     1
290
     1
176
     1
290
     1
176
     1
290
     0
176
     1
290
     0
176
     1
290
     0
176
     1
290
     0
176
     1
290
     0
176
     1
290
     0
176
     1
 90
       50
176
     1
 40
0.0
176
     1
 40
1.0
176
     1
 90
        0
176
     1
 62
    18
420
        0
176
     1
 90
       50
176
     1
 90
        3
176
     1
 62
     5
420
      255
176
     1
290
     0
176
     1
 90
       50
176
     1
 90
       50
176
     1
 90
       50
176
     1
290
     0
176
     1
 90
       50
176
     1
 62
   256
176
     0
 40
1.0
176
     0
 90
        2
176
     1
  1
strokes_ogs.tif
176
     1
290
     0
176
     1
 40
1.0
176
     1
 40
1.0
176
     1
  0
VISUALSTYLE
  5
3D
102
{ACAD_REACTORS
330
2A
102
}
330
2A
100
AcDbVisualStyle
  2
EdgeColorOff
 70
    22
177
     3
291
     1
 70
    58
 90
        2
176
     0
 90
        2
176
     0
 90
        0
176
     0
 90
        0
176
     0
 40
0.6
176
     0
 40
30.0
176
     0
 62
     7
420
 16777215
176
     0
 90
        1
176
     0
 90
        4
176
     0
 62
     7
176
     0
 62
   257
176
     0
 90
        1
176
     0
 90
        1
176
     0
 40
1.0
176
     0
 90
        8
176
     2
 62
     7
176
     0
 40
1.0
176
     0
 90
        1
176
     0
 90
        6
176
     0
 90
        2
176
     0
 62
     7
176
     0
 90
        5
176
     0
 90
        0
176
     0
 90
        0
176
     0
290
     0
176
     0
 90
        1
176
     0
 40
0.0
176
     0
 90
        0
176
     0
290
     0
176
     0
290
     1
176
     0
290
     1
176
     0
290
     0
176
     0
290
     0
176
     0
290
     0
176
     0
290
     0
176
     0
290
     0
176
     0
290
     0
176
     0
 90
       50
176
     0
 40
0.0
176
     0
 40
1.0
176
     0
 90
        0
176
     0
 62
    18
420
        0
176
     0
 90
       50
176
     0
 90
        3
176
     0
 62
     5
420
      255
176
     0
290
     0
176
     0
 90
       50
176
     0
 90
       50
176
     0
 90
       50
176
     0
290
     0
176
     0
 90
       50
176
     0
 62
   256
176
     0
 40
1.0
176
     0
 90
        2
176
     0
  1
strokes_ogs.tif
176
     0
290
     0
176
     0
 40
1.0
176
     0
 40
1.0
176
     0
  0
VISUALSTYLE
  5
39
102
{ACAD_REACTORS
330
2A
102
}
330
2A
100
AcDbVisualStyle
  2
Facepattern
 70
    15
177
     3
291
     1
 70
    58
 90
        2
176
     1
 90
        2
176
     1
 90
        0
176
     1
 90
        0
176
     1
 40
0.6
176
     1
 40
30.0
176
     1
 62
     7
420
 16777215
176
     1
 90
        1
176
     1
 90
        4
176
     1
 62
     7
176
     1
 62
   257
176
     1
 90
        1
176
     1
 90
        1
176
     1
 40
1.0
176
     1
 90
        8
176
     1
 62
     7
176
     1
 40
1.0
176
     1
 90
        1
176
     1
 90
        6
176
     1
 90
        2
176
     1
 62
     7
176
     1
 90
        5
176
     1
 90
        0
176
     1
 90
        0
176
     1
290
     0
176
     1
 90
        1
176
     1
 40
0.0
176
     1
 90
        0
176
     1
290
     0
176
     1
290
     1
176
     1
290
     1
176
     1
290
     0
176
     1
290
     0
176
     1
290
     0
176
     1
290
     0
176
     1
290
     0
176
     1
290
     0
176
     1
 90
       50
176
     1
 40
0.0
176
     1
 40
1.0
176
     1
 90
        0
176
     1
 62
    18
420
        0
176
     1
 90
       50
176
     1
 90
        3
176
     1
 62
     5
420
      255
176
     1
290
     0
176
     1
 90
       50
176
     1
 90
       50
176
     1
 90
       50
176
     1
290
     0
176
     1
 90
       50
176
     1
 62
   256
176
     0
 40
1.0
176
     0
 90
        2
176
     1
  1
strokes_ogs.tif
176
     1
290
     0
176
     1
 40
1.0
176
     1
 40
1.0
176
     1
  0
VISUALSTYLE
  5
2B
102
{ACAD_REACTORS
330
2A
102
}
330
2A
100
AcDbVisualStyle
  2
Flat
 70
     0
177
     3
291
     1
 70
    58
 90
        2
176
     1
 90
        1
176
     1
 90
        1
176
     1
 90
        2
176
     1
 40
0.6
176
     1
 40
30.0
176
     1
 62
     7
420
 16777215
176
     1
 90
        0
176
     1
 90
        0
176
     1
 62
     7
176
     1
 62
   257
176
     1
 90
        1
176
     1
 90
        1
176
     1
 40
1.0
176
     1
 90
        8
176
     1
 62
     7
176
     1
 40
1.0
176
     1
 90
        1
176
     1
 90
        6
176
     1
 90
        2
176
     1
 62
     7
176
     1
 90
        5
176
     1
 90
        0
176
     1
 90
        0
176
     1
290
     0
176
     1
 90
       13
176
     1
 40
0.0
176
     1
 90
        0
176
     1
290
     0
176
     1
290
     1
176
     1
290
     1
176
     1
290
     0
176
     1
290
     0
176
     1
290
     0
176
     1
290
     0
176
     1
290
     0
176
     1
290
     0
176
     1
 90
       50
176
     1
 40
0.0
176
     1
 40
1.0
176
     1
 90
        0
176
     1
 62
    18
420
        0
176
     1
 90
       50
176
     1
 90
        3
176
     1
 62
     5
420
      255
176
     1
290
     0
176
     1
 90
       50
176
     1
 90
       50
176
     1
 90
       50
176
     1
290
     0
176
     1
 90
       50
176
     1
 62
   256
176
     0
 40
1.0
176
     0
 90
        2
176
     1
  1
strokes_ogs.tif
176
     1
290
     0
176
     1
 40
1.0
176
     1
 40
1.0
176
     1
  0
VISUALSTYLE
  5
2C
102
{ACAD_REACTORS
330
2A
102
}
330
2A
100
AcDbVisualStyle
  2
FlatWithEdges
 70
     1
177
     3
291
     1
 70
    58
 90
        2
176
     1
 90
        1
176
     1
 90
        1
176
     1
 90
        2
176
     1
 40
0.6
176
     1
 40
30.0
176
     1
 62
     7
420
 16777215
176
     1
 90
        1
176
     1
 90
        0
176
     1
 62
     7
176
     1
 62
   257
176
     1
 90
        1
176
     1
 90
        1
176
     1
 40
1.0
176
     1
 90
        0
176
     1
 62
   257
176
     1
 40
1.0
176
     1
 90
        1
176
     1
 90
        6
176
     1
 90
        2
176
     1
 62
     7
176
     1
 90
        5
176
     1
 90
        0
176
     1
 90
        0
176
     1
290
     0
176
     1
 90
       13
176
     1
 40
0.0
176
     1
 90
        0
176
     1
290
     0
176
     1
290
     1
176
     1
290
     1
176
     1
290
     0
176
     1
290
     0
176
     1
290
     0
176
     1
290
     0
176
     1
290
     0
176
     1
290
     0
176
     1
 90
       50
176
     1
 40
0.0
176
     1
 40
1.0
176
     1
 90
        0
176
     1
 62
    18
420
        0
176
     1
 90
       50
176
     1
 90
        3
176
     1
 62
     5
420
      255
176
     1
290
     0
176
     1
 90
       50
176
     1
 90
       50
176
     1
 90
       50
176
     1
290
     0
176
     1
 90
       50
176
     1
 62
   256
176
     0
 40
1.0
176
     0
 90
        2
176
     1
  1
strokes_ogs.tif
176
     1
290
     0
176
     1
 40
1.0
176
     1
 40
1.0
176
     1
  0
VISUALSTYLE
  5
2D
102
{ACAD_REACTORS
330
2A
102
}
330
2A
100
AcDbVisualStyle
  2
Gouraud
 70
     2
177
     3
291
     1
 70
    58
 90
        2
176
     1
 90
        2
176
     1
 90
        1
176
     1
 90
        2
176
     1
 40
0.6
176
     1
 40
30.0
176
     1
 62
     7
420
 16777215
176
     1
 90
        0
176
     1
 90
        0
176
     1
 62
     7
176
     1
 62
   257
176
     1
 90
        1
176
     1
 90
        1
176
     1
 40
1.0
176
     1
 90
        0
176
     1
 62
     7
176
     1
 40
1.0
176
     1
 90
        1
176
     1
 90
        6
176
     1
 90
        2
176
     1
 62
     7
176
     1
 90
        5
176
     1
 90
        0
176
     1
 90
        0
176
     1
290
     0
176
     1
 90
       13
176
     1
 40
0.0
176
     1
 90
        0
176
     1
290
     0
176
     1
290
     1
176
     1
290
     1
176
     1
290
     0
176
     1
290
     0
176
     1
290
     0
176
     1
290
     0
176
     1
290
     0
176
     1
290
     0
176
     1
 90
       50
176
     1
 40
0.0
176
     1
 40
1.0
176
     1
 90
        0
176
     1
 62
    18
420
        0
176
     1
 90
       50
176
     1
 90
        3
176
     1
 62
     5
420
      255
176
     1
290
     0
176
     1
 90
       50
176
     1
 90
       50
176
     1
 90
       50
176
     1
290
     0
176
     1
 90
       50
176
     1
 62
   256
176
     0
 40
1.0
176
     0
 90
        2
176
     1
  1
strokes_ogs.tif
176
     1
290
     0
176
     1
 40
1.0
176
     1
 40
1.0
176
     1
  0
VISUALSTYLE
  5
2E
102
{ACAD_REACTORS
330
2A
102
}
330
2A
100
AcDbVisualStyle
  2
GouraudWithEdges
 70
     3
177
     3
291
     1
 70
    58
 90
        2
176
     1
 90
        2
176
     1
 90
        1
176
     1
 90
        2
176
     1
 40
0.6
176
     1
 40
30.0
176
     1
 62
     7
420
 16777215
176
     1
 90
        1
176
     1
 90
        0
176
     1
 62
     7
176
     1
 62
   257
176
     1
 90
        1
176
     1
 90
        1
176
     1
 40
1.0
176
     1
 90
        0
176
     1
 62
   257
176
     1
 40
1.0
176
     1
 90
        1
176
     1
 90
        6
176
     1
 90
        2
176
     1
 62
     7
176
     1
 90
        5
176
     1
 90
        0
176
     1
 90
        0
176
     1
290
     0
176
     1
 90
       13
176
     1
 40
0.0
176
     1
 90
        0
176
     1
290
     0
176
     1
290
     1
176
     1
290
     1
176
     1
290
     0
176
     1
290
     0
176
     1
290
     0
176
     1
290
     0
176
     1
290
     0
176
     1
290
     0
176
     1
 90
       50
176
     1
 40
0.0
176
     1
 40
1.0
176
     1
 90
        0
176
     1
 62
    18
420
        0
176
     1
 90
       50
176
     1
 90
        3
176
     1
 62
     5
420
      255
176
     1
290
     0
176
     1
 90
       50
176
     1
 90
       50
176
     1
 90
       50
176
     1
290
     0
176
     1
 90
       50
176
     1
 62
   256
176
     0
 40
1.0
176
     0
 90
        2
176
     1
  1
strokes_ogs.tif
176
     1
290
     0
176
     1
 40
1.0
176
     1
 40
1.0
176
     1
  0
VISUALSTYLE
  5
31
102
{ACAD_REACTORS
330
2A
102
}
330
2A
100
AcDbVisualStyle
  2
Hidden
 70
     6
177
     3
291
     0
 70
    58
 90
        1
176
     1
 90
        2
176
     1
 90
        2
176
     1
 90
        0
176
     1
 40
0.6
176
     1
 40
30.0
176
     1
 62
     7
420
 16777215
176
     1
 90
        2
176
     1
 90
        2
176
     1
 62
     7
176
     1
 62
   257
176
     1
 90
        2
176
     1
 90
        1
176
     1
 40
40.0
176
     1
 90
        0
176
     1
 62
   257
176
     1
 40
1.0
176
     1
 90
        1
176
     1
 90
        6
176
     1
 90
        2
176
     1
 62
     7
176
     1
 90
        3
176
     1
 90
        0
176
     1
 90
        0
176
     1
290
     0
176
     1
 90
        1
176
     1
 40
0.0
176
     1
 90
        0
176
     1
290
     0
176
     1
290
     1
176
     1
290
     1
176
     1
290
     0
176
     1
290
     0
176
     1
290
     0
176
     1
290
     0
176
     1
290
     0
176
     1
290
     0
176
     1
 90
       50
176
     1
 40
0.0
176
     1
 40
1.0
176
     1
 90
        0
176
     1
 62
    18
420
        0
176
     1
 90
       50
176
     1
 90
        3
176
     1
 62
     5
420
      255
176
     1
290
     0
176
     1
 90
       50
176
     1
 90
       50
176
     1
 90
       50
176
     1
290
     0
176
     1
 90
       50
176
     1
 62
   256
176
     0
 40
1.0
176
     0
 90
        2
176
     1
  1
strokes_ogs.tif
176
     1
290
     0
176
     1
 40
1.0
176
     1
 40
1.0
176
     1
  0
VISUALSTYLE
  5
3B
102
{ACAD_REACTORS
330
2A
102
}
330
2A
100
AcDbVisualStyle
  2
JitterOff
 70
    20
177
     3
291
     1
 70
    58
 90
        2
176
     0
 90
        2
176
     0
 90
        0
176
     0
 90
        0
176
     0
 40
0.6
176
     0
 40
30.0
176
     0
 62
     7
420
 16777215
176
     0
 90
        1
176
     0
 90
        4
176
     0
 62
     7
176
     0
 62
   257
176
     0
 90
        1
176
     0
 90
        1
176
     0
 40
1.0
176
     0
 90
       10
176
     2
 62
     7
176
     0
 40
1.0
176
     0
 90
        1
176
     0
 90
        6
176
     0
 90
        2
176
     0
 62
     7
176
     0
 90
        5
176
     0
 90
        0
176
     0
 90
        0
176
     0
290
     0
176
     0
 90
        1
176
     0
 40
0.0
176
     0
 90
        0
176
     0
290
     0
176
     0
290
     1
176
     0
290
     1
176
     0
290
     0
176
     0
290
     0
176
     0
290
     0
176
     0
290
     0
176
     0
290
     0
176
     0
290
     0
176
     0
 90
       50
176
     0
 40
0.0
176
     0
 40
1.0
176
     0
 90
        0
176
     0
 62
    18
420
        0
176
     0
 90
       50
176
     0
 90
        3
176
     0
 62
     5
420
      255
176
     0
290
     0
176
     0
 90
       50
176
     0
 90
       50
176
     0
 90
       50
176
     0
290
     0
176
     0
 90
       50
176
     0
 62
   256
176
     0
 40
1.0
176
     0
 90
        2
176
     0
  1
strokes_ogs.tif
176
     0
290
     0
176
     0
 40
1.0
176
     0
 40
1.0
176
     0
  0
VISUALSTYLE
  5
38
102
{ACAD_REACTORS
330
2A
102
}
330
2A
100
AcDbVisualStyle
  2
Linepattern
 70
    14
177
     3
291
     1
 70
    58
 90
        2
176
     1
 90
        2
176
     1
 90
        0
176
     1
 90
        0
176
     1
 40
0.6
176
     1
 40
30.0
176
     1
 62
     7
420
 16777215
176
     1
 90
        1
176
     1
 90
        4
176
     1
 62
     7
176
     1
 62
   257
176
     1
 90
        7
176
     1
 90
        7
176
     1
 40
1.0
176
     1
 90
        8
176
     1
 62
     7
176
     1
 40
1.0
176
     1
 90
        1
176
     1
 90
        6
176
     1
 90
        2
176
     1
 62
     7
176
     1
 90
        5
176
     1
 90
        0
176
     1
 90
        0
176
     1
290
     0
176
     1
 90
        1
176
     1
 40
0.0
176
     1
 90
        0
176
     1
290
     0
176
     1
290
     1
176
     1
290
     1
176
     1
290
     0
176
     1
290
     0
176
     1
290
     0
176
     1
290
     0
176
     1
290
     0
176
     1
290
     0
176
     1
 90
       50
176
     1
 40
0.0
176
     1
 40
1.0
176
     1
 90
        0
176
     1
 62
    18
420
        0
176
     1
 90
       50
176
     1
 90
        3
176
     1
 62
     5
420
      255
176
     1
290
     0
176
     1
 90
       50
176
     1
 90
       50
176
     1
 90
       50
176
     1
290
     0
176
     1
 90
       50
176
     1
 62
   256
176
     0
 40
1.0
176
     0
 90
        2
176
     1
  1
strokes_ogs.tif
176
     1
290
     0
176
     1
 40
1.0
176
     1
 40
1.0
176
     1
  0
VISUALSTYLE
  5
3C
102
{ACAD_REACTORS
330
2A
102
}
330
2A
100
AcDbVisualStyle
  2
OverhangOff
 70
    21
177
     3
291
     1
 70
    58
 90
        2
176
     0
 90
        2
176
     0
 90
        0
176
     0
 90
        0
176
     0
 40
0.6
176
     0
 40
30.0
176
     0
 62
     7
420
 16777215
176
     0
 90
        1
176
     0
 90
        4
176
     0
 62
     7
176
     0
 62
   257
176
     0
 90
        1
176
     0
 90
        1
176
     0
 40
1.0
176
     0
 90
        9
176
     2
 62
     7
176
     0
 40
1.0
176
     0
 90
        1
176
     0
 90
        6
176
     0
 90
        2
176
     0
 62
     7
176
     0
 90
        5
176
     0
 90
        0
176
     0
 90
        0
176
     0
290
     0
176
     0
 90
        1
176
     0
 40
0.0
176
     0
 90
        0
176
     0
290
     0
176
     0
290
     1
176
     0
290
     1
176
     0
290
     0
176
     0
290
     0
176
     0
290
     0
176
     0
290
     0
176
     0
290
     0
176
     0
290
     0
176
     0
 90
       50
176
     0
 40
0.0
176
     0
 40
1.0
176
     0
 90
        0
176
     0
 62
    18
420
        0
176
     0
 90
       50
176
     0
 90
        3
176
     0
 62
     5
420
      255
176
     0
290
     0
176
     0
 90
       50
176
     0
 90
       50
176
     0
 90
       50
176
     0
290
     0
176
     0
 90
       50
176
     0
 62
   256
176
     0
 40
1.0
176
     0
 90
        2
176
     0
  1
strokes_ogs.tif
176
     0
290
     0
176
     0
 40
1.0
176
     0
 40
1.0
176
     0
  0
VISUALSTYLE
  5
33
102
{ACAD_REACTORS
330
2A
102
}
330
2A
100
AcDbVisualStyle
  2
Realistic
 70
     8
177
     3
291
     0
 70
    58
 90
        2
176
     1
 90
        3
176
     1
 90
        0
176
     1
 90
        2
176
     1
 40
0.6
176
     1
 40
30.0
176
     1
 62
     7
420
 16777215
176
     1
 90
        0
176
     1
 90
        0
176
     1
 62
     7
176
     1
 62
   257
176
     1
 90
        1
176
     1
 90
        1
176
     1
 40
1.0
176
     1
 90
        8
176
     1
 62
   257
176
     1
 40
1.0
176
     1
 90
        1
176
     1
 90
        6
176
     1
 90
        2
176
     1
 62
     7
176
     1
 90
        3
176
     1
 90
        0
176
     1
 90
        0
176
     1
290
     0
176
     1
 90
       13
176
     1
 40
0.0
176
     1
 90
        0
176
     1
290
     0
176
     1
290
     1
176
     1
290
     1
176
     1
290
     0
176
     1
290
     0
176
     1
290
     0
176
     1
290
     0
176
     1
290
     0
176
     1
290
     0
176
     1
 90
       50
176
     1
 40
0.0
176
     1
 40
1.0
176
     1
 90
        0
176
     1
 62
    18
420
        0
176
     1
 90
       50
176
     1
 90
        3
176
     1
 62
     5
420
      255
176
     1
290
     0
176
     1
 90
       50
176
     1
 90
       50
176
     1
 90
       50
176
     1
290
     0
176
     1
 90
       50
176
     1
 62
   256
176
     0
 40
1.0
176
     0
 90
        2
176
     1
  1
strokes_ogs.tif
176
     1
290
     0
176
     1
 40
1.0
176
     1
 40
1.0
176
     1
  0
VISUALSTYLE
  5
42
102
{ACAD_REACTORS
330
2A
102
}
330
2A
100
AcDbVisualStyle
  2
Shaded
 70
    27
177
     3
291
     0
 70
    58
 90
        2
176
     1
 90
        2
176
     1
 90
        1
176
     1
 90
        2
176
     1
 40
0.6
176
     1
 40
30.0
176
     1
 62
     7
420
 16777215
176
     1
 90
        0
176
     1
 90
        4
176
     1
 62
     7
176
     1
 62
   257
176
     1
 90
        1
176
     1
 90
        1
176
     1
 40
1.0
176
     1
 90
        8
176
     1
 62
   257
176
     1
 40
1.0
176
     1
 90
        1
176
     1
 90
        6
176
     1
 90
        2
176
     1
 62
     8
420
  7895160
176
     1
 90
        3
176
     1
 90
        0
176
     1
 90
        0
176
     1
290
     0
176
     1
 90
        5
176
     1
 40
0.0
176
     1
 90
        0
176
     1
290
     0
176
     1
290
     1
176
     1
290
     1
176
     1
290
     0
176
     1
290
     0
176
     1
290
     0
176
     1
290
     0
176
     1
290
     0
176
     1
290
     0
176
     1
 90
       50
176
     1
 40
0.0
176
     1
 40
1.0
176
     1
 90
        0
176
     1
 62
    18
420
        0
176
     1
 90
       50
176
     1
 90
        3
176
     1
 62
     5
420
      255
176
     1
290
     0
176
     1
 90
       50
176
     1
 90
       50
176
     1
 90
       50
176
     1
290
     0
176
     1
 90
       50
176
     1
 62
   256
176
     0
 40
1.0
176
     0
 90
        2
176
     1
  1
strokes_ogs.tif
176
     1
290
     0
176
     1
 40
1.0
176
     1
 40
1.0
176
     1
  0
VISUALSTYLE
  5
41
102
{ACAD_REACTORS
330
2A
102
}
330
2A
100
AcDbVisualStyle
  2
Shaded with edges
 70
    26
177
     3
291
     0
 70
    58
 90
        2
176
     1
 90
        2
176
     1
 90
        1
176
     1
 90
        2
176
     1
 40
0.6
176
     1
 40
30.0
176
     1
 62
     7
420
 16777215
176
     1
 90
        1
176
     1
 90
       10
176
     1
 62
     7
176
     1
 62
   257
176
     1
 90
        2
176
     1
 90
        1
176
     1
 40
1.0
176
     1
 90
        8
176
     1
 62
   257
176
     1
 40
1.0
176
     1
 90
        1
176
     1
 90
        6
176
     1
 90
        2
176
     1
 62
     7
176
     1
 90
        3
176
     1
 90
        0
176
     1
 90
        0
176
     1
290
     0
176
     1
 90
        5
176
     1
 40
0.0
176
     1
 90
        0
176
     1
290
     0
176
     1
290
     1
176
     1
290
     1
176
     1
290
     0
176
     1
290
     0
176
     1
290
     0
176
     1
290
     0
176
     1
290
     0
176
     1
290
     0
176
     1
 90
       50
176
     1
 40
0.0
176
     1
 40
1.0
176
     1
 90
        0
176
     1
 62
    18
420
        0
176
     1
 90
       50
176
     1
 90
        3
176
     1
 62
     5
420
      255
176
     1
290
     0
176
     1
 90
       50
176
     1
 90
       50
176
     1
 90
       50
176
     1
290
     0
176
     1
 90
       50
176
     1
 62
   256
176
     0
 40
1.0
176
     0
 90
        2
176
     1
  1
strokes_ogs.tif
176
     1
290
     0
176
     1
 40
1.0
176
     1
 40
1.0
176
     1
  0
VISUALSTYLE
  5
3E
102
{ACAD_REACTORS
330
2A
102
}
330
2A
100
AcDbVisualStyle
  2
Shades of Gray
 70
    23
177
     3
291
     0
 70
    58
 90
        2
176
     1
 90
        2
176
     1
 90
        3
176
     1
 90
        0
176
     1
 40
0.6
176
     1
 40
30.0
176
     1
 62
     7
420
 16777215
176
     1
 90
        2
176
     1
 90
        2
176
     1
 62
     7
176
     1
 62
     7
176
     1
 90
        1
176
     1
 90
        1
176
     1
 40
40.0
176
     1
 90
        8
176
     1
 62
     7
176
     1
 40
1.0
176
     1
 90
        1
176
     1
 90
        6
176
     1
 90
        2
176
     1
 62
     7
176
     1
 90
        3
176
     1
 90
        0
176
     1
 90
        0
176
     1
290
     0
176
     1
 90
        1
176
     1
 40
0.0
176
     1
 90
        0
176
     1
290
     0
176
     1
290
     1
176
     1
290
     1
176
     1
290
     0
176
     1
290
     0
176
     1
290
     0
176
     1
290
     0
176
     1
290
     0
176
     1
290
     0
176
     1
 90
       50
176
     1
 40
0.0
176
     1
 40
1.0
176
     1
 90
        0
176
     1
 62
    18
420
        0
176
     1
 90
       50
176
     1
 90
        3
176
     1
 62
     5
420
      255
176
     1
290
     0
176
     1
 90
       50
176
     1
 90
       50
176
     1
 90
       50
176
     1
290
     0
176
     1
 90
       50
176
     1
 62
   256
176
     0
 40
1.0
176
     0
 90
        2
176
     1
  1
strokes_ogs.tif
176
     1
290
     0
176
     1
 40
1.0
176
     1
 40
1.0
176
     1
  0
VISUALSTYLE
  5
3F
102
{ACAD_REACTORS
330
2A
102
}
330
2A
100
AcDbVisualStyle
  2
Sketchy
 70
    24
177
     3
291
     0
 70
    58
 90
        1
176
     1
 90
        2
176
     1
 90
        2
176
     1
 90
        0
176
     1
 40
0.6
176
     1
 40
30.0
176
     1
 62
     7
420
 16777215
176
     1
 90
        2
176
     1
 90
        2
176
     1
 62
     7
176
     1
 62
     7
176
     1
 90
        1
176
     1
 90
        1
176
     1
 40
40.0
176
     1
 90
       11
176
     1
 62
     7
176
     1
 40
1.0
176
     1
 90
        1
176
     1
 90
        6
176
     1
 90
        2
176
     1
 62
     7
176
     1
 90
        6
176
     1
 90
        0
176
     1
 90
        0
176
     1
290
     0
176
     1
 90
        1
176
     1
 40
0.0
176
     1
 90
        0
176
     1
290
     0
176
     1
290
     1
176
     1
290
     1
176
     1
290
     0
176
     1
290
     0
176
     1
290
     0
176
     1
290
     0
176
     1
290
     0
176
     1
290
     0
176
     1
 90
       50
176
     1
 40
0.0
176
     1
 40
1.0
176
     1
 90
        0
176
     1
 62
    18
420
        0
176
     1
 90
       50
176
     1
 90
        3
176
     1
 62
     5
420
      255
176
     1
290
     0
176
     1
 90
       50
176
     1
 90
       50
176
     1
 90
       50
176
     1
290
     0
176
     1
 90
       50
176
     1
 62
   256
176
     0
 40
1.0
176
     0
 90
        2
176
     1
  1
strokes_ogs.tif
176
     1
290
     0
176
     1
 40
1.0
176
     1
 40
1.0
176
     1
  0
VISUALSTYLE
  5
37
102
{ACAD_REACTORS
330
2A
102
}
330
2A
100
AcDbVisualStyle
  2
Thicken
 70
    13
177
     3
291
     1
 70
    58
 90
        2
176
     1
 90
        2
176
     1
 90
        0
176
     1
 90
        0
176
     1
 40
0.6
176
     1
 40
30.0
176
     1
 62
     7
420
 16777215
176
     1
 90
        1
176
     1
 90
        4
176
     1
 62
     7
176
     1
 62
   257
176
     1
 90
        1
176
     1
 90
        1
176
     1
 40
1.0
176
     1
 90
       12
176
     1
 62
     7
176
     1
 40
1.0
176
     1
 90
        1
176
     1
 90
        6
176
     1
 90
        2
176
     1
 62
     7
176
     1
 90
        5
176
     1
 90
        0
176
     1
 90
        0
176
     1
290
     0
176
     1
 90
        1
176
     1
 40
0.0
176
     1
 90
        0
176
     1
290
     0
176
     1
290
     1
176
     1
290
     1
176
     1
290
     0
176
     1
290
     0
176
     1
290
     0
176
     1
290
     0
176
     1
290
     0
176
     1
290
     0
176
     1
 90
       50
176
     1
 40
0.0
176
     1
 40
1.0
176
     1
 90
        0
176
     1
 62
    18
420
        0
176
     1
 90
       50
176
     1
 90
        3
176
     1
 62
     5
420
      255
176
     1
290
     0
176
     1
 90
       50
176
     1
 90
       50
176
     1
 90
       50
176
     1
290
     0
176
     1
 90
       50
176
     1
 62
   256
176
     0
 40
1.0
176
     0
 90
        2
176
     1
  1
strokes_ogs.tif
176
     1
290
     0
176
     1
 40
1.0
176
     1
 40
1.0
176
     1
  0
VISUALSTYLE
  5
30
102
{ACAD_REACTORS
330
2A
102
}
330
2A
100
AcDbVisualStyle
  2
Wireframe
 70
     5
177
     3
291
     0
 70
    58
 90
        0
176
     1
 90
        2
176
     1
 90
        0
176
     1
 90
        0
176
     1
 40
0.6
176
     1
 40
30.0
176
     1
 62
     7
420
 16777215
176
     1
 90
        1
176
     1
 90
        4
176
     1
 62
     7
176
     1
 62
   257
176
     1
 90
        1
176
     1
 90
        1
176
     1
 40
1.0
176
     1
 90
        0
176
     1
 62
   257
176
     1
 40
1.0
176
     1
 90
        1
176
     1
 90
        6
176
     1
 90
        2
176
     1
 62
     7
176
     1
 90
        3
176
     1
 90
        0
176
     1
 90
        0
176
     1
290
     0
176
     1
 90
        1
176
     1
 40
0.0
176
     1
 90
        0
176
     1
290
     0
176
     1
290
     1
176
     1
290
     1
176
     1
290
     0
176
     1
290
     0
176
     1
290
     0
176
     1
290
     0
176
     1
290
     0
176
     1
290
     0
176
     1
 90
       50
176
     1
 40
0.0
176
     1
 40
1.0
176
     1
 90
        0
176
     1
 62
    18
420
        0
176
     1
 90
       50
176
     1
 90
        3
176
     1
 62
     5
420
      255
176
     1
290
     0
176
     1
 90
       50
176
     1
 90
       50
176
     1
 90
       50
176
     1
290
     0
176
     1
 90
       50
176
     1
 62
   256
176
     0
 40
1.0
176
     0
 90
        2
176
     1
  1
strokes_ogs.tif
176
     1
290
     0
176
     1
 40
1.0
176
     1
 40
1.0
176
     1
  0
VISUALSTYLE
  5
40
102
{ACAD_REACTORS
330
2A
102
}
330
2A
100
AcDbVisualStyle
  2
X-Ray
 70
    25
177
     3
291
     0
 70
    58
 90
        2
176
     1
 90
        2
176
     1
 90
        1
176
     1
 90
        1
176
     1
 40
0.5
176
     1
 40
30.0
176
     1
 62
     7
420
 16777215
176
     1
 90
        1
176
     1
 90
        0
176
     1
 62
     7
176
     1
 62
   257
176
     1
 90
        1
176
     1
 90
        1
176
     1
 40
1.0
176
     1
 90
        8
176
     1
 62
     7
176
     1
 40
1.0
176
     1
 90
        1
176
     1
 90
        6
176
     1
 90
        2
176
     1
 62
     7
176
     1
 90
        3
176
     1
 90
        0
176
     1
 90
        0
176
     1
290
     0
176
     1
 90
       13
176
     1
 40
0.0
176
     1
 90
        0
176
     1
290
     0
176
     1
290
     1
176
     1
290
     1
176
     1
290
     0
176
     1
290
     0
176
     1
290
     0
176
     1
290
     0
176
     1
290
     0
176
     1
290
     0
176
     1
 90
       50
176
     1
 40
0.0
176
     1
 40
1.0
176
     1
 90
        0
176
     1
 62
    18
420
        0
176
     1
 90
       50
176
     1
 90
        3
176
     1
 62
     5
420
      255
176
     1
290
     0
176
     1
 90
       50
176
     1
 90
       50
176
     1
 90
       50
176
     1
290
     0
176
     1
 90
       50
176
     1
 62
   256
176
     0
 40
1.0
176
     0
 90
        2
176
     1
  1
strokes_ogs.tif
176
     1
290
     0
176
     1
 40
1.0
176
     1
 40
1.0
176
     1
  0
DICTIONARYVAR
  5
287
102
{ACAD_REACTORS
330
286
102
}
330
286
100
DictionaryVariables
280
     0
  1
1:1
  0
DICTIONARYVAR
  5
28C
102
{ACAD_REACTORS
330
286
102
}
330
286
100
DictionaryVariables
280
     0
  1
Standard
  0
DICTIONARYVAR
  5
28B
102
{ACAD_REACTORS
330
286
102
}
330
286
100
DictionaryVariables
280
     0
  1
Standard
  0
DICTIONARY
  5
288
330
6A
100
AcDbDictionary
280
     1
281
     1
  3
ACAD_ROUNDTRIP_2008_TABLESTYLE_CELLSTYLEMAP
360
289
  0
CELLSTYLEMAP
  5
289
102
{ACAD_REACTORS
330
288
102
}
330
288
100
AcDbCellStyleMap
 90
        3
300
CELLSTYLE
  1
TABLEFORMAT_BEGIN
 90
        5
170
     1
 91
        0
 92
    32768
 62
   257
 93
        1
300
CONTENTFORMAT
  1
CONTENTFORMAT_BEGIN
 90
        0
 91
        0
 92
        4
 93
        0
300

 40
0.0
140
1.0
 94
        5
 62
     0
340
11
144
0.25
309
CONTENTFORMAT_END
171
     1
301
MARGIN
  1
CELLMARGIN_BEGIN
 40
0.06
 40
0.06
 40
0.06
 40
0.06
 40
0.06
 40
0.06
309
CELLMARGIN_END
 94
        6
 95
        1
302
GRIDFORMAT
  1
GRIDFORMAT_BEGIN
 90
        0
 91
        1
 62
     0
 92
       -2
340
14
 93
        0
 40
0.045
309
GRIDFORMAT_END
 95
        2
302
GRIDFORMAT
  1
GRIDFORMAT_BEGIN
 90
        0
 91
        1
 62
     0
 92
       -2
340
14
 93
        0
 40
0.045
309
GRIDFORMAT_END
 95
        4
302
GRIDFORMAT
  1
GRIDFORMAT_BEGIN
 90
        0
 91
        1
 62
     0
 92
       -2
340
14
 93
        0
 40
0.045
309
GRIDFORMAT_END
 95
        8
302
GRIDFORMAT
  1
GRIDFORMAT_BEGIN
 90
        0
 91
        1
 62
     0
 92
       -2
340
14
 93
        0
 40
0.045
309
GRIDFORMAT_END
 95
       16
302
GRIDFORMAT
  1
GRIDFORMAT_BEGIN
 90
        0
 91
        1
 62
     0
 92
       -2
340
14
 93
        0
 40
0.045
309
GRIDFORMAT_END
 95
       32
302
GRIDFORMAT
  1
GRIDFORMAT_BEGIN
 90
        0
 91
        1
 62
     0
 92
       -2
340
14
 93
        0
 40
0.045
309
GRIDFORMAT_END
309
TABLEFORMAT_END
  1
CELLSTYLE_BEGIN
 90
        1
 91
        1
300
_TITLE
309
CELLSTYLE_END
300
CELLSTYLE
  1
TABLEFORMAT_BEGIN
 90
        5
170
     1
 91
        0
 92
        0
 62
   257
 93
        1
300
CONTENTFORMAT
  1
CONTENTFORMAT_BEGIN
 90
        0
 91
        0
 92
        4
 93
        0
300

 40
0.0
140
1.0
 94
        5
 62
     0
340
11
144
0.18
309
CONTENTFORMAT_END
171
     1
301
MARGIN
  1
CELLMARGIN_BEGIN
 40
0.06
 40
0.06
 40
0.06
 40
0.06
 40
0.06
 40
0.06
309
CELLMARGIN_END
 94
        6
 95
        1
302
GRIDFORMAT
  1
GRIDFORMAT_BEGIN
 90
        0
 91
        1
 62
     0
 92
       -2
340
14
 93
        0
 40
0.045
309
GRIDFORMAT_END
 95
        2
302
GRIDFORMAT
  1
GRIDFORMAT_BEGIN
 90
        0
 91
        1
 62
     0
 92
       -2
340
14
 93
        0
 40
0.045
309
GRIDFORMAT_END
 95
        4
302
GRIDFORMAT
  1
GRIDFORMAT_BEGIN
 90
        0
 91
        1
 62
     0
 92
       -2
340
14
 93
        0
 40
0.045
309
GRIDFORMAT_END
 95
        8
302
GRIDFORMAT
  1
GRIDFORMAT_BEGIN
 90
        0
 91
        1
 62
     0
 92
       -2
340
14
 93
        0
 40
0.045
309
GRIDFORMAT_END
 95
       16
302
GRIDFORMAT
  1
GRIDFORMAT_BEGIN
 90
        0
 91
        1
 62
     0
 92
       -2
340
14
 93
        0
 40
0.045
309
GRIDFORMAT_END
 95
       32
302
GRIDFORMAT
  1
GRIDFORMAT_BEGIN
 90
        0
 91
        1
 62
     0
 92
       -2
340
14
 93
        0
 40
0.045
309
GRIDFORMAT_END
309
TABLEFORMAT_END
  1
CELLSTYLE_BEGIN
 90
        2
 91
        1
300
_HEADER
309
CELLSTYLE_END
300
CELLSTYLE
  1
TABLEFORMAT_BEGIN
 90
        5
170
     1
 91
        0
 92
        0
 62
   257
 93
        1
300
CONTENTFORMAT
  1
CONTENTFORMAT_BEGIN
 90
        0
 91
        0
 92
        4
 93
        0
300

 40
0.0
140
1.0
 94
        2
 62
     0
340
11
144
0.18
309
CONTENTFORMAT_END
171
     1
301
MARGIN
  1
CELLMARGIN_BEGIN
 40
0.06
 40
0.06
 40
0.06
 40
0.06
 40
0.06
 40
0.06
309
CELLMARGIN_END
 94
        6
 95
        1
302
GRIDFORMAT
  1
GRIDFORMAT_BEGIN
 90
        0
 91
        1
 62
     0
 92
       -2
340
14
 93
        0
 40
0.045
309
GRIDFORMAT_END
 95
        2
302
GRIDFORMAT
  1
GRIDFORMAT_BEGIN
 90
        0
 91
        1
 62
     0
 92
       -2
340
14
 93
        0
 40
0.045
309
GRIDFORMAT_END
 95
        4
302
GRIDFORMAT
  1
GRIDFORMAT_BEGIN
 90
        0
 91
        1
 62
     0
 92
       -2
340
14
 93
        0
 40
0.045
309
GRIDFORMAT_END
 95
        8
302
GRIDFORMAT
  1
GRIDFORMAT_BEGIN
 90
        0
 91
        1
 62
     0
 92
       -2
340
14
 93
        0
 40
0.045
309
GRIDFORMAT_END
 95
       16
302
GRIDFORMAT
  1
GRIDFORMAT_BEGIN
 90
        0
 91
        1
 62
     0
 92
       -2
340
14
 93
        0
 40
0.045
309
GRIDFORMAT_END
 95
       32
302
GRIDFORMAT
  1
GRIDFORMAT_BEGIN
 90
        0
 91
        1
 62
     0
 92
       -2
340
14
 93
        0
 40
0.045
309
GRIDFORMAT_END
309
TABLEFORMAT_END
  1
CELLSTYLE_BEGIN
 90
        3
 91
        2
300
_DATA
309
CELLSTYLE_END
  0
ENDSEC
  0
EOF