0
SECTION
  2
HEADER
  9
$ACADVER
  1
AC1027
  9
$ACADMAINTVER
 70
     8
  9
$DWGCODEPAGE
  3
ANSI_1252
  9
$REQUIREDVERSIONS
160
                 0
  9
$COMMENTS
  1
File was created by Cadenas
  9
$CUSTOMPROPERTYTAG
  1
NN
  9
$CUSTOMPROPERTY
  1
Imperial - IP Piloted Flange Labyrinth Seal
  9
$CUSTOMPROPERTYTAG
  1
NT
  9
$CUSTOMPROPERTY
  1
Imperial Piloted Flange Bearings
  9
$CUSTOMPROPERTYTAG
  1
NB
  9
$CUSTOMPROPERTY
  1
069929
  9
$CUSTOMPROPERTYTAG
  1
NBSYN
  9
$CUSTOMPROPERTY
  1
$PN.
  9
$CUSTOMPROPERTYTAG
  1
LINA
  9
$CUSTOMPROPERTY
  1
069929
  9
$CUSTOMPROPERTYTAG
  1
SS
  9
$CUSTOMPROPERTY
  1
4-7/16
  9
$CUSTOMPROPERTYTAG
  1
PN
  9
$CUSTOMPROPERTY
  1
069929
  9
$CUSTOMPROPERTYTAG
  1
DESCRIPTION
  9
$CUSTOMPROPERTY
  1
FC-IP-407LE
  9
$CUSTOMPROPERTYTAG
  1
EF
  9
$CUSTOMPROPERTY
  1
Expansion Type
  9
$CUSTOMPROPERTYTAG
  1
ST
  9
$CUSTOMPROPERTY
  1
Labyrinth Seal
  9
$CUSTOMPROPERTYTAG
  1
A
  9
$CUSTOMPROPERTY
  1
5-15/64
  9
$CUSTOMPROPERTYTAG
  1
B
  9
$CUSTOMPROPERTY
  1
13-1/2
  9
$CUSTOMPROPERTYTAG
  1
C
  9
$CUSTOMPROPERTY
  1
4
  9
$CUSTOMPROPERTYTAG
  1
D
  9
$CUSTOMPROPERTY
  1
8-5/16
  9
$CUSTOMPROPERTYTAG
  1
DD
  9
$CUSTOMPROPERTY
  1
11-3/4
  9
$CUSTOMPROPERTYTAG
  1
E
  9
$CUSTOMPROPERTY
  1
1-29/64
  9
$CUSTOMPROPERTYTAG
  1
F
  9
$CUSTOMPROPERTY
  1
3/4
  9
$CUSTOMPROPERTYTAG
  1
G
  9
$CUSTOMPROPERTY
  1
3-9/16
  9
$CUSTOMPROPERTYTAG
  1
H
  9
$CUSTOMPROPERTY
  1
1
  9
$CUSTOMPROPERTYTAG
  1
K
  9
$CUSTOMPROPERTY
  1
10.250
  9
$CUSTOMPROPERTYTAG
  1
L
  9
$CUSTOMPROPERTY
  1
6-7/16
  9
$CUSTOMPROPERTYTAG
  1
M
  9
$CUSTOMPROPERTY
  1
3/4-10
  9
$CUSTOMPROPERTYTAG
  1
N
  9
$CUSTOMPROPERTY
  1
5-35/64
  9
$CUSTOMPROPERTYTAG
  1
P
  9
$CUSTOMPROPERTY
  1
1-43/64
  9
$CUSTOMPROPERTYTAG
  1
Q
  9
$CUSTOMPROPERTY
  1
1-63/64
  9
$CUSTOMPROPERTYTAG
  1
X
  9
$CUSTOMPROPERTY
  1
3/8
  9
$CUSTOMPROPERTYTAG
  1
Y
  9
$CUSTOMPROPERTY
  1
0.036
  9
$CUSTOMPROPERTYTAG
  1
Z
  9
$CUSTOMPROPERTY
  1
5
  9
$CUSTOMPROPERTYTAG
  1
COMPANY
  9
$CUSTOMPROPERTY
  1
baldor
  9
$INSBASE
 10
0.0
 20
0.0
 30
0.0
  9
$EXTMIN
 10
1.000000000000000E+20
 20
1.000000000000000E+20
 30
1.000000000000000E+20
  9
$EXTMAX
 10
-1.000000000000000E+20
 20
-1.000000000000000E+20
 30
-1.000000000000000E+20
  9
$LIMMIN
 10
0.0
 20
0.0
  9
$LIMMAX
 10
12.0
 20
9.0
  9
$ORTHOMODE
 70
     0
  9
$REGENMODE
 70
     1
  9
$FILLMODE
 70
     1
  9
$QTEXTMODE
 70
     0
  9
$MIRRTEXT
 70
     1
  9
$LTSCALE
 40
1.0
  9
$ATTMODE
 70
     1
  9
$TEXTSIZE
 40
0.2
  9
$TRACEWID
 40
0.05
  9
$TEXTSTYLE
  7
Standard
  9
$CLAYER
  8
0
  9
$CELTYPE
  6
ByLayer
  9
$CECOLOR
 62
   256
  9
$CELTSCALE
 40
1.0
  9
$DISPSILH
 70
     0
  9
$DIMSCALE
 40
1.0
  9
$DIMASZ
 40
0.18
  9
$DIMEXO
 40
0.0625
  9
$DIMDLI
 40
0.38
  9
$DIMRND
 40
0.0
  9
$DIMDLE
 40
0.0
  9
$DIMEXE
 40
0.18
  9
$DIMTP
 40
0.0
  9
$DIMTM
 40
0.0
  9
$DIMTXT
 40
0.18
  9
$DIMCEN
 40
0.09
  9
$DIMTSZ
 40
0.0
  9
$DIMTOL
 70
     0
  9
$DIMLIM
 70
     0
  9
$DIMTIH
 70
     1
  9
$DIMTOH
 70
     1
  9
$DIMSE1
 70
     0
  9
$DIMSE2
 70
     0
  9
$DIMTAD
 70
     0
  9
$DIMZIN
 70
     0
  9
$DIMBLK
  1

  9
$DIMASO
 70
     1
  9
$DIMSHO
 70
     1
  9
$DIMPOST
  1

  9
$DIMAPOST
  1

  9
$DIMALT
 70
     0
  9
$DIMALTD
 70
     2
  9
$DIMALTF
 40
25.4
  9
$DIMLFAC
 40
1.0
  9
$DIMTOFL
 70
     0
  9
$DIMTVP
 40
0.0
  9
$DIMTIX
 70
     0
  9
$DIMSOXD
 70
     0
  9
$DIMSAH
 70
     0
  9
$DIMBLK1
  1

  9
$DIMBLK2
  1

  9
$DIMSTYLE
  2
Standard
  9
$DIMCLRD
 70
     0
  9
$DIMCLRE
 70
     0
  9
$DIMCLRT
 70
     0
  9
$DIMTFAC
 40
1.0
  9
$DIMGAP
 40
0.09
  9
$DIMJUST
 70
     0
  9
$DIMSD1
 70
     0
  9
$DIMSD2
 70
     0
  9
$DIMTOLJ
 70
     1
  9
$DIMTZIN
 70
     0
  9
$DIMALTZ
 70
     0
  9
$DIMALTTZ
 70
     0
  9
$DIMUPT
 70
     0
  9
$DIMDEC
 70
     4
  9
$DIMTDEC
 70
     4
  9
$DIMALTU
 70
     2
  9
$DIMALTTD
 70
     2
  9
$DIMTXSTY
  7
Standard
  9
$DIMAUNIT
 70
     0
  9
$DIMADEC
 70
     0
  9
$DIMALTRND
 40
0.0
  9
$DIMAZIN
 70
     0
  9
$DIMDSEP
 70
    46
  9
$DIMATFIT
 70
     3
  9
$DIMFRAC
 70
     0
  9
$DIMLDRBLK
  1

  9
$DIMLUNIT
 70
     2
  9
$DIMLWD
 70
    -2
  9
$DIMLWE
 70
    -2
  9
$DIMTMOVE
 70
     0
  9
$DIMFXL
 40
1.0
  9
$DIMFXLON
 70
     0
  9
$DIMJOGANG
 40
0.7853981633974483
  9
$DIMTFILL
 70
     0
  9
$DIMTFILLCLR
 70
     0
  9
$DIMARCSYM
 70
     0
  9
$DIMLTYPE
  6

  9
$DIMLTEX1
  6

  9
$DIMLTEX2
  6

  9
$DIMTXTDIRECTION
 70
     0
  9
$LUNITS
 70
     2
  9
$LUPREC
 70
     4
  9
$SKETCHINC
 40
0.1
  9
$FILLETRAD
 40
0.5
  9
$AUNITS
 70
     0
  9
$AUPREC
 70
     0
  9
$MENU
  1
.
  9
$ELEVATION
 40
0.0
  9
$PELEVATION
 40
0.0
  9
$THICKNESS
 40
0.0
  9
$LIMCHECK
 70
     0
  9
$CHAMFERA
 40
0.0
  9
$CHAMFERB
 40
0.0
  9
$CHAMFERC
 40
0.0
  9
$CHAMFERD
 40
0.0
  9
$SKPOLY
 70
     0
  9
$TDCREATE
 40
2458168.989876285
  9
$TDUCREATE
 40
2458168.948209618
  9
$TDUPDATE
 40
2458168.989876643
  9
$TDUUPDATE
 40
2458168.948209977
  9
$TDINDWG
 40
0.0000000116
  9
$TDUSRTIMER
 40
0.0000000116
  9
$USRTIMER
 70
     1
  9
$ANGBASE
 50
0.0
  9
$ANGDIR
 70
     0
  9
$PDMODE
 70
     0
  9
$PDSIZE
 40
0.0
  9
$PLINEWID
 40
0.0
  9
$SPLFRAME
 70
     0
  9
$SPLINETYPE
 70
     6
  9
$SPLINESEGS
 70
     8
  9
$HANDSEED
  5
28A
  9
$SURFTAB1
 70
     6
  9
$SURFTAB2
 70
     6
  9
$SURFTYPE
 70
     6
  9
$SURFU
 70
     6
  9
$SURFV
 70
     6
  9
$UCSBASE
  2

  9
$UCSNAME
  2

  9
$UCSORG
 10
0.0
 20
0.0
 30
0.0
  9
$UCSXDIR
 10
1.0
 20
0.0
 30
0.0
  9
$UCSYDIR
 10
0.0
 20
1.0
 30
0.0
  9
$UCSORTHOREF
  2

  9
$UCSORTHOVIEW
 70
     0
  9
$UCSORGTOP
 10
0.0
 20
0.0
 30
0.0
  9
$UCSORGBOTTOM
 10
0.0
 20
0.0
 30
0.0
  9
$UCSORGLEFT
 10
0.0
 20
0.0
 30
0.0
  9
$UCSORGRIGHT
 10
0.0
 20
0.0
 30
0.0
  9
$UCSORGFRONT
 10
0.0
 20
0.0
 30
0.0
  9
$UCSORGBACK
 10
0.0
 20
0.0
 30
0.0
  9
$PUCSBASE
  2

  9
$PUCSNAME
  2

  9
$PUCSORG
 10
0.0
 20
0.0
 30
0.0
  9
$PUCSXDIR
 10
1.0
 20
0.0
 30
0.0
  9
$PUCSYDIR
 10
0.0
 20
1.0
 30
0.0
  9
$PUCSORTHOREF
  2

  9
$PUCSORTHOVIEW
 70
     0
  9
$PUCSORGTOP
 10
0.0
 20
0.0
 30
0.0
  9
$PUCSORGBOTTOM
 10
0.0
 20
0.0
 30
0.0
  9
$PUCSORGLEFT
 10
0.0
 20
0.0
 30
0.0
  9
$PUCSORGRIGHT
 10
0.0
 20
0.0
 30
0.0
  9
$PUCSORGFRONT
 10
0.0
 20
0.0
 30
0.0
  9
$PUCSORGBACK
 10
0.0
 20
0.0
 30
0.0
  9
$USERI1
 70
     0
  9
$USERI2
 70
     0
  9
$USERI3
 70
     0
  9
$USERI4
 70
     0
  9
$USERI5
 70
     0
  9
$USERR1
 40
0.0
  9
$USERR2
 40
0.0
  9
$USERR3
 40
0.0
  9
$USERR4
 40
0.0
  9
$USERR5
 40
0.0
  9
$WORLDVIEW
 70
     1
  9
$SHADEDGE
 70
     3
  9
$SHADEDIF
 70
    70
  9
$TILEMODE
 70
     1
  9
$MAXACTVP
 70
    64
  9
$PINSBASE
 10
0.0
 20
0.0
 30
0.0
  9
$PLIMCHECK
 70
     0
  9
$PEXTMIN
 10
1.000000000000000E+20
 20
1.000000000000000E+20
 30
1.000000000000000E+20
  9
$PEXTMAX
 10
-1.000000000000000E+20
 20
-1.000000000000000E+20
 30
-1.000000000000000E+20
  9
$PLIMMIN
 10
0.0
 20
0.0
  9
$PLIMMAX
 10
12.0
 20
9.0
  9
$UNITMODE
 70
     0
  9
$VISRETAIN
 70
     1
  9
$PLINEGEN
 70
     0
  9
$PSLTSCALE
 70
     1
  9
$TREEDEPTH
 70
  3020
  9
$CMLSTYLE
  2
Standard
  9
$CMLJUST
 70
     0
  9
$CMLSCALE
 40
1.0
  9
$PROXYGRAPHICS
 70
     1
  9
$MEASUREMENT
 70
     0
  9
$CELWEIGHT
370
    -1
  9
$ENDCAPS
280
     0
  9
$JOINSTYLE
280
     0
  9
$LWDISPLAY
290
     0
  9
$INSUNITS
 70
     1
  9
$HYPERLINKBASE
  1

  9
$STYLESHEET
  1

  9
$XEDIT
290
     1
  9
$CEPSNTYPE
380
     0
  9
$PSTYLEMODE
290
     1
  9
$FINGERPRINTGUID
  2
{97775A7F-97A8-4436-B759-A1802F9E24AA}
  9
$VERSIONGUID
  2
{FAEB1C32-E019-11D5-929B-00C0DF256EC4}
  9
$EXTNAMES
290
     1
  9
$PSVPSCALE
 40
0.0
  9
$OLESTARTUP
290
     0
  9
$SORTENTS
280
   127
  9
$INDEXCTL
280
     0
  9
$HIDETEXT
280
     1
  9
$XCLIPFRAME
280
     2
  9
$HALOGAP
280
     0
  9
$OBSCOLOR
 70
   257
  9
$OBSLTYPE
280
     0
  9
$INTERSECTIONDISPLAY
280
     0
  9
$INTERSECTIONCOLOR
 70
   257
  9
$DIMASSOC
280
     2
  9
$PROJECTNAME
  1

  9
$CAMERADISPLAY
290
     0
  9
$LENSLENGTH
 40
50.0
  9
$CAMERAHEIGHT
 40
0.0
  9
$STEPSPERSEC
 40
2.0
  9
$STEPSIZE
 40
6.0
  9
$3DDWFPREC
 40
2.0
  9
$PSOLWIDTH
 40
0.25
  9
$PSOLHEIGHT
 40
4.0
  9
$LOFTANG1
 40
1.570796326794897
  9
$LOFTANG2
 40
1.570796326794897
  9
$LOFTMAG1
 40
0.0
  9
$LOFTMAG2
 40
0.0
  9
$LOFTPARAM
 70
     7
  9
$LOFTNORMALS
280
     1
  9
$LATITUDE
 40
37.795
  9
$LONGITUDE
 40
-122.394
  9
$NORTHDIRECTION
 40
0.0
  9
$TIMEZONE
 70
 -8000
  9
$LIGHTGLYPHDISPLAY
280
     1
  9
$TILEMODELIGHTSYNCH
280
     1
  9
$CMATERIAL
347
44
  9
$SOLIDHIST
280
     0
  9
$SHOWHIST
280
     1
  9
$DWFFRAME
280
     2
  9
$DGNFRAME
280
     2
  9
$REALWORLDSCALE
290
     1
  9
$INTERFERECOLOR
 62
   256
  9
$CSHADOW
280
     0
  9
$SHADOWPLANELOCATION
 40
0.0
  0
ENDSEC
  0
SECTION
  2
CLASSES
  0
CLASS
  1
ACDBDICTIONARYWDFLT
  2
AcDbDictionaryWithDefault
  3
ObjectDBX Classes
 90
        0
 91
        4
280
     0
281
     0
  0
CLASS
  1
VISUALSTYLE
  2
AcDbVisualStyle
  3
ObjectDBX Classes
 90
     4095
 91
        4
280
     0
281
     0
  0
CLASS
  1
MATERIAL
  2
AcDbMaterial
  3
ObjectDBX Classes
 90
     1153
 91
        4
280
     0
281
     0
  0
CLASS
  1
SCALE
  2
AcDbScale
  3
ObjectDBX Classes
 90
     1153
 91
        4
280
     0
281
     0
  0
CLASS
  1
TABLESTYLE
  2
AcDbTableStyle
  3
ObjectDBX Classes
 90
     4095
 91
        4
280
     0
281
     0
  0
CLASS
  1
MLEADERSTYLE
  2
AcDbMLeaderStyle
  3
ACDB_MLEADERSTYLE_CLASS
 90
     4095
 91
        4
280
     0
281
     0
  0
CLASS
  1
SUN
  2
AcDbSun
  3
SCENEOE
 90
     1153
 91
        4
280
     0
281
     0
  0
CLASS
  1
DICTIONARYVAR
  2
AcDbDictionaryVar
  3
ObjectDBX Classes
 90
        0
 91
        4
280
     0
281
     0
  0
CLASS
  1
CELLSTYLEMAP
  2
AcDbCellStyleMap
  3
ObjectDBX Classes
 90
     1152
 91
        4
280
     0
281
     0
  0
ENDSEC
  0
SECTION
  2
TABLES
  0
TABLE
  2
VPORT
  5
8
330
0
100
AcDbSymbolTable
 70
     1
  0
VPORT
  5
29
330
8
100
AcDbSymbolTableRecord
100
AcDbViewportTableRecord
  2
*Active
 70
     0
 10
0.0
 20
0.0
 11
1.0
 21
1.0
 12
0.0
 22
0.0
 13
0.0
 23
0.0
 14
0.5
 24
0.5
 15
0.5
 25
0.5
 16
0.0
 26
0.0
 36
1.0
 17
0.0
 27
-0.0000000000000018
 37
0.0
 40
13.76999999999999
 41
0.9999999999999999
 42
50.0
 43
0.0
 44
0.0
 50
0.0
 51
0.0
 71
     0
 72
   100
 73
     1
 74
     3
 75
     0
 76
     0
 77
     0
 78
     0
281
     0
 65
     1
110
0.0
120
0.0
130
0.0
111
1.0
121
0.0
131
0.0
112
0.0
122
1.0
132
0.0
 79
     0
146
0.0
348
2F
 60
     3
 61
     5
292
     1
282
     1
141
0.0
142
0.0
 63
   250
361
6D
  0
ENDTAB
  0
TABLE
  2
LTYPE
  5
5
330
0
100
AcDbSymbolTable
 70
     3
  0
LTYPE
  5
14
330
5
100
AcDbSymbolTableRecord
100
AcDbLinetypeTableRecord
  2
ByBlock
 70
     0
  3

 72
    65
 73
     0
 40
0.0
  0
LTYPE
  5
15
330
5
100
AcDbSymbolTableRecord
100
AcDbLinetypeTableRecord
  2
ByLayer
 70
     0
  3

 72
    65
 73
     0
 40
0.0
  0
LTYPE
  5
16
330
5
100
AcDbSymbolTableRecord
100
AcDbLinetypeTableRecord
  2
Continuous
 70
     0
  3
Solid line
 72
    65
 73
     0
 40
0.0
  0
LTYPE
  5
9C
330
5
100
AcDbSymbolTableRecord
100
AcDbLinetypeTableRecord
  2
Dashed
 70
     0
  3

 72
    65
 73
     2
 40
2.0
 49
1.0
 74
     0
 49
-1.0
 74
     0
  0
LTYPE
  5
FE
330
5
100
AcDbSymbolTableRecord
100
AcDbLinetypeTableRecord
  2
Center
 70
     0
  3

 72
    65
 73
     4
 40
1.5
 49
0.45
 74
     0
 49
-0.5
 74
     0
 49
0.05
 74
     0
 49
-0.5
 74
     0
  0
ENDTAB
  0
TABLE
  2
LAYER
  5
2
330
0
100
AcDbSymbolTable
 70
     7
  0
LAYER
  5
10
330
2
100
AcDbSymbolTableRecord
100
AcDbLayerTableRecord
  2
0
 70
     0
 62
     7
  6
Continuous
370
    -3
390
F
347
46
348
0
  0
LAYER
  5
72
330
2
100
AcDbSymbolTableRecord
100
AcDbLayerTableRecord
  2
AM_6
 70
     0
 62
    -2
  6
Continuous
370
    35
390
F
347
46
348
0
  0
LAYER
  5
9D
330
2
100
AcDbSymbolTableRecord
100
AcDbLayerTableRecord
  2
AM_9
 70
     0
 62
     6
  6
Dashed
370
    25
390
F
347
46
348
0
  0
LAYER
  5
C3
330
2
100
AcDbSymbolTableRecord
100
AcDbLayerTableRecord
  2
AM_4
 70
     0
 62
     7
  6
Continuous
370
    50
390
F
347
46
348
0
  0
LAYER
  5
FC
330
2
100
AcDbSymbolTableRecord
100
AcDbLayerTableRecord
  2
AM_5
 70
     0
 62
     3
  6
Continuous
370
    25
390
F
347
46
348
0
  0
LAYER
  5
FF
330
2
100
AcDbSymbolTableRecord
100
AcDbLayerTableRecord
  2
AM_7
 70
     0
 62
     7
  6
Center
370
    25
390
F
347
46
348
0
  0
LAYER
  5
272
330
2
100
AcDbSymbolTableRecord
100
AcDbLayerTableRecord
  2
ConnectionPoints
 70
     0
 62
     7
  6
Continuous
370
    50
390
F
347
46
348
0
  0
ENDTAB
  0
TABLE
  2
STYLE
  5
3
330
0
100
AcDbSymbolTable
 70
     1
  0
STYLE
  5
11
330
3
100
AcDbSymbolTableRecord
100
AcDbTextStyleTableRecord
  2
Standard
 70
     0
 40
0.0
 41
1.0
 50
0.0
 71
     0
 42
0.2
  3
txt
  4

  0
ENDTAB
  0
TABLE
  2
VIEW
  5
6
330
0
100
AcDbSymbolTable
 70
     0
  0
ENDTAB
  0
TABLE
  2
UCS
  5
7
330
0
100
AcDbSymbolTable
 70
     0
  0
ENDTAB
  0
TABLE
  2
APPID
  5
9
330
0
100
AcDbSymbolTable
 70
     1
  0
APPID
  5
12
330
9
100
AcDbSymbolTableRecord
100
AcDbRegAppTableRecord
  2
ACAD
 70
     0
  0
ENDTAB
  0
TABLE
  2
DIMSTYLE
  5
A
330
0
100
AcDbSymbolTable
 70
     1
100
AcDbDimStyleTable
  0
DIMSTYLE
105
27
330
A
100
AcDbSymbolTableRecord
100
AcDbDimStyleTableRecord
  2
Standard
 70
     0
178
     0
340
11
  0
ENDTAB
  0
TABLE
  2
BLOCK_RECORD
  5
1
330
0
100
AcDbSymbolTable
 70
     8
  0
BLOCK_RECORD
  5
1F
330
1
100
AcDbSymbolTableRecord
100
AcDbBlockTableRecord
  2
*Model_Space
340
22
 70
     0
280
     1
281
     0
  0
BLOCK_RECORD
  5
1B
330
1
100
AcDbSymbolTableRecord
100
AcDbBlockTableRecord
  2
*Paper_Space
340
1E
 70
     0
280
     1
281
     0
  0
BLOCK_RECORD
  5
23
330
1
100
AcDbSymbolTableRecord
100
AcDbBlockTableRecord
  2
*Paper_Space0
340
26
 70
     0
280
     1
281
     0
  0
BLOCK_RECORD
  5
6E
330
1
100
AcDbSymbolTableRecord
100
AcDbBlockTableRecord
  2
1_069929_0
340
0
102
{BLKREFS
331
6F
102
}
 70
     0
280
     1
281
     0
  0
BLOCK_RECORD
  5
90
330
1
100
AcDbSymbolTableRecord
100
AcDbBlockTableRecord
  2
2_405015E_Inch_0_in_069929_0
340
0
102
{BLKREFS
331
91
102
}
 70
     0
280
     1
281
     0
  0
BLOCK_RECORD
  5
EC
330
1
100
AcDbSymbolTableRecord
100
AcDbBlockTableRecord
  2
3_ASME_B18_3_1_4_1_0_in_069929_0
340
0
102
{BLKREFS
331
ED
102
}
 70
     0
280
     1
281
     0
  0
BLOCK_RECORD
  5
10B
330
1
100
AcDbSymbolTableRecord
100
AcDbBlockTableRecord
  2
4_ASME_B18_3_1_4_2_0_in_069929_0
340
0
102
{BLKREFS
331
10C
102
}
 70
     0
280
     1
281
     0
  0
BLOCK_RECORD
  5
127
330
1
100
AcDbSymbolTableRecord
100
AcDbBlockTableRecord
  2
5_070908LW_0_in_069929_0
340
0
102
{BLKREFS
331
128
102
}
 70
     0
280
     1
281
     0
  0
BLOCK_RECORD
  5
172
330
1
100
AcDbSymbolTableRecord
100
AcDbBlockTableRecord
  2
6_070940I_0_in_069929_0
340
0
102
{BLKREFS
331
173
102
}
 70
     0
280
     1
281
     0
  0
BLOCK_RECORD
  5
1D0
330
1
100
AcDbSymbolTableRecord
100
AcDbBlockTableRecord
  2
7_069929H_0_in_069929_0
340
0
102
{BLKREFS
331
1D1
102
}
 70
     0
280
     1
281
     0
  0
ENDTAB
  0
ENDSEC
  0
SECTION
  2
BLOCKS
  0
BLOCK
  5
20
330
1F
100
AcDbEntity
  8
0
100
AcDbBlockBegin
  2
*Model_Space
 70
     0
 10
0.0
 20
0.0
 30
0.0
  3
*Model_Space
  1

  0
ENDBLK
  5
21
330
1F
100
AcDbEntity
  8
0
100
AcDbBlockEnd
  0
BLOCK
  5
1C
330
1B
100
AcDbEntity
 67
     1
  8
0
100
AcDbBlockBegin
  2
*Paper_Space
 70
     0
 10
0.0
 20
0.0
 30
0.0
  3
*Paper_Space
  1

  0
ENDBLK
  5
1D
330
1B
100
AcDbEntity
 67
     1
  8
0
100
AcDbBlockEnd
  0
BLOCK
  5
24
330
23
100
AcDbEntity
  8
0
100
AcDbBlockBegin
  2
*Paper_Space0
 70
     0
 10
0.0
 20
0.0
 30
0.0
  3
*Paper_Space0
  1

  0
ENDBLK
  5
25
330
23
100
AcDbEntity
  8
0
100
AcDbBlockEnd
  0
BLOCK
  5
70
330
6E
100
AcDbEntity
  8
0
100
AcDbBlockBegin
  2
1_069929_0
 70
     2
 10
0.0
 20
0.0
 30
0.0
  3
1_069929_0
  1

  0
ATTDEF
  5
73
330
6E
100
AcDbEntity
  8
AM_6
100
AcDbText
 10
11.74999999999999
 20
6.749999999999995
 30
0.0
 40
0.5
  1
Imperial - IP Piloted Flange Labyrinth Seal
100
AcDbAttributeDefinition
  3

  2
NN
 70
     8
280
     0
  0
ATTDEF
  5
74
330
6E
100
AcDbEntity
  8
AM_6
100
AcDbText
 10
11.74999999999999
 20
6.249999999999995
 30
0.0
 40
0.5
  1
Imperial Piloted Flange Bearings
100
AcDbAttributeDefinition
  3

  2
NT
 70
     8
280
     0
  0
ATTDEF
  5
75
330
6E
100
AcDbEntity
  8
AM_6
100
AcDbText
 10
11.74999999999999
 20
5.749999999999995
 30
0.0
 40
0.5
  1
069929
100
AcDbAttributeDefinition
  3

  2
NB
 70
     8
280
     0
  0
ATTDEF
  5
76
330
6E
100
AcDbEntity
  8
AM_6
100
AcDbText
 10
11.74999999999999
 20
5.249999999999995
 30
0.0
 40
0.5
  1
$PN.
100
AcDbAttributeDefinition
  3

  2
NBSYN
 70
     8
280
     0
  0
ATTDEF
  5
77
330
6E
100
AcDbEntity
  8
AM_6
100
AcDbText
 10
11.74999999999999
 20
4.749999999999995
 30
0.0
 40
0.5
  1
069929
100
AcDbAttributeDefinition
  3

  2
LINA
 70
     8
280
     0
  0
ATTDEF
  5
78
330
6E
100
AcDbEntity
  8
AM_6
100
AcDbText
 10
11.74999999999999
 20
4.249999999999995
 30
0.0
 40
0.5
  1
4-7/16
100
AcDbAttributeDefinition
  3

  2
SS
 70
     8
280
     0
  0
ATTDEF
  5
79
330
6E
100
AcDbEntity
  8
AM_6
100
AcDbText
 10
11.74999999999999
 20
3.749999999999995
 30
0.0
 40
0.5
  1
069929
100
AcDbAttributeDefinition
  3

  2
PN
 70
     8
280
     0
  0
ATTDEF
  5
7A
330
6E
100
AcDbEntity
  8
AM_6
100
AcDbText
 10
11.74999999999999
 20
3.249999999999995
 30
0.0
 40
0.5
  1
FC-IP-407LE
100
AcDbAttributeDefinition
  3

  2
DESCRIPTION
 70
     8
280
     0
  0
ATTDEF
  5
7B
330
6E
100
AcDbEntity
  8
AM_6
100
AcDbText
 10
11.74999999999999
 20
2.749999999999995
 30
0.0
 40
0.5
  1
Expansion Type
100
AcDbAttributeDefinition
  3

  2
EF
 70
     8
280
     0
  0
ATTDEF
  5
7C
330
6E
100
AcDbEntity
  8
AM_6
100
AcDbText
 10
11.74999999999999
 20
2.249999999999995
 30
0.0
 40
0.5
  1
Labyrinth Seal
100
AcDbAttributeDefinition
  3

  2
ST
 70
     8
280
     0
  0
ATTDEF
  5
7D
330
6E
100
AcDbEntity
  8
AM_6
100
AcDbText
 10
11.74999999999999
 20
1.749999999999995
 30
0.0
 40
0.5
  1
5-15/64
100
AcDbAttributeDefinition
  3

  2
A
 70
     8
280
     0
  0
ATTDEF
  5
7E
330
6E
100
AcDbEntity
  8
AM_6
100
AcDbText
 10
11.74999999999999
 20
1.249999999999995
 30
0.0
 40
0.5
  1
13-1/2
100
AcDbAttributeDefinition
  3

  2
B
 70
     8
280
     0
  0
ATTDEF
  5
7F
330
6E
100
AcDbEntity
  8
AM_6
100
AcDbText
 10
11.74999999999999
 20
0.7499999999999947
 30
0.0
 40
0.5
  1
4
100
AcDbAttributeDefinition
  3

  2
C
 70
     8
280
     0
  0
ATTDEF
  5
80
330
6E
100
AcDbEntity
  8
AM_6
100
AcDbText
 10
11.74999999999999
 20
0.2499999999999947
 30
0.0
 40
0.5
  1
8-5/16
100
AcDbAttributeDefinition
  3

  2
D
 70
     8
280
     0
  0
ATTDEF
  5
81
330
6E
100
AcDbEntity
  8
AM_6
100
AcDbText
 10
11.74999999999999
 20
-0.2500000000000053
 30
0.0
 40
0.5
  1
11-3/4
100
AcDbAttributeDefinition
  3

  2
DD
 70
     8
280
     0
  0
ATTDEF
  5
82
330
6E
100
AcDbEntity
  8
AM_6
100
AcDbText
 10
11.74999999999999
 20
-0.7500000000000053
 30
0.0
 40
0.5
  1
1-29/64
100
AcDbAttributeDefinition
  3

  2
E
 70
     8
280
     0
  0
ATTDEF
  5
83
330
6E
100
AcDbEntity
  8
AM_6
100
AcDbText
 10
11.74999999999999
 20
-1.250000000000005
 30
0.0
 40
0.5
  1
3/4
100
AcDbAttributeDefinition
  3

  2
F
 70
     8
280
     0
  0
ATTDEF
  5
84
330
6E
100
AcDbEntity
  8
AM_6
100
AcDbText
 10
11.74999999999999
 20
-1.750000000000005
 30
0.0
 40
0.5
  1
3-9/16
100
AcDbAttributeDefinition
  3

  2
G
 70
     8
280
     0
  0
ATTDEF
  5
85
330
6E
100
AcDbEntity
  8
AM_6
100
AcDbText
 10
11.74999999999999
 20
-2.250000000000005
 30
0.0
 40
0.5
  1
1
100
AcDbAttributeDefinition
  3

  2
H
 70
     8
280
     0
  0
ATTDEF
  5
86
330
6E
100
AcDbEntity
  8
AM_6
100
AcDbText
 10
11.74999999999999
 20
-2.750000000000005
 30
0.0
 40
0.5
  1
10.250
100
AcDbAttributeDefinition
  3

  2
K
 70
     8
280
     0
  0
ATTDEF
  5
87
330
6E
100
AcDbEntity
  8
AM_6
100
AcDbText
 10
11.74999999999999
 20
-3.250000000000005
 30
0.0
 40
0.5
  1
6-7/16
100
AcDbAttributeDefinition
  3

  2
L
 70
     8
280
     0
  0
ATTDEF
  5
88
330
6E
100
AcDbEntity
  8
AM_6
100
AcDbText
 10
11.74999999999999
 20
-3.750000000000005
 30
0.0
 40
0.5
  1
3/4-10
100
AcDbAttributeDefinition
  3

  2
M
 70
     8
280
     0
  0
ATTDEF
  5
89
330
6E
100
AcDbEntity
  8
AM_6
100
AcDbText
 10
11.74999999999999
 20
-4.250000000000005
 30
0.0
 40
0.5
  1
5-35/64
100
AcDbAttributeDefinition
  3

  2
N
 70
     8
280
     0
  0
ATTDEF
  5
8A
330
6E
100
AcDbEntity
  8
AM_6
100
AcDbText
 10
11.74999999999999
 20
-4.750000000000005
 30
0.0
 40
0.5
  1
1-43/64
100
AcDbAttributeDefinition
  3

  2
P
 70
     8
280
     0
  0
ATTDEF
  5
8B
330
6E
100
AcDbEntity
  8
AM_6
100
AcDbText
 10
11.74999999999999
 20
-5.250000000000005
 30
0.0
 40
0.5
  1
1-63/64
100
AcDbAttributeDefinition
  3

  2
Q
 70
     8
280
     0
  0
ATTDEF
  5
8C
330
6E
100
AcDbEntity
  8
AM_6
100
AcDbText
 10
11.74999999999999
 20
-5.750000000000005
 30
0.0
 40
0.5
  1
3/8
100
AcDbAttributeDefinition
  3

  2
X
 70
     8
280
     0
  0
ATTDEF
  5
8D
330
6E
100
AcDbEntity
  8
AM_6
100
AcDbText
 10
11.74999999999999
 20
-6.250000000000005
 30
0.0
 40
0.5
  1
0.036
100
AcDbAttributeDefinition
  3

  2
Y
 70
     8
280
     0
  0
ATTDEF
  5
8E
330
6E
100
AcDbEntity
  8
AM_6
100
AcDbText
 10
11.74999999999999
 20
-6.750000000000005
 30
0.0
 40
0.5
  1
5
100
AcDbAttributeDefinition
  3

  2
Z
 70
     8
280
     0
  0
ATTDEF
  5
8F
330
6E
100
AcDbEntity
  8
AM_6
100
AcDbText
 10
11.74999999999999
 20
-7.250000000000005
 30
0.0
 40
0.5
  1
baldor
100
AcDbAttributeDefinition
  3

  2
COMPANY
 70
     8
280
     0
  0
INSERT
  5
91
330
6E
100
AcDbEntity
  8
0
100
AcDbBlockReference
  2
2_405015E_Inch_0_in_069929_0
 10
0.0
 20
0.0
 30
0.0
  0
INSERT
  5
ED
330
6E
100
AcDbEntity
  8
0
100
AcDbBlockReference
  2
3_ASME_B18_3_1_4_1_0_in_069929_0
 10
0.0
 20
0.0
 30
0.0
  0
INSERT
  5
10C
330
6E
100
AcDbEntity
  8
0
100
AcDbBlockReference
  2
4_ASME_B18_3_1_4_2_0_in_069929_0
 10
0.0
 20
0.0
 30
0.0
  0
INSERT
  5
128
330
6E
100
AcDbEntity
  8
0
100
AcDbBlockReference
  2
5_070908LW_0_in_069929_0
 10
0.0
 20
0.0
 30
0.0
  0
INSERT
  5
173
330
6E
100
AcDbEntity
  8
0
100
AcDbBlockReference
  2
6_070940I_0_in_069929_0
 10
0.0
 20
0.0
 30
0.0
  0
INSERT
  5
1D1
330
6E
100
AcDbEntity
  8
0
100
AcDbBlockReference
  2
7_069929H_0_in_069929_0
 10
0.0
 20
0.0
 30
0.0
  0
ENDBLK
  5
71
330
6E
100
AcDbEntity
  8
0
100
AcDbBlockEnd
  0
BLOCK
  5
92
330
90
100
AcDbEntity
  8
0
100
AcDbBlockBegin
  2
2_405015E_Inch_0_in_069929_0
 70
     2
 10
0.0
 20
0.0
 30
0.0
  3
2_405015E_Inch_0_in_069929_0
  1

  0
ATTDEF
  5
94
330
90
100
AcDbEntity
  8
AM_6
100
AcDbText
 10
5.252590742770462
 20
6.053207385767139
 30
0.0
 40
0.5
  1
405015E -Inch
100
AcDbAttributeDefinition
  3

  2
NN
 70
     8
280
     0
  0
ATTDEF
  5
95
330
90
100
AcDbEntity
  8
AM_6
100
AcDbText
 10
5.252590742770462
 20
5.553207385767139
 30
0.0
 40
0.5
  1
Grease Fitting
100
AcDbAttributeDefinition
  3

  2
NT
 70
     8
280
     0
  0
ATTDEF
  5
96
330
90
100
AcDbEntity
  8
AM_6
100
AcDbText
 10
5.252590742770462
 20
5.053207385767139
 30
0.0
 40
0.5
  1
405015E-Inch
100
AcDbAttributeDefinition
  3

  2
NB
 70
     8
280
     0
  0
ATTDEF
  5
97
330
90
100
AcDbEntity
  8
AM_6
100
AcDbText
 10
5.252590742770462
 20
4.553207385767139
 30
0.0
 40
0.5
  1
$MN.-Inch
100
AcDbAttributeDefinition
  3

  2
NBSYN
 70
     8
280
     0
  0
ATTDEF
  5
98
330
90
100
AcDbEntity
  8
AM_6
100
AcDbText
 10
5.252590742770462
 20
4.053207385767139
 30
0.0
 40
0.5
  1
405015E
100
AcDbAttributeDefinition
  3

  2
LINA
 70
     8
280
     0
  0
ATTDEF
  5
99
330
90
100
AcDbEntity
  8
AM_6
100
AcDbText
 10
5.252590742770462
 20
3.553207385767139
 30
0.0
 40
0.5
  1
405015E
100
AcDbAttributeDefinition
  3

  2
MN
 70
     8
280
     0
  0
ATTDEF
  5
9A
330
90
100
AcDbEntity
  8
AM_6
100
AcDbText
 10
5.252590742770462
 20
3.053207385767139
 30
0.0
 40
0.5
  1
1/8 x 27PTF
100
AcDbAttributeDefinition
  3

  2
T
 70
     8
280
     0
  0
ATTDEF
  5
9B
330
90
100
AcDbEntity
  8
AM_6
100
AcDbText
 10
5.252590742770462
 20
2.553207385767139
 30
0.0
 40
0.5
  1
baldor
100
AcDbAttributeDefinition
  3

  2
COMPANY
 70
     8
280
     0
  0
ELLIPSE
  5
9E
330
90
100
AcDbEntity
  8
AM_9
100
AcDbEllipse
 10
0.0
 20
5.644285714285714
 30
0.0
 11
-0.161902872472269
 21
1.982738345459263E-17
 31
0.0
210
0.0
220
0.0
230
1.0
 40
0.8660254037844368
 41
0.0
 42
6.283185307179586
  0
ELLIPSE
  5
9F
330
90
100
AcDbEntity
  8
AM_9
100
AcDbEllipse
 10
-0.0000000000000001
 20
5.776785714285714
 30
0.0
 11
0.2187499999999996
 21
3.259629011154169E-9
 31
0.0
210
0.0
220
0.0
230
1.0
 40
0.8660254037844375
 41
1.570796313890112
 42
3.665191413057116
  0
LWPOLYLINE
  5
A0
330
90
100
AcDbEntity
  8
AM_9
100
AcDbPolyline
 90
        4
 70
     0
 43
0.0
 10
-0.1894430570778459
 20
5.871507242824636
 10
-0.1736561356546921
 20
5.895491331961367
 10
-0.1578502110457926
 20
5.920094614893225
 10
-0.1262953713852306
 20
5.970762571211867
  0
LWPOLYLINE
  5
A1
330
90
100
AcDbEntity
  8
AM_9
100
AcDbPolyline
 90
        4
 70
     0
 43
0.0
 10
-0.1262953713852306
 20
5.970762571211867
 10
-0.0967996321117978
 20
5.968969977622481
 10
-0.0485424412477544
 20
5.966941685485096
 10
0.0
 20
5.96622877136356
  0
ELLIPSE
  5
A2
330
90
100
AcDbEntity
  8
AM_9
100
AcDbEllipse
 10
0.0000000000000001
 20
5.776785714285714
 30
0.0
 11
0.2187499999999994
 21
0.0
 31
0.0
210
0.0
220
0.0
230
1.0
 40
0.8660254037844382
 41
5.759586531581283
 42
7.853981633974483
  0
LWPOLYLINE
  5
A3
330
90
100
AcDbEntity
  8
AM_9
100
AcDbPolyline
 90
        4
 70
     0
 43
0.0
 10
0.1262953713852306
 20
5.970762571211867
 10
0.1498542014388649
 20
5.932751232687525
 10
0.1735630385535388
 20
5.895634551518211
 10
0.1894430570778459
 20
5.871507242824636
  0
LWPOLYLINE
  5
A4
330
90
100
AcDbEntity
  8
AM_9
100
AcDbPolyline
 90
        5
 70
     0
 43
0.0
 10
0.0
 20
5.96622877136356
 10
0.0315738428463077
 20
5.966532478365559
 10
0.0631476856926153
 20
5.967425461756076
 10
0.0947562840569831
 20
5.968860179611141
 10
0.1262953713852306
 20
5.970762571211867
  0
LINE
  5
A5
330
90
100
AcDbEntity
  8
AM_9
100
AcDbLine
 10
-0.1262953713852306
 20
6.011694971515253
 30
0.0
 11
-0.1262953713852306
 21
5.970762571211867
 31
0.0
  0
LINE
  5
A6
330
90
100
AcDbEntity
  8
AM_9
100
AcDbLine
 10
0.1262953713852306
 20
6.011694971515253
 30
0.0
 11
0.1262953713852306
 21
5.970762571211867
 31
0.0
  0
LWPOLYLINE
  5
A7
330
90
100
AcDbEntity
  8
AM_9
100
AcDbPolyline
 90
        4
 70
     0
 43
0.0
 10
0.0875981884876042
 20
6.013966282840862
 10
0.0634316146914367
 20
6.01502150888875
 10
0.0317600370486143
 20
6.015921490456446
 10
0.0
 20
6.01622877136356
  0
LWPOLYLINE
  5
A8
330
90
100
AcDbEntity
  8
AM_9
100
AcDbPolyline
 90
        3
 70
     0
 43
0.0
 10
0.0
 20
6.01622877136356
 10
-0.0483998160558989
 20
6.015519991004991
 10
-0.0876643906215053
 20
6.013962984567418
  0
LWPOLYLINE
  5
A9
330
90
100
AcDbEntity
  8
AM_9
100
AcDbPolyline
 90
        4
 70
     0
 43
0.0
 10
0.1894430570778459
 20
5.871507242824636
 10
0.2052299785009998
 20
5.848130567691905
 10
0.2210359031098993
 20
5.825316076797064
 10
0.2525907427704612
 20
5.781319514134021
  0
LWPOLYLINE
  5
AA
330
90
100
AcDbEntity
  8
AM_9
100
AcDbPolyline
 90
        4
 70
     0
 43
0.0
 10
-0.2525907427704612
 20
5.781319514134021
 10
-0.229031912716827
 20
5.813984665770581
 10
-0.205323075602153
 20
5.84799449594529
 10
-0.1894430570778459
 20
5.871507242824636
  0
LINE
  5
AB
330
90
100
AcDbEntity
  8
AM_9
100
AcDbLine
 10
0.1983264404626879
 20
5.653332424911868
 30
0.0
 11
0.2054502516015135
 21
5.767140612118004
 31
0.0
  0
LINE
  5
AC
330
90
100
AcDbEntity
  8
AM_9
100
AcDbLine
 10
-0.2054502516015135
 20
5.767140612118004
 30
0.0
 11
-0.1983264404626879
 21
5.653332424911868
 31
0.0
  0
ELLIPSE
  5
AD
330
90
100
AcDbEntity
  8
AM_9
100
AcDbEllipse
 10
0.0
 20
5.776785714285714
 30
0.0
 11
0.2187500000000001
 21
0.0
 31
0.0
210
0.0
220
0.0
230
1.0
 40
0.8660254037844398
 41
3.66519142918809
 42
5.75958653158129
  0
ELLIPSE
  5
AE
330
90
100
AcDbEntity
  8
AM_9
100
AcDbEllipse
 10
-0.0000000000000016
 20
5.826785714285707
 30
0.0
 11
0.218750000000003
 21
0.0
 31
0.0
210
0.0
220
0.0
230
1.0
 40
0.8660254037844565
 41
1.032970329614903
 42
1.570796326794897
  0
ELLIPSE
  5
AF
330
90
100
AcDbEntity
  8
AM_9
100
AcDbEllipse
 10
0.0000000000000016
 20
5.826785714285707
 30
0.0
 11
0.2187500000000029
 21
3.259629011154218E-9
 31
0.0
210
0.0
220
0.0
230
1.0
 40
0.866025403784457
 41
1.57079631389012
 42
2.108622309941278
  0
ELLIPSE
  5
B0
330
90
100
AcDbEntity
  8
AM_9
100
AcDbEllipse
 10
0.0000000000000049
 20
5.826785714285705
 30
0.0
 11
0.2137500000000126
 21
0.0
 31
0.0
210
0.0
220
0.0
230
1.0
 40
0.8660254037844274
 41
1.602678738584978
 42
2.155305801354431
  0
ELLIPSE
  5
B1
330
90
100
AcDbEntity
  8
AM_9
100
AcDbEllipse
 10
-0.0000000000000038
 20
5.826785714285705
 30
0.0
 11
0.2137500000000106
 21
0.0
 31
0.0
210
0.0
220
0.0
230
1.0
 40
0.8660254037844355
 41
0.9862868522353612
 42
1.602678738584938
  0
ELLIPSE
  5
B2
330
90
100
AcDbEntity
  8
AM_9
100
AcDbEllipse
 10
0.0
 20
5.835944813556154
 30
0.0
 11
0.1725340532830151
 21
0.0
 31
0.0
210
0.0
220
0.0
230
1.0
 40
0.8660254037844417
 41
0.6732704101474702
 42
2.468322243442322
  0
ELLIPSE
  5
B3
330
90
100
AcDbEntity
  8
AM_9
100
AcDbEllipse
 10
0.0000000000000016
 20
5.863162275094998
 30
0.0
 11
0.1188200907348959
 21
0.0
 31
0.0
210
0.0
220
0.0
230
1.0
 40
0.8660254037844521
 41
0.0521714424099686
 42
0.8365075292154203
  0
LINE
  5
B4
330
90
100
AcDbEntity
  8
AM_9
100
AcDbLine
 10
-0.0703562363973515
 20
5.946785714285713
 30
0.0
 11
-0.079616518023802
 21
5.939546619138863
 31
0.0
  0
LINE
  5
B5
330
90
100
AcDbEntity
  8
AM_9
100
AcDbLine
 10
0.079616518023802
 20
5.939546619138863
 30
0.0
 11
0.0703562363973515
 21
5.946785714285713
 31
0.0
  0
ELLIPSE
  5
B6
330
90
100
AcDbEntity
  8
AM_9
100
AcDbEllipse
 10
0.0
 20
5.879285714285714
 30
0.0
 11
0.1050000000000008
 21
1.564621925354017E-9
 31
0.0
210
0.0
220
0.0
230
1.0
 40
0.8660254037844252
 41
0.8365075143792993
 42
3.141592638688632
  0
ELLIPSE
  5
B7
330
90
100
AcDbEntity
  8
AM_9
100
AcDbEllipse
 10
0.0
 20
5.863162275094998
 30
0.0
 11
0.1188200907348999
 21
0.0
 31
0.0
210
0.0
220
0.0
230
1.0
 40
0.86602540378443
 41
0.8365075292154209
 42
3.089421211179827
  0
ELLIPSE
  5
B8
330
90
100
AcDbEntity
  8
AM_9
100
AcDbEllipse
 10
0.0000000000000021
 20
5.879285714285714
 30
0.0
 11
0.1049999999999979
 21
0.0
 31
0.0
210
0.0
220
0.0
230
1.0
 40
0.8660254037844412
 41
0.0
 42
0.836507529215418
  0
LINE
  5
B9
330
90
100
AcDbEntity
  8
AM_9
100
AcDbLine
 10
0.105
 20
5.879285714285714
 30
0.0
 11
0.105
 21
5.894285714285713
 31
0.0
  0
LINE
  5
BA
330
90
100
AcDbEntity
  8
AM_9
100
AcDbLine
 10
-0.105
 20
5.894285714285713
 30
0.0
 11
-0.105
 21
5.879285714285714
 31
0.0
  0
ELLIPSE
  5
BB
330
90
100
AcDbEntity
  8
AM_9
100
AcDbEllipse
 10
0.0000000000000001
 20
5.894285714285712
 30
0.0
 11
0.1049999999999999
 21
0.0
 31
0.0
210
0.0
220
0.0
230
1.0
 40
0.8660254037844332
 41
3.141592653589793
 42
4.188790204786392
  0
ELLIPSE
  5
BC
330
90
100
AcDbEntity
  8
AM_9
100
AcDbEllipse
 10
0.0000000000000073
 20
5.879285714285721
 30
0.0
 11
0.1049999999999927
 21
0.0
 31
0.0
210
0.0
220
0.0
230
1.0
 40
0.8660254037844505
 41
5.85810598127116
 42
6.283185307179586
  0
ELLIPSE
  5
BD
330
90
100
AcDbEntity
  8
AM_9
100
AcDbEllipse
 10
-0.0000000000000088
 20
5.879285714285721
 30
0.0
 11
0.1049999999999912
 21
0.0
 31
0.0
210
0.0
220
0.0
230
1.0
 40
0.8660254037844543
 41
3.141592653589793
 42
3.566671979498224
  0
ELLIPSE
  5
BE
330
90
100
AcDbEntity
  8
AM_9
100
AcDbEllipse
 10
0.0
 20
5.894285714285714
 30
0.0
 11
0.1049999999999998
 21
1.564621925354002E-9
 31
0.0
210
0.0
220
0.0
230
1.0
 40
0.8660254037844418
 41
0.0000017304280906
 42
3.141592638688632
  0
ELLIPSE
  5
BF
330
90
100
AcDbEntity
  8
AM_9
100
AcDbEllipse
 10
-0.0000000000000001
 20
5.894285714285712
 30
0.0
 11
0.105
 21
0.0
 31
0.0
210
0.0
220
0.0
230
1.0
 40
0.8660254037844407
 41
5.235987755982997
 42
6.283185307179586
  0
ELLIPSE
  5
C0
330
90
100
AcDbEntity
  8
AM_9
100
AcDbEllipse
 10
0.0
 20
5.924285714285716
 30
0.0
 11
0.1349999999999974
 21
0.0
 31
0.0
210
0.0
220
0.0
230
1.0
 40
0.8660254037844412
 41
0.7751090107151004
 42
2.366483642874693
  0
ELLIPSE
  5
C1
330
90
100
AcDbEntity
  8
AM_9
100
AcDbEllipse
 10
0.0000000000000001
 20
5.776785714285714
 30
0.0
 11
0.2057518972230693
 21
0.0
 31
0.0
210
0.0
220
0.0
230
1.0
 40
0.8660254037844474
 41
0.0
 42
6.283185307179586
  0
ELLIPSE
  5
C2
330
90
100
AcDbEntity
  8
AM_9
100
AcDbEllipse
 10
0.0000000000000504
 20
5.66264309144011
 30
0.0
 11
0.198617626781165
 21
0.0
 31
0.0
210
0.0
220
0.0
230
1.0
 40
0.8660254037844091
 41
0.0
 42
6.283185307179586
  0
LWPOLYLINE
  5
C4
330
90
100
AcDbEntity
  8
AM_4
100
AcDbPolyline
 90
        4
 70
     0
 43
0.0
 10
0.1894430570778459
 20
5.921507242824637
 10
0.1736561356546922
 20
5.944883917957368
 10
0.1578502110457927
 20
5.967698408852208
 10
0.1262953713852306
 20
6.011694971515253
  0
LINE
  5
C5
330
90
100
AcDbEntity
  8
AM_4
100
AcDbLine
 10
0.1262953713852306
 20
6.011694971515253
 30
0.0
 11
0.0875981884876042
 21
6.013966282840862
 31
0.0
  0
LWPOLYLINE
  5
C6
330
90
100
AcDbEntity
  8
AM_4
100
AcDbPolyline
 90
        4
 70
     0
 43
0.0
 10
-0.1262953713852306
 20
6.011694971515253
 10
-0.1498542014388649
 20
5.979029819878692
 10
-0.1735630385535388
 20
5.945019989703983
 10
-0.1894430570778459
 20
5.921507242824637
  0
LINE
  5
C7
330
90
100
AcDbEntity
  8
AM_4
100
AcDbLine
 10
-0.0876643906215053
 20
6.013962984567418
 30
0.0
 11
-0.1262953713852306
 21
6.011694971515253
 31
0.0
  0
LWPOLYLINE
  5
C8
330
90
100
AcDbEntity
  8
AM_4
100
AcDbPolyline
 90
        4
 70
     0
 43
0.0
 10
-0.1894430570778459
 20
5.921507242824637
 10
-0.2052299785009998
 20
5.897523153687906
 10
-0.2368211991063374
 20
5.847808621534317
 10
-0.2525907427704612
 20
5.822251914437406
  0
LWPOLYLINE
  5
C9
330
90
100
AcDbEntity
  8
AM_4
100
AcDbPolyline
 90
        4
 70
     0
 43
0.0
 10
0.2525907427704612
 20
5.822251914437406
 10
0.2290319127168271
 20
5.860263252961748
 10
0.2053230756021531
 20
5.897379934131062
 10
0.1894430570778459
 20
5.921507242824637
  0
LWPOLYLINE
  5
CA
330
90
100
AcDbEntity
  8
AM_4
100
AcDbPolyline
 90
        4
 70
     0
 43
0.0
 10
-0.2525907427704612
 20
5.822251914437406
 10
-0.229031912716827
 20
5.789586762800846
 10
-0.2053230756021531
 20
5.755576932626138
 10
-0.1894430570778459
 20
5.732064185746791
  0
LINE
  5
CB
330
90
100
AcDbEntity
  8
AM_4
100
AcDbLine
 10
-0.2525907427704612
 20
5.822251914437406
 30
0.0
 11
-0.2525907427704612
 21
5.781319514134021
 31
0.0
  0
LWPOLYLINE
  5
CC
330
90
100
AcDbEntity
  8
AM_4
100
AcDbPolyline
 90
        4
 70
     0
 43
0.0
 10
-0.1894430570778459
 20
5.682064185746791
 10
-0.2052299785009998
 20
5.70604827488352
 10
-0.2368211991063374
 20
5.75576280703711
 10
-0.2525907427704612
 20
5.781319514134021
  0
LWPOLYLINE
  5
CD
330
90
100
AcDbEntity
  8
AM_4
100
AcDbPolyline
 90
        4
 70
     0
 43
0.0
 10
-0.1262953713852306
 20
5.591876457056175
 10
-0.1498542014388649
 20
5.624541608692735
 10
-0.1735630385535388
 20
5.658551438867444
 10
-0.1894430570778459
 20
5.682064185746791
  0
ELLIPSE
  5
CE
330
90
100
AcDbEntity
  8
AM_4
100
AcDbEllipse
 10
0.000000000000008
 20
5.826785714285714
 30
0.0
 11
0.2187499999999899
 21
0.0
 31
0.0
210
0.0
220
0.0
230
1.0
 40
0.8660254037844517
 41
0.5235987755983089
 42
1.032970329614926
  0
ELLIPSE
  5
CF
330
90
100
AcDbEntity
  8
AM_4
100
AcDbEllipse
 10
-0.000000000000008
 20
5.826785714285714
 30
0.0
 11
0.2187499999999899
 21
0.0
 31
0.0
210
0.0
220
0.0
230
1.0
 40
0.8660254037844517
 41
2.108622323974868
 42
2.617993877991484
  0
ELLIPSE
  5
D0
330
90
100
AcDbEntity
  8
AM_4
100
AcDbEllipse
 10
0.0000000000000013
 20
5.826785714285714
 30
0.0
 11
0.2187500000000013
 21
0.0
 31
0.0
210
0.0
220
0.0
230
1.0
 40
0.866025403784439
 41
2.617993877991498
 42
3.66519142918809
  0
ELLIPSE
  5
D1
330
90
100
AcDbEntity
  8
AM_4
100
AcDbEllipse
 10
0.0000000000000003
 20
5.826785714285713
 30
0.0
 11
0.2187500000000004
 21
0.0
 31
0.0
210
0.0
220
0.0
230
1.0
 40
0.8660254037844385
 41
3.66519142918809
 42
6.806784082777888
  0
LWPOLYLINE
  5
D2
330
90
100
AcDbEntity
  8
AM_4
100
AcDbPolyline
 90
        4
 70
     0
 43
0.0
 10
-0.1894430570778459
 20
5.732064185746791
 10
-0.1736561356546922
 20
5.70808009661006
 10
-0.1578502110457927
 20
5.683476813678204
 10
-0.1262953713852306
 20
5.63280885735956
  0
LINE
  5
D3
330
90
100
AcDbEntity
  8
AM_4
100
AcDbLine
 10
0.2525907427704612
 20
5.822251914437406
 30
0.0
 11
0.2525907427704612
 21
5.781319514134021
 31
0.0
  0
LWPOLYLINE
  5
D4
330
90
100
AcDbEntity
  8
AM_4
100
AcDbPolyline
 90
        4
 70
     0
 43
0.0
 10
0.1894430570778459
 20
5.732064185746791
 10
0.2052299785009997
 20
5.755440860879522
 10
0.2210359031098992
 20
5.778255351774363
 10
0.2525907427704612
 20
5.822251914437406
  0
LWPOLYLINE
  5
D5
330
90
100
AcDbEntity
  8
AM_4
100
AcDbPolyline
 90
        4
 70
     0
 43
0.0
 10
0.1894430570778459
 20
5.682064185746791
 10
0.1736561356546921
 20
5.65868751061406
 10
0.1578692142315383
 20
5.635900111869846
 10
0.1262953713852306
 20
5.591876457056175
  0
LWPOLYLINE
  5
D6
330
90
100
AcDbEntity
  8
AM_4
100
AcDbPolyline
 90
        4
 70
     0
 43
0.0
 10
0.2525907427704612
 20
5.781319514134021
 10
0.229031912716827
 20
5.743308175609679
 10
0.205323075602153
 20
5.706191494440365
 10
0.1894430570778459
 20
5.682064185746791
  0
LINE
  5
D7
330
90
100
AcDbEntity
  8
AM_4
100
AcDbLine
 10
0.1262953713852306
 20
5.63280885735956
 30
0.0
 11
0.1262953713852306
 21
5.591876457056175
 31
0.0
  0
LWPOLYLINE
  5
D8
330
90
100
AcDbEntity
  8
AM_4
100
AcDbPolyline
 90
        4
 70
     0
 43
0.0
 10
-0.1262953713852306
 20
5.63280885735956
 10
-0.0967996321117978
 20
5.634601450948946
 10
-0.0485424412477544
 20
5.636629743086331
 10
0.0
 20
5.637342657207867
  0
LINE
  5
D9
330
90
100
AcDbEntity
  8
AM_4
100
AcDbLine
 10
-0.1262953713852306
 20
5.63280885735956
 30
0.0
 11
-0.1262953713852306
 21
5.591876457056175
 31
0.0
  0
LWPOLYLINE
  5
DA
330
90
100
AcDbEntity
  8
AM_4
100
AcDbPolyline
 90
        4
 70
     0
 43
0.0
 10
0.0
 20
5.587342657207867
 10
-0.0483998160558989
 20
5.588051437566437
 10
-0.0967996321117978
 20
5.59008386346679
 10
-0.1262953713852306
 20
5.591876457056175
  0
LWPOLYLINE
  5
DB
330
90
100
AcDbEntity
  8
AM_4
100
AcDbPolyline
 90
        5
 70
     0
 43
0.0
 10
0.1262953713852306
 20
5.591876457056175
 10
0.0949251544150459
 20
5.589983064978672
 10
0.0634316146914367
 20
5.588549919682677
 10
0.0317600370486143
 20
5.587649938114981
 10
0.0
 20
5.587342657207867
  0
LWPOLYLINE
  5
DC
330
90
100
AcDbEntity
  8
AM_4
100
AcDbPolyline
 90
        5
 70
     0
 43
0.0
 10
0.0
 20
5.637342657207867
 10
0.0315738428463077
 20
5.637038950205868
 10
0.0631476856926153
 20
5.63614596681535
 10
0.0947562840569831
 20
5.634711248960286
 10
0.1262953713852306
 20
5.63280885735956
  0
LWPOLYLINE
  5
DD
330
90
100
AcDbEntity
  8
AM_4
100
AcDbPolyline
 90
        4
 70
     0
 43
0.0
 10
0.1262953713852306
 20
5.63280885735956
 10
0.1498542014388648
 20
5.670820195883904
 10
0.1735630385535388
 20
5.707936877053216
 10
0.1894430570778459
 20
5.732064185746791
  0
ELLIPSE
  5
DE
330
90
100
AcDbEntity
  8
AM_4
100
AcDbEllipse
 10
-0.0000000000000004
 20
5.826785714285713
 30
0.0
 11
0.2137500000000003
 21
0.0
 31
0.0
210
0.0
220
0.0
230
1.0
 40
0.8660254037844397
 41
2.155305801354443
 42
6.283185307179586
  0
ELLIPSE
  5
DF
330
90
100
AcDbEntity
  8
AM_4
100
AcDbEllipse
 10
-0.0000000000000029
 20
5.826785714285713
 30
0.0
 11
0.2137500000000033
 21
0.0
 31
0.0
210
0.0
220
0.0
230
1.0
 40
0.866025403784436
 41
0.4112270844525767
 42
0.9862868522353387
  0
ELLIPSE
  5
E0
330
90
100
AcDbEntity
  8
AM_4
100
AcDbEllipse
 10
0.0000000000000045
 20
5.826785714285708
 30
0.0
 11
0.2137499999999956
 21
0.0
 31
0.0
210
0.0
220
0.0
230
1.0
 40
0.8660254037844466
 41
0.0
 42
0.4112270844526126
  0
ELLIPSE
  5
E1
330
90
100
AcDbEntity
  8
AM_4
100
AcDbEllipse
 10
0.0000000000000001
 20
5.835944813556154
 30
0.0
 11
0.1725340532830151
 21
0.0
 31
0.0
210
0.0
220
0.0
230
1.0
 40
0.8660254037844368
 41
2.468322243442318
 42
6.283185307179586
  0
ELLIPSE
  5
E2
330
90
100
AcDbEntity
  8
AM_4
100
AcDbEllipse
 10
0.0000000000000009
 20
5.835944813556154
 30
0.0
 11
0.1725340532830144
 21
0.0
 31
0.0
210
0.0
220
0.0
230
1.0
 40
0.8660254037844402
 41
0.0
 42
0.6732704101474738
  0
ELLIPSE
  5
E3
330
90
100
AcDbEntity
  8
AM_4
100
AcDbEllipse
 10
0.0000000000000223
 20
5.863162275094849
 30
0.0
 11
0.1188200907348753
 21
0.0
 31
0.0
210
0.0
220
0.0
230
1.0
 40
0.8660254037844378
 41
3.089421211178387
 42
6.335356749591013
  0
ELLIPSE
  5
E4
330
90
100
AcDbEntity
  8
AM_4
100
AcDbEllipse
 10
0.0
 20
5.879285714285714
 30
0.0
 11
0.1049999999999997
 21
0.0
 31
0.0
210
0.0
220
0.0
230
1.0
 40
0.8660254037844428
 41
3.566671979498121
 42
5.858105981271257
  0
LINE
  5
E5
330
90
100
AcDbEntity
  8
AM_4
100
AcDbLine
 10
0.0525
 20
5.815535714285713
 30
0.0
 11
0.0675000000000001
 21
5.823035714285714
 31
0.0
  0
LINE
  5
E6
330
90
100
AcDbEntity
  8
AM_4
100
AcDbLine
 10
-0.0675000000000001
 20
5.823035714285714
 30
0.0
 11
-0.0525
 21
5.815535714285713
 31
0.0
  0
ELLIPSE
  5
E7
330
90
100
AcDbEntity
  8
AM_4
100
AcDbEllipse
 10
0.0
 20
5.894285714285714
 30
0.0
 11
0.1050000000000012
 21
0.0
 31
0.0
210
0.0
220
0.0
230
1.0
 40
0.8660254037844395
 41
4.188790204786397
 42
5.235987755982983
  0
ELLIPSE
  5
E8
330
90
100
AcDbEntity
  8
AM_4
100
AcDbEllipse
 10
0.0000000000000057
 20
5.924285714285714
 30
0.0
 11
0.1349999999999944
 21
0.0
 31
0.0
210
0.0
220
0.0
230
1.0
 40
0.8660254037844408
 41
2.366483642874708
 42
7.058294317894726
  0
LINE
  5
E9
330
90
100
AcDbEntity
  8
AM_4
100
AcDbLine
 10
-0.0733474205218687
 20
6.02651256207782
 30
0.0
 11
-0.0964365416902991
 21
6.006101025017332
 31
0.0
  0
LINE
  5
EA
330
90
100
AcDbEntity
  8
AM_4
100
AcDbLine
 10
0.0964365416902991
 20
6.006101025017332
 30
0.0
 11
0.0733474205218687
 21
6.02651256207782
 31
0.0
  0
ELLIPSE
  5
EB
330
90
100
AcDbEntity
  8
AM_4
100
AcDbEllipse
 10
0.0000000000000026
 20
5.964285714285713
 30
0.0
 11
0.1026779019331847
 21
0.0
 31
0.0
210
0.0
220
0.0
230
1.0
 40
0.8660254037844458
 41
0.0
 42
6.283185307179586
  0
ENDBLK
  5
93
330
90
100
AcDbEntity
  8
0
100
AcDbBlockEnd
  0
BLOCK
  5
EE
330
EC
100
AcDbEntity
  8
0
100
AcDbBlockBegin
  2
3_ASME_B18_3_1_4_1_0_in_069929_0
 70
     2
 10
0.0
 20
0.0
 30
0.0
  3
3_ASME_B18_3_1_4_1_0_in_069929_0
  1

  0
ATTDEF
  5
F0
330
EC
100
AcDbEntity
  8
AM_6
100
AcDbText
 10
5.229425
 20
-2.623513888888889
 30
0.0
 40
0.5
  1
ANSI/ASME B18.3-1998
100
AcDbAttributeDefinition
  3

  2
NN
 70
     8
280
     0
  0
ATTDEF
  5
F1
330
EC
100
AcDbEntity
  8
AM_6
100
AcDbText
 10
5.229425
 20
-3.123513888888889
 30
0.0
 40
0.5
  1
Socket Button Head Cap Screws
100
AcDbAttributeDefinition
  3

  2
NT
 70
     8
280
     0
  0
ATTDEF
  5
F2
330
EC
100
AcDbEntity
  8
AM_6
100
AcDbText
 10
5.229425
 20
-3.623513888888889
 30
0.0
 40
0.5
  1
ASME B18.3-1/4
100
AcDbAttributeDefinition
  3

  2
NB
 70
     8
280
     0
  0
ATTDEF
  5
F3
330
EC
100
AcDbEntity
  8
AM_6
100
AcDbText
 10
5.229425
 20
-4.123513888888889
 30
0.0
 40
0.5
  1
ASME B18.3-$NS.
100
AcDbAttributeDefinition
  3

  2
NBSYN
 70
     8
280
     0
  0
ATTDEF
  5
F4
330
EC
100
AcDbEntity
  8
AM_6
100
AcDbText
 10
5.229425
 20
-4.623513888888889
 30
0.0
 40
0.5
  1
ASME B18.3-1/4
100
AcDbAttributeDefinition
  3

  2
LINA
 70
     8
280
     0
  0
ATTDEF
  5
F5
330
EC
100
AcDbEntity
  8
AM_6
100
AcDbText
 10
5.229425
 20
-5.123513888888889
 30
0.0
 40
0.5
  1
1/4
100
AcDbAttributeDefinition
  3

  2
NS
 70
     8
280
     0
  0
ATTDEF
  5
F6
330
EC
100
AcDbEntity
  8
AM_6
100
AcDbText
 10
5.229425
 20
-5.623513888888889
 30
0.0
 40
0.5
  1
0.437
100
AcDbAttributeDefinition
  3

  2
A
 70
     8
280
     0
  0
ATTDEF
  5
F7
330
EC
100
AcDbEntity
  8
AM_6
100
AcDbText
 10
5.229425
 20
-6.123513888888889
 30
0.0
 40
0.5
  1
0.132
100
AcDbAttributeDefinition
  3

  2
H
 70
     8
280
     0
  0
ATTDEF
  5
F8
330
EC
100
AcDbEntity
  8
AM_6
100
AcDbText
 10
5.229425
 20
-6.623513888888889
 30
0.0
 40
0.5
  1
0.800
100
AcDbAttributeDefinition
  3

  2
L
 70
     8
280
     0
  0
ATTDEF
  5
F9
330
EC
100
AcDbEntity
  8
AM_6
100
AcDbText
 10
5.229425
 20
-7.123513888888889
 30
0.0
 40
0.5
  1
0.031
100
AcDbAttributeDefinition
  3

  2
S
 70
     8
280
     0
  0
ATTDEF
  5
FA
330
EC
100
AcDbEntity
  8
AM_6
100
AcDbText
 10
5.229425
 20
-7.623513888888889
 30
0.0
 40
0.5
  1
0.156250
100
AcDbAttributeDefinition
  3

  2
J
 70
     8
280
     0
  0
ATTDEF
  5
FB
330
EC
100
AcDbEntity
  8
AM_6
100
AcDbText
 10
5.229425
 20
-8.123513888888889
 30
0.0
 40
0.5
  1
baldor
100
AcDbAttributeDefinition
  3

  2
COMPANY
 70
     8
280
     0
  0
ARC
  5
FD
330
EC
100
AcDbEntity
  8
AM_5
100
AcDbCircle
 10
0.0
 20
-2.842013888888889
 30
0.0
 40
0.0952500000000001
100
AcDbArc
 50
75.00000000000001
 51
15.00000000000004
  0
LINE
  5
100
330
EC
100
AcDbEntity
  8
AM_7
100
AcDbLine
 10
-0.2294250000000002
 20
-2.842013888888889
 30
0.0
 11
0.2294250000000002
 21
-2.842013888888889
 31
0.0
  0
LINE
  5
101
330
EC
100
AcDbEntity
  8
AM_4
100
AcDbLine
 10
0.078125
 20
-2.796908399108449
 30
0.0
 11
0.078125
 21
-2.887119378669329
 31
0.0
  0
LINE
  5
102
330
EC
100
AcDbEntity
  8
AM_4
100
AcDbLine
 10
0.078125
 20
-2.887119378669329
 30
0.0
 11
0.0
 21
-2.932224868449768
 31
0.0
  0
LINE
  5
103
330
EC
100
AcDbEntity
  8
AM_4
100
AcDbLine
 10
0.0
 20
-2.932224868449768
 30
0.0
 11
-0.078125
 21
-2.887119378669329
 31
0.0
  0
LINE
  5
104
330
EC
100
AcDbEntity
  8
AM_4
100
AcDbLine
 10
-0.078125
 20
-2.887119378669329
 30
0.0
 11
-0.078125
 21
-2.796908399108449
 31
0.0
  0
LINE
  5
105
330
EC
100
AcDbEntity
  8
AM_4
100
AcDbLine
 10
-0.078125
 20
-2.796908399108449
 30
0.0
 11
0.0
 21
-2.75180290932801
 31
0.0
  0
CIRCLE
  5
106
330
EC
100
AcDbEntity
  8
AM_4
100
AcDbCircle
 10
0.0
 20
-2.842013888888889
 30
0.0
 40
0.1175
  0
LINE
  5
107
330
EC
100
AcDbEntity
  8
AM_4
100
AcDbLine
 10
0.0
 20
-2.75180290932801
 30
0.0
 11
0.078125
 21
-2.796908399108449
 31
0.0
  0
ARC
  5
108
330
EC
100
AcDbEntity
  8
AM_5
100
AcDbCircle
 10
0.0
 20
-2.842013888888889
 30
0.0
 40
0.09525
100
AcDbArc
 50
345.0
 51
285.0
  0
CIRCLE
  5
109
330
EC
100
AcDbEntity
  8
AM_4
100
AcDbCircle
 10
0.0
 20
-2.842013888888889
 30
0.0
 40
0.2185000000000001
  0
CIRCLE
  5
10A
330
EC
100
AcDbEntity
  8
AM_5
100
AcDbCircle
 10
0.0000000000000005
 20
-2.842013888888889
 30
0.0
 40
0.1063999999999998
  0
ENDBLK
  5
EF
330
EC
100
AcDbEntity
  8
0
100
AcDbBlockEnd
  0
BLOCK
  5
10D
330
10B
100
AcDbEntity
  8
0
100
AcDbBlockBegin
  2
4_ASME_B18_3_1_4_2_0_in_069929_0
 70
     2
 10
0.0
 20
0.0
 30
0.0
  3
4_ASME_B18_3_1_4_2_0_in_069929_0
  1

  0
ATTDEF
  5
10F
330
10B
100
AcDbEntity
  8
AM_6
100
AcDbText
 10
5.229425
 20
3.060513888888889
 30
0.0
 40
0.5
  1
ANSI/ASME B18.3-1998
100
AcDbAttributeDefinition
  3

  2
NN
 70
     8
280
     0
  0
ATTDEF
  5
110
330
10B
100
AcDbEntity
  8
AM_6
100
AcDbText
 10
5.229425
 20
2.560513888888889
 30
0.0
 40
0.5
  1
Socket Button Head Cap Screws
100
AcDbAttributeDefinition
  3

  2
NT
 70
     8
280
     0
  0
ATTDEF
  5
111
330
10B
100
AcDbEntity
  8
AM_6
100
AcDbText
 10
5.229425
 20
2.060513888888889
 30
0.0
 40
0.5
  1
ASME B18.3-1/4
100
AcDbAttributeDefinition
  3

  2
NB
 70
     8
280
     0
  0
ATTDEF
  5
112
330
10B
100
AcDbEntity
  8
AM_6
100
AcDbText
 10
5.229425
 20
1.560513888888889
 30
0.0
 40
0.5
  1
ASME B18.3-$NS.
100
AcDbAttributeDefinition
  3

  2
NBSYN
 70
     8
280
     0
  0
ATTDEF
  5
113
330
10B
100
AcDbEntity
  8
AM_6
100
AcDbText
 10
5.229425
 20
1.060513888888889
 30
0.0
 40
0.5
  1
ASME B18.3-1/4
100
AcDbAttributeDefinition
  3

  2
LINA
 70
     8
280
     0
  0
ATTDEF
  5
114
330
10B
100
AcDbEntity
  8
AM_6
100
AcDbText
 10
5.229425
 20
0.5605138888888894
 30
0.0
 40
0.5
  1
1/4
100
AcDbAttributeDefinition
  3

  2
NS
 70
     8
280
     0
  0
ATTDEF
  5
115
330
10B
100
AcDbEntity
  8
AM_6
100
AcDbText
 10
5.229425
 20
0.0605138888888894
 30
0.0
 40
0.5
  1
0.437
100
AcDbAttributeDefinition
  3

  2
A
 70
     8
280
     0
  0
ATTDEF
  5
116
330
10B
100
AcDbEntity
  8
AM_6
100
AcDbText
 10
5.229425
 20
-0.4394861111111106
 30
0.0
 40
0.5
  1
0.132
100
AcDbAttributeDefinition
  3

  2
H
 70
     8
280
     0
  0
ATTDEF
  5
117
330
10B
100
AcDbEntity
  8
AM_6
100
AcDbText
 10
5.229425
 20
-0.9394861111111106
 30
0.0
 40
0.5
  1
0.800
100
AcDbAttributeDefinition
  3

  2
L
 70
     8
280
     0
  0
ATTDEF
  5
118
330
10B
100
AcDbEntity
  8
AM_6
100
AcDbText
 10
5.229425
 20
-1.439486111111111
 30
0.0
 40
0.5
  1
0.031
100
AcDbAttributeDefinition
  3

  2
S
 70
     8
280
     0
  0
ATTDEF
  5
119
330
10B
100
AcDbEntity
  8
AM_6
100
AcDbText
 10
5.229425
 20
-1.939486111111111
 30
0.0
 40
0.5
  1
0.156250
100
AcDbAttributeDefinition
  3

  2
J
 70
     8
280
     0
  0
ATTDEF
  5
11A
330
10B
100
AcDbEntity
  8
AM_6
100
AcDbText
 10
5.229425
 20
-2.439486111111111
 30
0.0
 40
0.5
  1
baldor
100
AcDbAttributeDefinition
  3

  2
COMPANY
 70
     8
280
     0
  0
ARC
  5
11B
330
10B
100
AcDbEntity
  8
AM_5
100
AcDbCircle
 10
0.0
 20
2.842013888888889
 30
0.0
 40
0.0952500000000001
100
AcDbArc
 50
75.00000000000001
 51
15.00000000000004
  0
LINE
  5
11C
330
10B
100
AcDbEntity
  8
AM_7
100
AcDbLine
 10
-0.2294250000000002
 20
2.842013888888889
 30
0.0
 11
0.2294250000000002
 21
2.842013888888889
 31
0.0
  0
LINE
  5
11D
330
10B
100
AcDbEntity
  8
AM_4
100
AcDbLine
 10
0.0
 20
2.75180290932801
 30
0.0
 11
-0.078125
 21
2.796908399108449
 31
0.0
  0
CIRCLE
  5
11E
330
10B
100
AcDbEntity
  8
AM_4
100
AcDbCircle
 10
0.0
 20
2.842013888888889
 30
0.0
 40
0.1175
  0
LINE
  5
11F
330
10B
100
AcDbEntity
  8
AM_4
100
AcDbLine
 10
-0.078125
 20
2.796908399108449
 30
0.0
 11
-0.078125
 21
2.887119378669329
 31
0.0
  0
LINE
  5
120
330
10B
100
AcDbEntity
  8
AM_4
100
AcDbLine
 10
-0.078125
 20
2.887119378669329
 30
0.0
 11
0.0
 21
2.932224868449768
 31
0.0
  0
LINE
  5
121
330
10B
100
AcDbEntity
  8
AM_4
100
AcDbLine
 10
0.0
 20
2.932224868449768
 30
0.0
 11
0.078125
 21
2.887119378669329
 31
0.0
  0
LINE
  5
122
330
10B
100
AcDbEntity
  8
AM_4
100
AcDbLine
 10
0.078125
 20
2.887119378669329
 30
0.0
 11
0.078125
 21
2.796908399108449
 31
0.0
  0
LINE
  5
123
330
10B
100
AcDbEntity
  8
AM_4
100
AcDbLine
 10
0.078125
 20
2.796908399108449
 30
0.0
 11
0.0
 21
2.75180290932801
 31
0.0
  0
ARC
  5
124
330
10B
100
AcDbEntity
  8
AM_5
100
AcDbCircle
 10
0.0
 20
2.842013888888889
 30
0.0
 40
0.09525
100
AcDbArc
 50
345.0
 51
285.0
  0
CIRCLE
  5
125
330
10B
100
AcDbEntity
  8
AM_4
100
AcDbCircle
 10
0.0
 20
2.842013888888889
 30
0.0
 40
0.2185000000000001
  0
CIRCLE
  5
126
330
10B
100
AcDbEntity
  8
AM_5
100
AcDbCircle
 10
0.0000000000000005
 20
2.842013888888888
 30
0.0
 40
0.1063999999999998
  0
ENDBLK
  5
10E
330
10B
100
AcDbEntity
  8
0
100
AcDbBlockEnd
  0
BLOCK
  5
129
330
127
100
AcDbEntity
  8
0
100
AcDbBlockBegin
  2
5_070908LW_0_in_069929_0
 70
     2
 10
0.0
 20
0.0
 30
0.0
  3
5_070908LW_0_in_069929_0
  1

  0
ATTDEF
  5
12B
330
127
100
AcDbEntity
  8
AM_6
100
AcDbText
 10
8.21875
 20
3.21875
 30
0.0
 40
0.5
  1
Imperial Insert Lockwasher -Inch
100
AcDbAttributeDefinition
  3

  2
NN
 70
     8
280
     0
  0
ATTDEF
  5
12C
330
127
100
AcDbEntity
  8
AM_6
100
AcDbText
 10
8.21875
 20
2.71875
 30
0.0
 40
0.5
  1
Imperial Bearings
100
AcDbAttributeDefinition
  3

  2
NT
 70
     8
280
     0
  0
ATTDEF
  5
12D
330
127
100
AcDbEntity
  8
AM_6
100
AcDbText
 10
8.21875
 20
2.21875
 30
0.0
 40
0.5
  1
070908LW
100
AcDbAttributeDefinition
  3

  2
NB
 70
     8
280
     0
  0
ATTDEF
  5
12E
330
127
100
AcDbEntity
  8
AM_6
100
AcDbText
 10
8.21875
 20
1.71875
 30
0.0
 40
0.5
  1
$PN.LW
100
AcDbAttributeDefinition
  3

  2
NBSYN
 70
     8
280
     0
  0
ATTDEF
  5
12F
330
127
100
AcDbEntity
  8
AM_6
100
AcDbText
 10
8.21875
 20
1.21875
 30
0.0
 40
0.5
  1
070908
100
AcDbAttributeDefinition
  3

  2
LINA
 70
     8
280
     0
  0
ATTDEF
  5
130
330
127
100
AcDbEntity
  8
AM_6
100
AcDbText
 10
8.21875
 20
0.71875
 30
0.0
 40
0.5
  1
4-7/16
100
AcDbAttributeDefinition
  3

  2
SS
 70
     8
280
     0
  0
ATTDEF
  5
131
330
127
100
AcDbEntity
  8
AM_6
100
AcDbText
 10
8.21875
 20
0.21875
 30
0.0
 40
0.5
  1
4.437500
100
AcDbAttributeDefinition
  3

  2
SS1
 70
     8
280
     0
  0
ATTDEF
  5
132
330
127
100
AcDbEntity
  8
AM_6
100
AcDbText
 10
8.21875
 20
-0.28125
 30
0.0
 40
0.5
  1
070908
100
AcDbAttributeDefinition
  3

  2
PN
 70
     8
280
     0
  0
ATTDEF
  5
133
330
127
100
AcDbEntity
  8
AM_6
100
AcDbText
 10
8.21875
 20
-0.78125
 30
0.0
 40
0.5
  1
INS-IP-407R
100
AcDbAttributeDefinition
  3

  2
DESCRIPTION
 70
     8
280
     0
  0
ATTDEF
  5
134
330
127
100
AcDbEntity
  8
AM_6
100
AcDbText
 10
8.21875
 20
-1.28125
 30
0.0
 40
0.5
  1
7.8740
100
AcDbAttributeDefinition
  3

  2
A
 70
     8
280
     0
  0
ATTDEF
  5
135
330
127
100
AcDbEntity
  8
AM_6
100
AcDbText
 10
8.21875
 20
-1.78125
 30
0.0
 40
0.5
  1
2-5/32
100
AcDbAttributeDefinition
  3

  2
B
 70
     8
280
     0
  0
ATTDEF
  5
136
330
127
100
AcDbEntity
  8
AM_6
100
AcDbText
 10
8.21875
 20
-2.28125
 30
0.0
 40
0.5
  1
5-15/64
100
AcDbAttributeDefinition
  3

  2
C
 70
     8
280
     0
  0
ATTDEF
  5
137
330
127
100
AcDbEntity
  8
AM_6
100
AcDbText
 10
8.21875
 20
-2.78125
 30
0.0
 40
0.5
  1
1.935
100
AcDbAttributeDefinition
  3

  2
D
 70
     8
280
     0
  0
ATTDEF
  5
138
330
127
100
AcDbEntity
  8
AM_6
100
AcDbText
 10
8.21875
 20
-3.28125
 30
0.0
 40
0.5
  1
6-7/16
100
AcDbAttributeDefinition
  3

  2
E
 70
     8
280
     0
  0
ATTDEF
  5
139
330
127
100
AcDbEntity
  8
AM_6
100
AcDbText
 10
8.21875
 20
-3.78125
 30
0.0
 40
0.5
  1
0.2500
100
AcDbAttributeDefinition
  3

  2
NDM
 70
     8
280
     0
  0
ATTDEF
  5
13A
330
127
100
AcDbEntity
  8
AM_6
100
AcDbText
 10
8.21875
 20
-4.28125
 30
0.0
 40
0.5
  1
0.1960
100
AcDbAttributeDefinition
  3

  2
KDM
 70
     8
280
     0
  0
ATTDEF
  5
13B
330
127
100
AcDbEntity
  8
AM_6
100
AcDbText
 10
8.21875
 20
-4.78125
 30
0.0
 40
0.5
  1
5.60
100
AcDbAttributeDefinition
  3

  2
AL
 70
     8
280
     0
  0
ATTDEF
  5
13C
330
127
100
AcDbEntity
  8
AM_6
100
AcDbText
 10
8.21875
 20
-5.28125
 30
0.0
 40
0.5
  1
0.50
100
AcDbAttributeDefinition
  3

  2
BL
 70
     8
280
     0
  0
ATTDEF
  5
13D
330
127
100
AcDbEntity
  8
AM_6
100
AcDbText
 10
8.21875
 20
-5.78125
 30
0.0
 40
0.5
  1
0.07
100
AcDbAttributeDefinition
  3

  2
CL
 70
     8
280
     0
  0
ATTDEF
  5
13E
330
127
100
AcDbEntity
  8
AM_6
100
AcDbText
 10
8.21875
 20
-6.28125
 30
0.0
 40
0.5
  1
0.50
100
AcDbAttributeDefinition
  3

  2
DL
 70
     8
280
     0
  0
ATTDEF
  5
13F
330
127
100
AcDbEntity
  8
AM_6
100
AcDbText
 10
8.21875
 20
-6.78125
 30
0.0
 40
0.5
  1
baldor
100
AcDbAttributeDefinition
  3

  2
COMPANY
 70
     8
280
     0
  0
ARC
  5
140
330
127
100
AcDbEntity
  8
AM_9
100
AcDbCircle
 10
0.0000000000000421
 20
-0.0000000000000959
 30
0.0
 40
2.335526315789579
100
AcDbArc
 50
109.4319994110539
 51
115.5680005889463
  0
LINE
  5
141
330
127
100
AcDbEntity
  8
AM_9
100
AcDbLine
 10
0.1249999999999996
 20
2.842013888888888
 30
0.0
 11
0.1249999999999999
 21
2.662801026627275
 31
0.0
  0
LINE
  5
142
330
127
100
AcDbEntity
  8
AM_9
100
AcDbLine
 10
0.1250000000000015
 20
-2.662801026627276
 30
0.0
 11
0.1250000000000015
 21
-2.842013888888888
 31
0.0
  0
ARC
  5
143
330
127
100
AcDbEntity
  8
AM_9
100
AcDbCircle
 10
0.0000000000000013
 20
-2.84476415059601
 30
0.0
 40
0.1250302520970733
100
AcDbArc
 50
178.739576253825
 51
1.26042374617503
  0
LINE
  5
144
330
127
100
AcDbEntity
  8
AM_9
100
AcDbLine
 10
-0.1249999999999988
 20
-2.842013888888888
 30
0.0
 11
-0.1249999999999986
 21
-2.662801026627274
 31
0.0
  0
LINE
  5
145
330
127
100
AcDbEntity
  8
AM_9
100
AcDbLine
 10
-0.1250000000000001
 20
2.662801026627275
 30
0.0
 11
-0.1249999999999999
 21
2.842013888888888
 31
0.0
  0
LINE
  5
146
330
127
100
AcDbEntity
  8
AM_7
100
AcDbLine
 10
-2.140878685777615
 20
2.009628681934749
 30
0.0
 11
-1.878378678091884
 21
2.009628681934749
 31
0.0
  0
LINE
  5
147
330
127
100
AcDbEntity
  8
AM_7
100
AcDbLine
 10
-2.009628681934749
 20
1.878378678091884
 30
0.0
 11
-2.009628681934749
 21
2.140878685777615
 31
0.0
  0
LINE
  5
148
330
127
100
AcDbEntity
  8
AM_7
100
AcDbLine
 10
1.878378678091885
 20
-2.009628681934749
 30
0.0
 11
2.140878685777615
 21
-2.009628681934749
 31
0.0
  0
LINE
  5
149
330
127
100
AcDbEntity
  8
AM_7
100
AcDbLine
 10
2.00962868193475
 20
-2.140878685777614
 30
0.0
 11
2.00962868193475
 21
-1.878378678091883
 31
0.0
  0
LINE
  5
14A
330
127
100
AcDbEntity
  8
AM_7
100
AcDbLine
 10
-2.140878685777614
 20
-2.009628681934751
 30
0.0
 11
-1.878378678091884
 21
-2.009628681934751
 31
0.0
  0
LINE
  5
14B
330
127
100
AcDbEntity
  8
AM_7
100
AcDbLine
 10
-2.009628681934749
 20
-2.140878685777616
 30
0.0
 11
-2.009628681934749
 21
-1.878378678091886
 31
0.0
  0
LINE
  5
14C
330
127
100
AcDbEntity
  8
AM_7
100
AcDbLine
 10
1.878378678091885
 20
2.00962868193475
 30
0.0
 11
2.140878685777615
 21
2.00962868193475
 31
0.0
  0
LINE
  5
14D
330
127
100
AcDbEntity
  8
AM_7
100
AcDbLine
 10
2.00962868193475
 20
1.878378678091885
 30
0.0
 11
2.00962868193475
 21
2.140878685777615
 31
0.0
  0
LINE
  5
14E
330
127
100
AcDbEntity
  8
AM_7
100
AcDbLine
 10
-0.1312817647019255
 20
-2.84476415059601
 30
0.0
 11
0.1312817647019282
 21
-2.84476415059601
 31
0.0
  0
LINE
  5
14F
330
127
100
AcDbEntity
  8
AM_4
100
AcDbLine
 10
-1.032160775973983
 20
2.165215802686831
 30
0.0
 11
-1.007971147405786
 21
2.106816873328724
 31
0.0
  0
LINE
  5
150
330
127
100
AcDbEntity
  8
AM_4
100
AcDbLine
 10
2.395389392074697
 20
0.1250000000000012
 30
0.0
 11
2.842013888888888
 21
0.125000000000001
 31
0.0
  0
ARC
  5
151
330
127
100
AcDbEntity
  8
AM_4
100
AcDbCircle
 10
0.0000000000000013
 20
0.0000000000000013
 30
0.0
 40
2.39864864864865
100
AcDbArc
 50
182.9871895061667
 51
222.0128104938333
  0
CIRCLE
  5
152
330
127
100
AcDbEntity
  8
AM_4
100
AcDbCircle
 10
0.0
 20
0.0
 30
0.0
 40
3.21875
  0
LINE
  5
153
330
127
100
AcDbEntity
  8
AM_4
100
AcDbLine
 10
0.1249999999999999
 20
2.662801026627275
 30
0.0
 11
0.1249999999999998
 21
2.395389392074697
 31
0.0
  0
LINE
  5
154
330
127
100
AcDbEntity
  8
AM_4
100
AcDbLine
 10
-0.777001264277964
 20
2.202487731419996
 30
0.0
 11
-0.8011908928461605
 21
2.260886660778103
 31
0.0
  0
ARC
  5
155
330
127
100
AcDbEntity
  8
AM_4
100
AcDbCircle
 10
2.839263627181768
 20
0.0000000000000009
 30
0.0
 40
0.1250302520970734
100
AcDbArc
 50
271.2604237461743
 51
88.73957625382572
  0
ARC
  5
156
330
127
100
AcDbEntity
  8
AM_4
100
AcDbCircle
 10
0.0000000000000068
 20
-0.0000000000000364
 30
0.0
 40
2.398648648648686
100
AcDbArc
 50
92.98718950616686
 51
109.5128104938331
  0
LINE
  5
157
330
127
100
AcDbEntity
  8
AM_4
100
AcDbLine
 10
1.605407735070016
 20
1.782184430366664
 30
0.0
 11
1.921218945411365
 21
2.097995640708003
 31
0.0
  0
ARC
  5
158
330
127
100
AcDbEntity
  8
AM_4
100
AcDbCircle
 10
2.009628681934749
 20
2.00962868193475
 30
0.0
 40
0.125000003659872
100
AcDbArc
 50
314.9861351379627
 51
135.0138648620374
  0
LINE
  5
159
330
127
100
AcDbEntity
  8
AM_4
100
AcDbLine
 10
2.097995640708002
 20
1.921218945411366
 30
0.0
 11
1.782184430366658
 21
1.605407735070022
 31
0.0
  0
ARC
  5
15A
330
127
100
AcDbEntity
  8
AM_4
100
AcDbCircle
 10
-0.0000000000000031
 20
-0.0000000000000017
 30
0.0
 40
2.398648648648652
100
AcDbArc
 50
2.987189506166809
 51
42.01281049383325
  0
LINE
  5
15B
330
127
100
AcDbEntity
  8
AM_4
100
AcDbLine
 10
2.842013888888888
 20
-0.1249999999999993
 30
0.0
 11
2.395389392074698
 21
-0.1249999999999989
 31
0.0
  0
ARC
  5
15C
330
127
100
AcDbEntity
  8
AM_4
100
AcDbCircle
 10
-0.0000000000000018
 20
0.000000000000002
 30
0.0
 40
2.398648648648651
100
AcDbArc
 50
317.9871895061668
 51
357.0128104938332
  0
LINE
  5
15D
330
127
100
AcDbEntity
  8
AM_4
100
AcDbLine
 10
1.78218443036666
 20
-1.60540773507002
 30
0.0
 11
2.097995640708003
 21
-1.921218945411365
 31
0.0
  0
ARC
  5
15E
330
127
100
AcDbEntity
  8
AM_4
100
AcDbCircle
 10
2.00962868193475
 20
-2.009628681934749
 30
0.0
 40
0.1250000036598717
100
AcDbArc
 50
224.986135137955
 51
45.0138648620375
  0
LINE
  5
15F
330
127
100
AcDbEntity
  8
AM_4
100
AcDbLine
 10
1.921218945411355
 20
-2.09799564070799
 30
0.0
 11
1.605407735070022
 21
-1.782184430366658
 31
0.0
  0
ARC
  5
160
330
127
100
AcDbEntity
  8
AM_4
100
AcDbCircle
 10
-0.0000000000000011
 20
0.0000000000000013
 30
0.0
 40
2.39864864864865
100
AcDbArc
 50
272.9871895061668
 51
312.0128104938333
  0
LINE
  5
161
330
127
100
AcDbEntity
  8
AM_4
100
AcDbLine
 10
0.1250000000000025
 20
-2.395389392074697
 30
0.0
 11
0.1250000000000015
 21
-2.662801026627276
 31
0.0
  0
LINE
  5
162
330
127
100
AcDbEntity
  8
AM_4
100
AcDbLine
 10
-0.1249999999999986
 20
-2.662801026627274
 30
0.0
 11
-0.1249999999999987
 21
-2.395389392074697
 31
0.0
  0
ARC
  5
163
330
127
100
AcDbEntity
  8
AM_4
100
AcDbCircle
 10
-0.0000000000000016
 20
-0.0000000000000044
 30
0.0
 40
2.398648648648644
100
AcDbArc
 50
227.9871895061669
 51
267.0128104938333
  0
LINE
  5
164
330
127
100
AcDbEntity
  8
AM_4
100
AcDbLine
 10
-1.605407735070016
 20
-1.782184430366663
 30
0.0
 11
-1.921218945411364
 21
-2.097995640708004
 31
0.0
  0
ARC
  5
165
330
127
100
AcDbEntity
  8
AM_4
100
AcDbCircle
 10
-2.009628681934748
 20
-2.009628681934751
 30
0.0
 40
0.125000003659872
100
AcDbArc
 50
134.9861351379627
 51
315.0138648620373
  0
LINE
  5
166
330
127
100
AcDbEntity
  8
AM_4
100
AcDbLine
 10
-2.097995640708001
 20
-1.921218945411367
 30
0.0
 11
-1.782184430366657
 21
-1.605407735070022
 31
0.0
  0
LINE
  5
167
330
127
100
AcDbEntity
  8
AM_4
100
AcDbLine
 10
-2.395389392074697
 20
-0.1250000000000015
 30
0.0
 11
-2.842013888888888
 21
-0.1250000000000021
 31
0.0
  0
ARC
  5
168
330
127
100
AcDbEntity
  8
AM_4
100
AcDbCircle
 10
-2.839263627181767
 20
-0.0000000000000019
 30
0.0
 40
0.1250302520970733
100
AcDbArc
 50
91.2604237461749
 51
268.7395762538251
  0
LINE
  5
169
330
127
100
AcDbEntity
  8
AM_4
100
AcDbLine
 10
-2.842013888888888
 20
0.1249999999999983
 30
0.0
 11
-2.395389392074697
 21
0.1249999999999985
 31
0.0
  0
ARC
  5
16A
330
127
100
AcDbEntity
  8
AM_4
100
AcDbCircle
 10
0.000000000000008
 20
-0.0000000000000033
 30
0.0
 40
2.398648648648657
100
AcDbArc
 50
137.9871895061668
 51
177.0128104938332
  0
LINE
  5
16B
330
127
100
AcDbEntity
  8
AM_4
100
AcDbLine
 10
-1.782184430366659
 20
1.605407735070021
 30
0.0
 11
-2.097995640708003
 21
1.921218945411366
 31
0.0
  0
ARC
  5
16C
330
127
100
AcDbEntity
  8
AM_4
100
AcDbCircle
 10
-2.00962868193475
 20
2.009628681934749
 30
0.0
 40
0.1250000036598722
100
AcDbArc
 50
44.98613513792925
 51
225.0138648620369
  0
LINE
  5
16D
330
127
100
AcDbEntity
  8
AM_4
100
AcDbLine
 10
-1.921218945411314
 20
2.097995640707951
 30
0.0
 11
-1.605407735070022
 21
1.782184430366658
 31
0.0
  0
ARC
  5
16E
330
127
100
AcDbEntity
  8
AM_4
100
AcDbCircle
 10
0.0000000000000129
 20
-0.0000000000000133
 30
0.0
 40
2.398648648648667
100
AcDbArc
 50
115.4871895061669
 51
132.0128104938333
  0
ARC
  5
16F
330
127
100
AcDbEntity
  8
AM_4
100
AcDbCircle
 10
0.0000000000001338
 20
-0.0000000000003282
 30
0.0
 40
2.218750000000354
100
AcDbArc
 50
109.2703587549945
 51
115.7296412450054
  0
LINE
  5
170
330
127
100
AcDbEntity
  8
AM_4
100
AcDbLine
 10
-0.125
 20
2.395389392074697
 30
0.0
 11
-0.1250000000000001
 21
2.662801026627275
 31
0.0
  0
ARC
  5
171
330
127
100
AcDbEntity
  8
AM_4
100
AcDbCircle
 10
-0.0000000000000029
 20
-0.0000000000000073
 30
0.0
 40
2.398648648648656
100
AcDbArc
 50
47.98718950616701
 51
87.0128104938332
  0
ENDBLK
  5
12A
330
127
100
AcDbEntity
  8
0
100
AcDbBlockEnd
  0
BLOCK
  5
174
330
172
100
AcDbEntity
  8
0
100
AcDbBlockBegin
  2
6_070940I_0_in_069929_0
 70
     2
 10
0.0
 20
0.0
 30
0.0
  3
6_070940I_0_in_069929_0
  1

  0
ATTDEF
  5
176
330
172
100
AcDbEntity
  8
AM_6
100
AcDbText
 10
8.886999999999997
 20
3.886999999999998
 30
0.0
 40
0.5
  1
Imperial Insert -Inch
100
AcDbAttributeDefinition
  3

  2
NN
 70
     8
280
     0
  0
ATTDEF
  5
177
330
172
100
AcDbEntity
  8
AM_6
100
AcDbText
 10
8.886999999999997
 20
3.386999999999998
 30
0.0
 40
0.5
  1
Imperial Bearings
100
AcDbAttributeDefinition
  3

  2
NT
 70
     8
280
     0
  0
ATTDEF
  5
178
330
172
100
AcDbEntity
  8
AM_6
100
AcDbText
 10
8.886999999999997
 20
2.886999999999998
 30
0.0
 40
0.5
  1
070940I
100
AcDbAttributeDefinition
  3

  2
NB
 70
     8
280
     0
  0
ATTDEF
  5
179
330
172
100
AcDbEntity
  8
AM_6
100
AcDbText
 10
8.886999999999997
 20
2.386999999999998
 30
0.0
 40
0.5
  1
$PN.I
100
AcDbAttributeDefinition
  3

  2
NBSYN
 70
     8
280
     0
  0
ATTDEF
  5
17A
330
172
100
AcDbEntity
  8
AM_6
100
AcDbText
 10
8.886999999999997
 20
1.886999999999998
 30
0.0
 40
0.5
  1
070940
100
AcDbAttributeDefinition
  3

  2
LINA
 70
     8
280
     0
  0
ATTDEF
  5
17B
330
172
100
AcDbEntity
  8
AM_6
100
AcDbText
 10
8.886999999999997
 20
1.386999999999998
 30
0.0
 40
0.5
  1
4-7/16
100
AcDbAttributeDefinition
  3

  2
SS
 70
     8
280
     0
  0
ATTDEF
  5
17C
330
172
100
AcDbEntity
  8
AM_6
100
AcDbText
 10
8.886999999999997
 20
0.8869999999999978
 30
0.0
 40
0.5
  1
4.437500
100
AcDbAttributeDefinition
  3

  2
SS1
 70
     8
280
     0
  0
ATTDEF
  5
17D
330
172
100
AcDbEntity
  8
AM_6
100
AcDbText
 10
8.886999999999997
 20
0.3869999999999978
 30
0.0
 40
0.5
  1
070940
100
AcDbAttributeDefinition
  3

  2
PN
 70
     8
280
     0
  0
ATTDEF
  5
17E
330
172
100
AcDbEntity
  8
AM_6
100
AcDbText
 10
8.886999999999997
 20
-0.1130000000000022
 30
0.0
 40
0.5
  1
INS-IP-407L
100
AcDbAttributeDefinition
  3

  2
DESCRIPTION
 70
     8
280
     0
  0
ATTDEF
  5
17F
330
172
100
AcDbEntity
  8
AM_6
100
AcDbText
 10
8.886999999999997
 20
-0.6130000000000022
 30
0.0
 40
0.5
  1
Labyrinth Seal
100
AcDbAttributeDefinition
  3

  2
ST
 70
     8
280
     0
  0
ATTDEF
  5
180
330
172
100
AcDbEntity
  8
AM_6
100
AcDbText
 10
8.886999999999997
 20
-1.113000000000002
 30
0.0
 40
0.5
  1
7.8740
100
AcDbAttributeDefinition
  3

  2
A
 70
     8
280
     0
  0
ATTDEF
  5
181
330
172
100
AcDbEntity
  8
AM_6
100
AcDbText
 10
8.886999999999997
 20
-1.613000000000002
 30
0.0
 40
0.5
  1
2-5/32
100
AcDbAttributeDefinition
  3

  2
B
 70
     8
280
     0
  0
ATTDEF
  5
182
330
172
100
AcDbEntity
  8
AM_6
100
AcDbText
 10
8.886999999999997
 20
-2.113000000000002
 30
0.0
 40
0.5
  1
5-15/64
100
AcDbAttributeDefinition
  3

  2
C
 70
     8
280
     0
  0
ATTDEF
  5
183
330
172
100
AcDbEntity
  8
AM_6
100
AcDbText
 10
8.886999999999997
 20
-2.613000000000002
 30
0.0
 40
0.5
  1
1.935
100
AcDbAttributeDefinition
  3

  2
D
 70
     8
280
     0
  0
ATTDEF
  5
184
330
172
100
AcDbEntity
  8
AM_6
100
AcDbText
 10
8.886999999999997
 20
-3.113000000000002
 30
0.0
 40
0.5
  1
6-7/16
100
AcDbAttributeDefinition
  3

  2
E
 70
     8
280
     0
  0
ATTDEF
  5
185
330
172
100
AcDbEntity
  8
AM_6
100
AcDbText
 10
8.886999999999997
 20
-3.613000000000002
 30
0.0
 40
0.5
  1
0.2500
100
AcDbAttributeDefinition
  3

  2
NDM
 70
     8
280
     0
  0
ATTDEF
  5
186
330
172
100
AcDbEntity
  8
AM_6
100
AcDbText
 10
8.886999999999997
 20
-4.113000000000002
 30
0.0
 40
0.5
  1
0.132
100
AcDbAttributeDefinition
  3

  2
H
 70
     8
280
     0
  0
ATTDEF
  5
187
330
172
100
AcDbEntity
  8
AM_6
100
AcDbText
 10
8.886999999999997
 20
-4.613000000000002
 30
0.0
 40
0.5
  1
0.1960
100
AcDbAttributeDefinition
  3

  2
KDM
 70
     8
280
     0
  0
ATTDEF
  5
188
330
172
100
AcDbEntity
  8
AM_6
100
AcDbText
 10
8.886999999999997
 20
-5.113000000000002
 30
0.0
 40
0.5
  1
5.60
100
AcDbAttributeDefinition
  3

  2
AL
 70
     8
280
     0
  0
ATTDEF
  5
189
330
172
100
AcDbEntity
  8
AM_6
100
AcDbText
 10
8.886999999999997
 20
-5.613000000000002
 30
0.0
 40
0.5
  1
0.50
100
AcDbAttributeDefinition
  3

  2
BL
 70
     8
280
     0
  0
ATTDEF
  5
18A
330
172
100
AcDbEntity
  8
AM_6
100
AcDbText
 10
8.886999999999997
 20
-6.113000000000002
 30
0.0
 40
0.5
  1
0.07
100
AcDbAttributeDefinition
  3

  2
CL
 70
     8
280
     0
  0
ATTDEF
  5
18B
330
172
100
AcDbEntity
  8
AM_6
100
AcDbText
 10
8.886999999999997
 20
-6.613000000000002
 30
0.0
 40
0.5
  1
0.50
100
AcDbAttributeDefinition
  3

  2
DL
 70
     8
280
     0
  0
ATTDEF
  5
18C
330
172
100
AcDbEntity
  8
AM_6
100
AcDbText
 10
8.886999999999997
 20
-7.113000000000002
 30
0.0
 40
0.5
  1
0.8000
100
AcDbAttributeDefinition
  3

  2
LL
 70
     8
280
     0
  0
ATTDEF
  5
18D
330
172
100
AcDbEntity
  8
AM_6
100
AcDbText
 10
8.886999999999997
 20
-7.613000000000002
 30
0.0
 40
0.5
  1
0.036
100
AcDbAttributeDefinition
  3

  2
Y
 70
     8
280
     0
  0
ATTDEF
  5
18E
330
172
100
AcDbEntity
  8
AM_6
100
AcDbText
 10
8.886999999999997
 20
-8.113000000000003
 30
0.0
 40
0.5
  1
0.036000
100
AcDbAttributeDefinition
  3

  2
Y1
 70
     8
280
     0
  0
ATTDEF
  5
18F
330
172
100
AcDbEntity
  8
AM_6
100
AcDbText
 10
8.886999999999997
 20
-8.613000000000003
 30
0.0
 40
0.5
  1
5
100
AcDbAttributeDefinition
  3

  2
Z
 70
     8
280
     0
  0
ATTDEF
  5
190
330
172
100
AcDbEntity
  8
AM_6
100
AcDbText
 10
8.886999999999997
 20
-9.113000000000003
 30
0.0
 40
0.5
  1
5.000000
100
AcDbAttributeDefinition
  3

  2
Z1
 70
     8
280
     0
  0
ATTDEF
  5
191
330
172
100
AcDbEntity
  8
AM_6
100
AcDbText
 10
8.886999999999997
 20
-9.613000000000003
 30
0.0
 40
0.5
  1
baldor
100
AcDbAttributeDefinition
  3

  2
COMPANY
 70
     8
280
     0
  0
CIRCLE
  5
192
330
172
100
AcDbEntity
  8
AM_9
100
AcDbCircle
 10
0.0
 20
0.0
 30
0.0
 40
2.5
  0
CIRCLE
  5
193
330
172
100
AcDbEntity
  8
AM_9
100
AcDbCircle
 10
0.0
 20
0.0
 30
0.0
 40
2.713675213675213
  0
CIRCLE
  5
194
330
172
100
AcDbEntity
  8
AM_9
100
AcDbCircle
 10
0.0
 20
0.0
 30
0.0
 40
2.777777777777778
  0
CIRCLE
  5
195
330
172
100
AcDbEntity
  8
AM_9
100
AcDbCircle
 10
0.0
 20
0.0
 30
0.0
 40
3.430282670983127
  0
CIRCLE
  5
196
330
172
100
AcDbEntity
  8
AM_9
100
AcDbCircle
 10
0.0
 20
0.0
 30
0.0
 40
3.516885209871455
  0
CIRCLE
  5
197
330
172
100
AcDbEntity
  8
AM_9
100
AcDbCircle
 10
0.0
 20
0.0
 30
0.0
 40
3.737
  0
CIRCLE
  5
198
330
172
100
AcDbEntity
  8
AM_9
100
AcDbCircle
 10
0.0
 20
0.0
 30
0.0
 40
3.8291875
  0
CIRCLE
  5
199
330
172
100
AcDbEntity
  8
AM_9
100
AcDbCircle
 10
0.0
 20
-2.842013888888889
 30
0.0
 40
0.09795
  0
LINE
  5
19A
330
172
100
AcDbEntity
  8
AM_9
100
AcDbLine
 10
-1.891510639674013
 20
-2.068287334970653
 30
0.0
 11
-1.803122292025696
 21
-2.156675682618969
 31
0.0
  0
LINE
  5
19B
330
172
100
AcDbEntity
  8
AM_9
100
AcDbLine
 10
-2.15667568261897
 20
-1.803122292025696
 30
0.0
 11
-2.06828733497065
 21
-1.891510639674016
 31
0.0
  0
LINE
  5
19C
330
172
100
AcDbEntity
  8
AM_9
100
AcDbLine
 10
-2.093542913274651
 20
2.447096303867925
 30
0.0
 11
-1.803122292025696
 21
2.15667568261897
 31
0.0
  0
ARC
  5
19D
330
172
100
AcDbEntity
  8
AM_9
100
AcDbCircle
 10
0.0000000000000879
 20
-0.0000000000002154
 30
0.0
 40
2.341688654353795
100
AcDbArc
 50
109.4400807915806
 51
115.5599192084194
  0
LINE
  5
19E
330
172
100
AcDbEntity
  8
AM_9
100
AcDbLine
 10
2.093542913274651
 20
-2.447096303867925
 30
0.0
 11
1.803122292025696
 21
-2.15667568261897
 31
0.0
  0
LINE
  5
19F
330
172
100
AcDbEntity
  8
AM_9
100
AcDbLine
 10
2.447096303867925
 20
2.093542913274651
 30
0.0
 11
2.15667568261897
 21
1.803122292025696
 31
0.0
  0
LINE
  5
1A0
330
172
100
AcDbEntity
  8
AM_9
100
AcDbLine
 10
1.803122292025697
 20
2.156675682618969
 30
0.0
 11
2.093542913274652
 21
2.447096303867924
 31
0.0
  0
LINE
  5
1A1
330
172
100
AcDbEntity
  8
AM_9
100
AcDbLine
 10
1.891510639674014
 20
2.068287334970652
 30
0.0
 11
1.803122292025697
 21
2.156675682618969
 31
0.0
  0
LINE
  5
1A2
330
172
100
AcDbEntity
  8
AM_9
100
AcDbLine
 10
2.15667568261897
 20
1.803122292025696
 30
0.0
 11
2.068287334970651
 21
1.891510639674015
 31
0.0
  0
LINE
  5
1A3
330
172
100
AcDbEntity
  8
AM_9
100
AcDbLine
 10
-1.803122292025696
 20
-2.156675682618969
 30
0.0
 11
-2.093542913274652
 21
-2.447096303867925
 31
0.0
  0
LINE
  5
1A4
330
172
100
AcDbEntity
  8
AM_9
100
AcDbLine
 10
-2.068287334970652
 20
1.891510639674014
 30
0.0
 11
-2.156675682618969
 21
1.803122292025697
 31
0.0
  0
LINE
  5
1A5
330
172
100
AcDbEntity
  8
AM_9
100
AcDbLine
 10
-1.803122292025696
 20
2.15667568261897
 30
0.0
 11
-1.891510639674015
 21
2.068287334970651
 31
0.0
  0
LINE
  5
1A6
330
172
100
AcDbEntity
  8
AM_9
100
AcDbLine
 10
-2.447096303867925
 20
-2.093542913274651
 30
0.0
 11
-2.15667568261897
 21
-1.803122292025696
 31
0.0
  0
LINE
  5
1A7
330
172
100
AcDbEntity
  8
AM_9
100
AcDbLine
 10
-2.156675682618969
 20
1.803122292025697
 30
0.0
 11
-2.447096303867924
 21
2.093542913274652
 31
0.0
  0
LINE
  5
1A8
330
172
100
AcDbEntity
  8
AM_9
100
AcDbLine
 10
2.068287334970652
 20
-1.891510639674014
 30
0.0
 11
2.15667568261897
 21
-1.803122292025696
 31
0.0
  0
LINE
  5
1A9
330
172
100
AcDbEntity
  8
AM_9
100
AcDbLine
 10
1.803122292025696
 20
-2.15667568261897
 30
0.0
 11
1.891510639674015
 21
-2.068287334970651
 31
0.0
  0
LINE
  5
1AA
330
172
100
AcDbEntity
  8
AM_9
100
AcDbLine
 10
2.15667568261897
 20
-1.803122292025696
 30
0.0
 11
2.447096303867925
 21
-2.093542913274652
 31
0.0
  0
ARC
  5
1AB
330
172
100
AcDbEntity
  8
AM_9
100
AcDbCircle
 10
0.0000000000000044
 20
-0.0000000000000007
 30
0.0
 40
3.170465561259654
100
AcDbArc
 50
139.5226261242792
 51
220.4773738757207
  0
ARC
  5
1AC
330
172
100
AcDbEntity
  8
AM_9
100
AcDbCircle
 10
0.0000000000000004
 20
0.0000000000000013
 30
0.0
 40
3.17046556125965
100
AcDbArc
 50
229.5226261242792
 51
310.4773738757208
  0
CIRCLE
  5
1AD
330
172
100
AcDbEntity
  8
AM_9
100
AcDbCircle
 10
0.0
 20
2.842013888888889
 30
0.0
 40
0.09795
  0
ARC
  5
1AE
330
172
100
AcDbEntity
  8
AM_9
100
AcDbCircle
 10
-0.0000000000000031
 20
0.0000000000000011
 30
0.0
 40
3.170465561259652
100
AcDbArc
 50
319.5226261242792
 51
40.47737387572074
  0
ARC
  5
1AF
330
172
100
AcDbEntity
  8
AM_9
100
AcDbCircle
 10
0.0000000000000007
 20
-0.0000000000000018
 30
0.0
 40
3.170465561259651
100
AcDbArc
 50
49.52262612427924
 51
130.4773738757208
  0
ARC
  5
1B0
330
172
100
AcDbEntity
  8
AM_5
100
AcDbCircle
 10
0.0000000000000005
 20
2.842013888888889
 30
0.0
 40
0.1250000000000001
100
AcDbArc
 50
75.0000000000001
 51
14.99999999999997
  0
ARC
  5
1B1
330
172
100
AcDbEntity
  8
AM_5
100
AcDbCircle
 10
0.0000000000000003
 20
-2.842013888888889
 30
0.0
 40
0.1250000000000001
100
AcDbArc
 50
75.0000000000001
 51
14.99999999999994
  0
CIRCLE
  5
1B2
330
172
100
AcDbEntity
  8
AM_4
100
AcDbCircle
 10
0.0
 20
0.0
 30
0.0
 40
3.886999999999998
  0
LINE
  5
1B3
330
172
100
AcDbEntity
  8
AM_4
100
AcDbLine
 10
-2.104731320724461
 20
2.458284711317735
 30
0.0
 11
-2.093542913274651
 21
2.447096303867925
 31
0.0
  0
LINE
  5
1B4
330
172
100
AcDbEntity
  8
AM_4
100
AcDbLine
 10
2.104731320724462
 20
-2.458284711317735
 30
0.0
 11
2.093542913274651
 21
-2.447096303867925
 31
0.0
  0
LINE
  5
1B5
330
172
100
AcDbEntity
  8
AM_4
100
AcDbLine
 10
2.458284711317735
 20
2.104731320724462
 30
0.0
 11
2.447096303867925
 21
2.093542913274651
 31
0.0
  0
LINE
  5
1B6
330
172
100
AcDbEntity
  8
AM_4
100
AcDbLine
 10
2.093542913274652
 20
2.447096303867924
 30
0.0
 11
2.104731320724462
 21
2.458284711317735
 31
0.0
  0
LINE
  5
1B7
330
172
100
AcDbEntity
  8
AM_4
100
AcDbLine
 10
-2.093542913274652
 20
-2.447096303867925
 30
0.0
 11
-2.104731320724462
 21
-2.458284711317734
 31
0.0
  0
LINE
  5
1B8
330
172
100
AcDbEntity
  8
AM_4
100
AcDbLine
 10
-2.458284711317735
 20
-2.104731320724462
 30
0.0
 11
-2.447096303867925
 21
-2.093542913274651
 31
0.0
  0
LINE
  5
1B9
330
172
100
AcDbEntity
  8
AM_4
100
AcDbLine
 10
-2.447096303867924
 20
2.093542913274652
 30
0.0
 11
-2.458284711317734
 21
2.104731320724462
 31
0.0
  0
LINE
  5
1BA
330
172
100
AcDbEntity
  8
AM_4
100
AcDbLine
 10
2.447096303867925
 20
-2.093542913274652
 30
0.0
 11
2.458284711317734
 21
-2.104731320724462
 31
0.0
  0
CIRCLE
  5
1BB
330
172
100
AcDbEntity
  8
AM_4
100
AcDbCircle
 10
0.0
 20
0.0
 30
0.0
 40
3.282611357208038
  0
ARC
  5
1BC
330
172
100
AcDbEntity
  8
AM_4
100
AcDbCircle
 10
0.000000000000044
 20
-0.0000000000000502
 30
0.0
 40
3.236210384745811
100
AcDbArc
 50
310.5694382043781
 51
319.430561795622
  0
ARC
  5
1BD
330
172
100
AcDbEntity
  8
AM_4
100
AcDbCircle
 10
-0.0000000000000502
 20
-0.000000000000044
 30
0.0
 40
3.236210384745811
100
AcDbArc
 50
220.5694382043781
 51
229.430561795622
  0
ARC
  5
1BE
330
172
100
AcDbEntity
  8
AM_4
100
AcDbCircle
 10
-0.0000000000001927
 20
0.0000000000001994
 30
0.0
 40
3.2362103847456
100
AcDbArc
 50
130.5694382043778
 51
139.4305617956223
  0
ARC
  5
1BF
330
172
100
AcDbEntity
  8
AM_4
100
AcDbCircle
 10
-0.0000000000001412
 20
-0.0000000000001448
 30
0.0
 40
3.236210384746079
100
AcDbArc
 50
40.56943820437846
 51
49.43056179562164
  0
LINE
  5
1C0
330
172
100
AcDbEntity
  8
AM_4
100
AcDbLine
 10
-2.06828733497065
 20
-1.891510639674016
 30
0.0
 11
-1.891510639674013
 21
-2.068287334970653
 31
0.0
  0
LINE
  5
1C1
330
172
100
AcDbEntity
  8
AM_4
100
AcDbLine
 10
2.068287334970651
 20
1.891510639674015
 30
0.0
 11
1.891510639674014
 21
2.068287334970652
 31
0.0
  0
LINE
  5
1C2
330
172
100
AcDbEntity
  8
AM_4
100
AcDbLine
 10
-1.891510639674015
 20
2.068287334970651
 30
0.0
 11
-2.068287334970652
 21
1.891510639674014
 31
0.0
  0
LINE
  5
1C3
330
172
100
AcDbEntity
  8
AM_4
100
AcDbLine
 10
1.891510639674015
 20
-2.068287334970651
 30
0.0
 11
2.068287334970652
 21
-1.891510639674014
 31
0.0
  0
ARC
  5
1C4
330
172
100
AcDbEntity
  8
AM_4
100
AcDbCircle
 10
0.0
 20
0.0
 30
0.0
 40
3.220435102610604
100
AcDbArc
 50
139.4523085587547
 51
220.5476914412453
  0
ARC
  5
1C5
330
172
100
AcDbEntity
  8
AM_4
100
AcDbCircle
 10
-0.0000000000000002
 20
0.0000000000000004
 30
0.0
 40
3.220435102610605
100
AcDbArc
 50
229.4523085587547
 51
310.5476914412453
  0
ARC
  5
1C6
330
172
100
AcDbEntity
  8
AM_4
100
AcDbCircle
 10
-0.0000000000000004
 20
-0.0000000000000002
 30
0.0
 40
3.220435102610605
100
AcDbArc
 50
319.4523085587547
 51
40.54769144124526
  0
ARC
  5
1C7
330
172
100
AcDbEntity
  8
AM_4
100
AcDbCircle
 10
0.0
 20
-0.0000000000000009
 30
0.0
 40
3.220435102610605
100
AcDbArc
 50
49.45230855875472
 51
130.5476914412453
  0
LINE
  5
1C8
330
172
100
AcDbEntity
  8
AM_4
100
AcDbLine
 10
-1.007971147405786
 20
2.106816873328723
 30
0.0
 11
-0.9632152593352817
 21
1.998766601352861
 31
0.0
  0
ARC
  5
1C9
330
172
100
AcDbEntity
  8
AM_4
100
AcDbCircle
 10
-0.0000000000000011
 20
-0.0000000000000003
 30
0.0
 40
2.21875
100
AcDbArc
 50
115.729641245006
 51
109.2703587549939
  0
LINE
  5
1CA
330
172
100
AcDbEntity
  8
AM_4
100
AcDbLine
 10
-0.7322453762074598
 20
2.094437459444134
 30
0.0
 11
-0.7770012642779638
 21
2.202487731419996
 31
0.0
  0
ARC
  5
1CB
330
172
100
AcDbEntity
  8
AM_4
100
AcDbCircle
 10
-0.0000000000000048
 20
-0.0000000000000023
 30
0.0
 40
2.335526315789474
100
AcDbArc
 50
115.5680005889462
 51
109.4319994110535
  0
ARC
  5
1CC
330
172
100
AcDbEntity
  8
AM_5
100
AcDbCircle
 10
-0.0000000000000002
 20
2.842013888888889
 30
0.0
 40
0.1249999999999998
100
AcDbArc
 50
165.0000000000001
 51
104.9999999999999
  0
ARC
  5
1CD
330
172
100
AcDbEntity
  8
AM_5
100
AcDbCircle
 10
-0.0000000000000002
 20
-2.842013888888889
 30
0.0
 40
0.1249999999999998
100
AcDbArc
 50
165.0000000000001
 51
104.9999999999999
  0
ARC
  5
1CE
330
172
100
AcDbEntity
  8
AM_5
100
AcDbCircle
 10
0.0000000000000001
 20
2.842013888888889
 30
0.0
 40
0.1250000000000002
100
AcDbArc
 50
105.0
 51
14.99999999999992
  0
ARC
  5
1CF
330
172
100
AcDbEntity
  8
AM_5
100
AcDbCircle
 10
0.0000000000000001
 20
-2.842013888888889
 30
0.0
 40
0.1250000000000002
100
AcDbArc
 50
105.0
 51
14.99999999999992
  0
ENDBLK
  5
175
330
172
100
AcDbEntity
  8
0
100
AcDbBlockEnd
  0
BLOCK
  5
1D2
330
1D0
100
AcDbEntity
  8
0
100
AcDbBlockBegin
  2
7_069929H_0_in_069929_0
 70
     2
 10
0.0
 20
0.0
 30
0.0
  3
7_069929H_0_in_069929_0
  1

  0
ATTDEF
  5
1D4
330
1D0
100
AcDbEntity
  8
AM_6
100
AcDbText
 10
11.74999999999999
 20
6.749999999999995
 30
0.0
 40
0.5
  1
FC-IP -(Labyrinth Seal)-Housing -Inch
100
AcDbAttributeDefinition
  3

  2
NN
 70
     8
280
     0
  0
ATTDEF
  5
1D5
330
1D0
100
AcDbEntity
  8
AM_6
100
AcDbText
 10
11.74999999999999
 20
6.249999999999995
 30
0.0
 40
0.5
  1
Imperial Piloted Flange Bearings
100
AcDbAttributeDefinition
  3

  2
NT
 70
     8
280
     0
  0
ATTDEF
  5
1D6
330
1D0
100
AcDbEntity
  8
AM_6
100
AcDbText
 10
11.74999999999999
 20
5.749999999999995
 30
0.0
 40
0.5
  1
069929H
100
AcDbAttributeDefinition
  3

  2
NB
 70
     8
280
     0
  0
ATTDEF
  5
1D7
330
1D0
100
AcDbEntity
  8
AM_6
100
AcDbText
 10
11.74999999999999
 20
5.249999999999995
 30
0.0
 40
0.5
  1
$PN.H
100
AcDbAttributeDefinition
  3

  2
NBSYN
 70
     8
280
     0
  0
ATTDEF
  5
1D8
330
1D0
100
AcDbEntity
  8
AM_6
100
AcDbText
 10
11.74999999999999
 20
4.749999999999995
 30
0.0
 40
0.5
  1
069929
100
AcDbAttributeDefinition
  3

  2
LINA
 70
     8
280
     0
  0
ATTDEF
  5
1D9
330
1D0
100
AcDbEntity
  8
AM_6
100
AcDbText
 10
11.74999999999999
 20
4.249999999999995
 30
0.0
 40
0.5
  1
4-7/16
100
AcDbAttributeDefinition
  3

  2
SS
 70
     8
280
     0
  0
ATTDEF
  5
1DA
330
1D0
100
AcDbEntity
  8
AM_6
100
AcDbText
 10
11.74999999999999
 20
3.749999999999995
 30
0.0
 40
0.5
  1
069929
100
AcDbAttributeDefinition
  3

  2
PN
 70
     8
280
     0
  0
ATTDEF
  5
1DB
330
1D0
100
AcDbEntity
  8
AM_6
100
AcDbText
 10
11.74999999999999
 20
3.249999999999995
 30
0.0
 40
0.5
  1
FC-IP-407LE
100
AcDbAttributeDefinition
  3

  2
DESCRIPTION
 70
     8
280
     0
  0
ATTDEF
  5
1DC
330
1D0
100
AcDbEntity
  8
AM_6
100
AcDbText
 10
11.74999999999999
 20
2.749999999999995
 30
0.0
 40
0.5
  1
Expansion Type
100
AcDbAttributeDefinition
  3

  2
EF
 70
     8
280
     0
  0
ATTDEF
  5
1DD
330
1D0
100
AcDbEntity
  8
AM_6
100
AcDbText
 10
11.74999999999999
 20
2.249999999999995
 30
0.0
 40
0.5
  1
Labyrinth Seal
100
AcDbAttributeDefinition
  3

  2
ST
 70
     8
280
     0
  0
ATTDEF
  5
1DE
330
1D0
100
AcDbEntity
  8
AM_6
100
AcDbText
 10
11.74999999999999
 20
1.749999999999995
 30
0.0
 40
0.5
  1
5-15/64
100
AcDbAttributeDefinition
  3

  2
A
 70
     8
280
     0
  0
ATTDEF
  5
1DF
330
1D0
100
AcDbEntity
  8
AM_6
100
AcDbText
 10
11.74999999999999
 20
1.249999999999995
 30
0.0
 40
0.5
  1
13-1/2
100
AcDbAttributeDefinition
  3

  2
B
 70
     8
280
     0
  0
ATTDEF
  5
1E0
330
1D0
100
AcDbEntity
  8
AM_6
100
AcDbText
 10
11.74999999999999
 20
0.7499999999999947
 30
0.0
 40
0.5
  1
4
100
AcDbAttributeDefinition
  3

  2
C
 70
     8
280
     0
  0
ATTDEF
  5
1E1
330
1D0
100
AcDbEntity
  8
AM_6
100
AcDbText
 10
11.74999999999999
 20
0.2499999999999947
 30
0.0
 40
0.5
  1
8-5/16
100
AcDbAttributeDefinition
  3

  2
D
 70
     8
280
     0
  0
ATTDEF
  5
1E2
330
1D0
100
AcDbEntity
  8
AM_6
100
AcDbText
 10
11.74999999999999
 20
-0.2500000000000053
 30
0.0
 40
0.5
  1
11-3/4
100
AcDbAttributeDefinition
  3

  2
DD
 70
     8
280
     0
  0
ATTDEF
  5
1E3
330
1D0
100
AcDbEntity
  8
AM_6
100
AcDbText
 10
11.74999999999999
 20
-0.7500000000000053
 30
0.0
 40
0.5
  1
1-29/64
100
AcDbAttributeDefinition
  3

  2
E
 70
     8
280
     0
  0
ATTDEF
  5
1E4
330
1D0
100
AcDbEntity
  8
AM_6
100
AcDbText
 10
11.74999999999999
 20
-1.250000000000005
 30
0.0
 40
0.5
  1
3/4
100
AcDbAttributeDefinition
  3

  2
F
 70
     8
280
     0
  0
ATTDEF
  5
1E5
330
1D0
100
AcDbEntity
  8
AM_6
100
AcDbText
 10
11.74999999999999
 20
-1.750000000000005
 30
0.0
 40
0.5
  1
3-9/16
100
AcDbAttributeDefinition
  3

  2
G
 70
     8
280
     0
  0
ATTDEF
  5
1E6
330
1D0
100
AcDbEntity
  8
AM_6
100
AcDbText
 10
11.74999999999999
 20
-2.250000000000005
 30
0.0
 40
0.5
  1
1
100
AcDbAttributeDefinition
  3

  2
H
 70
     8
280
     0
  0
ATTDEF
  5
1E7
330
1D0
100
AcDbEntity
  8
AM_6
100
AcDbText
 10
11.74999999999999
 20
-2.750000000000005
 30
0.0
 40
0.5
  1
10.250
100
AcDbAttributeDefinition
  3

  2
K
 70
     8
280
     0
  0
ATTDEF
  5
1E8
330
1D0
100
AcDbEntity
  8
AM_6
100
AcDbText
 10
11.74999999999999
 20
-3.250000000000005
 30
0.0
 40
0.5
  1
6-7/16
100
AcDbAttributeDefinition
  3

  2
L
 70
     8
280
     0
  0
ATTDEF
  5
1E9
330
1D0
100
AcDbEntity
  8
AM_6
100
AcDbText
 10
11.74999999999999
 20
-3.750000000000005
 30
0.0
 40
0.5
  1
3/4-10
100
AcDbAttributeDefinition
  3

  2
M
 70
     8
280
     0
  0
ATTDEF
  5
1EA
330
1D0
100
AcDbEntity
  8
AM_6
100
AcDbText
 10
11.74999999999999
 20
-4.250000000000005
 30
0.0
 40
0.5
  1
5-35/64
100
AcDbAttributeDefinition
  3

  2
N
 70
     8
280
     0
  0
ATTDEF
  5
1EB
330
1D0
100
AcDbEntity
  8
AM_6
100
AcDbText
 10
11.74999999999999
 20
-4.750000000000005
 30
0.0
 40
0.5
  1
1-43/64
100
AcDbAttributeDefinition
  3

  2
P
 70
     8
280
     0
  0
ATTDEF
  5
1EC
330
1D0
100
AcDbEntity
  8
AM_6
100
AcDbText
 10
11.74999999999999
 20
-5.250000000000005
 30
0.0
 40
0.5
  1
1-63/64
100
AcDbAttributeDefinition
  3

  2
Q
 70
     8
280
     0
  0
ATTDEF
  5
1ED
330
1D0
100
AcDbEntity
  8
AM_6
100
AcDbText
 10
11.74999999999999
 20
-5.750000000000005
 30
0.0
 40
0.5
  1
3/8
100
AcDbAttributeDefinition
  3

  2
X
 70
     8
280
     0
  0
ATTDEF
  5
1EE
330
1D0
100
AcDbEntity
  8
AM_6
100
AcDbText
 10
11.74999999999999
 20
-6.250000000000005
 30
0.0
 40
0.5
  1
0.036
100
AcDbAttributeDefinition
  3

  2
Y
 70
     8
280
     0
  0
ATTDEF
  5
1EF
330
1D0
100
AcDbEntity
  8
AM_6
100
AcDbText
 10
11.74999999999999
 20
-6.750000000000005
 30
0.0
 40
0.5
  1
5
100
AcDbAttributeDefinition
  3

  2
Z
 70
     8
280
     0
  0
ATTDEF
  5
1F0
330
1D0
100
AcDbEntity
  8
AM_6
100
AcDbText
 10
11.74999999999999
 20
-7.250000000000005
 30
0.0
 40
0.5
  1
baldor
100
AcDbAttributeDefinition
  3

  2
COMPANY
 70
     8
280
     0
  0
CIRCLE
  5
1F1
330
1D0
100
AcDbEntity
  8
AM_9
100
AcDbCircle
 10
0.0
 20
0.0
 30
0.0
 40
4.76583184467918
  0
CIRCLE
  5
1F2
330
1D0
100
AcDbEntity
  8
AM_9
100
AcDbCircle
 10
0.0
 20
0.0
 30
0.0
 40
4.865770927381091
  0
CIRCLE
  5
1F3
330
1D0
100
AcDbEntity
  8
AM_9
100
AcDbCircle
 10
0.0
 20
0.0
 30
0.0
 40
4.877582175731177
  0
CIRCLE
  5
1F4
330
1D0
100
AcDbEntity
  8
AM_9
100
AcDbCircle
 10
0.0
 20
0.0
 30
0.0
 40
4.977521258433086
  0
ARC
  5
1F5
330
1D0
100
AcDbEntity
  8
AM_9
100
AcDbCircle
 10
0.0000000000000364
 20
0.0000000000000033
 30
0.0
 40
5.125000000000036
100
AcDbArc
 50
172.6825250518556
 51
187.3174749481444
  0
ARC
  5
1F6
330
1D0
100
AcDbEntity
  8
AM_9
100
AcDbCircle
 10
0.00000000000006
 20
0.0000000000001101
 30
0.0
 40
5.125000000000124
100
AcDbArc
 50
232.6825250518557
 51
247.3174749481443
  0
ARC
  5
1F7
330
1D0
100
AcDbEntity
  8
AM_9
100
AcDbCircle
 10
-0.0000000000000182
 20
0.0000000000000284
 30
0.0
 40
5.125000000000034
100
AcDbArc
 50
292.6825250518555
 51
307.3174749481443
  0
ARC
  5
1F8
330
1D0
100
AcDbEntity
  8
AM_9
100
AcDbCircle
 10
-0.0000000000000178
 20
-0.0000000000000035
 30
0.0
 40
5.125000000000018
100
AcDbArc
 50
352.6825250518556
 51
7.317474948144428
  0
ARC
  5
1F9
330
1D0
100
AcDbEntity
  8
AM_9
100
AcDbCircle
 10
0.0000000000000142
 20
0.0000000000000249
 30
0.0
 40
5.124999999999971
100
AcDbArc
 50
52.68252505185549
 51
67.31747494814445
  0
ARC
  5
1FA
330
1D0
100
AcDbEntity
  8
AM_9
100
AcDbCircle
 10
0.0000000000000045
 20
0.0000000000000924
 30
0.0
 40
5.124999999999908
100
AcDbArc
 50
84.40126218377135
 51
95.59873781622873
  0
ARC
  5
1FB
330
1D0
100
AcDbEntity
  8
AM_9
100
AcDbCircle
 10
0.0000000000000315
 20
-0.0000000000000471
 30
0.0
 40
5.125000000000056
100
AcDbArc
 50
112.6825250518557
 51
127.3174749481444
  0
ARC
  5
1FC
330
1D0
100
AcDbEntity
  8
AM_5
100
AcDbCircle
 10
5.087899247233579
 20
2.937499999999999
 30
0.0
 40
0.3750000000000009
100
AcDbArc
 50
75.00000000000024
 51
15.00000000000017
  0
ARC
  5
1FD
330
1D0
100
AcDbEntity
  8
AM_5
100
AcDbCircle
 10
-5.08789924723358
 20
-2.937499999999999
 30
0.0
 40
0.3749999999999997
100
AcDbArc
 50
74.9999999999999
 51
14.99999999999987
  0
LINE
  5
1FE
330
1D0
100
AcDbEntity
  8
AM_7
100
AcDbLine
 10
-5.226397321354741
 20
0.0
 30
0.0
 11
5.226397321354741
 21
0.0
 31
0.0
  0
LINE
  5
1FF
330
1D0
100
AcDbEntity
  8
AM_7
100
AcDbLine
 10
0.0
 20
-5.226397321354741
 30
0.0
 11
0.0
 21
5.226397321354741
 31
0.0
  0
LINE
  5
200
330
1D0
100
AcDbEntity
  8
AM_7
100
AcDbLine
 10
-5.481649247233577
 20
-2.9375
 30
0.0
 11
-4.694149247233577
 21
-2.9375
 31
0.0
  0
LINE
  5
201
330
1D0
100
AcDbEntity
  8
AM_7
100
AcDbLine
 10
-5.087899247233577
 20
-3.33125
 30
0.0
 11
-5.087899247233577
 21
-2.543749999999999
 31
0.0
  0
LINE
  5
202
330
1D0
100
AcDbEntity
  8
AM_7
100
AcDbLine
 10
4.694149247233576
 20
2.9375
 30
0.0
 11
5.481649247233578
 21
2.9375
 31
0.0
  0
LINE
  5
203
330
1D0
100
AcDbEntity
  8
AM_7
100
AcDbLine
 10
5.087899247233577
 20
2.543749999999998
 30
0.0
 11
5.087899247233577
 21
3.331250000000001
 31
0.0
  0
LINE
  5
204
330
1D0
100
AcDbEntity
  8
AM_7
100
AcDbLine
 10
-3.331250000000002
 20
-5.087899247233576
 30
0.0
 11
-2.543750000000002
 21
-5.087899247233576
 31
0.0
  0
LINE
  5
205
330
1D0
100
AcDbEntity
  8
AM_7
100
AcDbLine
 10
-2.937500000000002
 20
-5.481649247233576
 30
0.0
 11
-2.937500000000002
 21
-4.694149247233576
 31
0.0
  0
LINE
  5
206
330
1D0
100
AcDbEntity
  8
AM_7
100
AcDbLine
 10
2.543749999999998
 20
-5.087899247233578
 30
0.0
 11
3.331249999999998
 21
-5.087899247233578
 31
0.0
  0
LINE
  5
207
330
1D0
100
AcDbEntity
  8
AM_7
100
AcDbLine
 10
2.937499999999998
 20
-5.481649247233578
 30
0.0
 11
2.937499999999998
 21
-4.694149247233578
 31
0.0
  0
LINE
  5
208
330
1D0
100
AcDbEntity
  8
AM_7
100
AcDbLine
 10
5.481249999999999
 20
-0.0000000000000022
 30
0.0
 11
6.268749999999999
 21
-0.0000000000000022
 31
0.0
  0
LINE
  5
209
330
1D0
100
AcDbEntity
  8
AM_7
100
AcDbLine
 10
5.874999999999999
 20
-0.3937500000000021
 30
0.0
 11
5.874999999999999
 21
0.3937499999999978
 31
0.0
  0
LINE
  5
20A
330
1D0
100
AcDbEntity
  8
AM_7
100
AcDbLine
 10
-3.331249999999999
 20
5.087899247233578
 30
0.0
 11
-2.54375
 21
5.087899247233578
 31
0.0
  0
LINE
  5
20B
330
1D0
100
AcDbEntity
  8
AM_7
100
AcDbLine
 10
-2.9375
 20
4.694149247233578
 30
0.0
 11
-2.9375
 21
5.481649247233578
 31
0.0
  0
LINE
  5
20C
330
1D0
100
AcDbEntity
  8
AM_7
100
AcDbLine
 10
2.543750000000001
 20
5.087899247233578
 30
0.0
 11
3.33125
 21
5.087899247233578
 31
0.0
  0
LINE
  5
20D
330
1D0
100
AcDbEntity
  8
AM_7
100
AcDbLine
 10
2.9375
 20
4.694149247233578
 30
0.0
 11
2.9375
 21
5.481649247233578
 31
0.0
  0
LINE
  5
20E
330
1D0
100
AcDbEntity
  8
AM_7
100
AcDbLine
 10
-6.26875
 20
0.0000000000000022
 30
0.0
 11
-5.48125
 21
0.0000000000000022
 31
0.0
  0
LINE
  5
20F
330
1D0
100
AcDbEntity
  8
AM_7
100
AcDbLine
 10
-5.875
 20
-0.3937499999999978
 30
0.0
 11
-5.875
 21
0.3937500000000021
 31
0.0
  0
CIRCLE
  5
210
330
1D0
100
AcDbEntity
  8
AM_4
100
AcDbCircle
 10
-5.087899247233577
 20
-2.9375
 30
0.0
 40
0.3581000000000002
  0
CIRCLE
  5
211
330
1D0
100
AcDbEntity
  8
AM_4
100
AcDbCircle
 10
5.087899247233577
 20
2.9375
 30
0.0
 40
0.3581
  0
ARC
  5
212
330
1D0
100
AcDbEntity
  8
AM_4
100
AcDbCircle
 10
-3.691135323956723
 20
-5.234457471432822
 30
0.0
 40
0.3749999999999992
100
AcDbArc
 50
160.0000000000002
 51
211.0873354824547
  0
ARC
  5
213
330
1D0
100
AcDbEntity
  8
AM_4
100
AcDbCircle
 10
-1.375226071749251
 20
-5.144354016937509
 30
0.0
 40
0.1999999999999955
100
AcDbArc
 50
75.03325215511853
 51
140.0000000000008
  0
ARC
  5
214
330
1D0
100
AcDbEntity
  8
AM_4
100
AcDbCircle
 10
-2.687605483311743
 20
-5.813845695069039
 30
0.0
 40
0.3750000000000077
100
AcDbArc
 50
268.9126645175524
 51
320.0000000000021
  0
ARC
  5
215
330
1D0
100
AcDbEntity
  8
AM_4
100
AcDbCircle
 10
-3.767528228853787
 20
-3.763157722550283
 30
0.0
 40
0.199999999999999
100
AcDbArc
 50
339.9999999999995
 51
44.96674784488054
  0
LINE
  5
216
330
1D0
100
AcDbEntity
  8
AM_4
100
AcDbLine
 10
-3.579589704696607
 20
-3.831561751215418
 30
0.0
 11
-4.043520056751438
 21
-5.106199917685698
 31
0.0
  0
LINE
  5
217
330
1D0
100
AcDbEntity
  8
AM_4
100
AcDbLine
 10
-2.400338817142112
 20
-6.054891048701486
 30
0.0
 11
-1.528434960373045
 21
-5.015796495000206
 31
0.0
  0
CIRCLE
  5
218
330
1D0
100
AcDbEntity
  8
AM_4
100
AcDbCircle
 10
-2.937500000000002
 20
-5.087899247233576
 30
0.0
 40
0.3749999999999999
  0
ARC
  5
219
330
1D0
100
AcDbEntity
  8
AM_4
100
AcDbCircle
 10
2.687605483311718
 20
-5.813845695069042
 30
0.0
 40
0.3749999999999948
100
AcDbArc
 50
219.9999999999997
 51
271.0873354824549
  0
ARC
  5
21A
330
1D0
100
AcDbEntity
  8
AM_4
100
AcDbCircle
 10
3.767528228853783
 20
-3.763157722550287
 30
0.0
 40
0.1999999999999989
100
AcDbArc
 50
135.033252155119
 51
200.0000000000006
  0
LINE
  5
21B
330
1D0
100
AcDbEntity
  8
AM_4
100
AcDbLine
 10
4.04352005675143
 20
-5.106199917685704
 30
0.0
 11
3.579589704696603
 21
-3.831561751215422
 31
0.0
  0
CIRCLE
  5
21C
330
1D0
100
AcDbEntity
  8
AM_4
100
AcDbCircle
 10
2.937499999999998
 20
-5.087899247233578
 30
0.0
 40
0.3749999999999999
  0
ARC
  5
21D
330
1D0
100
AcDbEntity
  8
AM_4
100
AcDbCircle
 10
1.375226071749244
 20
-5.144354016937511
 30
0.0
 40
0.199999999999997
100
AcDbArc
 50
39.99999999999923
 51
104.9667478448809
  0
LINE
  5
21E
330
1D0
100
AcDbEntity
  8
AM_4
100
AcDbLine
 10
1.528434960373039
 20
-5.015796495000207
 30
0.0
 11
2.400338817142104
 21
-6.05489104870149
 31
0.0
  0
ARC
  5
21F
330
1D0
100
AcDbEntity
  8
AM_4
100
AcDbCircle
 10
3.691135323956722
 20
-5.234457471432846
 30
0.0
 40
0.3749999999999988
100
AcDbArc
 50
328.9126645175529
 51
20.00000000000286
  0
ARC
  5
220
330
1D0
100
AcDbEntity
  8
AM_4
100
AcDbCircle
 10
5.142754300603035
 20
1.381196294387227
 30
0.0
 40
0.2000000000000021
100
AcDbArc
 50
195.0332521551195
 51
259.9999999999998
  0
CIRCLE
  5
221
330
1D0
100
AcDbEntity
  8
AM_4
100
AcDbCircle
 10
5.874999999999999
 20
-0.0000000000000022
 30
0.0
 40
0.3749999999999999
  0
LINE
  5
222
330
1D0
100
AcDbEntity
  8
AM_4
100
AcDbLine
 10
6.443858873893543
 20
0.948691131015781
 30
0.0
 11
5.108024665069648
 21
1.184234743784783
 31
0.0
  0
ARC
  5
223
330
1D0
100
AcDbEntity
  8
AM_4
100
AcDbCircle
 10
5.142754300603033
 20
-1.381196294387233
 30
0.0
 40
0.2000000000000024
100
AcDbArc
 50
100.0000000000002
 51
164.9667478448805
  0
LINE
  5
224
330
1D0
100
AcDbEntity
  8
AM_4
100
AcDbLine
 10
5.108024665069646
 20
-1.18423474378479
 30
0.0
 11
6.443858873893543
 21
-0.948691131015793
 31
0.0
  0
ARC
  5
225
330
1D0
100
AcDbEntity
  8
AM_4
100
AcDbCircle
 10
6.37874080726845
 20
-0.5793882236362232
 30
0.0
 40
0.374999999999991
100
AcDbArc
 50
279.9999999999993
 51
331.0873354824546
  0
ARC
  5
226
330
1D0
100
AcDbEntity
  8
AM_4
100
AcDbCircle
 10
6.378740807268465
 20
0.5793882236362032
 30
0.0
 40
0.3749999999999964
100
AcDbArc
 50
28.91266451755219
 51
80.00000000000315
  0
CIRCLE
  5
227
330
1D0
100
AcDbEntity
  8
AM_4
100
AcDbCircle
 10
-2.9375
 20
5.087899247233578
 30
0.0
 40
0.3749999999999999
  0
LINE
  5
228
330
1D0
100
AcDbEntity
  8
AM_4
100
AcDbLine
 10
-4.043520056751432
 20
5.106199917685701
 30
0.0
 11
-3.579589704696604
 21
3.83156175121542
 31
0.0
  0
ARC
  5
229
330
1D0
100
AcDbEntity
  8
AM_4
100
AcDbCircle
 10
-3.767528228853794
 20
3.763157722550287
 30
0.0
 40
0.2000000000000083
100
AcDbArc
 50
315.0332521551215
 51
19.99999999999908
  0
ARC
  5
22A
330
1D0
100
AcDbEntity
  8
AM_4
100
AcDbCircle
 10
-1.375226071749251
 20
5.144354016937504
 30
0.0
 40
0.1999999999999897
100
AcDbArc
 50
219.9999999999986
 51
284.9667478448829
  0
LINE
  5
22B
330
1D0
100
AcDbEntity
  8
AM_4
100
AcDbLine
 10
-1.528434960373041
 20
5.015796495000206
 30
0.0
 11
-2.400338817142107
 21
6.054891048701488
 31
0.0
  0
ARC
  5
22C
330
1D0
100
AcDbEntity
  8
AM_4
100
AcDbCircle
 10
-2.687605483311725
 20
5.813845695069033
 30
0.0
 40
0.3750000000000024
100
AcDbArc
 50
40.00000000000016
 51
91.08733548245435
  0
ARC
  5
22D
330
1D0
100
AcDbEntity
  8
AM_4
100
AcDbCircle
 10
-3.691135323956718
 20
5.234457471432828
 30
0.0
 40
0.3749999999999991
100
AcDbArc
 50
148.9126645175454
 51
200.0000000000002
  0
CIRCLE
  5
22E
330
1D0
100
AcDbEntity
  8
AM_4
100
AcDbCircle
 10
2.9375
 20
5.087899247233578
 30
0.0
 40
0.3749999999999999
  0
LINE
  5
22F
330
1D0
100
AcDbEntity
  8
AM_4
100
AcDbLine
 10
2.400338817142109
 20
6.054891048701486
 30
0.0
 11
1.528434960373044
 21
5.015796495000206
 31
0.0
  0
ARC
  5
230
330
1D0
100
AcDbEntity
  8
AM_4
100
AcDbCircle
 10
1.375226071749246
 20
5.144354016937515
 30
0.0
 40
0.2000000000000025
100
AcDbArc
 50
255.03325215512
 51
320.0000000000001
  0
ARC
  5
231
330
1D0
100
AcDbEntity
  8
AM_4
100
AcDbCircle
 10
3.767528228853788
 20
3.763157722550285
 30
0.0
 40
0.2000000000000017
100
AcDbArc
 50
160.0000000000001
 51
224.96674784488
  0
LINE
  5
232
330
1D0
100
AcDbEntity
  8
AM_4
100
AcDbLine
 10
3.579589704696605
 20
3.831561751215419
 30
0.0
 11
4.043520056751436
 21
5.106199917685699
 31
0.0
  0
ARC
  5
233
330
1D0
100
AcDbEntity
  8
AM_4
100
AcDbCircle
 10
3.69113532395672
 20
5.234457471432826
 30
0.0
 40
0.3750000000000006
100
AcDbArc
 50
339.9999999999998
 51
31.08733548245418
  0
ARC
  5
234
330
1D0
100
AcDbEntity
  8
AM_4
100
AcDbCircle
 10
2.687605483311728
 20
5.813845695069034
 30
0.0
 40
0.3750000000000014
100
AcDbArc
 50
88.91266451754595
 51
140.0000000000003
  0
CIRCLE
  5
235
330
1D0
100
AcDbEntity
  8
AM_4
100
AcDbCircle
 10
-5.875
 20
0.0000000000000022
 30
0.0
 40
0.3749999999999999
  0
ARC
  5
236
330
1D0
100
AcDbEntity
  8
AM_4
100
AcDbCircle
 10
-6.378740807268441
 20
0.5793882236362068
 30
0.0
 40
0.3750000000000058
100
AcDbArc
 50
100.0000000000003
 51
151.0873354824543
  0
ARC
  5
237
330
1D0
100
AcDbEntity
  8
AM_4
100
AcDbCircle
 10
-6.378740807268462
 20
-0.5793882236362037
 30
0.0
 40
0.3750000000000001
100
AcDbArc
 50
208.9126645175523
 51
260.0000000000027
  0
LINE
  5
238
330
1D0
100
AcDbEntity
  8
AM_4
100
AcDbLine
 10
-6.443858873893543
 20
-0.9486911310157841
 30
0.0
 11
-5.108024665069648
 21
-1.184234743784784
 31
0.0
  0
ARC
  5
239
330
1D0
100
AcDbEntity
  8
AM_4
100
AcDbCircle
 10
-5.142754300603027
 20
-1.38119629438722
 30
0.0
 40
0.1999999999999923
100
AcDbArc
 50
15.03325215511875
 51
80.0000000000016
  0
ARC
  5
23A
330
1D0
100
AcDbEntity
  8
AM_4
100
AcDbCircle
 10
-5.142754300603032
 20
1.38119629438723
 30
0.0
 40
0.2000000000000002
100
AcDbArc
 50
280.0000000000001
 51
344.9667478448817
  0
LINE
  5
23B
330
1D0
100
AcDbEntity
  8
AM_4
100
AcDbLine
 10
-5.108024665069646
 20
1.184234743784788
 30
0.0
 11
-6.443858873893543
 21
0.9486911310157902
 31
0.0
  0
LINE
  5
23C
330
1D0
100
AcDbEntity
  8
AM_4
100
AcDbLine
 10
0.5
 20
6.428571428571428
 30
0.0
 11
0.5
 21
5.045121084764763
 31
0.0
  0
LINE
  5
23D
330
1D0
100
AcDbEntity
  8
AM_4
100
AcDbLine
 10
-0.5
 20
6.428571428571428
 30
0.0
 11
-0.5
 21
5.045121084764763
 31
0.0
  0
LINE
  5
23E
330
1D0
100
AcDbEntity
  8
AM_4
100
AcDbLine
 10
0.5
 20
6.428571428571428
 30
0.0
 11
-0.5
 21
6.428571428571428
 31
0.0
  0
LINE
  5
23F
330
1D0
100
AcDbEntity
  8
AM_4
100
AcDbLine
 10
0.5
 20
5.125
 30
0.0
 11
-0.5
 21
5.125
 31
0.0
  0
LWPOLYLINE
  5
240
330
1D0
100
AcDbEntity
  8
AM_4
100
AcDbPolyline
 90
        5
 70
     0
 43
0.0
 10
-5.054982841455045
 20
0.5274437028649226
 10
-5.076085384851311
 20
0.5724174896929514
 10
-5.084565959020478
 20
0.6379817296686124
 10
-5.083320418667366
 20
0.6522825381224966
 10
-5.083260166980877
 20
0.6527565202933938
  0
LWPOLYLINE
  5
241
330
1D0
100
AcDbEntity
  8
AM_4
100
AcDbPolyline
 90
        5
 70
     0
 43
0.0
 10
-3.106933812550447
 20
4.075854178504272
 10
-3.10655345779292
 20
4.076143349080713
 10
-3.054916272478947
 20
4.103812214668645
 10
-3.000490238368007
 20
4.114098319019098
 10
-2.984271066474674
 20
4.114021704962054
  0
LWPOLYLINE
  5
242
330
1D0
100
AcDbEntity
  8
AM_4
100
AcDbPolyline
 90
        3
 70
     0
 43
0.0
 10
-2.944585557688035
 20
4.11292499379288
 10
-2.951466881802847
 20
4.112999290205829
 10
-2.984271066474674
 20
4.114021704962054
  0
LINE
  5
243
330
1D0
100
AcDbEntity
  8
AM_4
100
AcDbLine
 10
-5.054982841455045
 20
0.5274437028649226
 30
0.0
 11
-5.034190307328607
 21
0.4936233996781746
 31
0.0
  0
ARC
  5
244
330
1D0
100
AcDbEntity
  8
AM_4
100
AcDbCircle
 10
-0.0000000000000022
 20
-0.0000000000000009
 30
0.0
 40
5.124999999999998
100
AcDbArc
 50
127.3174749481444
 51
172.6825250518555
  0
LWPOLYLINE
  5
245
330
1D0
100
AcDbEntity
  8
AM_4
100
AcDbPolyline
 90
        5
 70
     0
 43
0.0
 10
2.070711774980368
 20
-4.641465407826977
 10
2.042314156901698
 20
-4.682228129093158
 10
1.989773861294069
 20
-4.722354529622506
 10
1.97676696087454
 20
-4.728425887203364
 10
1.976326354430425
 20
-4.728610698797665
  0
LWPOLYLINE
  5
246
330
1D0
100
AcDbEntity
  8
AM_4
100
AcDbPolyline
 90
        5
 70
     0
 43
0.0
 10
-1.976326354430432
 20
-4.728610698797662
 10
-1.976766960874453
 20
-4.728425887203399
 10
-2.026547494024507
 20
-4.697541205735507
 10
-2.06266842266921
 20
-4.655550114022838
 10
-2.070711781803328
 20
-4.641465394579638
  0
LINE
  5
247
330
1D0
100
AcDbEntity
  8
AM_4
100
AcDbLine
 10
2.070711774980368
 20
-4.641465407826977
 30
0.0
 11
2.089604749640565
 21
-4.60654839347105
 31
0.0
  0
LWPOLYLINE
  5
248
330
1D0
100
AcDbEntity
  8
AM_4
100
AcDbPolyline
 90
        3
 70
     0
 43
0.0
 10
-2.089604749640571
 20
-4.606548393471047
 10
-2.086228430164188
 20
-4.612544943172624
 10
-2.070711781803328
 20
-4.641465394579638
  0
ARC
  5
249
330
1D0
100
AcDbEntity
  8
AM_4
100
AcDbCircle
 10
0.0000000000000011
 20
-0.0000000000000009
 30
0.0
 40
5.124999999999999
100
AcDbArc
 50
247.3174749481443
 51
292.6825250518555
  0
LWPOLYLINE
  5
24A
330
1D0
100
AcDbEntity
  8
AM_4
100
AcDbPolyline
 90
        5
 70
     0
 43
0.0
 10
2.984271066474675
 20
4.114021704962054
 10
3.033772675362948
 20
4.109809730865032
 10
3.094793393123853
 20
4.084371116361325
 10
3.106553457792908
 20
4.076143349080722
 10
3.106933812550449
 20
4.075854178504271
  0
LWPOLYLINE
  5
24B
330
1D0
100
AcDbEntity
  8
AM_4
100
AcDbPolyline
 90
        5
 70
     0
 43
0.0
 10
5.083260166980878
 20
0.6527565202933877
 10
5.083320418667347
 20
0.6522825381226418
 10
5.081463766503377
 20
0.5937289910667937
 10
5.063158927520544
 20
0.5414518960820744
 10
5.054982849516092
 20
0.527443715397438
  0
LINE
  5
24C
330
1D0
100
AcDbEntity
  8
AM_4
100
AcDbLine
 10
2.984271066474675
 20
4.114021704962054
 30
0.0
 11
2.944585557688039
 21
4.112924993792878
 31
0.0
  0
LWPOLYLINE
  5
24D
330
1D0
100
AcDbEntity
  8
AM_4
100
AcDbPolyline
 90
        3
 70
     0
 43
0.0
 10
5.034190307328607
 20
0.4936233996781665
 10
5.037695311967037
 20
0.4995456529667966
 10
5.054982849516092
 20
0.527443715397438
  0
ARC
  5
24E
330
1D0
100
AcDbEntity
  8
AM_4
100
AcDbCircle
 10
-0.0000000000000027
 20
-0.0000000000000004
 30
0.0
 40
5.125000000000003
100
AcDbArc
 50
7.317474948144428
 51
52.68252505185552
  0
LWPOLYLINE
  5
24F
330
1D0
100
AcDbEntity
  8
AM_4
100
AcDbPolyline
 90
        5
 70
     0
 43
0.0
 10
-2.984271066474677
 20
-4.114021704962053
 10
-3.033772675362947
 20
-4.109809730865032
 10
-3.094793393123846
 20
-4.084371116361331
 10
-3.1065534577928
 20
-4.076143349080804
 10
-3.10693381255045
 20
-4.075854178504271
  0
LWPOLYLINE
  5
250
330
1D0
100
AcDbEntity
  8
AM_4
100
AcDbPolyline
 90
        5
 70
     0
 43
0.0
 10
-5.083260166980878
 20
-0.6527565202933894
 10
-5.083320418667353
 20
-0.6522825381225942
 10
-5.081463766503358
 20
-0.5937289910666924
 10
-5.0631589275205
 20
-0.5414518960819915
 10
-5.054982849516094
 20
-0.5274437153974398
  0
LINE
  5
251
330
1D0
100
AcDbEntity
  8
AM_4
100
AcDbLine
 10
-2.984271066474677
 20
-4.114021704962053
 30
0.0
 11
-2.944585557688042
 21
-4.112924993792876
 31
0.0
  0
LWPOLYLINE
  5
252
330
1D0
100
AcDbEntity
  8
AM_4
100
AcDbPolyline
 90
        3
 70
     0
 43
0.0
 10
-5.034190307328607
 20
-0.4936233996781673
 10
-5.037695311967036
 20
-0.4995456529667958
 10
-5.054982849516094
 20
-0.5274437153974398
  0
ARC
  5
253
330
1D0
100
AcDbEntity
  8
AM_4
100
AcDbCircle
 10
0.0000000000000178
 20
0.0000000000000093
 30
0.0
 40
5.125000000000019
100
AcDbArc
 50
187.3174749481445
 51
232.6825250518554
  0
ARC
  5
254
330
1D0
100
AcDbEntity
  8
AM_4
100
AcDbCircle
 10
2.937499999999992
 20
-5.08789924723357
 30
0.0
 40
0.9749999999999907
100
AcDbArc
 50
89.58361423125343
 51
150.4163857687466
  0
ARC
  5
255
330
1D0
100
AcDbEntity
  8
AM_4
100
AcDbCircle
 10
-2.937499999999994
 20
5.087899247233572
 30
0.0
 40
0.9749999999999924
100
AcDbArc
 50
269.5836142312534
 51
330.4163857687464
  0
ARC
  5
256
330
1D0
100
AcDbEntity
  8
AM_4
100
AcDbCircle
 10
-2.937499999999998
 20
-5.087899247233565
 30
0.0
 40
0.97499999999999
100
AcDbArc
 50
29.58361423125334
 51
90.41638576874664
  0
ARC
  5
257
330
1D0
100
AcDbEntity
  8
AM_4
100
AcDbCircle
 10
-5.874999999999983
 20
0.0000000000000035
 30
0.0
 40
0.9749999999999843
100
AcDbArc
 50
329.5836142312533
 51
30.41638576874684
  0
ARC
  5
258
330
1D0
100
AcDbEntity
  8
AM_4
100
AcDbCircle
 10
2.937499999999998
 20
5.087899247233571
 30
0.0
 40
0.9749999999999934
100
AcDbArc
 50
209.5836142312536
 51
270.4163857687465
  0
ARC
  5
259
330
1D0
100
AcDbEntity
  8
AM_4
100
AcDbCircle
 10
5.874999999999985
 20
-0.0000000000000051
 30
0.0
 40
0.9749999999999863
100
AcDbArc
 50
149.5836142312532
 51
210.4163857687468
  0
ARC
  5
25A
330
1D0
100
AcDbEntity
  8
AM_4
100
AcDbCircle
 10
-0.0000000000000111
 20
0.0000000000000044
 30
0.0
 40
5.058333333333324
100
AcDbArc
 50
125.6001885324141
 51
174.3998114675857
  0
ARC
  5
25B
330
1D0
100
AcDbEntity
  8
AM_4
100
AcDbCircle
 10
-0.0000000000000053
 20
-0.0000000000000033
 30
0.0
 40
5.058333333333329
100
AcDbArc
 50
185.6001885324141
 51
234.3998114675858
  0
ARC
  5
25C
330
1D0
100
AcDbEntity
  8
AM_4
100
AcDbCircle
 10
-0.0000000000000007
 20
-0.000000000000008
 30
0.0
 40
5.058333333333326
100
AcDbArc
 50
245.6001885324141
 51
294.3998114675858
  0
ARC
  5
25D
330
1D0
100
AcDbEntity
  8
AM_4
100
AcDbCircle
 10
0.0000000000000071
 20
0.0000000000000033
 30
0.0
 40
5.058333333333327
100
AcDbArc
 50
5.600188532414191
 51
54.39981146758585
  0
CIRCLE
  5
25E
330
1D0
100
AcDbEntity
  8
AM_4
100
AcDbCircle
 10
0.0
 20
0.0
 30
0.0
 40
3.936999999999999
  0
LWPOLYLINE
  5
25F
330
1D0
100
AcDbEntity
  8
AM_4
100
AcDbPolyline
 90
        5
 70
     0
 43
0.0
 10
5.054982841455045
 20
-0.5274437028649241
 10
5.076085384851311
 20
-0.5724174896929528
 10
5.084565959020478
 20
-0.6379817296686133
 10
5.083320418667369
 20
-0.6522825381224691
 10
5.083260166980877
 20
-0.6527565202933954
  0
LWPOLYLINE
  5
260
330
1D0
100
AcDbEntity
  8
AM_4
100
AcDbPolyline
 90
        5
 70
     0
 43
0.0
 10
3.106933812550446
 20
-4.075854178504274
 10
3.106553457792837
 20
-4.076143349080777
 10
3.054916272478751
 20
-4.103812214668715
 10
3.000490235087838
 20
-4.114098319145585
 10
2.984271081358679
 20
-4.114021705676867
  0
LWPOLYLINE
  5
261
330
1D0
100
AcDbEntity
  8
AM_4
100
AcDbPolyline
 90
        3
 70
     0
 43
0.0
 10
2.944585557688034
 20
-4.11292499379288
 10
2.951466881802849
 20
-4.112999290205829
 10
2.984271081358679
 20
-4.114021705676867
  0
LINE
  5
262
330
1D0
100
AcDbEntity
  8
AM_4
100
AcDbLine
 10
5.054982841455045
 20
-0.5274437028649241
 30
0.0
 11
5.034190307328607
 21
-0.4936233996781764
 31
0.0
  0
ARC
  5
263
330
1D0
100
AcDbEntity
  8
AM_4
100
AcDbCircle
 10
0.0000000000000133
 20
-0.0000000000000053
 30
0.0
 40
5.058333333333321
100
AcDbArc
 50
305.6001885324141
 51
354.3998114675857
  0
ARC
  5
264
330
1D0
100
AcDbEntity
  8
AM_4
100
AcDbCircle
 10
-0.0000000000000169
 20
0.0000000000000107
 30
0.0
 40
5.125000000000019
100
AcDbArc
 50
307.3174749481445
 51
352.6825250518555
  0
LWPOLYLINE
  5
265
330
1D0
100
AcDbEntity
  8
AM_4
100
AcDbPolyline
 90
        5
 70
     0
 43
0.0
 10
-2.070711774980369
 20
4.641465407826976
 10
-2.0423141569017
 20
4.682228129093157
 10
-1.989773861294076
 20
4.722354529622503
 10
-1.976766960874512
 20
4.728425887203376
 10
-1.976326354430426
 20
4.728610698797665
  0
LINE
  5
266
330
1D0
100
AcDbEntity
  8
AM_4
100
AcDbLine
 10
-2.070711774980369
 20
4.641465407826976
 30
0.0
 11
-2.089604749640567
 21
4.606548393471049
 31
0.0
  0
ARC
  5
267
330
1D0
100
AcDbEntity
  8
AM_4
100
AcDbCircle
 10
0.0
 20
0.000000000000008
 30
0.0
 40
5.058333333333326
100
AcDbArc
 50
65.60018853241412
 51
114.3998114675859
  0
LWPOLYLINE
  5
268
330
1D0
100
AcDbEntity
  8
AM_4
100
AcDbPolyline
 90
        3
 70
     0
 43
0.0
 10
2.089604749640571
 20
4.606548393471047
 10
2.086228430164188
 20
4.612544943172626
 10
2.070711768157415
 20
4.641465421074308
  0
LWPOLYLINE
  5
269
330
1D0
100
AcDbEntity
  8
AM_4
100
AcDbPolyline
 90
        5
 70
     0
 43
0.0
 10
1.97632635443043
 20
4.728610698797663
 10
1.976766960874483
 20
4.728425887203387
 10
2.02654749402456
 20
4.697541205735462
 10
2.06266842616821
 20
4.65555010846831
 10
2.070711768157415
 20
4.641465421074308
  0
ARC
  5
26A
330
1D0
100
AcDbEntity
  8
AM_4
100
AcDbCircle
 10
0.000000000000002
 20
0.0000000000000107
 30
0.0
 40
5.124999999999989
100
AcDbArc
 50
67.3174749481444
 51
84.40126218377141
  0
ARC
  5
26B
330
1D0
100
AcDbEntity
  8
AM_4
100
AcDbCircle
 10
0.0000000000000002
 20
-0.0000000001998464
 30
0.0
 40
5.069836956151004
100
AcDbArc
 50
84.34014652141315
 51
95.65985347858687
  0
ARC
  5
26C
330
1D0
100
AcDbEntity
  8
AM_4
100
AcDbCircle
 10
0.0000000000000312
 20
-0.0000000000001448
 30
0.0
 40
5.125000000000147
100
AcDbArc
 50
95.59873781622879
 51
112.6825250518553
  0
ARC
  5
26D
330
1D0
100
AcDbEntity
  8
AM_5
100
AcDbCircle
 10
5.087899247233578
 20
2.9375
 30
0.0
 40
0.3750000000000001
100
AcDbArc
 50
165.0
 51
105.0
  0
ARC
  5
26E
330
1D0
100
AcDbEntity
  8
AM_5
100
AcDbCircle
 10
-5.087899247233578
 20
-2.9375
 30
0.0
 40
0.3750000000000001
100
AcDbArc
 50
165.0
 51
105.0
  0
ARC
  5
26F
330
1D0
100
AcDbEntity
  8
AM_5
100
AcDbCircle
 10
5.087899247233578
 20
2.937499999999999
 30
0.0
 40
0.3750000000000004
100
AcDbArc
 50
104.9999999999999
 51
15.00000000000021
  0
ARC
  5
270
330
1D0
100
AcDbEntity
  8
AM_5
100
AcDbCircle
 10
-5.087899247233577
 20
-2.9375
 30
0.0
 40
0.3750000000000006
100
AcDbArc
 50
105.0000000000001
 51
194.9999999999999
  0
CIRCLE
  5
271
330
1D0
100
AcDbEntity
  8
AM_4
100
AcDbCircle
 10
-0.0000000000000018
 20
-0.0000000000000018
 30
0.0
 40
6.749999999999996
  0
ENDBLK
  5
1D3
330
1D0
100
AcDbEntity
  8
0
100
AcDbBlockEnd
  0
ENDSEC
  0
SECTION
  2
ENTITIES
  0
INSERT
  5
6F
330
1F
100
AcDbEntity
  8
0
100
AcDbBlockReference
  2
1_069929_0
 10
0.0
 20
0.0
 30
0.0
  0
POINT
  5
273
330
1F
100
AcDbEntity
  8
ConnectionPoints
100
AcDbPoint
 10
0.0
 20
-2.842013888888889
 30
2.865
  0
POINT
  5
274
330
1F
100
AcDbEntity
  8
ConnectionPoints
100
AcDbPoint
 10
0.0
 20
2.842013888888889
 30
2.865
  0
POINT
  5
275
330
1F
100
AcDbEntity
  8
ConnectionPoints
100
AcDbPoint
 10
0.0
 20
0.0
 30
2.795
  0
POINT
  5
276
330
1F
100
AcDbEntity
  8
ConnectionPoints
100
AcDbPoint
 10
0.0
 20
0.0
 30
3.1875
  0
POINT
  5
277
330
1F
100
AcDbEntity
  8
ConnectionPoints
100
AcDbPoint
 10
0.0
 20
0.0
 30
2.994
  0
POINT
  5
278
330
1F
100
AcDbEntity
  8
ConnectionPoints
100
AcDbPoint
 10
0.0
 20
2.842013888888889
 30
2.795
  0
POINT
  5
279
330
1F
100
AcDbEntity
  8
ConnectionPoints
100
AcDbPoint
 10
0.0
 20
2.842013888888889
 30
3.0555
  0
POINT
  5
27A
330
1F
100
AcDbEntity
  8
ConnectionPoints
100
AcDbPoint
 10
0.0
 20
-2.842013888888889
 30
2.795
  0
POINT
  5
27B
330
1F
100
AcDbEntity
  8
ConnectionPoints
100
AcDbPoint
 10
0.0
 20
-2.842013888888889
 30
3.0555
  0
POINT
  5
27C
330
1F
100
AcDbEntity
  8
ConnectionPoints
100
AcDbPoint
 10
0.0
 20
0.0
 30
2.795
  0
POINT
  5
27D
330
1F
100
AcDbEntity
  8
ConnectionPoints
100
AcDbPoint
 10
0.0
 20
6.176896106071673
 30
1.4073125
  0
POINT
  5
27E
330
1F
100
AcDbEntity
  8
ConnectionPoints
100
AcDbPoint
 10
0.0
 20
5.776785714285714
 30
1.638316342403191
  0
POINT
  5
27F
330
1F
100
AcDbEntity
  8
ConnectionPoints
100
AcDbPoint
 10
0.0
 20
0.0
 30
3.1875
  0
POINT
  5
280
330
1F
100
AcDbEntity
  8
ConnectionPoints
100
AcDbPoint
 10
0.0
 20
0.0
 30
3.5625
  0
ENDSEC
  0
SECTION
  2
OBJECTS
  0
DICTIONARY
  5
C
330
0
100
AcDbDictionary
281
     1
  3
ACAD_DETAILVIEWSTYLE
350
288
  3
ACAD_GROUP
350
D
  3
ACAD_LAYOUT
350
1A
  3
ACAD_MATERIAL
350
43
  3
ACAD_MLEADERSTYLE
350
6B
  3
ACAD_MLINESTYLE
350
17
  3
ACAD_PLOTSETTINGS
350
19
  3
ACAD_PLOTSTYLENAME
350
E
  3
ACAD_SCALELIST
350
47
  3
ACAD_SECTIONVIEWSTYLE
350
289
  3
ACAD_TABLESTYLE
350
69
  3
ACAD_VISUALSTYLE
350
2A
  3
ACDB_RECOMPOSE_DATA
350
285
  3
AcDbVariableDictionary
350
281
  0
SUN
  5
6D
330
29
100
AcDbSun
 90
        1
290
     0
 63
     7
421
 16777215
 40
1.0
291
     1
 91
  2455826
 92
 54000000
292
     0
 70
     2
 71
   256
280
     1
  0
DICTIONARY
  5
288
102
{ACAD_REACTORS
330
C
102
}
330
C
100
AcDbDictionary
281
     1
  0
DICTIONARY
  5
D
102
{ACAD_REACTORS
330
C
102
}
330
C
100
AcDbDictionary
281
     1
  0
DICTIONARY
  5
1A
102
{ACAD_REACTORS
330
C
102
}
330
C
100
AcDbDictionary
281
     1
  3
Layout1
350
1E
  3
Layout2
350
26
  3
Model
350
22
  0
DICTIONARY
  5
43
102
{ACAD_REACTORS
330
C
102
}
330
C
100
AcDbDictionary
281
     1
  3
ByBlock
350
45
  3
ByLayer
350
44
  3
Global
350
46
  0
DICTIONARY
  5
6B
102
{ACAD_REACTORS
330
C
102
}
330
C
100
AcDbDictionary
281
     1
  3
Standard
350
6C
  0
DICTIONARY
  5
17
102
{ACAD_REACTORS
330
C
102
}
330
C
100
AcDbDictionary
281
     1
  3
Standard
350
18
  0
DICTIONARY
  5
19
102
{ACAD_REACTORS
330
C
102
}
330
C
100
AcDbDictionary
281
     1
  0
ACDBDICTIONARYWDFLT
  5
E
102
{ACAD_REACTORS
330
C
102
}
330
C
100
AcDbDictionary
281
     1
  3
Normal
350
F
100
AcDbDictionaryWithDefault
340
F
  0
DICTIONARY
  5
47
102
{ACAD_REACTORS
330
C
102
}
330
C
100
AcDbDictionary
281
     1
  3
A0
350
48
  3
A1
350
49
  3
A2
350
4A
  3
A3
350
4B
  3
A4
350
4C
  3
A5
350
4D
  3
A6
350
4E
  3
A7
350
4F
  3
A8
350
50
  3
A9
350
51
  3
B0
350
52
  3
B1
350
53
  3
B2
350
54
  3
B3
350
55
  3
B4
350
56
  3
B5
350
57
  3
B6
350
58
  3
B7
350
59
  3
B8
350
5A
  3
B9
350
5B
  3
C0
350
5C
  3
C1
350
5D
  3
C2
350
5E
  3
C3
350
5F
  3
C4
350
60
  3
C5
350
61
  3
C6
350
62
  3
C7
350
63
  3
C8
350
64
  3
C9
350
65
  3
D0
350
66
  3
D1
350
67
  3
D2
350
68
  0
DICTIONARY
  5
289
102
{ACAD_REACTORS
330
C
102
}
330
C
100
AcDbDictionary
281
     1
  0
DICTIONARY
  5
69
102
{ACAD_REACTORS
330
C
102
}
330
C
100
AcDbDictionary
281
     1
  3
Standard
350
6A
  0
DICTIONARY
  5
2A
102
{ACAD_REACTORS
330
C
102
}
330
C
100
AcDbDictionary
281
     1
  3
2dWireframe
350
2F
  3
Basic
350
32
  3
Brighten
350
36
  3
ColorChange
350
3A
  3
Conceptual
350
34
  3
Dim
350
35
  3
EdgeColorOff
350
3D
  3
Facepattern
350
39
  3
Flat
350
2B
  3
FlatWithEdges
350
2C
  3
Gouraud
350
2D
  3
GouraudWithEdges
350
2E
  3
Hidden
350
31
  3
JitterOff
350
3B
  3
Linepattern
350
38
  3
OverhangOff
350
3C
  3
Realistic
350
33
  3
Shaded
350
42
  3
Shaded with edges
350
41
  3
Shades of Gray
350
3E
  3
Sketchy
350
3F
  3
Thicken
350
37
  3
Wireframe
350
30
  3
X-Ray
350
40
  0
XRECORD
  5
285
102
{ACAD_REACTORS
330
C
102
}
330
C
100
AcDbXrecord
280
     1
 90
        1
330
6A
  0
DICTIONARY
  5
281
102
{ACAD_REACTORS
330
C
102
}
330
C
100
AcDbDictionary
281
     1
  3
CANNOSCALE
350
282
  3
CMLEADERSTYLE
350
287
  3
CTABLESTYLE
350
286
  0
LAYOUT
  5
1E
102
{ACAD_REACTORS
330
1A
102
}
330
1A
100
AcDbPlotSettings
  1

  2
none_device
  4

  6

 40
0.0
 41
0.0
 42
0.0
 43
0.0
 44
0.0
 45
0.0
 46
0.0
 47
0.0
 48
0.0
 49
0.0
140
0.0
141
0.0
142
1.0
143
1.0
 70
   688
 72
     0
 73
     0
 74
     5
  7

 75
    16
 76
     0
 77
     2
 78
   300
147
1.0
148
0.0
149
0.0
100
AcDbLayout
  1
Layout1
 70
     1
 71
     1
 10
0.0
 20
0.0
 11
12.0
 21
9.0
 12
0.0
 22
0.0
 32
0.0
 14
1.000000000000000E+20
 24
1.000000000000000E+20
 34
1.000000000000000E+20
 15
-1.000000000000000E+20
 25
-1.000000000000000E+20
 35
-1.000000000000000E+20
146
0.0
 13
0.0
 23
0.0
 33
0.0
 16
1.0
 26
0.0
 36
0.0
 17
0.0
 27
1.0
 37
0.0
 76
     0
330
1B
  0
LAYOUT
  5
26
102
{ACAD_REACTORS
330
1A
102
}
330
1A
100
AcDbPlotSettings
  1

  2
none_device
  4

  6

 40
0.0
 41
0.0
 42
0.0
 43
0.0
 44
0.0
 45
0.0
 46
0.0
 47
0.0
 48
0.0
 49
0.0
140
0.0
141
0.0
142
1.0
143
1.0
 70
   688
 72
     0
 73
     0
 74
     5
  7

 75
    16
 76
     0
 77
     2
 78
   300
147
1.0
148
0.0
149
0.0
100
AcDbLayout
  1
Layout2
 70
     1
 71
     2
 10
0.0
 20
0.0
 11
0.0
 21
0.0
 12
0.0
 22
0.0
 32
0.0
 14
0.0
 24
0.0
 34
0.0
 15
0.0
 25
0.0
 35
0.0
146
0.0
 13
0.0
 23
0.0
 33
0.0
 16
1.0
 26
0.0
 36
0.0
 17
0.0
 27
1.0
 37
0.0
 76
     0
330
23
  0
LAYOUT
  5
22
102
{ACAD_REACTORS
330
1A
102
}
330
1A
100
AcDbPlotSettings
  1

  2
none_device
  4
Letter_(8.50_x_11.00_Inches)
  6

 40
6.35
 41
6.35
 42
6.35000508
 43
6.35000508
 44
215.9
 45
279.4
 46
0.0
 47
0.0
 48
0.0
 49
0.0
140
0.0
141
0.0
142
1.0
143
1.0
 70
  1712
 72
     0
 73
     0
 74
     0
  7

 75
     0
 76
     0
 77
     2
 78
   300
147
1.0
148
0.0
149
0.0
100
AcDbLayout
  1
Model
 70
     1
 71
     0
 10
0.0
 20
0.0
 11
12.0
 21
9.0
 12
0.0
 22
0.0
 32
0.0
 14
1.000000000000000E+20
 24
1.000000000000000E+20
 34
1.000000000000000E+20
 15
-1.000000000000000E+20
 25
-1.000000000000000E+20
 35
-1.000000000000000E+20
146
0.0
 13
0.0
 23
0.0
 33
0.0
 16
1.0
 26
0.0
 36
0.0
 17
0.0
 27
1.0
 37
0.0
 76
     0
330
1F
331
29
  0
MATERIAL
  5
45
102
{ACAD_REACTORS
330
43
102
}
330
43
100
AcDbMaterial
  1
ByBlock
 72
     1
 94
      127
  0
MATERIAL
  5
44
102
{ACAD_REACTORS
330
43
102
}
330
43
100
AcDbMaterial
  1
ByLayer
 72
     1
 94
      127
  0
MATERIAL
  5
46
102
{ACAD_REACTORS
330
43
102
}
330
43
100
AcDbMaterial
  1
Global
 72
     1
 94
      127
  0
MLEADERSTYLE
  5
6C
102
{ACAD_REACTORS
330
6B
102
}
330
6B
100
AcDbMLeaderStyle
179
     2
170
     2
171
     1
172
     0
 90
        2
 40
0.0
 41
0.0
173
     1
 91
-1056964608
340
14
 92
       -2
290
     1
 42
0.09
291
     1
 43
0.36
  3
Standard
341
0
 44
0.18
300

342
11
174
     1
178
     6
175
     1
176
     0
 93
-1056964608
 45
0.18
292
     0
297
     0
 46
0.18
343
0
 94
-1056964608
 47
1.0
 49
1.0
140
1.0
293
     1
141
0.0
294
     1
177
     0
142
1.0
295
     0
296
     0
143
0.125
271
     0
272
     9
273
     9
298
     0
  0
MLINESTYLE
  5
18
102
{ACAD_REACTORS
330
17
102
}
330
17
100
AcDbMlineStyle
  2
Standard
 70
     0
  3

 62
   256
 51
90.0
 52
90.0
 71
     2
 49
0.5
 62
   256
  6
BYLAYER
 49
-0.5
 62
   256
  6
BYLAYER
  0
ACDBPLACEHOLDER
  5
F
102
{ACAD_REACTORS
330
E
102
}
330
E
  0
SCALE
  5
48
102
{ACAD_REACTORS
330
47
102
}
330
47
100
AcDbScale
 70
     0
300
1:1
140
1.0
141
1.0
290
     1
  0
SCALE
  5
49
102
{ACAD_REACTORS
330
47
102
}
330
47
100
AcDbScale
 70
     0
300
1:2
140
1.0
141
2.0
290
     0
  0
SCALE
  5
4A
102
{ACAD_REACTORS
330
47
102
}
330
47
100
AcDbScale
 70
     0
300
1:4
140
1.0
141
4.0
290
     0
  0
SCALE
  5
4B
102
{ACAD_REACTORS
330
47
102
}
330
47
100
AcDbScale
 70
     0
300
1:5
140
1.0
141
5.0
290
     0
  0
SCALE
  5
4C
102
{ACAD_REACTORS
330
47
102
}
330
47
100
AcDbScale
 70
     0
300
1:8
140
1.0
141
8.0
290
     0
  0
SCALE
  5
4D
102
{ACAD_REACTORS
330
47
102
}
330
47
100
AcDbScale
 70
     0
300
1:10
140
1.0
141
10.0
290
     0
  0
SCALE
  5
4E
102
{ACAD_REACTORS
330
47
102
}
330
47
100
AcDbScale
 70
     0
300
1:16
140
1.0
141
16.0
290
     0
  0
SCALE
  5
4F
102
{ACAD_REACTORS
330
47
102
}
330
47
100
AcDbScale
 70
     0
300
1:20
140
1.0
141
20.0
290
     0
  0
SCALE
  5
50
102
{ACAD_REACTORS
330
47
102
}
330
47
100
AcDbScale
 70
     0
300
1:30
140
1.0
141
30.0
290
     0
  0
SCALE
  5
51
102
{ACAD_REACTORS
330
47
102
}
330
47
100
AcDbScale
 70
     0
300
1:40
140
1.0
141
40.0
290
     0
  0
SCALE
  5
52
102
{ACAD_REACTORS
330
47
102
}
330
47
100
AcDbScale
 70
     0
300
1:50
140
1.0
141
50.0
290
     0
  0
SCALE
  5
53
102
{ACAD_REACTORS
330
47
102
}
330
47
100
AcDbScale
 70
     0
300
1:100
140
1.0
141
100.0
290
     0
  0
SCALE
  5
54
102
{ACAD_REACTORS
330
47
102
}
330
47
100
AcDbScale
 70
     0
300
2:1
140
2.0
141
1.0
290
     0
  0
SCALE
  5
55
102
{ACAD_REACTORS
330
47
102
}
330
47
100
AcDbScale
 70
     0
300
4:1
140
4.0
141
1.0
290
     0
  0
SCALE
  5
56
102
{ACAD_REACTORS
330
47
102
}
330
47
100
AcDbScale
 70
     0
300
8:1
140
8.0
141
1.0
290
     0
  0
SCALE
  5
57
102
{ACAD_REACTORS
330
47
102
}
330
47
100
AcDbScale
 70
     0
300
10:1
140
10.0
141
1.0
290
     0
  0
SCALE
  5
58
102
{ACAD_REACTORS
330
47
102
}
330
47
100
AcDbScale
 70
     0
300
100:1
140
100.0
141
1.0
290
     0
  0
SCALE
  5
59
102
{ACAD_REACTORS
330
47
102
}
330
47
100
AcDbScale
 70
     0
300
1/128" = 1'-0"
140
0.0078125
141
12.0
290
     0
  0
SCALE
  5
5A
102
{ACAD_REACTORS
330
47
102
}
330
47
100
AcDbScale
 70
     0
300
1/64" = 1'-0"
140
0.015625
141
12.0
290
     0
  0
SCALE
  5
5B
102
{ACAD_REACTORS
330
47
102
}
330
47
100
AcDbScale
 70
     0
300
1/32" = 1'-0"
140
0.03125
141
12.0
290
     0
  0
SCALE
  5
5C
102
{ACAD_REACTORS
330
47
102
}
330
47
100
AcDbScale
 70
     0
300
1/16" = 1'-0"
140
0.0625
141
12.0
290
     0
  0
SCALE
  5
5D
102
{ACAD_REACTORS
330
47
102
}
330
47
100
AcDbScale
 70
     0
300
3/32" = 1'-0"
140
0.09375
141
12.0
290
     0
  0
SCALE
  5
5E
102
{ACAD_REACTORS
330
47
102
}
330
47
100
AcDbScale
 70
     0
300
1/8" = 1'-0"
140
0.125
141
12.0
290
     0
  0
SCALE
  5
5F
102
{ACAD_REACTORS
330
47
102
}
330
47
100
AcDbScale
 70
     0
300
3/16" = 1'-0"
140
0.1875
141
12.0
290
     0
  0
SCALE
  5
60
102
{ACAD_REACTORS
330
47
102
}
330
47
100
AcDbScale
 70
     0
300
1/4" = 1'-0"
140
0.25
141
12.0
290
     0
  0
SCALE
  5
61
102
{ACAD_REACTORS
330
47
102
}
330
47
100
AcDbScale
 70
     0
300
3/8" = 1'-0"
140
0.375
141
12.0
290
     0
  0
SCALE
  5
62
102
{ACAD_REACTORS
330
47
102
}
330
47
100
AcDbScale
 70
     0
300
1/2" = 1'-0"
140
0.5
141
12.0
290
     0
  0
SCALE
  5
63
102
{ACAD_REACTORS
330
47
102
}
330
47
100
AcDbScale
 70
     0
300
3/4" = 1'-0"
140
0.75
141
12.0
290
     0
  0
SCALE
  5
64
102
{ACAD_REACTORS
330
47
102
}
330
47
100
AcDbScale
 70
     0
300
1" = 1'-0"
140
1.0
141
12.0
290
     0
  0
SCALE
  5
65
102
{ACAD_REACTORS
330
47
102
}
330
47
100
AcDbScale
 70
     0
300
1-1/2" = 1'-0"
140
1.5
141
12.0
290
     0
  0
SCALE
  5
66
102
{ACAD_REACTORS
330
47
102
}
330
47
100
AcDbScale
 70
     0
300
3" = 1'-0"
140
3.0
141
12.0
290
     0
  0
SCALE
  5
67
102
{ACAD_REACTORS
330
47
102
}
330
47
100
AcDbScale
 70
     0
300
6" = 1'-0"
140
6.0
141
12.0
290
     0
  0
SCALE
  5
68
102
{ACAD_REACTORS
330
47
102
}
330
47
100
AcDbScale
 70
     0
300
1'-0" = 1'-0"
140
12.0
141
12.0
290
     0
  0
TABLESTYLE
  5
6A
102
{ACAD_REACTORS
330
69
102
}
102
{ACAD_XDICTIONARY
360
283
102
}
330
69
100
AcDbTableStyle
  3
Standard
 70
     0
 71
     0
 40
0.06
 41
0.06
280
     0
281
     0
  7
Standard
140
0.18
170
     2
 62
     0
 63
   257
283
     0
 90
        4
 91
        0
  1

274
    -2
284
     1
 64
     0
275
    -2
285
     1
 65
     0
276
    -2
286
     1
 66
     0
277
    -2
287
     1
 67
     0
278
    -2
288
     1
 68
     0
279
    -2
289
     1
 69
     0
  7
Standard
140
0.25
170
     5
 62
     0
 63
   257
283
     0
 90
        4
 91
        0
  1

274
    -2
284
     1
 64
     0
275
    -2
285
     1
 65
     0
276
    -2
286
     1
 66
     0
277
    -2
287
     1
 67
     0
278
    -2
288
     1
 68
     0
279
    -2
289
     1
 69
     0
  7
Standard
140
0.18
170
     5
 62
     0
 63
   257
283
     0
 90
        4
 91
        0
  1

274
    -2
284
     1
 64
     0
275
    -2
285
     1
 65
     0
276
    -2
286
     1
 66
     0
277
    -2
287
     1
 67
     0
278
    -2
288
     1
 68
     0
279
    -2
289
     1
 69
     0
  0
VISUALSTYLE
  5
2F
102
{ACAD_REACTORS
330
2A
102
}
330
2A
100
AcDbVisualStyle
  2
2dWireframe
 70
     4
177
     3
291
     0
 70
    58
 90
        0
176
     1
 90
        2
176
     1
 90
        0
176
     1
 90
        0
176
     1
 40
0.6
176
     1
 40
30.0
176
     1
 62
     7
420
 16777215
176
     1
 90
        1
176
     1
 90
        4
176
     1
 62
     7
176
     1
 62
   257
176
     1
 90
        1
176
     1
 90
        1
176
     1
 40
1.0
176
     1
 90
        0
176
     1
 62
   257
176
     1
 40
1.0
176
     1
 90
        1
176
     1
 90
        6
176
     1
 90
        2
176
     1
 62
     7
176
     1
 90
        5
176
     1
 90
        0
176
     1
 90
        0
176
     1
290
     0
176
     1
 90
        1
176
     1
 40
0.0
176
     1
 90
        0
176
     1
290
     1
176
     1
290
     1
176
     1
290
     0
176
     1
290
     0
176
     1
290
     0
176
     1
290
     0
176
     1
290
     0
176
     1
290
     0
176
     1
290
     0
176
     1
 90
       50
176
     1
 40
0.0
176
     1
 40
1.0
176
     1
 90
        0
176
     1
 62
    18
420
        0
176
     1
 90
       50
176
     1
 90
        3
176
     1
 62
     5
420
      255
176
     1
290
     0
176
     1
 90
       50
176
     1
 90
       50
176
     1
 90
       50
176
     1
290
     0
176
     1
 90
       50
176
     1
 62
   256
176
     0
 40
1.0
176
     0
 90
        2
176
     1
  1
strokes_ogs.tif
176
     1
290
     0
176
     1
 40
1.0
176
     1
 40
1.0
176
     1
  0
VISUALSTYLE
  5
32
102
{ACAD_REACTORS
330
2A
102
}
330
2A
100
AcDbVisualStyle
  2
Basic
 70
     7
177
     3
291
     1
 70
    58
 90
        1
176
     1
 90
        0
176
     1
 90
        1
176
     1
 90
        0
176
     1
 40
0.6
176
     1
 40
30.0
176
     1
 62
     7
420
 16777215
176
     1
 90
        0
176
     1
 90
        4
176
     1
 62
     7
176
     1
 62
   257
176
     1
 90
        1
176
     1
 90
        1
176
     1
 40
1.0
176
     1
 90
        8
176
     1
 62
     7
176
     1
 40
1.0
176
     1
 90
        1
176
     1
 90
        6
176
     1
 90
        2
176
     1
 62
     7
176
     1
 90
        5
176
     1
 90
        0
176
     1
 90
        0
176
     1
290
     0
176
     1
 90
        1
176
     1
 40
0.0
176
     1
 90
        0
176
     1
290
     0
176
     1
290
     1
176
     1
290
     1
176
     1
290
     0
176
     1
290
     0
176
     1
290
     0
176
     1
290
     0
176
     1
290
     0
176
     1
290
     0
176
     1
 90
       50
176
     1
 40
0.0
176
     1
 40
1.0
176
     1
 90
        0
176
     1
 62
    18
420
        0
176
     1
 90
       50
176
     1
 90
        3
176
     1
 62
     5
420
      255
176
     1
290
     0
176
     1
 90
       50
176
     1
 90
       50
176
     1
 90
       50
176
     1
290
     0
176
     1
 90
       50
176
     1
 62
   256
176
     0
 40
1.0
176
     0
 90
        2
176
     1
  1
strokes_ogs.tif
176
     1
290
     0
176
     1
 40
1.0
176
     1
 40
1.0
176
     1
  0
VISUALSTYLE
  5
36
102
{ACAD_REACTORS
330
2A
102
}
330
2A
100
AcDbVisualStyle
  2
Brighten
 70
    12
177
     3
291
     1
 70
    58
 90
        2
176
     1
 90
        2
176
     1
 90
        0
176
     1
 90
        0
176
     1
 40
0.6
176
     1
 40
30.0
176
     1
 62
     7
420
 16777215
176
     1
 90
        1
176
     1
 90
        4
176
     1
 62
     7
176
     1
 62
   257
176
     1
 90
        1
176
     1
 90
        1
176
     1
 40
1.0
176
     1
 90
        8
176
     1
 62
     7
176
     1
 40
1.0
176
     1
 90
        1
176
     1
 90
        6
176
     1
 90
        2
176
     1
 62
     7
176
     1
 90
        5
176
     1
 90
        0
176
     1
 90
        0
176
     1
290
     0
176
     1
 90
        1
176
     1
 40
50.0
176
     1
 90
        0
176
     1
290
     0
176
     1
290
     1
176
     1
290
     1
176
     1
290
     0
176
     1
290
     0
176
     1
290
     0
176
     1
290
     0
176
     1
290
     0
176
     1
290
     0
176
     1
 90
       50
176
     1
 40
0.0
176
     1
 40
1.0
176
     1
 90
        0
176
     1
 62
    18
420
        0
176
     1
 90
       50
176
     1
 90
        3
176
     1
 62
     5
420
      255
176
     1
290
     0
176
     1
 90
       50
176
     1
 90
       50
176
     1
 90
       50
176
     1
290
     0
176
     1
 90
       50
176
     1
 62
   256
176
     0
 40
1.0
176
     0
 90
        2
176
     1
  1
strokes_ogs.tif
176
     1
290
     0
176
     1
 40
1.0
176
     1
 40
1.0
176
     1
  0
VISUALSTYLE
  5
3A
102
{ACAD_REACTORS
330
2A
102
}
330
2A
100
AcDbVisualStyle
  2
ColorChange
 70
    16
177
     3
291
     1
 70
    58
 90
        2
176
     1
 90
        2
176
     1
 90
        3
176
     1
 90
        0
176
     1
 40
0.6
176
     1
 40
30.0
176
     1
 62
     8
420
  8421504
176
     1
 90
        1
176
     1
 90
        4
176
     1
 62
     7
176
     1
 62
   257
176
     1
 90
        1
176
     1
 90
        1
176
     1
 40
1.0
176
     1
 90
        8
176
     1
 62
     8
420
  8421504
176
     1
 40
1.0
176
     1
 90
        1
176
     1
 90
        6
176
     1
 90
        2
176
     1
 62
     7
176
     1
 90
        5
176
     1
 90
        0
176
     1
 90
        0
176
     1
290
     0
176
     1
 90
        1
176
     1
 40
0.0
176
     1
 90
        0
176
     1
290
     0
176
     1
290
     1
176
     1
290
     1
176
     1
290
     0
176
     1
290
     0
176
     1
290
     0
176
     1
290
     0
176
     1
290
     0
176
     1
290
     0
176
     1
 90
       50
176
     1
 40
0.0
176
     1
 40
1.0
176
     1
 90
        0
176
     1
 62
    18
420
        0
176
     1
 90
       50
176
     1
 90
        3
176
     1
 62
     5
420
      255
176
     1
290
     0
176
     1
 90
       50
176
     1
 90
       50
176
     1
 90
       50
176
     1
290
     0
176
     1
 90
       50
176
     1
 62
   256
176
     0
 40
1.0
176
     0
 90
        2
176
     1
  1
strokes_ogs.tif
176
     1
290
     0
176
     1
 40
1.0
176
     1
 40
1.0
176
     1
  0
VISUALSTYLE
  5
34
102
{ACAD_REACTORS
330
2A
102
}
330
2A
100
AcDbVisualStyle
  2
Conceptual
 70
     9
177
     3
291
     0
 70
    58
 90
        3
176
     1
 90
        2
176
     1
 90
        0
176
     1
 90
        0
176
     1
 40
0.6
176
     1
 40
30.0
176
     1
 62
     7
420
 16777215
176
     1
 90
        2
176
     1
 90
        2
176
     1
 62
     7
176
     1
 62
   257
176
     1
 90
        1
176
     1
 90
        1
176
     1
 40
179.0
176
     1
 90
        8
176
     1
 62
     7
176
     1
 40
1.0
176
     1
 90
        1
176
     1
 90
        6
176
     1
 90
        2
176
     1
 62
     7
176
     1
 90
        3
176
     1
 90
        0
176
     1
 90
        0
176
     1
290
     0
176
     1
 90
        1
176
     1
 40
0.0
176
     1
 90
        0
176
     1
290
     0
176
     1
290
     1
176
     1
290
     1
176
     1
290
     0
176
     1
290
     0
176
     1
290
     0
176
     1
290
     0
176
     1
290
     0
176
     1
290
     0
176
     1
 90
       50
176
     1
 40
0.0
176
     1
 40
1.0
176
     1
 90
        0
176
     1
 62
    18
420
        0
176
     1
 90
       50
176
     1
 90
        3
176
     1
 62
     5
420
      255
176
     1
290
     0
176
     1
 90
       50
176
     1
 90
       50
176
     1
 90
       50
176
     1
290
     0
176
     1
 90
       50
176
     1
 62
   256
176
     0
 40
1.0
176
     0
 90
        2
176
     1
  1
strokes_ogs.tif
176
     1
290
     0
176
     1
 40
1.0
176
     1
 40
1.0
176
     1
  0
VISUALSTYLE
  5
35
102
{ACAD_REACTORS
330
2A
102
}
330
2A
100
AcDbVisualStyle
  2
Dim
 70
    11
177
     3
291
     1
 70
    58
 90
        2
176
     1
 90
        2
176
     1
 90
        0
176
     1
 90
        0
176
     1
 40
0.6
176
     1
 40
30.0
176
     1
 62
     7
420
 16777215
176
     1
 90
        1
176
     1
 90
        4
176
     1
 62
     7
176
     1
 62
   257
176
     1
 90
        1
176
     1
 90
        1
176
     1
 40
1.0
176
     1
 90
        8
176
     1
 62
     7
176
     1
 40
1.0
176
     1
 90
        1
176
     1
 90
        6
176
     1
 90
        2
176
     1
 62
     7
176
     1
 90
        5
176
     1
 90
        0
176
     1
 90
        0
176
     1
290
     0
176
     1
 90
        1
176
     1
 40
-50.0
176
     1
 90
        0
176
     1
290
     0
176
     1
290
     1
176
     1
290
     1
176
     1
290
     0
176
     1
290
     0
176
     1
290
     0
176
     1
290
     0
176
     1
290
     0
176
     1
290
     0
176
     1
 90
       50
176
     1
 40
0.0
176
     1
 40
1.0
176
     1
 90
        0
176
     1
 62
    18
420
        0
176
     1
 90
       50
176
     1
 90
        3
176
     1
 62
     5
420
      255
176
     1
290
     0
176
     1
 90
       50
176
     1
 90
       50
176
     1
 90
       50
176
     1
290
     0
176
     1
 90
       50
176
     1
 62
   256
176
     0
 40
1.0
176
     0
 90
        2
176
     1
  1
strokes_ogs.tif
176
     1
290
     0
176
     1
 40
1.0
176
     1
 40
1.0
176
     1
  0
VISUALSTYLE
  5
3D
102
{ACAD_REACTORS
330
2A
102
}
330
2A
100
AcDbVisualStyle
  2
EdgeColorOff
 70
    22
177
     3
291
     1
 70
    58
 90
        2
176
     0
 90
        2
176
     0
 90
        0
176
     0
 90
        0
176
     0
 40
0.6
176
     0
 40
30.0
176
     0
 62
     7
420
 16777215
176
     0
 90
        1
176
     0
 90
        4
176
     0
 62
     7
176
     0
 62
   257
176
     0
 90
        1
176
     0
 90
        1
176
     0
 40
1.0
176
     0
 90
        8
176
     2
 62
     7
176
     0
 40
1.0
176
     0
 90
        1
176
     0
 90
        6
176
     0
 90
        2
176
     0
 62
     7
176
     0
 90
        5
176
     0
 90
        0
176
     0
 90
        0
176
     0
290
     0
176
     0
 90
        1
176
     0
 40
0.0
176
     0
 90
        0
176
     0
290
     0
176
     0
290
     1
176
     0
290
     1
176
     0
290
     0
176
     0
290
     0
176
     0
290
     0
176
     0
290
     0
176
     0
290
     0
176
     0
290
     0
176
     0
 90
       50
176
     0
 40
0.0
176
     0
 40
1.0
176
     0
 90
        0
176
     0
 62
    18
420
        0
176
     0
 90
       50
176
     0
 90
        3
176
     0
 62
     5
420
      255
176
     0
290
     0
176
     0
 90
       50
176
     0
 90
       50
176
     0
 90
       50
176
     0
290
     0
176
     0
 90
       50
176
     0
 62
   256
176
     0
 40
1.0
176
     0
 90
        2
176
     0
  1
strokes_ogs.tif
176
     0
290
     0
176
     0
 40
1.0
176
     0
 40
1.0
176
     0
  0
VISUALSTYLE
  5
39
102
{ACAD_REACTORS
330
2A
102
}
330
2A
100
AcDbVisualStyle
  2
Facepattern
 70
    15
177
     3
291
     1
 70
    58
 90
        2
176
     1
 90
        2
176
     1
 90
        0
176
     1
 90
        0
176
     1
 40
0.6
176
     1
 40
30.0
176
     1
 62
     7
420
 16777215
176
     1
 90
        1
176
     1
 90
        4
176
     1
 62
     7
176
     1
 62
   257
176
     1
 90
        1
176
     1
 90
        1
176
     1
 40
1.0
176
     1
 90
        8
176
     1
 62
     7
176
     1
 40
1.0
176
     1
 90
        1
176
     1
 90
        6
176
     1
 90
        2
176
     1
 62
     7
176
     1
 90
        5
176
     1
 90
        0
176
     1
 90
        0
176
     1
290
     0
176
     1
 90
        1
176
     1
 40
0.0
176
     1
 90
        0
176
     1
290
     0
176
     1
290
     1
176
     1
290
     1
176
     1
290
     0
176
     1
290
     0
176
     1
290
     0
176
     1
290
     0
176
     1
290
     0
176
     1
290
     0
176
     1
 90
       50
176
     1
 40
0.0
176
     1
 40
1.0
176
     1
 90
        0
176
     1
 62
    18
420
        0
176
     1
 90
       50
176
     1
 90
        3
176
     1
 62
     5
420
      255
176
     1
290
     0
176
     1
 90
       50
176
     1
 90
       50
176
     1
 90
       50
176
     1
290
     0
176
     1
 90
       50
176
     1
 62
   256
176
     0
 40
1.0
176
     0
 90
        2
176
     1
  1
strokes_ogs.tif
176
     1
290
     0
176
     1
 40
1.0
176
     1
 40
1.0
176
     1
  0
VISUALSTYLE
  5
2B
102
{ACAD_REACTORS
330
2A
102
}
330
2A
100
AcDbVisualStyle
  2
Flat
 70
     0
177
     3
291
     1
 70
    58
 90
        2
176
     1
 90
        1
176
     1
 90
        1
176
     1
 90
        2
176
     1
 40
0.6
176
     1
 40
30.0
176
     1
 62
     7
420
 16777215
176
     1
 90
        0
176
     1
 90
        0
176
     1
 62
     7
176
     1
 62
   257
176
     1
 90
        1
176
     1
 90
        1
176
     1
 40
1.0
176
     1
 90
        8
176
     1
 62
     7
176
     1
 40
1.0
176
     1
 90
        1
176
     1
 90
        6
176
     1
 90
        2
176
     1
 62
     7
176
     1
 90
        5
176
     1
 90
        0
176
     1
 90
        0
176
     1
290
     0
176
     1
 90
       13
176
     1
 40
0.0
176
     1
 90
        0
176
     1
290
     0
176
     1
290
     1
176
     1
290
     1
176
     1
290
     0
176
     1
290
     0
176
     1
290
     0
176
     1
290
     0
176
     1
290
     0
176
     1
290
     0
176
     1
 90
       50
176
     1
 40
0.0
176
     1
 40
1.0
176
     1
 90
        0
176
     1
 62
    18
420
        0
176
     1
 90
       50
176
     1
 90
        3
176
     1
 62
     5
420
      255
176
     1
290
     0
176
     1
 90
       50
176
     1
 90
       50
176
     1
 90
       50
176
     1
290
     0
176
     1
 90
       50
176
     1
 62
   256
176
     0
 40
1.0
176
     0
 90
        2
176
     1
  1
strokes_ogs.tif
176
     1
290
     0
176
     1
 40
1.0
176
     1
 40
1.0
176
     1
  0
VISUALSTYLE
  5
2C
102
{ACAD_REACTORS
330
2A
102
}
330
2A
100
AcDbVisualStyle
  2
FlatWithEdges
 70
     1
177
     3
291
     1
 70
    58
 90
        2
176
     1
 90
        1
176
     1
 90
        1
176
     1
 90
        2
176
     1
 40
0.6
176
     1
 40
30.0
176
     1
 62
     7
420
 16777215
176
     1
 90
        1
176
     1
 90
        0
176
     1
 62
     7
176
     1
 62
   257
176
     1
 90
        1
176
     1
 90
        1
176
     1
 40
1.0
176
     1
 90
        0
176
     1
 62
   257
176
     1
 40
1.0
176
     1
 90
        1
176
     1
 90
        6
176
     1
 90
        2
176
     1
 62
     7
176
     1
 90
        5
176
     1
 90
        0
176
     1
 90
        0
176
     1
290
     0
176
     1
 90
       13
176
     1
 40
0.0
176
     1
 90
        0
176
     1
290
     0
176
     1
290
     1
176
     1
290
     1
176
     1
290
     0
176
     1
290
     0
176
     1
290
     0
176
     1
290
     0
176
     1
290
     0
176
     1
290
     0
176
     1
 90
       50
176
     1
 40
0.0
176
     1
 40
1.0
176
     1
 90
        0
176
     1
 62
    18
420
        0
176
     1
 90
       50
176
     1
 90
        3
176
     1
 62
     5
420
      255
176
     1
290
     0
176
     1
 90
       50
176
     1
 90
       50
176
     1
 90
       50
176
     1
290
     0
176
     1
 90
       50
176
     1
 62
   256
176
     0
 40
1.0
176
     0
 90
        2
176
     1
  1
strokes_ogs.tif
176
     1
290
     0
176
     1
 40
1.0
176
     1
 40
1.0
176
     1
  0
VISUALSTYLE
  5
2D
102
{ACAD_REACTORS
330
2A
102
}
330
2A
100
AcDbVisualStyle
  2
Gouraud
 70
     2
177
     3
291
     1
 70
    58
 90
        2
176
     1
 90
        2
176
     1
 90
        1
176
     1
 90
        2
176
     1
 40
0.6
176
     1
 40
30.0
176
     1
 62
     7
420
 16777215
176
     1
 90
        0
176
     1
 90
        0
176
     1
 62
     7
176
     1
 62
   257
176
     1
 90
        1
176
     1
 90
        1
176
     1
 40
1.0
176
     1
 90
        0
176
     1
 62
     7
176
     1
 40
1.0
176
     1
 90
        1
176
     1
 90
        6
176
     1
 90
        2
176
     1
 62
     7
176
     1
 90
        5
176
     1
 90
        0
176
     1
 90
        0
176
     1
290
     0
176
     1
 90
       13
176
     1
 40
0.0
176
     1
 90
        0
176
     1
290
     0
176
     1
290
     1
176
     1
290
     1
176
     1
290
     0
176
     1
290
     0
176
     1
290
     0
176
     1
290
     0
176
     1
290
     0
176
     1
290
     0
176
     1
 90
       50
176
     1
 40
0.0
176
     1
 40
1.0
176
     1
 90
        0
176
     1
 62
    18
420
        0
176
     1
 90
       50
176
     1
 90
        3
176
     1
 62
     5
420
      255
176
     1
290
     0
176
     1
 90
       50
176
     1
 90
       50
176
     1
 90
       50
176
     1
290
     0
176
     1
 90
       50
176
     1
 62
   256
176
     0
 40
1.0
176
     0
 90
        2
176
     1
  1
strokes_ogs.tif
176
     1
290
     0
176
     1
 40
1.0
176
     1
 40
1.0
176
     1
  0
VISUALSTYLE
  5
2E
102
{ACAD_REACTORS
330
2A
102
}
330
2A
100
AcDbVisualStyle
  2
GouraudWithEdges
 70
     3
177
     3
291
     1
 70
    58
 90
        2
176
     1
 90
        2
176
     1
 90
        1
176
     1
 90
        2
176
     1
 40
0.6
176
     1
 40
30.0
176
     1
 62
     7
420
 16777215
176
     1
 90
        1
176
     1
 90
        0
176
     1
 62
     7
176
     1
 62
   257
176
     1
 90
        1
176
     1
 90
        1
176
     1
 40
1.0
176
     1
 90
        0
176
     1
 62
   257
176
     1
 40
1.0
176
     1
 90
        1
176
     1
 90
        6
176
     1
 90
        2
176
     1
 62
     7
176
     1
 90
        5
176
     1
 90
        0
176
     1
 90
        0
176
     1
290
     0
176
     1
 90
       13
176
     1
 40
0.0
176
     1
 90
        0
176
     1
290
     0
176
     1
290
     1
176
     1
290
     1
176
     1
290
     0
176
     1
290
     0
176
     1
290
     0
176
     1
290
     0
176
     1
290
     0
176
     1
290
     0
176
     1
 90
       50
176
     1
 40
0.0
176
     1
 40
1.0
176
     1
 90
        0
176
     1
 62
    18
420
        0
176
     1
 90
       50
176
     1
 90
        3
176
     1
 62
     5
420
      255
176
     1
290
     0
176
     1
 90
       50
176
     1
 90
       50
176
     1
 90
       50
176
     1
290
     0
176
     1
 90
       50
176
     1
 62
   256
176
     0
 40
1.0
176
     0
 90
        2
176
     1
  1
strokes_ogs.tif
176
     1
290
     0
176
     1
 40
1.0
176
     1
 40
1.0
176
     1
  0
VISUALSTYLE
  5
31
102
{ACAD_REACTORS
330
2A
102
}
330
2A
100
AcDbVisualStyle
  2
Hidden
 70
     6
177
     3
291
     0
 70
    58
 90
        1
176
     1
 90
        2
176
     1
 90
        2
176
     1
 90
        0
176
     1
 40
0.6
176
     1
 40
30.0
176
     1
 62
     7
420
 16777215
176
     1
 90
        2
176
     1
 90
        2
176
     1
 62
     7
176
     1
 62
   257
176
     1
 90
        2
176
     1
 90
        1
176
     1
 40
40.0
176
     1
 90
        0
176
     1
 62
   257
176
     1
 40
1.0
176
     1
 90
        1
176
     1
 90
        6
176
     1
 90
        2
176
     1
 62
     7
176
     1
 90
        3
176
     1
 90
        0
176
     1
 90
        0
176
     1
290
     0
176
     1
 90
        1
176
     1
 40
0.0
176
     1
 90
        0
176
     1
290
     0
176
     1
290
     1
176
     1
290
     1
176
     1
290
     0
176
     1
290
     0
176
     1
290
     0
176
     1
290
     0
176
     1
290
     0
176
     1
290
     0
176
     1
 90
       50
176
     1
 40
0.0
176
     1
 40
1.0
176
     1
 90
        0
176
     1
 62
    18
420
        0
176
     1
 90
       50
176
     1
 90
        3
176
     1
 62
     5
420
      255
176
     1
290
     0
176
     1
 90
       50
176
     1
 90
       50
176
     1
 90
       50
176
     1
290
     0
176
     1
 90
       50
176
     1
 62
   256
176
     0
 40
1.0
176
     0
 90
        2
176
     1
  1
strokes_ogs.tif
176
     1
290
     0
176
     1
 40
1.0
176
     1
 40
1.0
176
     1
  0
VISUALSTYLE
  5
3B
102
{ACAD_REACTORS
330
2A
102
}
330
2A
100
AcDbVisualStyle
  2
JitterOff
 70
    20
177
     3
291
     1
 70
    58
 90
        2
176
     0
 90
        2
176
     0
 90
        0
176
     0
 90
        0
176
     0
 40
0.6
176
     0
 40
30.0
176
     0
 62
     7
420
 16777215
176
     0
 90
        1
176
     0
 90
        4
176
     0
 62
     7
176
     0
 62
   257
176
     0
 90
        1
176
     0
 90
        1
176
     0
 40
1.0
176
     0
 90
       10
176
     2
 62
     7
176
     0
 40
1.0
176
     0
 90
        1
176
     0
 90
        6
176
     0
 90
        2
176
     0
 62
     7
176
     0
 90
        5
176
     0
 90
        0
176
     0
 90
        0
176
     0
290
     0
176
     0
 90
        1
176
     0
 40
0.0
176
     0
 90
        0
176
     0
290
     0
176
     0
290
     1
176
     0
290
     1
176
     0
290
     0
176
     0
290
     0
176
     0
290
     0
176
     0
290
     0
176
     0
290
     0
176
     0
290
     0
176
     0
 90
       50
176
     0
 40
0.0
176
     0
 40
1.0
176
     0
 90
        0
176
     0
 62
    18
420
        0
176
     0
 90
       50
176
     0
 90
        3
176
     0
 62
     5
420
      255
176
     0
290
     0
176
     0
 90
       50
176
     0
 90
       50
176
     0
 90
       50
176
     0
290
     0
176
     0
 90
       50
176
     0
 62
   256
176
     0
 40
1.0
176
     0
 90
        2
176
     0
  1
strokes_ogs.tif
176
     0
290
     0
176
     0
 40
1.0
176
     0
 40
1.0
176
     0
  0
VISUALSTYLE
  5
38
102
{ACAD_REACTORS
330
2A
102
}
330
2A
100
AcDbVisualStyle
  2
Linepattern
 70
    14
177
     3
291
     1
 70
    58
 90
        2
176
     1
 90
        2
176
     1
 90
        0
176
     1
 90
        0
176
     1
 40
0.6
176
     1
 40
30.0
176
     1
 62
     7
420
 16777215
176
     1
 90
        1
176
     1
 90
        4
176
     1
 62
     7
176
     1
 62
   257
176
     1
 90
        7
176
     1
 90
        7
176
     1
 40
1.0
176
     1
 90
        8
176
     1
 62
     7
176
     1
 40
1.0
176
     1
 90
        1
176
     1
 90
        6
176
     1
 90
        2
176
     1
 62
     7
176
     1
 90
        5
176
     1
 90
        0
176
     1
 90
        0
176
     1
290
     0
176
     1
 90
        1
176
     1
 40
0.0
176
     1
 90
        0
176
     1
290
     0
176
     1
290
     1
176
     1
290
     1
176
     1
290
     0
176
     1
290
     0
176
     1
290
     0
176
     1
290
     0
176
     1
290
     0
176
     1
290
     0
176
     1
 90
       50
176
     1
 40
0.0
176
     1
 40
1.0
176
     1
 90
        0
176
     1
 62
    18
420
        0
176
     1
 90
       50
176
     1
 90
        3
176
     1
 62
     5
420
      255
176
     1
290
     0
176
     1
 90
       50
176
     1
 90
       50
176
     1
 90
       50
176
     1
290
     0
176
     1
 90
       50
176
     1
 62
   256
176
     0
 40
1.0
176
     0
 90
        2
176
     1
  1
strokes_ogs.tif
176
     1
290
     0
176
     1
 40
1.0
176
     1
 40
1.0
176
     1
  0
VISUALSTYLE
  5
3C
102
{ACAD_REACTORS
330
2A
102
}
330
2A
100
AcDbVisualStyle
  2
OverhangOff
 70
    21
177
     3
291
     1
 70
    58
 90
        2
176
     0
 90
        2
176
     0
 90
        0
176
     0
 90
        0
176
     0
 40
0.6
176
     0
 40
30.0
176
     0
 62
     7
420
 16777215
176
     0
 90
        1
176
     0
 90
        4
176
     0
 62
     7
176
     0
 62
   257
176
     0
 90
        1
176
     0
 90
        1
176
     0
 40
1.0
176
     0
 90
        9
176
     2
 62
     7
176
     0
 40
1.0
176
     0
 90
        1
176
     0
 90
        6
176
     0
 90
        2
176
     0
 62
     7
176
     0
 90
        5
176
     0
 90
        0
176
     0
 90
        0
176
     0
290
     0
176
     0
 90
        1
176
     0
 40
0.0
176
     0
 90
        0
176
     0
290
     0
176
     0
290
     1
176
     0
290
     1
176
     0
290
     0
176
     0
290
     0
176
     0
290
     0
176
     0
290
     0
176
     0
290
     0
176
     0
290
     0
176
     0
 90
       50
176
     0
 40
0.0
176
     0
 40
1.0
176
     0
 90
        0
176
     0
 62
    18
420
        0
176
     0
 90
       50
176
     0
 90
        3
176
     0
 62
     5
420
      255
176
     0
290
     0
176
     0
 90
       50
176
     0
 90
       50
176
     0
 90
       50
176
     0
290
     0
176
     0
 90
       50
176
     0
 62
   256
176
     0
 40
1.0
176
     0
 90
        2
176
     0
  1
strokes_ogs.tif
176
     0
290
     0
176
     0
 40
1.0
176
     0
 40
1.0
176
     0
  0
VISUALSTYLE
  5
33
102
{ACAD_REACTORS
330
2A
102
}
330
2A
100
AcDbVisualStyle
  2
Realistic
 70
     8
177
     3
291
     0
 70
    58
 90
        2
176
     1
 90
        3
176
     1
 90
        0
176
     1
 90
        2
176
     1
 40
0.6
176
     1
 40
30.0
176
     1
 62
     7
420
 16777215
176
     1
 90
        0
176
     1
 90
        0
176
     1
 62
     7
176
     1
 62
   257
176
     1
 90
        1
176
     1
 90
        1
176
     1
 40
1.0
176
     1
 90
        8
176
     1
 62
   257
176
     1
 40
1.0
176
     1
 90
        1
176
     1
 90
        6
176
     1
 90
        2
176
     1
 62
     7
176
     1
 90
        3
176
     1
 90
        0
176
     1
 90
        0
176
     1
290
     0
176
     1
 90
       13
176
     1
 40
0.0
176
     1
 90
        0
176
     1
290
     0
176
     1
290
     1
176
     1
290
     1
176
     1
290
     0
176
     1
290
     0
176
     1
290
     0
176
     1
290
     0
176
     1
290
     0
176
     1
290
     0
176
     1
 90
       50
176
     1
 40
0.0
176
     1
 40
1.0
176
     1
 90
        0
176
     1
 62
    18
420
        0
176
     1
 90
       50
176
     1
 90
        3
176
     1
 62
     5
420
      255
176
     1
290
     0
176
     1
 90
       50
176
     1
 90
       50
176
     1
 90
       50
176
     1
290
     0
176
     1
 90
       50
176
     1
 62
   256
176
     0
 40
1.0
176
     0
 90
        2
176
     1
  1
strokes_ogs.tif
176
     1
290
     0
176
     1
 40
1.0
176
     1
 40
1.0
176
     1
  0
VISUALSTYLE
  5
42
102
{ACAD_REACTORS
330
2A
102
}
330
2A
100
AcDbVisualStyle
  2
Shaded
 70
    27
177
     3
291
     0
 70
    58
 90
        2
176
     1
 90
        2
176
     1
 90
        1
176
     1
 90
        2
176
     1
 40
0.6
176
     1
 40
30.0
176
     1
 62
     7
420
 16777215
176
     1
 90
        0
176
     1
 90
        4
176
     1
 62
     7
176
     1
 62
   257
176
     1
 90
        1
176
     1
 90
        1
176
     1
 40
1.0
176
     1
 90
        8
176
     1
 62
   257
176
     1
 40
1.0
176
     1
 90
        1
176
     1
 90
        6
176
     1
 90
        2
176
     1
 62
     8
420
  7895160
176
     1
 90
        3
176
     1
 90
        0
176
     1
 90
        0
176
     1
290
     0
176
     1
 90
        5
176
     1
 40
0.0
176
     1
 90
        0
176
     1
290
     0
176
     1
290
     1
176
     1
290
     1
176
     1
290
     0
176
     1
290
     0
176
     1
290
     0
176
     1
290
     0
176
     1
290
     0
176
     1
290
     0
176
     1
 90
       50
176
     1
 40
0.0
176
     1
 40
1.0
176
     1
 90
        0
176
     1
 62
    18
420
        0
176
     1
 90
       50
176
     1
 90
        3
176
     1
 62
     5
420
      255
176
     1
290
     0
176
     1
 90
       50
176
     1
 90
       50
176
     1
 90
       50
176
     1
290
     0
176
     1
 90
       50
176
     1
 62
   256
176
     0
 40
1.0
176
     0
 90
        2
176
     1
  1
strokes_ogs.tif
176
     1
290
     0
176
     1
 40
1.0
176
     1
 40
1.0
176
     1
  0
VISUALSTYLE
  5
41
102
{ACAD_REACTORS
330
2A
102
}
330
2A
100
AcDbVisualStyle
  2
Shaded with edges
 70
    26
177
     3
291
     0
 70
    58
 90
        2
176
     1
 90
        2
176
     1
 90
        1
176
     1
 90
        2
176
     1
 40
0.6
176
     1
 40
30.0
176
     1
 62
     7
420
 16777215
176
     1
 90
        1
176
     1
 90
       10
176
     1
 62
     7
176
     1
 62
   257
176
     1
 90
        2
176
     1
 90
        1
176
     1
 40
1.0
176
     1
 90
        8
176
     1
 62
   257
176
     1
 40
1.0
176
     1
 90
        1
176
     1
 90
        6
176
     1
 90
        2
176
     1
 62
     7
176
     1
 90
        3
176
     1
 90
        0
176
     1
 90
        0
176
     1
290
     0
176
     1
 90
        5
176
     1
 40
0.0
176
     1
 90
        0
176
     1
290
     0
176
     1
290
     1
176
     1
290
     1
176
     1
290
     0
176
     1
290
     0
176
     1
290
     0
176
     1
290
     0
176
     1
290
     0
176
     1
290
     0
176
     1
 90
       50
176
     1
 40
0.0
176
     1
 40
1.0
176
     1
 90
        0
176
     1
 62
    18
420
        0
176
     1
 90
       50
176
     1
 90
        3
176
     1
 62
     5
420
      255
176
     1
290
     0
176
     1
 90
       50
176
     1
 90
       50
176
     1
 90
       50
176
     1
290
     0
176
     1
 90
       50
176
     1
 62
   256
176
     0
 40
1.0
176
     0
 90
        2
176
     1
  1
strokes_ogs.tif
176
     1
290
     0
176
     1
 40
1.0
176
     1
 40
1.0
176
     1
  0
VISUALSTYLE
  5
3E
102
{ACAD_REACTORS
330
2A
102
}
330
2A
100
AcDbVisualStyle
  2
Shades of Gray
 70
    23
177
     3
291
     0
 70
    58
 90
        2
176
     1
 90
        2
176
     1
 90
        3
176
     1
 90
        0
176
     1
 40
0.6
176
     1
 40
30.0
176
     1
 62
     7
420
 16777215
176
     1
 90
        2
176
     1
 90
        2
176
     1
 62
     7
176
     1
 62
     7
176
     1
 90
        1
176
     1
 90
        1
176
     1
 40
40.0
176
     1
 90
        8
176
     1
 62
     7
176
     1
 40
1.0
176
     1
 90
        1
176
     1
 90
        6
176
     1
 90
        2
176
     1
 62
     7
176
     1
 90
        3
176
     1
 90
        0
176
     1
 90
        0
176
     1
290
     0
176
     1
 90
        1
176
     1
 40
0.0
176
     1
 90
        0
176
     1
290
     0
176
     1
290
     1
176
     1
290
     1
176
     1
290
     0
176
     1
290
     0
176
     1
290
     0
176
     1
290
     0
176
     1
290
     0
176
     1
290
     0
176
     1
 90
       50
176
     1
 40
0.0
176
     1
 40
1.0
176
     1
 90
        0
176
     1
 62
    18
420
        0
176
     1
 90
       50
176
     1
 90
        3
176
     1
 62
     5
420
      255
176
     1
290
     0
176
     1
 90
       50
176
     1
 90
       50
176
     1
 90
       50
176
     1
290
     0
176
     1
 90
       50
176
     1
 62
   256
176
     0
 40
1.0
176
     0
 90
        2
176
     1
  1
strokes_ogs.tif
176
     1
290
     0
176
     1
 40
1.0
176
     1
 40
1.0
176
     1
  0
VISUALSTYLE
  5
3F
102
{ACAD_REACTORS
330
2A
102
}
330
2A
100
AcDbVisualStyle
  2
Sketchy
 70
    24
177
     3
291
     0
 70
    58
 90
        1
176
     1
 90
        2
176
     1
 90
        2
176
     1
 90
        0
176
     1
 40
0.6
176
     1
 40
30.0
176
     1
 62
     7
420
 16777215
176
     1
 90
        2
176
     1
 90
        2
176
     1
 62
     7
176
     1
 62
     7
176
     1
 90
        1
176
     1
 90
        1
176
     1
 40
40.0
176
     1
 90
       11
176
     1
 62
     7
176
     1
 40
1.0
176
     1
 90
        1
176
     1
 90
        6
176
     1
 90
        2
176
     1
 62
     7
176
     1
 90
        6
176
     1
 90
        0
176
     1
 90
        0
176
     1
290
     0
176
     1
 90
        1
176
     1
 40
0.0
176
     1
 90
        0
176
     1
290
     0
176
     1
290
     1
176
     1
290
     1
176
     1
290
     0
176
     1
290
     0
176
     1
290
     0
176
     1
290
     0
176
     1
290
     0
176
     1
290
     0
176
     1
 90
       50
176
     1
 40
0.0
176
     1
 40
1.0
176
     1
 90
        0
176
     1
 62
    18
420
        0
176
     1
 90
       50
176
     1
 90
        3
176
     1
 62
     5
420
      255
176
     1
290
     0
176
     1
 90
       50
176
     1
 90
       50
176
     1
 90
       50
176
     1
290
     0
176
     1
 90
       50
176
     1
 62
   256
176
     0
 40
1.0
176
     0
 90
        2
176
     1
  1
strokes_ogs.tif
176
     1
290
     0
176
     1
 40
1.0
176
     1
 40
1.0
176
     1
  0
VISUALSTYLE
  5
37
102
{ACAD_REACTORS
330
2A
102
}
330
2A
100
AcDbVisualStyle
  2
Thicken
 70
    13
177
     3
291
     1
 70
    58
 90
        2
176
     1
 90
        2
176
     1
 90
        0
176
     1
 90
        0
176
     1
 40
0.6
176
     1
 40
30.0
176
     1
 62
     7
420
 16777215
176
     1
 90
        1
176
     1
 90
        4
176
     1
 62
     7
176
     1
 62
   257
176
     1
 90
        1
176
     1
 90
        1
176
     1
 40
1.0
176
     1
 90
       12
176
     1
 62
     7
176
     1
 40
1.0
176
     1
 90
        1
176
     1
 90
        6
176
     1
 90
        2
176
     1
 62
     7
176
     1
 90
        5
176
     1
 90
        0
176
     1
 90
        0
176
     1
290
     0
176
     1
 90
        1
176
     1
 40
0.0
176
     1
 90
        0
176
     1
290
     0
176
     1
290
     1
176
     1
290
     1
176
     1
290
     0
176
     1
290
     0
176
     1
290
     0
176
     1
290
     0
176
     1
290
     0
176
     1
290
     0
176
     1
 90
       50
176
     1
 40
0.0
176
     1
 40
1.0
176
     1
 90
        0
176
     1
 62
    18
420
        0
176
     1
 90
       50
176
     1
 90
        3
176
     1
 62
     5
420
      255
176
     1
290
     0
176
     1
 90
       50
176
     1
 90
       50
176
     1
 90
       50
176
     1
290
     0
176
     1
 90
       50
176
     1
 62
   256
176
     0
 40
1.0
176
     0
 90
        2
176
     1
  1
strokes_ogs.tif
176
     1
290
     0
176
     1
 40
1.0
176
     1
 40
1.0
176
     1
  0
VISUALSTYLE
  5
30
102
{ACAD_REACTORS
330
2A
102
}
330
2A
100
AcDbVisualStyle
  2
Wireframe
 70
     5
177
     3
291
     0
 70
    58
 90
        0
176
     1
 90
        2
176
     1
 90
        0
176
     1
 90
        0
176
     1
 40
0.6
176
     1
 40
30.0
176
     1
 62
     7
420
 16777215
176
     1
 90
        1
176
     1
 90
        4
176
     1
 62
     7
176
     1
 62
   257
176
     1
 90
        1
176
     1
 90
        1
176
     1
 40
1.0
176
     1
 90
        0
176
     1
 62
   257
176
     1
 40
1.0
176
     1
 90
        1
176
     1
 90
        6
176
     1
 90
        2
176
     1
 62
     7
176
     1
 90
        3
176
     1
 90
        0
176
     1
 90
        0
176
     1
290
     0
176
     1
 90
        1
176
     1
 40
0.0
176
     1
 90
        0
176
     1
290
     0
176
     1
290
     1
176
     1
290
     1
176
     1
290
     0
176
     1
290
     0
176
     1
290
     0
176
     1
290
     0
176
     1
290
     0
176
     1
290
     0
176
     1
 90
       50
176
     1
 40
0.0
176
     1
 40
1.0
176
     1
 90
        0
176
     1
 62
    18
420
        0
176
     1
 90
       50
176
     1
 90
        3
176
     1
 62
     5
420
      255
176
     1
290
     0
176
     1
 90
       50
176
     1
 90
       50
176
     1
 90
       50
176
     1
290
     0
176
     1
 90
       50
176
     1
 62
   256
176
     0
 40
1.0
176
     0
 90
        2
176
     1
  1
strokes_ogs.tif
176
     1
290
     0
176
     1
 40
1.0
176
     1
 40
1.0
176
     1
  0
VISUALSTYLE
  5
40
102
{ACAD_REACTORS
330
2A
102
}
330
2A
100
AcDbVisualStyle
  2
X-Ray
 70
    25
177
     3
291
     0
 70
    58
 90
        2
176
     1
 90
        2
176
     1
 90
        1
176
     1
 90
        1
176
     1
 40
0.5
176
     1
 40
30.0
176
     1
 62
     7
420
 16777215
176
     1
 90
        1
176
     1
 90
        0
176
     1
 62
     7
176
     1
 62
   257
176
     1
 90
        1
176
     1
 90
        1
176
     1
 40
1.0
176
     1
 90
        8
176
     1
 62
     7
176
     1
 40
1.0
176
     1
 90
        1
176
     1
 90
        6
176
     1
 90
        2
176
     1
 62
     7
176
     1
 90
        3
176
     1
 90
        0
176
     1
 90
        0
176
     1
290
     0
176
     1
 90
       13
176
     1
 40
0.0
176
     1
 90
        0
176
     1
290
     0
176
     1
290
     1
176
     1
290
     1
176
     1
290
     0
176
     1
290
     0
176
     1
290
     0
176
     1
290
     0
176
     1
290
     0
176
     1
290
     0
176
     1
 90
       50
176
     1
 40
0.0
176
     1
 40
1.0
176
     1
 90
        0
176
     1
 62
    18
420
        0
176
     1
 90
       50
176
     1
 90
        3
176
     1
 62
     5
420
      255
176
     1
290
     0
176
     1
 90
       50
176
     1
 90
       50
176
     1
 90
       50
176
     1
290
     0
176
     1
 90
       50
176
     1
 62
   256
176
     0
 40
1.0
176
     0
 90
        2
176
     1
  1
strokes_ogs.tif
176
     1
290
     0
176
     1
 40
1.0
176
     1
 40
1.0
176
     1
  0
DICTIONARYVAR
  5
282
102
{ACAD_REACTORS
330
281
102
}
330
281
100
DictionaryVariables
280
     0
  1
1:1
  0
DICTIONARYVAR
  5
287
102
{ACAD_REACTORS
330
281
102
}
330
281
100
DictionaryVariables
280
     0
  1
Standard
  0
DICTIONARYVAR
  5
286
102
{ACAD_REACTORS
330
281
102
}
330
281
100
DictionaryVariables
280
     0
  1
Standard
  0
DICTIONARY
  5
283
330
6A
100
AcDbDictionary
280
     1
281
     1
  3
ACAD_ROUNDTRIP_2008_TABLESTYLE_CELLSTYLEMAP
360
284
  0
CELLSTYLEMAP
  5
284
102
{ACAD_REACTORS
330
283
102
}
330
283
100
AcDbCellStyleMap
 90
        3
300
CELLSTYLE
  1
TABLEFORMAT_BEGIN
 90
        5
170
     1
 91
        0
 92
    32768
 62
   257
 93
        1
300
CONTENTFORMAT
  1
CONTENTFORMAT_BEGIN
 90
        0
 91
        0
 92
        4
 93
        0
300

 40
0.0
140
1.0
 94
        5
 62
     0
340
11
144
0.25
309
CONTENTFORMAT_END
171
     1
301
MARGIN
  1
CELLMARGIN_BEGIN
 40
0.06
 40
0.06
 40
0.06
 40
0.06
 40
0.06
 40
0.06
309
CELLMARGIN_END
 94
        6
 95
        1
302
GRIDFORMAT
  1
GRIDFORMAT_BEGIN
 90
        0
 91
        1
 62
     0
 92
       -2
340
14
 93
        0
 40
0.045
309
GRIDFORMAT_END
 95
        2
302
GRIDFORMAT
  1
GRIDFORMAT_BEGIN
 90
        0
 91
        1
 62
     0
 92
       -2
340
14
 93
        0
 40
0.045
309
GRIDFORMAT_END
 95
        4
302
GRIDFORMAT
  1
GRIDFORMAT_BEGIN
 90
        0
 91
        1
 62
     0
 92
       -2
340
14
 93
        0
 40
0.045
309
GRIDFORMAT_END
 95
        8
302
GRIDFORMAT
  1
GRIDFORMAT_BEGIN
 90
        0
 91
        1
 62
     0
 92
       -2
340
14
 93
        0
 40
0.045
309
GRIDFORMAT_END
 95
       16
302
GRIDFORMAT
  1
GRIDFORMAT_BEGIN
 90
        0
 91
        1
 62
     0
 92
       -2
340
14
 93
        0
 40
0.045
309
GRIDFORMAT_END
 95
       32
302
GRIDFORMAT
  1
GRIDFORMAT_BEGIN
 90
        0
 91
        1
 62
     0
 92
       -2
340
14
 93
        0
 40
0.045
309
GRIDFORMAT_END
309
TABLEFORMAT_END
  1
CELLSTYLE_BEGIN
 90
        1
 91
        1
300
_TITLE
309
CELLSTYLE_END
300
CELLSTYLE
  1
TABLEFORMAT_BEGIN
 90
        5
170
     1
 91
        0
 92
        0
 62
   257
 93
        1
300
CONTENTFORMAT
  1
CONTENTFORMAT_BEGIN
 90
        0
 91
        0
 92
        4
 93
        0
300

 40
0.0
140
1.0
 94
        5
 62
     0
340
11
144
0.18
309
CONTENTFORMAT_END
171
     1
301
MARGIN
  1
CELLMARGIN_BEGIN
 40
0.06
 40
0.06
 40
0.06
 40
0.06
 40
0.06
 40
0.06
309
CELLMARGIN_END
 94
        6
 95
        1
302
GRIDFORMAT
  1
GRIDFORMAT_BEGIN
 90
        0
 91
        1
 62
     0
 92
       -2
340
14
 93
        0
 40
0.045
309
GRIDFORMAT_END
 95
        2
302
GRIDFORMAT
  1
GRIDFORMAT_BEGIN
 90
        0
 91
        1
 62
     0
 92
       -2
340
14
 93
        0
 40
0.045
309
GRIDFORMAT_END
 95
        4
302
GRIDFORMAT
  1
GRIDFORMAT_BEGIN
 90
        0
 91
        1
 62
     0
 92
       -2
340
14
 93
        0
 40
0.045
309
GRIDFORMAT_END
 95
        8
302
GRIDFORMAT
  1
GRIDFORMAT_BEGIN
 90
        0
 91
        1
 62
     0
 92
       -2
340
14
 93
        0
 40
0.045
309
GRIDFORMAT_END
 95
       16
302
GRIDFORMAT
  1
GRIDFORMAT_BEGIN
 90
        0
 91
        1
 62
     0
 92
       -2
340
14
 93
        0
 40
0.045
309
GRIDFORMAT_END
 95
       32
302
GRIDFORMAT
  1
GRIDFORMAT_BEGIN
 90
        0
 91
        1
 62
     0
 92
       -2
340
14
 93
        0
 40
0.045
309
GRIDFORMAT_END
309
TABLEFORMAT_END
  1
CELLSTYLE_BEGIN
 90
        2
 91
        1
300
_HEADER
309
CELLSTYLE_END
300
CELLSTYLE
  1
TABLEFORMAT_BEGIN
 90
        5
170
     1
 91
        0
 92
        0
 62
   257
 93
        1
300
CONTENTFORMAT
  1
CONTENTFORMAT_BEGIN
 90
        0
 91
        0
 92
        4
 93
        0
300

 40
0.0
140
1.0
 94
        2
 62
     0
340
11
144
0.18
309
CONTENTFORMAT_END
171
     1
301
MARGIN
  1
CELLMARGIN_BEGIN
 40
0.06
 40
0.06
 40
0.06
 40
0.06
 40
0.06
 40
0.06
309
CELLMARGIN_END
 94
        6
 95
        1
302
GRIDFORMAT
  1
GRIDFORMAT_BEGIN
 90
        0
 91
        1
 62
     0
 92
       -2
340
14
 93
        0
 40
0.045
309
GRIDFORMAT_END
 95
        2
302
GRIDFORMAT
  1
GRIDFORMAT_BEGIN
 90
        0
 91
        1
 62
     0
 92
       -2
340
14
 93
        0
 40
0.045
309
GRIDFORMAT_END
 95
        4
302
GRIDFORMAT
  1
GRIDFORMAT_BEGIN
 90
        0
 91
        1
 62
     0
 92
       -2
340
14
 93
        0
 40
0.045
309
GRIDFORMAT_END
 95
        8
302
GRIDFORMAT
  1
GRIDFORMAT_BEGIN
 90
        0
 91
        1
 62
     0
 92
       -2
340
14
 93
        0
 40
0.045
309
GRIDFORMAT_END
 95
       16
302
GRIDFORMAT
  1
GRIDFORMAT_BEGIN
 90
        0
 91
        1
 62
     0
 92
       -2
340
14
 93
        0
 40
0.045
309
GRIDFORMAT_END
 95
       32
302
GRIDFORMAT
  1
GRIDFORMAT_BEGIN
 90
        0
 91
        1
 62
     0
 92
       -2
340
14
 93
        0
 40
0.045
309
GRIDFORMAT_END
309
TABLEFORMAT_END
  1
CELLSTYLE_BEGIN
 90
        3
 91
        2
300
_DATA
309
CELLSTYLE_END
  0
ENDSEC
  0
EOF