0
SECTION
  2
HEADER
  9
$ACADVER
  1
AC1027
  9
$ACADMAINTVER
 70
     8
  9
$DWGCODEPAGE
  3
ANSI_1252
  9
$REQUIREDVERSIONS
160
                 0
  9
$COMMENTS
  1
File was created by Cadenas
  9
$CUSTOMPROPERTYTAG
  1
NN
  9
$CUSTOMPROPERTY
  1
Imperial - IP Piloted Flange Labyrinth Seal
  9
$CUSTOMPROPERTYTAG
  1
NT
  9
$CUSTOMPROPERTY
  1
Imperial Piloted Flange Bearings
  9
$CUSTOMPROPERTYTAG
  1
NB
  9
$CUSTOMPROPERTY
  1
069913
  9
$CUSTOMPROPERTYTAG
  1
NBSYN
  9
$CUSTOMPROPERTY
  1
$PN.
  9
$CUSTOMPROPERTYTAG
  1
LINA
  9
$CUSTOMPROPERTY
  1
069913
  9
$CUSTOMPROPERTYTAG
  1
SS
  9
$CUSTOMPROPERTY
  1
2-3/16
  9
$CUSTOMPROPERTYTAG
  1
PN
  9
$CUSTOMPROPERTY
  1
069913
  9
$CUSTOMPROPERTYTAG
  1
DESCRIPTION
  9
$CUSTOMPROPERTY
  1
FC-IP-203LE
  9
$CUSTOMPROPERTYTAG
  1
EF
  9
$CUSTOMPROPERTY
  1
Expansion Type
  9
$CUSTOMPROPERTYTAG
  1
ST
  9
$CUSTOMPROPERTY
  1
Labyrinth Seal
  9
$CUSTOMPROPERTYTAG
  1
A
  9
$CUSTOMPROPERTY
  1
3-1/32
  9
$CUSTOMPROPERTYTAG
  1
B
  9
$CUSTOMPROPERTY
  1
7-1/8
  9
$CUSTOMPROPERTYTAG
  1
C
  9
$CUSTOMPROPERTY
  1
2-3/16
  9
$CUSTOMPROPERTYTAG
  1
D
  9
$CUSTOMPROPERTY
  1
4-1/4
  9
$CUSTOMPROPERTYTAG
  1
DD
  9
$CUSTOMPROPERTY
  1
6
  9
$CUSTOMPROPERTYTAG
  1
E
  9
$CUSTOMPROPERTY
  1
1
  9
$CUSTOMPROPERTYTAG
  1
F
  9
$CUSTOMPROPERTY
  1
1/2
  9
$CUSTOMPROPERTYTAG
  1
G
  9
$CUSTOMPROPERTY
  1
1-21/32
  9
$CUSTOMPROPERTYTAG
  1
H
  9
$CUSTOMPROPERTY
  1
9/16
  9
$CUSTOMPROPERTYTAG
  1
K
  9
$CUSTOMPROPERTY
  1
5.000
  9
$CUSTOMPROPERTYTAG
  1
L
  9
$CUSTOMPROPERTY
  1
3-1/2
  9
$CUSTOMPROPERTYTAG
  1
M
  9
$CUSTOMPROPERTY
  1
1/2-13
  9
$CUSTOMPROPERTYTAG
  1
N
  9
$CUSTOMPROPERTY
  1
3-5/64
  9
$CUSTOMPROPERTYTAG
  1
P
  9
$CUSTOMPROPERTY
  1
1-3/8
  9
$CUSTOMPROPERTYTAG
  1
Q
  9
$CUSTOMPROPERTY
  1
1-27/64
  9
$CUSTOMPROPERTYTAG
  1
X
  9
$CUSTOMPROPERTY
  1
1/4
  9
$CUSTOMPROPERTYTAG
  1
Y
  9
$CUSTOMPROPERTY
  1
0.025
  9
$CUSTOMPROPERTYTAG
  1
Z
  9
$CUSTOMPROPERTY
  1
2-19/32
  9
$CUSTOMPROPERTYTAG
  1
COMPANY
  9
$CUSTOMPROPERTY
  1
baldor
  9
$INSBASE
 10
0.0
 20
0.0
 30
0.0
  9
$EXTMIN
 10
1.000000000000000E+20
 20
1.000000000000000E+20
 30
1.000000000000000E+20
  9
$EXTMAX
 10
-1.000000000000000E+20
 20
-1.000000000000000E+20
 30
-1.000000000000000E+20
  9
$LIMMIN
 10
0.0
 20
0.0
  9
$LIMMAX
 10
12.0
 20
9.0
  9
$ORTHOMODE
 70
     0
  9
$REGENMODE
 70
     1
  9
$FILLMODE
 70
     1
  9
$QTEXTMODE
 70
     0
  9
$MIRRTEXT
 70
     1
  9
$LTSCALE
 40
1.0
  9
$ATTMODE
 70
     1
  9
$TEXTSIZE
 40
0.2
  9
$TRACEWID
 40
0.05
  9
$TEXTSTYLE
  7
Standard
  9
$CLAYER
  8
0
  9
$CELTYPE
  6
ByLayer
  9
$CECOLOR
 62
   256
  9
$CELTSCALE
 40
1.0
  9
$DISPSILH
 70
     0
  9
$DIMSCALE
 40
1.0
  9
$DIMASZ
 40
0.18
  9
$DIMEXO
 40
0.0625
  9
$DIMDLI
 40
0.38
  9
$DIMRND
 40
0.0
  9
$DIMDLE
 40
0.0
  9
$DIMEXE
 40
0.18
  9
$DIMTP
 40
0.0
  9
$DIMTM
 40
0.0
  9
$DIMTXT
 40
0.18
  9
$DIMCEN
 40
0.09
  9
$DIMTSZ
 40
0.0
  9
$DIMTOL
 70
     0
  9
$DIMLIM
 70
     0
  9
$DIMTIH
 70
     1
  9
$DIMTOH
 70
     1
  9
$DIMSE1
 70
     0
  9
$DIMSE2
 70
     0
  9
$DIMTAD
 70
     0
  9
$DIMZIN
 70
     0
  9
$DIMBLK
  1

  9
$DIMASO
 70
     1
  9
$DIMSHO
 70
     1
  9
$DIMPOST
  1

  9
$DIMAPOST
  1

  9
$DIMALT
 70
     0
  9
$DIMALTD
 70
     2
  9
$DIMALTF
 40
25.4
  9
$DIMLFAC
 40
1.0
  9
$DIMTOFL
 70
     0
  9
$DIMTVP
 40
0.0
  9
$DIMTIX
 70
     0
  9
$DIMSOXD
 70
     0
  9
$DIMSAH
 70
     0
  9
$DIMBLK1
  1

  9
$DIMBLK2
  1

  9
$DIMSTYLE
  2
Standard
  9
$DIMCLRD
 70
     0
  9
$DIMCLRE
 70
     0
  9
$DIMCLRT
 70
     0
  9
$DIMTFAC
 40
1.0
  9
$DIMGAP
 40
0.09
  9
$DIMJUST
 70
     0
  9
$DIMSD1
 70
     0
  9
$DIMSD2
 70
     0
  9
$DIMTOLJ
 70
     1
  9
$DIMTZIN
 70
     0
  9
$DIMALTZ
 70
     0
  9
$DIMALTTZ
 70
     0
  9
$DIMUPT
 70
     0
  9
$DIMDEC
 70
     4
  9
$DIMTDEC
 70
     4
  9
$DIMALTU
 70
     2
  9
$DIMALTTD
 70
     2
  9
$DIMTXSTY
  7
Standard
  9
$DIMAUNIT
 70
     0
  9
$DIMADEC
 70
     0
  9
$DIMALTRND
 40
0.0
  9
$DIMAZIN
 70
     0
  9
$DIMDSEP
 70
    46
  9
$DIMATFIT
 70
     3
  9
$DIMFRAC
 70
     0
  9
$DIMLDRBLK
  1

  9
$DIMLUNIT
 70
     2
  9
$DIMLWD
 70
    -2
  9
$DIMLWE
 70
    -2
  9
$DIMTMOVE
 70
     0
  9
$DIMFXL
 40
1.0
  9
$DIMFXLON
 70
     0
  9
$DIMJOGANG
 40
0.7853981633974483
  9
$DIMTFILL
 70
     0
  9
$DIMTFILLCLR
 70
     0
  9
$DIMARCSYM
 70
     0
  9
$DIMLTYPE
  6

  9
$DIMLTEX1
  6

  9
$DIMLTEX2
  6

  9
$DIMTXTDIRECTION
 70
     0
  9
$LUNITS
 70
     2
  9
$LUPREC
 70
     4
  9
$SKETCHINC
 40
0.1
  9
$FILLETRAD
 40
0.5
  9
$AUNITS
 70
     0
  9
$AUPREC
 70
     0
  9
$MENU
  1
.
  9
$ELEVATION
 40
0.0
  9
$PELEVATION
 40
0.0
  9
$THICKNESS
 40
0.0
  9
$LIMCHECK
 70
     0
  9
$CHAMFERA
 40
0.0
  9
$CHAMFERB
 40
0.0
  9
$CHAMFERC
 40
0.0
  9
$CHAMFERD
 40
0.0
  9
$SKPOLY
 70
     0
  9
$TDCREATE
 40
2458168.989042616
  9
$TDUCREATE
 40
2458168.947375949
  9
$TDUPDATE
 40
2458168.989042801
  9
$TDUUPDATE
 40
2458168.947376134
  9
$TDINDWG
 40
0.0000000116
  9
$TDUSRTIMER
 40
0.0000000116
  9
$USRTIMER
 70
     1
  9
$ANGBASE
 50
0.0
  9
$ANGDIR
 70
     0
  9
$PDMODE
 70
     0
  9
$PDSIZE
 40
0.0
  9
$PLINEWID
 40
0.0
  9
$SPLFRAME
 70
     0
  9
$SPLINETYPE
 70
     6
  9
$SPLINESEGS
 70
     8
  9
$HANDSEED
  5
26E
  9
$SURFTAB1
 70
     6
  9
$SURFTAB2
 70
     6
  9
$SURFTYPE
 70
     6
  9
$SURFU
 70
     6
  9
$SURFV
 70
     6
  9
$UCSBASE
  2

  9
$UCSNAME
  2

  9
$UCSORG
 10
0.0
 20
0.0
 30
0.0
  9
$UCSXDIR
 10
1.0
 20
0.0
 30
0.0
  9
$UCSYDIR
 10
0.0
 20
1.0
 30
0.0
  9
$UCSORTHOREF
  2

  9
$UCSORTHOVIEW
 70
     0
  9
$UCSORGTOP
 10
0.0
 20
0.0
 30
0.0
  9
$UCSORGBOTTOM
 10
0.0
 20
0.0
 30
0.0
  9
$UCSORGLEFT
 10
0.0
 20
0.0
 30
0.0
  9
$UCSORGRIGHT
 10
0.0
 20
0.0
 30
0.0
  9
$UCSORGFRONT
 10
0.0
 20
0.0
 30
0.0
  9
$UCSORGBACK
 10
0.0
 20
0.0
 30
0.0
  9
$PUCSBASE
  2

  9
$PUCSNAME
  2

  9
$PUCSORG
 10
0.0
 20
0.0
 30
0.0
  9
$PUCSXDIR
 10
1.0
 20
0.0
 30
0.0
  9
$PUCSYDIR
 10
0.0
 20
1.0
 30
0.0
  9
$PUCSORTHOREF
  2

  9
$PUCSORTHOVIEW
 70
     0
  9
$PUCSORGTOP
 10
0.0
 20
0.0
 30
0.0
  9
$PUCSORGBOTTOM
 10
0.0
 20
0.0
 30
0.0
  9
$PUCSORGLEFT
 10
0.0
 20
0.0
 30
0.0
  9
$PUCSORGRIGHT
 10
0.0
 20
0.0
 30
0.0
  9
$PUCSORGFRONT
 10
0.0
 20
0.0
 30
0.0
  9
$PUCSORGBACK
 10
0.0
 20
0.0
 30
0.0
  9
$USERI1
 70
     0
  9
$USERI2
 70
     0
  9
$USERI3
 70
     0
  9
$USERI4
 70
     0
  9
$USERI5
 70
     0
  9
$USERR1
 40
0.0
  9
$USERR2
 40
0.0
  9
$USERR3
 40
0.0
  9
$USERR4
 40
0.0
  9
$USERR5
 40
0.0
  9
$WORLDVIEW
 70
     1
  9
$SHADEDGE
 70
     3
  9
$SHADEDIF
 70
    70
  9
$TILEMODE
 70
     1
  9
$MAXACTVP
 70
    64
  9
$PINSBASE
 10
0.0
 20
0.0
 30
0.0
  9
$PLIMCHECK
 70
     0
  9
$PEXTMIN
 10
1.000000000000000E+20
 20
1.000000000000000E+20
 30
1.000000000000000E+20
  9
$PEXTMAX
 10
-1.000000000000000E+20
 20
-1.000000000000000E+20
 30
-1.000000000000000E+20
  9
$PLIMMIN
 10
0.0
 20
0.0
  9
$PLIMMAX
 10
12.0
 20
9.0
  9
$UNITMODE
 70
     0
  9
$VISRETAIN
 70
     1
  9
$PLINEGEN
 70
     0
  9
$PSLTSCALE
 70
     1
  9
$TREEDEPTH
 70
  3020
  9
$CMLSTYLE
  2
Standard
  9
$CMLJUST
 70
     0
  9
$CMLSCALE
 40
1.0
  9
$PROXYGRAPHICS
 70
     1
  9
$MEASUREMENT
 70
     0
  9
$CELWEIGHT
370
    -1
  9
$ENDCAPS
280
     0
  9
$JOINSTYLE
280
     0
  9
$LWDISPLAY
290
     0
  9
$INSUNITS
 70
     1
  9
$HYPERLINKBASE
  1

  9
$STYLESHEET
  1

  9
$XEDIT
290
     1
  9
$CEPSNTYPE
380
     0
  9
$PSTYLEMODE
290
     1
  9
$FINGERPRINTGUID
  2
{ACBFDAA6-1AE2-44F8-AE56-484A8726F752}
  9
$VERSIONGUID
  2
{FAEB1C32-E019-11D5-929B-00C0DF256EC4}
  9
$EXTNAMES
290
     1
  9
$PSVPSCALE
 40
0.0
  9
$OLESTARTUP
290
     0
  9
$SORTENTS
280
   127
  9
$INDEXCTL
280
     0
  9
$HIDETEXT
280
     1
  9
$XCLIPFRAME
280
     2
  9
$HALOGAP
280
     0
  9
$OBSCOLOR
 70
   257
  9
$OBSLTYPE
280
     0
  9
$INTERSECTIONDISPLAY
280
     0
  9
$INTERSECTIONCOLOR
 70
   257
  9
$DIMASSOC
280
     2
  9
$PROJECTNAME
  1

  9
$CAMERADISPLAY
290
     0
  9
$LENSLENGTH
 40
50.0
  9
$CAMERAHEIGHT
 40
0.0
  9
$STEPSPERSEC
 40
2.0
  9
$STEPSIZE
 40
6.0
  9
$3DDWFPREC
 40
2.0
  9
$PSOLWIDTH
 40
0.25
  9
$PSOLHEIGHT
 40
4.0
  9
$LOFTANG1
 40
1.570796326794897
  9
$LOFTANG2
 40
1.570796326794897
  9
$LOFTMAG1
 40
0.0
  9
$LOFTMAG2
 40
0.0
  9
$LOFTPARAM
 70
     7
  9
$LOFTNORMALS
280
     1
  9
$LATITUDE
 40
37.795
  9
$LONGITUDE
 40
-122.394
  9
$NORTHDIRECTION
 40
0.0
  9
$TIMEZONE
 70
 -8000
  9
$LIGHTGLYPHDISPLAY
280
     1
  9
$TILEMODELIGHTSYNCH
280
     1
  9
$CMATERIAL
347
44
  9
$SOLIDHIST
280
     0
  9
$SHOWHIST
280
     1
  9
$DWFFRAME
280
     2
  9
$DGNFRAME
280
     2
  9
$REALWORLDSCALE
290
     1
  9
$INTERFERECOLOR
 62
   256
  9
$CSHADOW
280
     0
  9
$SHADOWPLANELOCATION
 40
0.0
  0
ENDSEC
  0
SECTION
  2
CLASSES
  0
CLASS
  1
ACDBDICTIONARYWDFLT
  2
AcDbDictionaryWithDefault
  3
ObjectDBX Classes
 90
        0
 91
        4
280
     0
281
     0
  0
CLASS
  1
VISUALSTYLE
  2
AcDbVisualStyle
  3
ObjectDBX Classes
 90
     4095
 91
        4
280
     0
281
     0
  0
CLASS
  1
MATERIAL
  2
AcDbMaterial
  3
ObjectDBX Classes
 90
     1153
 91
        4
280
     0
281
     0
  0
CLASS
  1
SCALE
  2
AcDbScale
  3
ObjectDBX Classes
 90
     1153
 91
        4
280
     0
281
     0
  0
CLASS
  1
TABLESTYLE
  2
AcDbTableStyle
  3
ObjectDBX Classes
 90
     4095
 91
        4
280
     0
281
     0
  0
CLASS
  1
MLEADERSTYLE
  2
AcDbMLeaderStyle
  3
ACDB_MLEADERSTYLE_CLASS
 90
     4095
 91
        4
280
     0
281
     0
  0
CLASS
  1
SUN
  2
AcDbSun
  3
SCENEOE
 90
     1153
 91
        4
280
     0
281
     0
  0
CLASS
  1
DICTIONARYVAR
  2
AcDbDictionaryVar
  3
ObjectDBX Classes
 90
        0
 91
        4
280
     0
281
     0
  0
CLASS
  1
CELLSTYLEMAP
  2
AcDbCellStyleMap
  3
ObjectDBX Classes
 90
     1152
 91
        4
280
     0
281
     0
  0
ENDSEC
  0
SECTION
  2
TABLES
  0
TABLE
  2
VPORT
  5
8
330
0
100
AcDbSymbolTable
 70
     1
  0
VPORT
  5
29
330
8
100
AcDbSymbolTableRecord
100
AcDbViewportTableRecord
  2
*Active
 70
     0
 10
0.0
 20
0.0
 11
1.0
 21
1.0
 12
0.0
 22
0.0
 13
0.0
 23
0.0
 14
0.5
 24
0.5
 15
0.5
 25
0.5
 16
0.0
 26
0.0
 36
1.0
 17
0.0
 27
0.0
 37
0.0
 40
7.2675
 41
0.5268421052631579
 42
50.0
 43
0.0
 44
0.0
 50
0.0
 51
0.0
 71
     0
 72
   100
 73
     1
 74
     3
 75
     0
 76
     0
 77
     0
 78
     0
281
     0
 65
     1
110
0.0
120
0.0
130
0.0
111
1.0
121
0.0
131
0.0
112
0.0
122
1.0
132
0.0
 79
     0
146
0.0
348
2F
 60
     3
 61
     5
292
     1
282
     1
141
0.0
142
0.0
 63
   250
361
6D
  0
ENDTAB
  0
TABLE
  2
LTYPE
  5
5
330
0
100
AcDbSymbolTable
 70
     3
  0
LTYPE
  5
14
330
5
100
AcDbSymbolTableRecord
100
AcDbLinetypeTableRecord
  2
ByBlock
 70
     0
  3

 72
    65
 73
     0
 40
0.0
  0
LTYPE
  5
15
330
5
100
AcDbSymbolTableRecord
100
AcDbLinetypeTableRecord
  2
ByLayer
 70
     0
  3

 72
    65
 73
     0
 40
0.0
  0
LTYPE
  5
16
330
5
100
AcDbSymbolTableRecord
100
AcDbLinetypeTableRecord
  2
Continuous
 70
     0
  3
Solid line
 72
    65
 73
     0
 40
0.0
  0
LTYPE
  5
9C
330
5
100
AcDbSymbolTableRecord
100
AcDbLinetypeTableRecord
  2
Dashed
 70
     0
  3

 72
    65
 73
     2
 40
2.0
 49
1.0
 74
     0
 49
-1.0
 74
     0
  0
LTYPE
  5
AC
330
5
100
AcDbSymbolTableRecord
100
AcDbLinetypeTableRecord
  2
Center
 70
     0
  3

 72
    65
 73
     4
 40
1.5
 49
0.45
 74
     0
 49
-0.5
 74
     0
 49
0.05
 74
     0
 49
-0.5
 74
     0
  0
ENDTAB
  0
TABLE
  2
LAYER
  5
2
330
0
100
AcDbSymbolTable
 70
     7
  0
LAYER
  5
10
330
2
100
AcDbSymbolTableRecord
100
AcDbLayerTableRecord
  2
0
 70
     0
 62
     7
  6
Continuous
370
    -3
390
F
347
46
348
0
  0
LAYER
  5
72
330
2
100
AcDbSymbolTableRecord
100
AcDbLayerTableRecord
  2
AM_6
 70
     0
 62
    -2
  6
Continuous
370
    35
390
F
347
46
348
0
  0
LAYER
  5
9D
330
2
100
AcDbSymbolTableRecord
100
AcDbLayerTableRecord
  2
AM_9
 70
     0
 62
     6
  6
Dashed
370
    25
390
F
347
46
348
0
  0
LAYER
  5
A6
330
2
100
AcDbSymbolTableRecord
100
AcDbLayerTableRecord
  2
AM_5
 70
     0
 62
     3
  6
Continuous
370
    25
390
F
347
46
348
0
  0
LAYER
  5
AD
330
2
100
AcDbSymbolTableRecord
100
AcDbLayerTableRecord
  2
AM_7
 70
     0
 62
     7
  6
Center
370
    25
390
F
347
46
348
0
  0
LAYER
  5
AF
330
2
100
AcDbSymbolTableRecord
100
AcDbLayerTableRecord
  2
AM_4
 70
     0
 62
     7
  6
Continuous
370
    50
390
F
347
46
348
0
  0
LAYER
  5
256
330
2
100
AcDbSymbolTableRecord
100
AcDbLayerTableRecord
  2
ConnectionPoints
 70
     0
 62
     7
  6
Continuous
370
    50
390
F
347
46
348
0
  0
ENDTAB
  0
TABLE
  2
STYLE
  5
3
330
0
100
AcDbSymbolTable
 70
     1
  0
STYLE
  5
11
330
3
100
AcDbSymbolTableRecord
100
AcDbTextStyleTableRecord
  2
Standard
 70
     0
 40
0.0
 41
1.0
 50
0.0
 71
     0
 42
0.2
  3
txt
  4

  0
ENDTAB
  0
TABLE
  2
VIEW
  5
6
330
0
100
AcDbSymbolTable
 70
     0
  0
ENDTAB
  0
TABLE
  2
UCS
  5
7
330
0
100
AcDbSymbolTable
 70
     0
  0
ENDTAB
  0
TABLE
  2
APPID
  5
9
330
0
100
AcDbSymbolTable
 70
     1
  0
APPID
  5
12
330
9
100
AcDbSymbolTableRecord
100
AcDbRegAppTableRecord
  2
ACAD
 70
     0
  0
ENDTAB
  0
TABLE
  2
DIMSTYLE
  5
A
330
0
100
AcDbSymbolTable
 70
     1
100
AcDbDimStyleTable
  0
DIMSTYLE
105
27
330
A
100
AcDbSymbolTableRecord
100
AcDbDimStyleTableRecord
  2
Standard
 70
     0
178
     0
340
11
  0
ENDTAB
  0
TABLE
  2
BLOCK_RECORD
  5
1
330
0
100
AcDbSymbolTable
 70
     8
  0
BLOCK_RECORD
  5
1F
330
1
100
AcDbSymbolTableRecord
100
AcDbBlockTableRecord
  2
*Model_Space
340
22
 70
     0
280
     1
281
     0
  0
BLOCK_RECORD
  5
1B
330
1
100
AcDbSymbolTableRecord
100
AcDbBlockTableRecord
  2
*Paper_Space
340
1E
 70
     0
280
     1
281
     0
  0
BLOCK_RECORD
  5
23
330
1
100
AcDbSymbolTableRecord
100
AcDbBlockTableRecord
  2
*Paper_Space0
340
26
 70
     0
280
     1
281
     0
  0
BLOCK_RECORD
  5
6E
330
1
100
AcDbSymbolTableRecord
100
AcDbBlockTableRecord
  2
1_069913_2
340
0
102
{BLKREFS
331
6F
102
}
 70
     0
280
     1
281
     0
  0
BLOCK_RECORD
  5
90
330
1
100
AcDbSymbolTableRecord
100
AcDbBlockTableRecord
  2
2_405015E_Inch_0_in_069913_2
340
0
102
{BLKREFS
331
91
102
}
 70
     0
280
     1
281
     0
  0
BLOCK_RECORD
  5
CE
330
1
100
AcDbSymbolTableRecord
100
AcDbBlockTableRecord
  2
3_ASME_B18_3_10_1_0_in_069913_2
340
0
102
{BLKREFS
331
CF
102
}
 70
     0
280
     1
281
     0
  0
BLOCK_RECORD
  5
F2
330
1
100
AcDbSymbolTableRecord
100
AcDbBlockTableRecord
  2
4_ASME_B18_3_10_2_0_in_069913_2
340
0
102
{BLKREFS
331
F3
102
}
 70
     0
280
     1
281
     0
  0
BLOCK_RECORD
  5
116
330
1
100
AcDbSymbolTableRecord
100
AcDbBlockTableRecord
  2
5_070892LW_0_in_069913_2
340
0
102
{BLKREFS
331
117
102
}
 70
     0
280
     1
281
     0
  0
BLOCK_RECORD
  5
14C
330
1
100
AcDbSymbolTableRecord
100
AcDbBlockTableRecord
  2
6_070924I_0_in_069913_2
340
0
102
{BLKREFS
331
14D
102
}
 70
     0
280
     1
281
     0
  0
BLOCK_RECORD
  5
1D9
330
1
100
AcDbSymbolTableRecord
100
AcDbBlockTableRecord
  2
7_069913H_0_in_069913_2
340
0
102
{BLKREFS
331
1DA
102
}
 70
     0
280
     1
281
     0
  0
ENDTAB
  0
ENDSEC
  0
SECTION
  2
BLOCKS
  0
BLOCK
  5
20
330
1F
100
AcDbEntity
  8
0
100
AcDbBlockBegin
  2
*Model_Space
 70
     0
 10
0.0
 20
0.0
 30
0.0
  3
*Model_Space
  1

  0
ENDBLK
  5
21
330
1F
100
AcDbEntity
  8
0
100
AcDbBlockEnd
  0
BLOCK
  5
1C
330
1B
100
AcDbEntity
 67
     1
  8
0
100
AcDbBlockBegin
  2
*Paper_Space
 70
     0
 10
0.0
 20
0.0
 30
0.0
  3
*Paper_Space
  1

  0
ENDBLK
  5
1D
330
1B
100
AcDbEntity
 67
     1
  8
0
100
AcDbBlockEnd
  0
BLOCK
  5
24
330
23
100
AcDbEntity
  8
0
100
AcDbBlockBegin
  2
*Paper_Space0
 70
     0
 10
0.0
 20
0.0
 30
0.0
  3
*Paper_Space0
  1

  0
ENDBLK
  5
25
330
23
100
AcDbEntity
  8
0
100
AcDbBlockEnd
  0
BLOCK
  5
70
330
6E
100
AcDbEntity
  8
0
100
AcDbBlockBegin
  2
1_069913_2
 70
     2
 10
0.0
 20
0.0
 30
0.0
  3
1_069913_2
  1

  0
ATTDEF
  5
73
330
6E
100
AcDbEntity
  8
AM_6
100
AcDbText
 10
6.876875
 20
3.5625
 30
0.0
 40
0.5
  1
Imperial - IP Piloted Flange Labyrinth Seal
100
AcDbAttributeDefinition
  3

  2
NN
 70
     8
280
     0
  0
ATTDEF
  5
74
330
6E
100
AcDbEntity
  8
AM_6
100
AcDbText
 10
6.876875
 20
3.0625
 30
0.0
 40
0.5
  1
Imperial Piloted Flange Bearings
100
AcDbAttributeDefinition
  3

  2
NT
 70
     8
280
     0
  0
ATTDEF
  5
75
330
6E
100
AcDbEntity
  8
AM_6
100
AcDbText
 10
6.876875
 20
2.5625
 30
0.0
 40
0.5
  1
069913
100
AcDbAttributeDefinition
  3

  2
NB
 70
     8
280
     0
  0
ATTDEF
  5
76
330
6E
100
AcDbEntity
  8
AM_6
100
AcDbText
 10
6.876875
 20
2.0625
 30
0.0
 40
0.5
  1
$PN.
100
AcDbAttributeDefinition
  3

  2
NBSYN
 70
     8
280
     0
  0
ATTDEF
  5
77
330
6E
100
AcDbEntity
  8
AM_6
100
AcDbText
 10
6.876875
 20
1.5625
 30
0.0
 40
0.5
  1
069913
100
AcDbAttributeDefinition
  3

  2
LINA
 70
     8
280
     0
  0
ATTDEF
  5
78
330
6E
100
AcDbEntity
  8
AM_6
100
AcDbText
 10
6.876875
 20
1.0625
 30
0.0
 40
0.5
  1
2-3/16
100
AcDbAttributeDefinition
  3

  2
SS
 70
     8
280
     0
  0
ATTDEF
  5
79
330
6E
100
AcDbEntity
  8
AM_6
100
AcDbText
 10
6.876875
 20
0.5625
 30
0.0
 40
0.5
  1
069913
100
AcDbAttributeDefinition
  3

  2
PN
 70
     8
280
     0
  0
ATTDEF
  5
7A
330
6E
100
AcDbEntity
  8
AM_6
100
AcDbText
 10
6.876875
 20
0.0625
 30
0.0
 40
0.5
  1
FC-IP-203LE
100
AcDbAttributeDefinition
  3

  2
DESCRIPTION
 70
     8
280
     0
  0
ATTDEF
  5
7B
330
6E
100
AcDbEntity
  8
AM_6
100
AcDbText
 10
6.876875
 20
-0.4375
 30
0.0
 40
0.5
  1
Expansion Type
100
AcDbAttributeDefinition
  3

  2
EF
 70
     8
280
     0
  0
ATTDEF
  5
7C
330
6E
100
AcDbEntity
  8
AM_6
100
AcDbText
 10
6.876875
 20
-0.9375
 30
0.0
 40
0.5
  1
Labyrinth Seal
100
AcDbAttributeDefinition
  3

  2
ST
 70
     8
280
     0
  0
ATTDEF
  5
7D
330
6E
100
AcDbEntity
  8
AM_6
100
AcDbText
 10
6.876875
 20
-1.4375
 30
0.0
 40
0.5
  1
3-1/32
100
AcDbAttributeDefinition
  3

  2
A
 70
     8
280
     0
  0
ATTDEF
  5
7E
330
6E
100
AcDbEntity
  8
AM_6
100
AcDbText
 10
6.876875
 20
-1.9375
 30
0.0
 40
0.5
  1
7-1/8
100
AcDbAttributeDefinition
  3

  2
B
 70
     8
280
     0
  0
ATTDEF
  5
7F
330
6E
100
AcDbEntity
  8
AM_6
100
AcDbText
 10
6.876875
 20
-2.4375
 30
0.0
 40
0.5
  1
2-3/16
100
AcDbAttributeDefinition
  3

  2
C
 70
     8
280
     0
  0
ATTDEF
  5
80
330
6E
100
AcDbEntity
  8
AM_6
100
AcDbText
 10
6.876875
 20
-2.9375
 30
0.0
 40
0.5
  1
4-1/4
100
AcDbAttributeDefinition
  3

  2
D
 70
     8
280
     0
  0
ATTDEF
  5
81
330
6E
100
AcDbEntity
  8
AM_6
100
AcDbText
 10
6.876875
 20
-3.4375
 30
0.0
 40
0.5
  1
6
100
AcDbAttributeDefinition
  3

  2
DD
 70
     8
280
     0
  0
ATTDEF
  5
82
330
6E
100
AcDbEntity
  8
AM_6
100
AcDbText
 10
6.876875
 20
-3.9375
 30
0.0
 40
0.5
  1
1
100
AcDbAttributeDefinition
  3

  2
E
 70
     8
280
     0
  0
ATTDEF
  5
83
330
6E
100
AcDbEntity
  8
AM_6
100
AcDbText
 10
6.876875
 20
-4.4375
 30
0.0
 40
0.5
  1
1/2
100
AcDbAttributeDefinition
  3

  2
F
 70
     8
280
     0
  0
ATTDEF
  5
84
330
6E
100
AcDbEntity
  8
AM_6
100
AcDbText
 10
6.876875
 20
-4.9375
 30
0.0
 40
0.5
  1
1-21/32
100
AcDbAttributeDefinition
  3

  2
G
 70
     8
280
     0
  0
ATTDEF
  5
85
330
6E
100
AcDbEntity
  8
AM_6
100
AcDbText
 10
6.876875
 20
-5.4375
 30
0.0
 40
0.5
  1
9/16
100
AcDbAttributeDefinition
  3

  2
H
 70
     8
280
     0
  0
ATTDEF
  5
86
330
6E
100
AcDbEntity
  8
AM_6
100
AcDbText
 10
6.876875
 20
-5.9375
 30
0.0
 40
0.5
  1
5.000
100
AcDbAttributeDefinition
  3

  2
K
 70
     8
280
     0
  0
ATTDEF
  5
87
330
6E
100
AcDbEntity
  8
AM_6
100
AcDbText
 10
6.876875
 20
-6.4375
 30
0.0
 40
0.5
  1
3-1/2
100
AcDbAttributeDefinition
  3

  2
L
 70
     8
280
     0
  0
ATTDEF
  5
88
330
6E
100
AcDbEntity
  8
AM_6
100
AcDbText
 10
6.876875
 20
-6.9375
 30
0.0
 40
0.5
  1
1/2-13
100
AcDbAttributeDefinition
  3

  2
M
 70
     8
280
     0
  0
ATTDEF
  5
89
330
6E
100
AcDbEntity
  8
AM_6
100
AcDbText
 10
6.876875
 20
-7.4375
 30
0.0
 40
0.5
  1
3-5/64
100
AcDbAttributeDefinition
  3

  2
N
 70
     8
280
     0
  0
ATTDEF
  5
8A
330
6E
100
AcDbEntity
  8
AM_6
100
AcDbText
 10
6.876875
 20
-7.9375
 30
0.0
 40
0.5
  1
1-3/8
100
AcDbAttributeDefinition
  3

  2
P
 70
     8
280
     0
  0
ATTDEF
  5
8B
330
6E
100
AcDbEntity
  8
AM_6
100
AcDbText
 10
6.876875
 20
-8.4375
 30
0.0
 40
0.5
  1
1-27/64
100
AcDbAttributeDefinition
  3

  2
Q
 70
     8
280
     0
  0
ATTDEF
  5
8C
330
6E
100
AcDbEntity
  8
AM_6
100
AcDbText
 10
6.876875
 20
-8.9375
 30
0.0
 40
0.5
  1
1/4
100
AcDbAttributeDefinition
  3

  2
X
 70
     8
280
     0
  0
ATTDEF
  5
8D
330
6E
100
AcDbEntity
  8
AM_6
100
AcDbText
 10
6.876875
 20
-9.4375
 30
0.0
 40
0.5
  1
0.025
100
AcDbAttributeDefinition
  3

  2
Y
 70
     8
280
     0
  0
ATTDEF
  5
8E
330
6E
100
AcDbEntity
  8
AM_6
100
AcDbText
 10
6.876875
 20
-9.9375
 30
0.0
 40
0.5
  1
2-19/32
100
AcDbAttributeDefinition
  3

  2
Z
 70
     8
280
     0
  0
ATTDEF
  5
8F
330
6E
100
AcDbEntity
  8
AM_6
100
AcDbText
 10
6.876875
 20
-10.4375
 30
0.0
 40
0.5
  1
baldor
100
AcDbAttributeDefinition
  3

  2
COMPANY
 70
     8
280
     0
  0
INSERT
  5
91
330
6E
100
AcDbEntity
  8
0
100
AcDbBlockReference
  2
2_405015E_Inch_0_in_069913_2
 10
0.0
 20
0.0
 30
0.0
  0
INSERT
  5
CF
330
6E
100
AcDbEntity
  8
0
100
AcDbBlockReference
  2
3_ASME_B18_3_10_1_0_in_069913_2
 10
0.0
 20
0.0
 30
0.0
  0
INSERT
  5
F3
330
6E
100
AcDbEntity
  8
0
100
AcDbBlockReference
  2
4_ASME_B18_3_10_2_0_in_069913_2
 10
0.0
 20
0.0
 30
0.0
  0
INSERT
  5
117
330
6E
100
AcDbEntity
  8
0
100
AcDbBlockReference
  2
5_070892LW_0_in_069913_2
 10
0.0
 20
0.0
 30
0.0
  0
INSERT
  5
14D
330
6E
100
AcDbEntity
  8
0
100
AcDbBlockReference
  2
6_070924I_0_in_069913_2
 10
0.0
 20
0.0
 30
0.0
  0
INSERT
  5
1DA
330
6E
100
AcDbEntity
  8
0
100
AcDbBlockReference
  2
7_069913H_0_in_069913_2
 10
0.0
 20
0.0
 30
0.0
  0
ENDBLK
  5
71
330
6E
100
AcDbEntity
  8
0
100
AcDbBlockEnd
  0
BLOCK
  5
92
330
90
100
AcDbEntity
  8
0
100
AcDbBlockBegin
  2
2_405015E_Inch_0_in_069913_2
 70
     2
 10
0.0
 20
0.0
 30
0.0
  3
2_405015E_Inch_0_in_069913_2
  1

  0
ATTDEF
  5
94
330
90
100
AcDbEntity
  8
AM_6
100
AcDbText
 10
4.70313566823901
 20
3.048894914147107
 30
0.0
 40
0.5
  1
405015E -Inch
100
AcDbAttributeDefinition
  3

  2
NN
 70
     8
280
     0
  0
ATTDEF
  5
95
330
90
100
AcDbEntity
  8
AM_6
100
AcDbText
 10
4.70313566823901
 20
2.548894914147107
 30
0.0
 40
0.5
  1
Grease Fitting
100
AcDbAttributeDefinition
  3

  2
NT
 70
     8
280
     0
  0
ATTDEF
  5
96
330
90
100
AcDbEntity
  8
AM_6
100
AcDbText
 10
4.70313566823901
 20
2.048894914147107
 30
0.0
 40
0.5
  1
405015E-Inch
100
AcDbAttributeDefinition
  3

  2
NB
 70
     8
280
     0
  0
ATTDEF
  5
97
330
90
100
AcDbEntity
  8
AM_6
100
AcDbText
 10
4.70313566823901
 20
1.548894914147107
 30
0.0
 40
0.5
  1
$MN.-Inch
100
AcDbAttributeDefinition
  3

  2
NBSYN
 70
     8
280
     0
  0
ATTDEF
  5
98
330
90
100
AcDbEntity
  8
AM_6
100
AcDbText
 10
4.70313566823901
 20
1.048894914147107
 30
0.0
 40
0.5
  1
405015E
100
AcDbAttributeDefinition
  3

  2
LINA
 70
     8
280
     0
  0
ATTDEF
  5
99
330
90
100
AcDbEntity
  8
AM_6
100
AcDbText
 10
4.70313566823901
 20
0.5488949141471067
 30
0.0
 40
0.5
  1
405015E
100
AcDbAttributeDefinition
  3

  2
MN
 70
     8
280
     0
  0
ATTDEF
  5
9A
330
90
100
AcDbEntity
  8
AM_6
100
AcDbText
 10
4.70313566823901
 20
0.0488949141471067
 30
0.0
 40
0.5
  1
1/8 x 27PTF
100
AcDbAttributeDefinition
  3

  2
T
 70
     8
280
     0
  0
ATTDEF
  5
9B
330
90
100
AcDbEntity
  8
AM_6
100
AcDbText
 10
4.70313566823901
 20
-0.4511050858528933
 30
0.0
 40
0.5
  1
baldor
100
AcDbAttributeDefinition
  3

  2
COMPANY
 70
     8
280
     0
  0
LINE
  5
9E
330
90
100
AcDbEntity
  8
AM_9
100
AcDbLine
 10
-0.4587672042332582
 20
2.499761242159021
 30
0.0
 11
-0.2968643317609893
 21
2.780185243172336
 31
0.0
  0
LINE
  5
9F
330
90
100
AcDbEntity
  8
AM_9
100
AcDbLine
 10
-0.2968643317609893
 20
2.780185243172336
 30
0.0
 11
-0.3103028645317679
 21
2.830338530252061
 31
0.0
  0
LINE
  5
A0
330
90
100
AcDbEntity
  8
AM_9
100
AcDbLine
 10
-0.5089204913129833
 20
2.486322709388243
 30
0.0
 11
-0.4587672042332582
 21
2.499761242159021
 31
0.0
  0
LINE
  5
A1
330
90
100
AcDbEntity
  8
AM_9
100
AcDbLine
 10
-0.5089204913129833
 20
2.486322709388243
 30
0.0
 11
-0.3103028645317679
 21
2.830338530252061
 31
0.0
  0
LINE
  5
A2
330
90
100
AcDbEntity
  8
AM_9
100
AcDbLine
 10
-0.3103028645317679
 20
2.830338530252061
 30
0.0
 11
-0.5044365513884652
 21
2.950659612537702
 31
0.0
  0
LINE
  5
A3
330
90
100
AcDbEntity
  8
AM_9
100
AcDbLine
 10
-0.7101884486115347
 20
2.594286872793656
 30
0.0
 11
-0.5089204913129833
 21
2.486322709388243
 31
0.0
  0
LINE
  5
A4
330
90
100
AcDbEntity
  8
AM_9
100
AcDbLine
 10
-0.5509576694978663
 20
2.870101005547053
 30
0.0
 11
-0.5526249999999999
 21
2.867194771204602
 31
0.0
  0
LINE
  5
A5
330
90
100
AcDbEntity
  8
AM_9
100
AcDbLine
 10
-0.552625
 20
2.867194771204602
 30
0.0
 11
-0.5620482091952187
 21
2.851423157278512
 31
0.0
  0
LINE
  5
A7
330
90
100
AcDbEntity
  8
AM_5
100
AcDbLine
 10
-0.6349829038700916
 20
2.594286872793656
 30
0.0
 11
-0.4587672042332588
 21
2.499761242159021
 31
0.0
  0
LINE
  5
A8
330
90
100
AcDbEntity
  8
AM_5
100
AcDbLine
 10
-0.710188448611535
 20
2.594286872793656
 30
0.0
 11
-0.6349829038700916
 21
2.594286872793656
 31
0.0
  0
LINE
  5
A9
330
90
100
AcDbEntity
  8
AM_5
100
AcDbLine
 10
-0.4668337790177436
 20
2.885529700286165
 30
0.0
 11
-0.2968643317609891
 21
2.780185243172336
 31
0.0
  0
LINE
  5
AA
330
90
100
AcDbEntity
  8
AM_5
100
AcDbLine
 10
-0.5044365513884655
 20
2.950659612537702
 30
0.0
 11
-0.4668337790177436
 21
2.885529700286165
 31
0.0
  0
LINE
  5
AB
330
90
100
AcDbEntity
  8
AM_5
100
AcDbLine
 10
-0.6527665843196959
 20
2.563484634709371
 30
0.0
 11
-0.4490500985681392
 21
2.916331938370449
 31
0.0
  0
LINE
  5
AE
330
90
100
AcDbEntity
  8
AM_7
100
AcDbLine
 10
-0.9597848393402664
 20
2.975973242665679
 30
0.0
 11
-0.3501029550760218
 21
2.623973242665679
 31
0.0
  0
LINE
  5
B0
330
90
100
AcDbEntity
  8
AM_4
100
AcDbLine
 10
-0.7323477077758099
 20
2.965905910063045
 30
0.0
 11
-0.7583284698893431
 21
2.980905910063045
 31
0.0
  0
LINE
  5
B1
330
90
100
AcDbEntity
  8
AM_4
100
AcDbLine
 10
-0.8633284698893431
 20
2.799040575268313
 30
0.0
 11
-0.8373477077758099
 21
2.784040575268313
 31
0.0
  0
LINE
  5
B2
330
90
100
AcDbEntity
  8
AM_4
100
AcDbLine
 10
-0.8373477077758099
 20
2.784040575268313
 30
0.0
 11
-0.7323477077758099
 21
2.965905910063045
 31
0.0
  0
LINE
  5
B3
330
90
100
AcDbEntity
  8
AM_4
100
AcDbLine
 10
-0.8373477077758099
 20
2.784040575268313
 30
0.0
 11
-0.8163311372721952
 21
2.755948586418572
 31
0.0
  0
LINE
  5
B4
330
90
100
AcDbEntity
  8
AM_4
100
AcDbLine
 10
-0.6975110465372977
 20
2.961751020531358
 30
0.0
 11
-0.7323477077758099
 21
2.965905910063045
 31
0.0
  0
LINE
  5
B5
330
90
100
AcDbEntity
  8
AM_4
100
AcDbLine
 10
-0.8633284698893431
 20
2.799040575268313
 30
0.0
 11
-0.7583284698893431
 21
2.980905910063045
 31
0.0
  0
LINE
  5
B6
330
90
100
AcDbEntity
  8
AM_4
100
AcDbLine
 10
-0.7583284698893431
 20
2.980905910063045
 30
0.0
 11
-0.7952899941164093
 21
3.036886672176578
 31
0.0
  0
LINE
  5
B7
330
90
100
AcDbEntity
  8
AM_4
100
AcDbLine
 10
-0.9302899941164094
 20
2.80305981315478
 30
0.0
 11
-0.8633284698893431
 21
2.799040575268313
 31
0.0
  0
LINE
  5
B8
330
90
100
AcDbEntity
  8
AM_4
100
AcDbLine
 10
-0.9834109773857583
 20
2.871051571184251
 30
0.0
 11
-0.8807330754525707
 21
3.048894914147107
 31
0.0
  0
LINE
  5
B9
330
90
100
AcDbEntity
  8
AM_4
100
AcDbLine
 10
-0.9302899941164094
 20
2.80305981315478
 30
0.0
 11
-0.7952899941164093
 21
3.036886672176578
 31
0.0
  0
LINE
  5
BA
330
90
100
AcDbEntity
  8
AM_4
100
AcDbLine
 10
-0.9834109773857583
 20
2.871051571184251
 30
0.0
 11
-0.9302899941164094
 21
2.80305981315478
 31
0.0
  0
LINE
  5
BB
330
90
100
AcDbEntity
  8
AM_4
100
AcDbLine
 10
-0.7952899941164093
 20
3.036886672176578
 30
0.0
 11
-0.8807330754525707
 21
3.048894914147107
 31
0.0
  0
LINE
  5
BC
330
90
100
AcDbEntity
  8
AM_4
100
AcDbLine
 10
-0.8163311372721952
 20
2.755948586418572
 30
0.0
 11
-0.6975110465372977
 21
2.961751020531358
 31
0.0
  0
LINE
  5
BD
330
90
100
AcDbEntity
  8
AM_4
100
AcDbLine
 10
-0.8163311372721952
 20
2.755948586418572
 30
0.0
 11
-0.7960460923079226
 21
2.682213468775131
 31
0.0
  0
LINE
  5
BE
330
90
100
AcDbEntity
  8
AM_4
100
AcDbLine
 10
-0.623512039024907
 20
2.981051215097109
 30
0.0
 11
-0.6975110465372977
 21
2.961751020531358
 31
0.0
  0
LINE
  5
BF
330
90
100
AcDbEntity
  8
AM_4
100
AcDbLine
 10
-0.8032900403784439
 20
2.633030185587833
 30
0.0
 11
-0.7166875
 21
2.583030185587833
 31
0.0
  0
LINE
  5
C0
330
90
100
AcDbEntity
  8
AM_4
100
AcDbLine
 10
-0.8032900403784439
 20
2.633030185587833
 30
0.0
 11
-0.5845400403784439
 21
3.011916299743524
 31
0.0
  0
LINE
  5
C1
330
90
100
AcDbEntity
  8
AM_4
100
AcDbLine
 10
-0.4979375
 20
2.961916299743525
 30
0.0
 11
-0.5845400403784439
 21
3.011916299743524
 31
0.0
  0
LINE
  5
C2
330
90
100
AcDbEntity
  8
AM_4
100
AcDbLine
 10
-0.7960460923079226
 20
2.682213468775131
 30
0.0
 11
-0.623512039024907
 21
2.981051215097109
 31
0.0
  0
LINE
  5
C3
330
90
100
AcDbEntity
  8
AM_4
100
AcDbLine
 10
-0.7960460923079226
 20
2.682213468775131
 30
0.0
 11
-0.8007900403784439
 21
2.637360312606755
 31
0.0
  0
LINE
  5
C4
330
90
100
AcDbEntity
  8
AM_4
100
AcDbLine
 10
-0.5870400403784438
 20
3.007586172724602
 30
0.0
 11
-0.623512039024907
 21
2.981051215097109
 31
0.0
  0
LWPOLYLINE
  5
C5
330
90
100
AcDbEntity
  8
AM_4
100
AcDbPolyline
 90
        3
 70
     0
 43
0.0
 10
-0.6392275403784438
 20
2.917194771204602
 10
-0.6098110618176743
 20
2.963358845081546
 10
-0.5766872686898277
 20
3.007382499895217
  0
LWPOLYLINE
  5
C6
330
90
100
AcDbEntity
  8
AM_4
100
AcDbPolyline
 90
        3
 70
     0
 43
0.0
 10
-0.5057902716886162
 20
2.966450099591832
 10
-0.527249345081517
 20
2.915975744697989
 10
-0.5509576694978663
 20
2.870101005547053
  0
LWPOLYLINE
  5
C7
330
90
100
AcDbEntity
  8
AM_4
100
AcDbPolyline
 90
        3
 70
     0
 43
0.0
 10
-0.5620482091952187
 20
2.851423157278512
 10
-0.5820414785607695
 20
2.821030697327657
 10
-0.6151652716886162
 20
2.777007042513986
  0
LINE
  5
C8
330
90
100
AcDbEntity
  8
AM_4
100
AcDbLine
 10
-0.6860622686898277
 20
2.817939442817372
 30
0.0
 11
-0.6151652716886162
 21
2.777007042513986
 31
0.0
  0
LWPOLYLINE
  5
C9
330
90
100
AcDbEntity
  8
AM_4
100
AcDbPolyline
 90
        3
 70
     0
 43
0.0
 10
-0.7954372686898277
 20
2.628496385739526
 10
-0.7739781952969268
 20
2.678970740633368
 10
-0.7486025403784438
 20
2.727751714126756
  0
LWPOLYLINE
  5
CA
330
90
100
AcDbEntity
  8
AM_4
100
AcDbPolyline
 90
        3
 70
     0
 43
0.0
 10
-0.6619999999999999
 20
2.677751714126756
 10
-0.6914164785607695
 20
2.631587640249812
 10
-0.7245402716886162
 20
2.58756398543614
  0
LWPOLYLINE
  5
CB
330
90
100
AcDbEntity
  8
AM_4
100
AcDbPolyline
 90
        3
 70
     0
 43
0.0
 10
-0.6151652716886162
 20
2.777007042513986
 10
-0.6366243450815171
 20
2.726532687620143
 10
-0.6619999999999999
 20
2.677751714126756
  0
LWPOLYLINE
  5
CC
330
90
100
AcDbEntity
  8
AM_4
100
AcDbPolyline
 90
        3
 70
     0
 43
0.0
 10
-0.7486025403784438
 20
2.727751714126756
 10
-0.7191860618176742
 20
2.7739157880037
 10
-0.6860622686898277
 20
2.817939442817372
  0
LWPOLYLINE
  5
CD
330
90
100
AcDbEntity
  8
AM_4
100
AcDbPolyline
 90
        3
 70
     0
 43
0.0
 10
-0.6860622686898277
 20
2.817939442817372
 10
-0.6646031952969268
 20
2.868413797711214
 10
-0.6392275403784438
 20
2.917194771204602
  0
ENDBLK
  5
93
330
90
100
AcDbEntity
  8
0
100
AcDbBlockEnd
  0
BLOCK
  5
D0
330
CE
100
AcDbEntity
  8
0
100
AcDbBlockBegin
  2
3_ASME_B18_3_10_1_0_in_069913_2
 70
     2
 10
0.0
 20
0.0
 30
0.0
  3
3_ASME_B18_3_10_1_0_in_069913_2
  1

  0
ATTDEF
  5
D2
330
CE
100
AcDbEntity
  8
AM_6
100
AcDbText
 10
4.568750000000001
 20
-1.302138888888889
 30
0.0
 40
0.5
  1
ANSI/ASME B18.3-1998
100
AcDbAttributeDefinition
  3

  2
NN
 70
     8
280
     0
  0
ATTDEF
  5
D3
330
CE
100
AcDbEntity
  8
AM_6
100
AcDbText
 10
4.568750000000001
 20
-1.802138888888889
 30
0.0
 40
0.5
  1
Socket Button Head Cap Screws
100
AcDbAttributeDefinition
  3

  2
NT
 70
     8
280
     0
  0
ATTDEF
  5
D4
330
CE
100
AcDbEntity
  8
AM_6
100
AcDbText
 10
4.568750000000001
 20
-2.302138888888889
 30
0.0
 40
0.5
  1
ASME B18.3-10
100
AcDbAttributeDefinition
  3

  2
NB
 70
     8
280
     0
  0
ATTDEF
  5
D5
330
CE
100
AcDbEntity
  8
AM_6
100
AcDbText
 10
4.568750000000001
 20
-2.802138888888889
 30
0.0
 40
0.5
  1
ASME B18.3-$NS.
100
AcDbAttributeDefinition
  3

  2
NBSYN
 70
     8
280
     0
  0
ATTDEF
  5
D6
330
CE
100
AcDbEntity
  8
AM_6
100
AcDbText
 10
4.568750000000001
 20
-3.302138888888889
 30
0.0
 40
0.5
  1
ASME B18.3-10
100
AcDbAttributeDefinition
  3

  2
LINA
 70
     8
280
     0
  0
ATTDEF
  5
D7
330
CE
100
AcDbEntity
  8
AM_6
100
AcDbText
 10
4.568750000000001
 20
-3.802138888888889
 30
0.0
 40
0.5
  1
10
100
AcDbAttributeDefinition
  3

  2
NS
 70
     8
280
     0
  0
ATTDEF
  5
D8
330
CE
100
AcDbEntity
  8
AM_6
100
AcDbText
 10
4.568750000000001
 20
-4.302138888888889
 30
0.0
 40
0.5
  1
0.361
100
AcDbAttributeDefinition
  3

  2
A
 70
     8
280
     0
  0
ATTDEF
  5
D9
330
CE
100
AcDbEntity
  8
AM_6
100
AcDbText
 10
4.568750000000001
 20
-4.802138888888889
 30
0.0
 40
0.5
  1
0.101
100
AcDbAttributeDefinition
  3

  2
H
 70
     8
280
     0
  0
ATTDEF
  5
DA
330
CE
100
AcDbEntity
  8
AM_6
100
AcDbText
 10
4.568750000000001
 20
-5.302138888888889
 30
0.0
 40
0.5
  1
0.800
100
AcDbAttributeDefinition
  3

  2
L
 70
     8
280
     0
  0
ATTDEF
  5
DB
330
CE
100
AcDbEntity
  8
AM_6
100
AcDbText
 10
4.568750000000001
 20
-5.802138888888889
 30
0.0
 40
0.5
  1
0.020
100
AcDbAttributeDefinition
  3

  2
S
 70
     8
280
     0
  0
ATTDEF
  5
DC
330
CE
100
AcDbEntity
  8
AM_6
100
AcDbText
 10
4.568750000000001
 20
-6.302138888888889
 30
0.0
 40
0.5
  1
0.125000
100
AcDbAttributeDefinition
  3

  2
J
 70
     8
280
     0
  0
ATTDEF
  5
DD
330
CE
100
AcDbEntity
  8
AM_6
100
AcDbText
 10
4.568750000000001
 20
-6.802138888888889
 30
0.0
 40
0.5
  1
baldor
100
AcDbAttributeDefinition
  3

  2
COMPANY
 70
     8
280
     0
  0
LINE
  5
DE
330
CE
100
AcDbEntity
  8
AM_9
100
AcDbLine
 10
-1.27125
 20
-1.410470105240186
 30
0.0
 11
-1.33225
 21
-1.410470105240186
 31
0.0
  0
LINE
  5
DF
330
CE
100
AcDbEntity
  8
AM_9
100
AcDbLine
 10
-1.27125
 20
-1.554807672537592
 30
0.0
 11
-1.33225
 21
-1.554807672537592
 31
0.0
  0
LINE
  5
E0
330
CE
100
AcDbEntity
  8
AM_9
100
AcDbLine
 10
-1.27125
 20
-1.410470105240186
 30
0.0
 11
-1.27125
 21
-1.554807672537592
 31
0.0
  0
LINE
  5
E1
330
CE
100
AcDbEntity
  8
AM_9
100
AcDbLine
 10
-1.27125
 20
-1.446554497064537
 30
0.0
 11
-1.33225
 21
-1.446554497064537
 31
0.0
  0
LINE
  5
E2
330
CE
100
AcDbEntity
  8
AM_9
100
AcDbLine
 10
-1.27125
 20
-1.51872328071324
 30
0.0
 11
-1.33225
 21
-1.51872328071324
 31
0.0
  0
LINE
  5
E3
330
CE
100
AcDbEntity
  8
AM_9
100
AcDbLine
 10
-0.4312499999999998
 20
-1.406238888888889
 30
0.0
 11
-0.4312499999999998
 21
-1.559038888888889
 31
0.0
  0
LINE
  5
E4
330
CE
100
AcDbEntity
  8
AM_9
100
AcDbLine
 10
-0.4312499999999998
 20
-1.406238888888889
 30
0.0
 11
-0.4498499999999999
 21
-1.387638888888889
 31
0.0
  0
LINE
  5
E5
330
CE
100
AcDbEntity
  8
AM_9
100
AcDbLine
 10
-0.4498499999999999
 20
-1.577638888888889
 30
0.0
 11
-0.4312499999999998
 21
-1.559038888888889
 31
0.0
  0
LINE
  5
E6
330
CE
100
AcDbEntity
  8
AM_9
100
AcDbLine
 10
-0.4498499999999999
 20
-1.387638888888889
 30
0.0
 11
-0.4498499999999999
 21
-1.577638888888889
 31
0.0
  0
LINE
  5
E7
330
CE
100
AcDbEntity
  8
AM_9
100
AcDbLine
 10
-1.23125
 20
-1.577638888888889
 30
0.0
 11
-0.4499999999999996
 21
-1.577638888888889
 31
0.0
  0
LINE
  5
E8
330
CE
100
AcDbEntity
  8
AM_9
100
AcDbLine
 10
-0.4499999999999996
 20
-1.387638888888889
 30
0.0
 11
-1.23125
 21
-1.387638888888889
 31
0.0
  0
LINE
  5
E9
330
CE
100
AcDbEntity
  8
AM_5
100
AcDbLine
 10
-1.15125
 20
-1.559038888888889
 30
0.0
 11
-1.183466145020781
 21
-1.577638888888889
 31
0.0
  0
LINE
  5
EA
330
CE
100
AcDbEntity
  8
AM_5
100
AcDbLine
 10
-1.15125
 20
-1.38845713201868
 30
0.0
 11
-1.15125
 21
-1.577639056061956
 31
0.0
  0
LINE
  5
EB
330
CE
100
AcDbEntity
  8
AM_5
100
AcDbLine
 10
-1.15125
 20
-1.406238888888889
 30
0.0
 11
-1.183466145020781
 21
-1.387638888888889
 31
0.0
  0
LINE
  5
EC
330
CE
100
AcDbEntity
  8
AM_4
100
AcDbLine
 10
-1.33225
 20
-1.383138888888889
 30
0.0
 11
-1.33225
 21
-1.582138888888889
 31
0.0
  0
ARC
  5
ED
330
CE
100
AcDbEntity
  8
AM_4
100
AcDbCircle
 10
-1.25125
 20
-1.582138888888888
 30
0.0
 40
0.0810000000000004
100
AcDbArc
 50
180.0
 51
270.0
  0
ARC
  5
EE
330
CE
100
AcDbEntity
  8
AM_4
100
AcDbCircle
 10
-1.25125
 20
-1.383138888888889
 30
0.0
 40
0.0810000000000004
100
AcDbArc
 50
90.0
 51
180.0
  0
LINE
  5
EF
330
CE
100
AcDbEntity
  8
AM_4
100
AcDbLine
 10
-1.25125
 20
-1.302138888888889
 30
0.0
 11
-1.25125
 21
-1.663138888888889
 31
0.0
  0
LINE
  5
F0
330
CE
100
AcDbEntity
  8
AM_4
100
AcDbLine
 10
-1.25125
 20
-1.663138888888889
 30
0.0
 11
-1.23125
 21
-1.663138888888889
 31
0.0
  0
LINE
  5
F1
330
CE
100
AcDbEntity
  8
AM_4
100
AcDbLine
 10
-1.23125
 20
-1.302138888888889
 30
0.0
 11
-1.25125
 21
-1.302138888888889
 31
0.0
  0
ENDBLK
  5
D1
330
CE
100
AcDbEntity
  8
0
100
AcDbBlockEnd
  0
BLOCK
  5
F4
330
F2
100
AcDbEntity
  8
0
100
AcDbBlockBegin
  2
4_ASME_B18_3_10_2_0_in_069913_2
 70
     2
 10
0.0
 20
0.0
 30
0.0
  3
4_ASME_B18_3_10_2_0_in_069913_2
  1

  0
ATTDEF
  5
F6
330
F2
100
AcDbEntity
  8
AM_6
100
AcDbText
 10
4.568750000000001
 20
1.663138888888889
 30
0.0
 40
0.5
  1
ANSI/ASME B18.3-1998
100
AcDbAttributeDefinition
  3

  2
NN
 70
     8
280
     0
  0
ATTDEF
  5
F7
330
F2
100
AcDbEntity
  8
AM_6
100
AcDbText
 10
4.568750000000001
 20
1.163138888888889
 30
0.0
 40
0.5
  1
Socket Button Head Cap Screws
100
AcDbAttributeDefinition
  3

  2
NT
 70
     8
280
     0
  0
ATTDEF
  5
F8
330
F2
100
AcDbEntity
  8
AM_6
100
AcDbText
 10
4.568750000000001
 20
0.6631388888888887
 30
0.0
 40
0.5
  1
ASME B18.3-10
100
AcDbAttributeDefinition
  3

  2
NB
 70
     8
280
     0
  0
ATTDEF
  5
F9
330
F2
100
AcDbEntity
  8
AM_6
100
AcDbText
 10
4.568750000000001
 20
0.1631388888888887
 30
0.0
 40
0.5
  1
ASME B18.3-$NS.
100
AcDbAttributeDefinition
  3

  2
NBSYN
 70
     8
280
     0
  0
ATTDEF
  5
FA
330
F2
100
AcDbEntity
  8
AM_6
100
AcDbText
 10
4.568750000000001
 20
-0.3368611111111113
 30
0.0
 40
0.5
  1
ASME B18.3-10
100
AcDbAttributeDefinition
  3

  2
LINA
 70
     8
280
     0
  0
ATTDEF
  5
FB
330
F2
100
AcDbEntity
  8
AM_6
100
AcDbText
 10
4.568750000000001
 20
-0.8368611111111113
 30
0.0
 40
0.5
  1
10
100
AcDbAttributeDefinition
  3

  2
NS
 70
     8
280
     0
  0
ATTDEF
  5
FC
330
F2
100
AcDbEntity
  8
AM_6
100
AcDbText
 10
4.568750000000001
 20
-1.336861111111111
 30
0.0
 40
0.5
  1
0.361
100
AcDbAttributeDefinition
  3

  2
A
 70
     8
280
     0
  0
ATTDEF
  5
FD
330
F2
100
AcDbEntity
  8
AM_6
100
AcDbText
 10
4.568750000000001
 20
-1.836861111111111
 30
0.0
 40
0.5
  1
0.101
100
AcDbAttributeDefinition
  3

  2
H
 70
     8
280
     0
  0
ATTDEF
  5
FE
330
F2
100
AcDbEntity
  8
AM_6
100
AcDbText
 10
4.568750000000001
 20
-2.336861111111111
 30
0.0
 40
0.5
  1
0.800
100
AcDbAttributeDefinition
  3

  2
L
 70
     8
280
     0
  0
ATTDEF
  5
FF
330
F2
100
AcDbEntity
  8
AM_6
100
AcDbText
 10
4.568750000000001
 20
-2.836861111111111
 30
0.0
 40
0.5
  1
0.020
100
AcDbAttributeDefinition
  3

  2
S
 70
     8
280
     0
  0
ATTDEF
  5
100
330
F2
100
AcDbEntity
  8
AM_6
100
AcDbText
 10
4.568750000000001
 20
-3.336861111111111
 30
0.0
 40
0.5
  1
0.125000
100
AcDbAttributeDefinition
  3

  2
J
 70
     8
280
     0
  0
ATTDEF
  5
101
330
F2
100
AcDbEntity
  8
AM_6
100
AcDbText
 10
4.568750000000001
 20
-3.836861111111111
 30
0.0
 40
0.5
  1
baldor
100
AcDbAttributeDefinition
  3

  2
COMPANY
 70
     8
280
     0
  0
LINE
  5
102
330
F2
100
AcDbEntity
  8
AM_9
100
AcDbLine
 10
-1.27125
 20
1.554807672537592
 30
0.0
 11
-1.33225
 21
1.554807672537592
 31
0.0
  0
LINE
  5
103
330
F2
100
AcDbEntity
  8
AM_9
100
AcDbLine
 10
-1.27125
 20
1.410470105240186
 30
0.0
 11
-1.33225
 21
1.410470105240186
 31
0.0
  0
LINE
  5
104
330
F2
100
AcDbEntity
  8
AM_9
100
AcDbLine
 10
-1.27125
 20
1.554807672537592
 30
0.0
 11
-1.27125
 21
1.410470105240186
 31
0.0
  0
LINE
  5
105
330
F2
100
AcDbEntity
  8
AM_9
100
AcDbLine
 10
-1.27125
 20
1.51872328071324
 30
0.0
 11
-1.33225
 21
1.51872328071324
 31
0.0
  0
LINE
  5
106
330
F2
100
AcDbEntity
  8
AM_9
100
AcDbLine
 10
-1.27125
 20
1.446554497064537
 30
0.0
 11
-1.33225
 21
1.446554497064537
 31
0.0
  0
LINE
  5
107
330
F2
100
AcDbEntity
  8
AM_9
100
AcDbLine
 10
-0.4312499999999998
 20
1.559038888888889
 30
0.0
 11
-0.4312499999999998
 21
1.406238888888889
 31
0.0
  0
LINE
  5
108
330
F2
100
AcDbEntity
  8
AM_9
100
AcDbLine
 10
-0.4312499999999998
 20
1.559038888888889
 30
0.0
 11
-0.4498499999999999
 21
1.577638888888889
 31
0.0
  0
LINE
  5
109
330
F2
100
AcDbEntity
  8
AM_9
100
AcDbLine
 10
-0.4498499999999999
 20
1.387638888888889
 30
0.0
 11
-0.4312499999999998
 21
1.406238888888889
 31
0.0
  0
LINE
  5
10A
330
F2
100
AcDbEntity
  8
AM_9
100
AcDbLine
 10
-0.4498499999999999
 20
1.577638888888889
 30
0.0
 11
-0.4498499999999999
 21
1.387638888888889
 31
0.0
  0
LINE
  5
10B
330
F2
100
AcDbEntity
  8
AM_9
100
AcDbLine
 10
-1.23125
 20
1.387638888888889
 30
0.0
 11
-0.4499999999999996
 21
1.387638888888889
 31
0.0
  0
LINE
  5
10C
330
F2
100
AcDbEntity
  8
AM_9
100
AcDbLine
 10
-0.4499999999999996
 20
1.577638888888889
 30
0.0
 11
-1.23125
 21
1.577638888888889
 31
0.0
  0
LINE
  5
10D
330
F2
100
AcDbEntity
  8
AM_5
100
AcDbLine
 10
-1.15125
 20
1.406238888888889
 30
0.0
 11
-1.183466145020782
 21
1.387638888888889
 31
0.0
  0
LINE
  5
10E
330
F2
100
AcDbEntity
  8
AM_5
100
AcDbLine
 10
-1.15125
 20
1.577639056061955
 30
0.0
 11
-1.15125
 21
1.388457132018679
 31
0.0
  0
LINE
  5
10F
330
F2
100
AcDbEntity
  8
AM_5
100
AcDbLine
 10
-1.15125
 20
1.559038888888889
 30
0.0
 11
-1.183466145020781
 21
1.577638888888889
 31
0.0
  0
LINE
  5
110
330
F2
100
AcDbEntity
  8
AM_4
100
AcDbLine
 10
-1.33225
 20
1.582138888888889
 30
0.0
 11
-1.33225
 21
1.383138888888889
 31
0.0
  0
ARC
  5
111
330
F2
100
AcDbEntity
  8
AM_4
100
AcDbCircle
 10
-1.25125
 20
1.383138888888889
 30
0.0
 40
0.0810000000000004
100
AcDbArc
 50
180.0
 51
270.0
  0
ARC
  5
112
330
F2
100
AcDbEntity
  8
AM_4
100
AcDbCircle
 10
-1.25125
 20
1.582138888888888
 30
0.0
 40
0.0810000000000004
100
AcDbArc
 50
90.0
 51
180.0
  0
LINE
  5
113
330
F2
100
AcDbEntity
  8
AM_4
100
AcDbLine
 10
-1.25125
 20
1.663138888888889
 30
0.0
 11
-1.25125
 21
1.302138888888889
 31
0.0
  0
LINE
  5
114
330
F2
100
AcDbEntity
  8
AM_4
100
AcDbLine
 10
-1.25125
 20
1.302138888888889
 30
0.0
 11
-1.23125
 21
1.302138888888889
 31
0.0
  0
LINE
  5
115
330
F2
100
AcDbEntity
  8
AM_4
100
AcDbLine
 10
-1.23125
 20
1.663138888888889
 30
0.0
 11
-1.25125
 21
1.663138888888889
 31
0.0
  0
ENDBLK
  5
F5
330
F2
100
AcDbEntity
  8
0
100
AcDbBlockEnd
  0
BLOCK
  5
118
330
116
100
AcDbEntity
  8
0
100
AcDbBlockBegin
  2
5_070892LW_0_in_069913_2
 70
     2
 10
0.0
 20
0.0
 30
0.0
  3
5_070892LW_0_in_069913_2
  1

  0
ATTDEF
  5
11A
330
116
100
AcDbEntity
  8
AM_6
100
AcDbText
 10
4.20875
 20
1.75
 30
0.0
 40
0.5
  1
Imperial Insert Lockwasher -Inch
100
AcDbAttributeDefinition
  3

  2
NN
 70
     8
280
     0
  0
ATTDEF
  5
11B
330
116
100
AcDbEntity
  8
AM_6
100
AcDbText
 10
4.20875
 20
1.25
 30
0.0
 40
0.5
  1
Imperial Bearings
100
AcDbAttributeDefinition
  3

  2
NT
 70
     8
280
     0
  0
ATTDEF
  5
11C
330
116
100
AcDbEntity
  8
AM_6
100
AcDbText
 10
4.20875
 20
0.7499999999999996
 30
0.0
 40
0.5
  1
070892LW
100
AcDbAttributeDefinition
  3

  2
NB
 70
     8
280
     0
  0
ATTDEF
  5
11D
330
116
100
AcDbEntity
  8
AM_6
100
AcDbText
 10
4.20875
 20
0.2499999999999996
 30
0.0
 40
0.5
  1
$PN.LW
100
AcDbAttributeDefinition
  3

  2
NBSYN
 70
     8
280
     0
  0
ATTDEF
  5
11E
330
116
100
AcDbEntity
  8
AM_6
100
AcDbText
 10
4.20875
 20
-0.2500000000000004
 30
0.0
 40
0.5
  1
070892
100
AcDbAttributeDefinition
  3

  2
LINA
 70
     8
280
     0
  0
ATTDEF
  5
11F
330
116
100
AcDbEntity
  8
AM_6
100
AcDbText
 10
4.20875
 20
-0.7500000000000004
 30
0.0
 40
0.5
  1
2-3/16
100
AcDbAttributeDefinition
  3

  2
SS
 70
     8
280
     0
  0
ATTDEF
  5
120
330
116
100
AcDbEntity
  8
AM_6
100
AcDbText
 10
4.20875
 20
-1.25
 30
0.0
 40
0.5
  1
2.187500
100
AcDbAttributeDefinition
  3

  2
SS1
 70
     8
280
     0
  0
ATTDEF
  5
121
330
116
100
AcDbEntity
  8
AM_6
100
AcDbText
 10
4.20875
 20
-1.75
 30
0.0
 40
0.5
  1
070892
100
AcDbAttributeDefinition
  3

  2
PN
 70
     8
280
     0
  0
ATTDEF
  5
122
330
116
100
AcDbEntity
  8
AM_6
100
AcDbText
 10
4.20875
 20
-2.25
 30
0.0
 40
0.5
  1
INS-IP-203R
100
AcDbAttributeDefinition
  3

  2
DESCRIPTION
 70
     8
280
     0
  0
ATTDEF
  5
123
330
116
100
AcDbEntity
  8
AM_6
100
AcDbText
 10
4.20875
 20
-2.75
 30
0.0
 40
0.5
  1
3.9370
100
AcDbAttributeDefinition
  3

  2
A
 70
     8
280
     0
  0
ATTDEF
  5
124
330
116
100
AcDbEntity
  8
AM_6
100
AcDbText
 10
4.20875
 20
-3.25
 30
0.0
 40
0.5
  1
1-3/64
100
AcDbAttributeDefinition
  3

  2
B
 70
     8
280
     0
  0
ATTDEF
  5
125
330
116
100
AcDbEntity
  8
AM_6
100
AcDbText
 10
4.20875
 20
-3.75
 30
0.0
 40
0.5
  1
3-1/32
100
AcDbAttributeDefinition
  3

  2
C
 70
     8
280
     0
  0
ATTDEF
  5
126
330
116
100
AcDbEntity
  8
AM_6
100
AcDbText
 10
4.20875
 20
-4.25
 30
0.0
 40
0.5
  1
1.050
100
AcDbAttributeDefinition
  3

  2
D
 70
     8
280
     0
  0
ATTDEF
  5
127
330
116
100
AcDbEntity
  8
AM_6
100
AcDbText
 10
4.20875
 20
-4.75
 30
0.0
 40
0.5
  1
3-1/2
100
AcDbAttributeDefinition
  3

  2
E
 70
     8
280
     0
  0
ATTDEF
  5
128
330
116
100
AcDbEntity
  8
AM_6
100
AcDbText
 10
4.20875
 20
-5.25
 30
0.0
 40
0.5
  1
0.1900
100
AcDbAttributeDefinition
  3

  2
NDM
 70
     8
280
     0
  0
ATTDEF
  5
129
330
116
100
AcDbEntity
  8
AM_6
100
AcDbText
 10
4.20875
 20
-5.75
 30
0.0
 40
0.5
  1
0.1450
100
AcDbAttributeDefinition
  3

  2
KDM
 70
     8
280
     0
  0
ATTDEF
  5
12A
330
116
100
AcDbEntity
  8
AM_6
100
AcDbText
 10
4.20875
 20
-6.25
 30
0.0
 40
0.5
  1
2.92
100
AcDbAttributeDefinition
  3

  2
AL
 70
     8
280
     0
  0
ATTDEF
  5
12B
330
116
100
AcDbEntity
  8
AM_6
100
AcDbText
 10
4.20875
 20
-6.75
 30
0.0
 40
0.5
  1
0.50
100
AcDbAttributeDefinition
  3

  2
BL
 70
     8
280
     0
  0
ATTDEF
  5
12C
330
116
100
AcDbEntity
  8
AM_6
100
AcDbText
 10
4.20875
 20
-7.25
 30
0.0
 40
0.5
  1
0.07
100
AcDbAttributeDefinition
  3

  2
CL
 70
     8
280
     0
  0
ATTDEF
  5
12D
330
116
100
AcDbEntity
  8
AM_6
100
AcDbText
 10
4.20875
 20
-7.75
 30
0.0
 40
0.5
  1
0.44
100
AcDbAttributeDefinition
  3

  2
DL
 70
     8
280
     0
  0
ATTDEF
  5
12E
330
116
100
AcDbEntity
  8
AM_6
100
AcDbText
 10
4.20875
 20
-8.25
 30
0.0
 40
0.5
  1
baldor
100
AcDbAttributeDefinition
  3

  2
COMPANY
 70
     8
280
     0
  0
LINE
  5
12F
330
116
100
AcDbEntity
  8
AM_9
100
AcDbLine
 10
-1.16125
 20
1.038468339436791
 30
0.0
 11
-1.23125
 21
1.038468339436791
 31
0.0
  0
LINE
  5
130
330
116
100
AcDbEntity
  8
AM_9
100
AcDbLine
 10
-0.7912499999999999
 20
1.009553897169328
 30
0.0
 11
-1.16125
 21
1.009553897169328
 31
0.0
  0
LINE
  5
131
330
116
100
AcDbEntity
  8
AM_9
100
AcDbLine
 10
-0.7912499999999999
 20
0.9560369800276002
 30
0.0
 11
-1.23125
 21
0.9560369800276002
 31
0.0
  0
LINE
  5
132
330
116
100
AcDbEntity
  8
AM_9
100
AcDbLine
 10
-1.16125
 20
1.105224755260601
 30
0.0
 11
-0.7912499999999999
 21
1.105224755260601
 31
0.0
  0
LINE
  5
133
330
116
100
AcDbEntity
  8
AM_9
100
AcDbLine
 10
-0.7912499999999999
 20
1.051707838118873
 30
0.0
 11
-1.23125
 21
1.051707838118873
 31
0.0
  0
LINE
  5
134
330
116
100
AcDbEntity
  8
AM_9
100
AcDbLine
 10
-0.7912499999999999
 20
0.9560369800276002
 30
0.0
 11
-0.7912499999999999
 21
1.105224755260601
 31
0.0
  0
LINE
  5
135
330
116
100
AcDbEntity
  8
AM_9
100
AcDbLine
 10
-1.16125
 20
1.134139197528063
 30
0.0
 11
-1.23125
 21
1.134139197528063
 31
0.0
  0
LINE
  5
136
330
116
100
AcDbEntity
  8
AM_9
100
AcDbLine
 10
-1.16125
 20
1.482638888888889
 30
0.0
 11
-1.23125
 21
1.482638888888889
 31
0.0
  0
LINE
  5
137
330
116
100
AcDbEntity
  8
AM_9
100
AcDbLine
 10
-1.16125
 20
1.577687730650903
 30
0.0
 11
-1.23125
 21
1.577687730650903
 31
0.0
  0
LINE
  5
138
330
116
100
AcDbEntity
  8
AM_9
100
AcDbLine
 10
-1.16125
 20
-1.482638888888889
 30
0.0
 11
-1.23125
 21
-1.482638888888889
 31
0.0
  0
LINE
  5
139
330
116
100
AcDbEntity
  8
AM_9
100
AcDbLine
 10
-1.23125
 20
-1.577687730650903
 30
0.0
 11
-1.16125
 21
-1.577687730650903
 31
0.0
  0
LINE
  5
13A
330
116
100
AcDbEntity
  8
AM_9
100
AcDbLine
 10
-1.16125
 20
1.178609968254163
 30
0.0
 11
-1.23125
 21
1.178609968254163
 31
0.0
  0
LINE
  5
13B
330
116
100
AcDbEntity
  8
AM_9
100
AcDbLine
 10
-1.16125
 20
-1.178609968254163
 30
0.0
 11
-1.23125
 21
-1.178609968254163
 31
0.0
  0
LINE
  5
13C
330
116
100
AcDbEntity
  8
AM_9
100
AcDbLine
 10
-1.16125
 20
-0.9005782451393017
 30
0.0
 11
-1.23125
 21
-0.900578245139302
 31
0.0
  0
LINE
  5
13D
330
116
100
AcDbEntity
  8
AM_9
100
AcDbLine
 10
-1.16125
 20
0.9005782451393021
 30
0.0
 11
-1.23125
 21
0.9005782451393021
 31
0.0
  0
LINE
  5
13E
330
116
100
AcDbEntity
  8
AM_9
100
AcDbLine
 10
-1.16125
 20
0.7662279567138583
 30
0.0
 11
-1.23125
 21
0.7662279567138585
 31
0.0
  0
LINE
  5
13F
330
116
100
AcDbEntity
  8
AM_9
100
AcDbLine
 10
-1.16125
 20
-0.7662279567138575
 30
0.0
 11
-1.23125
 21
-0.7662279567138575
 31
0.0
  0
LINE
  5
140
330
116
100
AcDbEntity
  8
AM_9
100
AcDbLine
 10
-1.16125
 20
1.115559156596944
 30
0.0
 11
-1.23125
 21
1.115559156596944
 31
0.0
  0
LINE
  5
141
330
116
100
AcDbEntity
  8
AM_9
100
AcDbLine
 10
-1.16125
 20
0.9812088681714999
 30
0.0
 11
-1.23125
 21
0.9812088681714999
 31
0.0
  0
LINE
  5
142
330
116
100
AcDbEntity
  8
AM_9
100
AcDbLine
 10
-1.16125
 20
1.143418552400836
 30
0.0
 11
-1.23125
 21
1.143418552400836
 31
0.0
  0
LINE
  5
143
330
116
100
AcDbEntity
  8
AM_9
100
AcDbLine
 10
-1.16125
 20
-0.981208868171499
 30
0.0
 11
-1.23125
 21
-0.981208868171499
 31
0.0
  0
LINE
  5
144
330
116
100
AcDbEntity
  8
AM_9
100
AcDbLine
 10
-1.16125
 20
-1.115559156596938
 30
0.0
 11
-1.23125
 21
-1.115559156596938
 31
0.0
  0
LINE
  5
145
330
116
100
AcDbEntity
  8
AM_9
100
AcDbLine
 10
-1.23125
 20
-1.143418552400835
 30
0.0
 11
-1.16125
 21
-1.143418552400835
 31
0.0
  0
LINE
  5
146
330
116
100
AcDbEntity
  8
AM_9
100
AcDbLine
 10
-1.16125
 20
0.0950000000000006
 30
0.0
 11
-1.23125
 21
0.0950000000000005
 31
0.0
  0
LINE
  5
147
330
116
100
AcDbEntity
  8
AM_9
100
AcDbLine
 10
-1.16125
 20
-0.0949999999999993
 30
0.0
 11
-1.23125
 21
-0.0949999999999993
 31
0.0
  0
LINE
  5
148
330
116
100
AcDbEntity
  8
AM_4
100
AcDbLine
 10
-1.16125
 20
1.75
 30
0.0
 11
-1.23125
 21
1.75
 31
0.0
  0
LINE
  5
149
330
116
100
AcDbEntity
  8
AM_4
100
AcDbLine
 10
-1.23125
 20
-1.75
 30
0.0
 11
-1.16125
 21
-1.75
 31
0.0
  0
LINE
  5
14A
330
116
100
AcDbEntity
  8
AM_4
100
AcDbLine
 10
-1.23125
 20
1.75
 30
0.0
 11
-1.23125
 21
-1.75
 31
0.0
  0
LINE
  5
14B
330
116
100
AcDbEntity
  8
AM_4
100
AcDbLine
 10
-1.16125
 20
1.75
 30
0.0
 11
-1.16125
 21
-1.75
 31
0.0
  0
ENDBLK
  5
119
330
116
100
AcDbEntity
  8
0
100
AcDbBlockEnd
  0
BLOCK
  5
14E
330
14C
100
AcDbEntity
  8
0
100
AcDbBlockBegin
  2
6_070924I_0_in_069913_2
 70
     2
 10
0.0
 20
0.0
 30
0.0
  3
6_070924I_0_in_069913_2
  1

  0
ATTDEF
  5
150
330
14C
100
AcDbEntity
  8
AM_6
100
AcDbText
 10
6.65
 20
1.9685
 30
0.0
 40
0.5
  1
Imperial Insert -Inch
100
AcDbAttributeDefinition
  3

  2
NN
 70
     8
280
     0
  0
ATTDEF
  5
151
330
14C
100
AcDbEntity
  8
AM_6
100
AcDbText
 10
6.65
 20
1.4685
 30
0.0
 40
0.5
  1
Imperial Bearings
100
AcDbAttributeDefinition
  3

  2
NT
 70
     8
280
     0
  0
ATTDEF
  5
152
330
14C
100
AcDbEntity
  8
AM_6
100
AcDbText
 10
6.65
 20
0.9684999999999997
 30
0.0
 40
0.5
  1
070924I
100
AcDbAttributeDefinition
  3

  2
NB
 70
     8
280
     0
  0
ATTDEF
  5
153
330
14C
100
AcDbEntity
  8
AM_6
100
AcDbText
 10
6.65
 20
0.4684999999999997
 30
0.0
 40
0.5
  1
$PN.I
100
AcDbAttributeDefinition
  3

  2
NBSYN
 70
     8
280
     0
  0
ATTDEF
  5
154
330
14C
100
AcDbEntity
  8
AM_6
100
AcDbText
 10
6.65
 20
-0.0315000000000003
 30
0.0
 40
0.5
  1
070924
100
AcDbAttributeDefinition
  3

  2
LINA
 70
     8
280
     0
  0
ATTDEF
  5
155
330
14C
100
AcDbEntity
  8
AM_6
100
AcDbText
 10
6.65
 20
-0.5315000000000003
 30
0.0
 40
0.5
  1
2-3/16
100
AcDbAttributeDefinition
  3

  2
SS
 70
     8
280
     0
  0
ATTDEF
  5
156
330
14C
100
AcDbEntity
  8
AM_6
100
AcDbText
 10
6.65
 20
-1.0315
 30
0.0
 40
0.5
  1
2.187500
100
AcDbAttributeDefinition
  3

  2
SS1
 70
     8
280
     0
  0
ATTDEF
  5
157
330
14C
100
AcDbEntity
  8
AM_6
100
AcDbText
 10
6.65
 20
-1.5315
 30
0.0
 40
0.5
  1
070924
100
AcDbAttributeDefinition
  3

  2
PN
 70
     8
280
     0
  0
ATTDEF
  5
158
330
14C
100
AcDbEntity
  8
AM_6
100
AcDbText
 10
6.65
 20
-2.0315
 30
0.0
 40
0.5
  1
INS-IP-203L
100
AcDbAttributeDefinition
  3

  2
DESCRIPTION
 70
     8
280
     0
  0
ATTDEF
  5
159
330
14C
100
AcDbEntity
  8
AM_6
100
AcDbText
 10
6.65
 20
-2.5315
 30
0.0
 40
0.5
  1
Labyrinth Seal
100
AcDbAttributeDefinition
  3

  2
ST
 70
     8
280
     0
  0
ATTDEF
  5
15A
330
14C
100
AcDbEntity
  8
AM_6
100
AcDbText
 10
6.65
 20
-3.0315
 30
0.0
 40
0.5
  1
3.9370
100
AcDbAttributeDefinition
  3

  2
A
 70
     8
280
     0
  0
ATTDEF
  5
15B
330
14C
100
AcDbEntity
  8
AM_6
100
AcDbText
 10
6.65
 20
-3.5315
 30
0.0
 40
0.5
  1
1-3/64
100
AcDbAttributeDefinition
  3

  2
B
 70
     8
280
     0
  0
ATTDEF
  5
15C
330
14C
100
AcDbEntity
  8
AM_6
100
AcDbText
 10
6.65
 20
-4.0315
 30
0.0
 40
0.5
  1
3-1/32
100
AcDbAttributeDefinition
  3

  2
C
 70
     8
280
     0
  0
ATTDEF
  5
15D
330
14C
100
AcDbEntity
  8
AM_6
100
AcDbText
 10
6.65
 20
-4.5315
 30
0.0
 40
0.5
  1
1.050
100
AcDbAttributeDefinition
  3

  2
D
 70
     8
280
     0
  0
ATTDEF
  5
15E
330
14C
100
AcDbEntity
  8
AM_6
100
AcDbText
 10
6.65
 20
-5.0315
 30
0.0
 40
0.5
  1
3-1/2
100
AcDbAttributeDefinition
  3

  2
E
 70
     8
280
     0
  0
ATTDEF
  5
15F
330
14C
100
AcDbEntity
  8
AM_6
100
AcDbText
 10
6.65
 20
-5.5315
 30
0.0
 40
0.5
  1
0.1900
100
AcDbAttributeDefinition
  3

  2
NDM
 70
     8
280
     0
  0
ATTDEF
  5
160
330
14C
100
AcDbEntity
  8
AM_6
100
AcDbText
 10
6.65
 20
-6.0315
 30
0.0
 40
0.5
  1
0.101
100
AcDbAttributeDefinition
  3

  2
H
 70
     8
280
     0
  0
ATTDEF
  5
161
330
14C
100
AcDbEntity
  8
AM_6
100
AcDbText
 10
6.65
 20
-6.5315
 30
0.0
 40
0.5
  1
0.1450
100
AcDbAttributeDefinition
  3

  2
KDM
 70
     8
280
     0
  0
ATTDEF
  5
162
330
14C
100
AcDbEntity
  8
AM_6
100
AcDbText
 10
6.65
 20
-7.0315
 30
0.0
 40
0.5
  1
2.92
100
AcDbAttributeDefinition
  3

  2
AL
 70
     8
280
     0
  0
ATTDEF
  5
163
330
14C
100
AcDbEntity
  8
AM_6
100
AcDbText
 10
6.65
 20
-7.5315
 30
0.0
 40
0.5
  1
0.50
100
AcDbAttributeDefinition
  3

  2
BL
 70
     8
280
     0
  0
ATTDEF
  5
164
330
14C
100
AcDbEntity
  8
AM_6
100
AcDbText
 10
6.65
 20
-8.031500000000001
 30
0.0
 40
0.5
  1
0.07
100
AcDbAttributeDefinition
  3

  2
CL
 70
     8
280
     0
  0
ATTDEF
  5
165
330
14C
100
AcDbEntity
  8
AM_6
100
AcDbText
 10
6.65
 20
-8.531500000000001
 30
0.0
 40
0.5
  1
0.44
100
AcDbAttributeDefinition
  3

  2
DL
 70
     8
280
     0
  0
ATTDEF
  5
166
330
14C
100
AcDbEntity
  8
AM_6
100
AcDbText
 10
6.65
 20
-9.031500000000001
 30
0.0
 40
0.5
  1
0.8000
100
AcDbAttributeDefinition
  3

  2
LL
 70
     8
280
     0
  0
ATTDEF
  5
167
330
14C
100
AcDbEntity
  8
AM_6
100
AcDbText
 10
6.65
 20
-9.531500000000001
 30
0.0
 40
0.5
  1
0.025
100
AcDbAttributeDefinition
  3

  2
Y
 70
     8
280
     0
  0
ATTDEF
  5
168
330
14C
100
AcDbEntity
  8
AM_6
100
AcDbText
 10
6.65
 20
-10.0315
 30
0.0
 40
0.5
  1
0.025000
100
AcDbAttributeDefinition
  3

  2
Y1
 70
     8
280
     0
  0
ATTDEF
  5
169
330
14C
100
AcDbEntity
  8
AM_6
100
AcDbText
 10
6.65
 20
-10.5315
 30
0.0
 40
0.5
  1
2-19/32
100
AcDbAttributeDefinition
  3

  2
Z
 70
     8
280
     0
  0
ATTDEF
  5
16A
330
14C
100
AcDbEntity
  8
AM_6
100
AcDbText
 10
6.65
 20
-11.0315
 30
0.0
 40
0.5
  1
2.593750
100
AcDbAttributeDefinition
  3

  2
Z1
 70
     8
280
     0
  0
ATTDEF
  5
16B
330
14C
100
AcDbEntity
  8
AM_6
100
AcDbText
 10
6.65
 20
-11.5315
 30
0.0
 40
0.5
  1
baldor
100
AcDbAttributeDefinition
  3

  2
COMPANY
 70
     8
280
     0
  0
LINE
  5
16C
330
14C
100
AcDbEntity
  8
AM_9
100
AcDbLine
 10
1.0984375
 20
1.108047935886763
 30
0.0
 11
-1.16125
 21
1.108047935886763
 31
0.0
  0
LINE
  5
16D
330
14C
100
AcDbEntity
  8
AM_9
100
AcDbLine
 10
1.0984375
 20
1.012377077795491
 30
0.0
 11
-1.16125
 21
1.012377077795491
 31
0.0
  0
LINE
  5
16E
330
14C
100
AcDbEntity
  8
AM_9
100
AcDbLine
 10
-0.3212499999999998
 20
1.482638888888889
 30
0.0
 11
-0.3550339898333295
 21
1.555088888888889
 31
0.0
  0
LINE
  5
16F
330
14C
100
AcDbEntity
  8
AM_9
100
AcDbLine
 10
-0.3550339898333295
 20
1.410188888888889
 30
0.0
 11
-0.3212499999999998
 21
1.482638888888889
 31
0.0
  0
LINE
  5
170
330
14C
100
AcDbEntity
  8
AM_9
100
AcDbLine
 10
-0.3212500000000042
 20
-1.482638888888889
 30
0.0
 11
-0.3550339898333374
 21
-1.410188888888889
 31
0.0
  0
LINE
  5
171
330
14C
100
AcDbEntity
  8
AM_9
100
AcDbLine
 10
-0.3550339898333374
 20
-1.555088888888889
 30
0.0
 11
-0.3212500000000042
 21
-1.482638888888889
 31
0.0
  0
LINE
  5
172
330
14C
100
AcDbEntity
  8
AM_9
100
AcDbLine
 10
-1.138700000000006
 20
-1.555088888888889
 30
0.0
 11
-0.3550339898333374
 21
-1.555088888888889
 31
0.0
  0
LINE
  5
173
330
14C
100
AcDbEntity
  8
AM_9
100
AcDbLine
 10
-0.3550339898333374
 20
-1.410188888888889
 30
0.0
 11
-1.138700000000006
 21
-1.410188888888889
 31
0.0
  0
LINE
  5
174
330
14C
100
AcDbEntity
  8
AM_9
100
AcDbLine
 10
-0.3550339898333374
 20
-1.410188888888889
 30
0.0
 11
-0.3550339898333374
 21
-1.555088888888889
 31
0.0
  0
LINE
  5
175
330
14C
100
AcDbEntity
  8
AM_9
100
AcDbLine
 10
-0.3550339898333295
 20
1.410188888888889
 30
0.0
 11
-0.3550339898333295
 21
1.555088888888889
 31
0.0
  0
LINE
  5
176
330
14C
100
AcDbEntity
  8
AM_9
100
AcDbLine
 10
-0.3550339898333295
 20
1.555088888888889
 30
0.0
 11
-1.1387
 21
1.555088888888889
 31
0.0
  0
LINE
  5
177
330
14C
100
AcDbEntity
  8
AM_9
100
AcDbLine
 10
-1.1387
 20
1.410188888888889
 30
0.0
 11
-0.3550339898333295
 21
1.410188888888889
 31
0.0
  0
LINE
  5
178
330
14C
100
AcDbEntity
  8
AM_9
100
AcDbLine
 10
-1.1387
 20
1.410188888888889
 30
0.0
 11
-1.1387
 21
1.555088888888889
 31
0.0
  0
LINE
  5
179
330
14C
100
AcDbEntity
  8
AM_9
100
AcDbLine
 10
-1.1387
 20
1.555088888888889
 30
0.0
 11
-1.16125
 21
1.577638888888889
 31
0.0
  0
LINE
  5
17A
330
14C
100
AcDbEntity
  8
AM_9
100
AcDbLine
 10
-1.16125
 20
1.387638888888889
 30
0.0
 11
-1.1387
 21
1.410188888888889
 31
0.0
  0
LINE
  5
17B
330
14C
100
AcDbEntity
  8
AM_9
100
AcDbLine
 10
-1.138700000000006
 20
-1.410188888888889
 30
0.0
 11
-1.161249999999997
 21
-1.387638888888889
 31
0.0
  0
LINE
  5
17C
330
14C
100
AcDbEntity
  8
AM_9
100
AcDbLine
 10
-1.161249999999997
 20
-1.577638888888889
 30
0.0
 11
-1.138700000000006
 21
-1.555088888888889
 31
0.0
  0
LINE
  5
17D
330
14C
100
AcDbEntity
  8
AM_9
100
AcDbLine
 10
-1.138700000000006
 20
-1.410188888888889
 30
0.0
 11
-1.138700000000006
 21
-1.555088888888889
 31
0.0
  0
LINE
  5
17E
330
14C
100
AcDbEntity
  8
AM_9
100
AcDbLine
 10
1.0984375
 20
1.051707838118872
 30
0.0
 11
-1.40625
 21
1.051707838118873
 31
0.0
  0
LINE
  5
17F
330
14C
100
AcDbEntity
  8
AM_9
100
AcDbLine
 10
-1.40625
 20
0.9560369800276006
 30
0.0
 11
1.0984375
 21
0.9560369800276001
 31
0.0
  0
LINE
  5
180
330
14C
100
AcDbEntity
  8
AM_9
100
AcDbLine
 10
1.0984375
 20
1.09375
 30
0.0
 11
-1.40625
 21
1.09375
 31
0.0
  0
LINE
  5
181
330
14C
100
AcDbEntity
  8
AM_9
100
AcDbLine
 10
-1.40625
 20
-1.09375
 30
0.0
 11
1.0984375
 21
-1.09375
 31
0.0
  0
LINE
  5
182
330
14C
100
AcDbEntity
  8
AM_9
100
AcDbLine
 10
1.625
 20
1.151315789473684
 30
0.0
 11
1.0984375
 21
1.151315789473684
 31
0.0
  0
LINE
  5
183
330
14C
100
AcDbEntity
  8
AM_9
100
AcDbLine
 10
1.0984375
 20
-1.151315789473684
 30
0.0
 11
1.625
 21
-1.151315789473684
 31
0.0
  0
LINE
  5
184
330
14C
100
AcDbEntity
  8
AM_9
100
AcDbLine
 10
-1.40625
 20
1.1052247552606
 30
0.0
 11
-1.16125
 21
1.1052247552606
 31
0.0
  0
LINE
  5
185
330
14C
100
AcDbEntity
  8
AM_9
100
AcDbLine
 10
-1.16125
 20
1.009553897169328
 30
0.0
 11
-1.40625
 21
1.009553897169328
 31
0.0
  0
LINE
  5
186
330
14C
100
AcDbEntity
  8
AM_9
100
AcDbLine
 10
-1.16125
 20
1.151315789473684
 30
0.0
 11
-1.23125
 21
1.151315789473684
 31
0.0
  0
LINE
  5
187
330
14C
100
AcDbEntity
  8
AM_9
100
AcDbLine
 10
-1.23125
 20
-1.151315789473684
 30
0.0
 11
-1.16125
 21
-1.151315789473684
 31
0.0
  0
LINE
  5
188
330
14C
100
AcDbEntity
  8
AM_9
100
AcDbLine
 10
-0.7212499999999998
 20
-0.8555992052357224
 30
0.0
 11
-1.16125
 21
-0.8555992052357224
 31
0.0
  0
LINE
  5
189
330
14C
100
AcDbEntity
  8
AM_9
100
AcDbLine
 10
-0.7212499999999998
 20
-1.209152595828996
 30
0.0
 11
-0.765625
 21
-1.209152595828996
 31
0.0
  0
LINE
  5
18A
330
14C
100
AcDbEntity
  8
AM_9
100
AcDbLine
 10
-0.7212499999999998
 20
0.8555992052357221
 30
0.0
 11
-1.16125
 21
0.8555992052357221
 31
0.0
  0
LINE
  5
18B
330
14C
100
AcDbEntity
  8
AM_9
100
AcDbLine
 10
-0.7212499999999998
 20
1.209152595828995
 30
0.0
 11
-0.765625
 21
1.209152595828995
 31
0.0
  0
LINE
  5
18C
330
14C
100
AcDbEntity
  8
AM_9
100
AcDbLine
 10
1.625
 20
-1.296875
 30
0.0
 11
1.625
 21
1.296875
 31
0.0
  0
LINE
  5
18D
330
14C
100
AcDbEntity
  8
AM_9
100
AcDbLine
 10
1.649999999999999
 20
1.296875
 30
0.0
 11
1.625
 21
1.296875
 31
0.0
  0
LINE
  5
18E
330
14C
100
AcDbEntity
  8
AM_9
100
AcDbLine
 10
1.625
 20
-1.296875
 30
0.0
 11
1.649999999999999
 21
-1.296875
 31
0.0
  0
LINE
  5
18F
330
14C
100
AcDbEntity
  8
AM_9
100
AcDbLine
 10
-0.7212499999999998
 20
-0.8555992052357224
 30
0.0
 11
-0.7212499999999998
 21
-1.412497956848118
 31
0.0
  0
LINE
  5
190
330
14C
100
AcDbEntity
  8
AM_9
100
AcDbLine
 10
-0.7212499999999998
 20
1.412497956848117
 30
0.0
 11
-0.7212499999999998
 21
0.8555992052357221
 31
0.0
  0
LINE
  5
191
330
14C
100
AcDbEntity
  8
AM_9
100
AcDbLine
 10
1.421874999999999
 20
1.440972222222222
 30
0.0
 11
1.3078125
 21
1.440972222222222
 31
0.0
  0
LINE
  5
192
330
14C
100
AcDbEntity
  8
AM_9
100
AcDbLine
 10
1.3078125
 20
-1.440972222222222
 30
0.0
 11
1.421874999999999
 21
-1.440972222222222
 31
0.0
  0
LINE
  5
193
330
14C
100
AcDbEntity
  8
AM_9
100
AcDbLine
 10
1.3078125
 20
-1.589882260469459
 30
0.0
 11
1.3078125
 21
1.589882260469459
 31
0.0
  0
ARC
  5
194
330
14C
100
AcDbEntity
  8
AM_9
100
AcDbCircle
 10
1.2078125
 20
1.589882260469459
 30
0.0
 40
0.1000000000000003
100
AcDbArc
 50
0.0
 51
60.00000000000014
  0
ARC
  5
195
330
14C
100
AcDbEntity
  8
AM_9
100
AcDbCircle
 10
1.2078125
 20
-1.589882260469459
 30
0.0
 40
0.0999999999999999
100
AcDbArc
 50
299.9999999999997
 51
0.0
  0
LINE
  5
196
330
14C
100
AcDbEntity
  8
AM_9
100
AcDbLine
 10
1.2578125
 20
-1.676484800847903
 30
0.0
 11
1.2578125
 21
1.676484800847903
 31
0.0
  0
LINE
  5
197
330
14C
100
AcDbEntity
  8
AM_9
100
AcDbLine
 10
1.2578125
 20
1.676484800847903
 30
0.0
 11
1.0984375
 21
1.7685
 31
0.0
  0
LINE
  5
198
330
14C
100
AcDbEntity
  8
AM_9
100
AcDbLine
 10
1.0984375
 20
-1.7685
 30
0.0
 11
1.2578125
 21
-1.676484800847903
 31
0.0
  0
LINE
  5
199
330
14C
100
AcDbEntity
  8
AM_9
100
AcDbLine
 10
-0.7656250039122761
 20
-1.057837661775461
 30
0.0
 11
-0.7212499999999998
 21
-1.058944566254844
 31
0.0
  0
LINE
  5
19A
330
14C
100
AcDbEntity
  8
AM_9
100
AcDbLine
 10
-0.7212499999999998
 20
-1.412497956848118
 30
0.0
 11
-0.7656250039122761
 21
-1.411391052368735
 31
0.0
  0
LINE
  5
19B
330
14C
100
AcDbEntity
  8
AM_9
100
AcDbLine
 10
-0.7656250039122761
 20
1.411391052368734
 30
0.0
 11
-0.7212499999999998
 21
1.412497956848117
 31
0.0
  0
LINE
  5
19C
330
14C
100
AcDbEntity
  8
AM_9
100
AcDbLine
 10
-0.7212499999999998
 20
1.058944566254843
 30
0.0
 11
-0.7656250039122761
 21
1.057837661775461
 31
0.0
  0
LINE
  5
19D
330
14C
100
AcDbEntity
  8
AM_9
100
AcDbLine
 10
-0.7656249999999999
 20
-1.763815529430174
 30
0.0
 11
0.0515625000000001
 21
-1.792352345749211
 31
0.0
  0
LINE
  5
19E
330
14C
100
AcDbEntity
  8
AM_9
100
AcDbLine
 10
0.0515625000000001
 20
1.792352345749211
 30
0.0
 11
-0.7656249999999999
 21
1.763815529430174
 31
0.0
  0
LINE
  5
19F
330
14C
100
AcDbEntity
  8
AM_9
100
AcDbLine
 10
0.6052206781528944
 20
1.91615625
 30
0.0
 11
0.5447793218471055
 21
1.91615625
 31
0.0
  0
LINE
  5
1A0
330
14C
100
AcDbEntity
  8
AM_9
100
AcDbLine
 10
0.5447793218471055
 20
-1.91615625
 30
0.0
 11
0.6052206781528944
 21
-1.91615625
 31
0.0
  0
LINE
  5
1A1
330
14C
100
AcDbEntity
  8
AM_9
100
AcDbLine
 10
0.514558643694211
 20
1.9685
 30
0.0
 11
0.1015624999999998
 21
1.9685
 31
0.0
  0
LINE
  5
1A2
330
14C
100
AcDbEntity
  8
AM_9
100
AcDbLine
 10
0.1015624999999998
 20
-1.9685
 30
0.0
 11
0.514558643694211
 21
-1.9685
 31
0.0
  0
LINE
  5
1A3
330
14C
100
AcDbEntity
  8
AM_9
100
AcDbLine
 10
1.0484375
 20
1.9685
 30
0.0
 11
0.6354413563057889
 21
1.9685
 31
0.0
  0
LINE
  5
1A4
330
14C
100
AcDbEntity
  8
AM_9
100
AcDbLine
 10
0.6354413563057889
 20
-1.9685
 30
0.0
 11
1.0484375
 21
-1.9685
 31
0.0
  0
LINE
  5
1A5
330
14C
100
AcDbEntity
  8
AM_9
100
AcDbLine
 10
0.6354413563057889
 20
-1.9685
 30
0.0
 11
0.6354413563057889
 21
1.9685
 31
0.0
  0
LINE
  5
1A6
330
14C
100
AcDbEntity
  8
AM_9
100
AcDbLine
 10
0.6052206781528944
 20
-1.91615625
 30
0.0
 11
0.6052206781528944
 21
1.91615625
 31
0.0
  0
LINE
  5
1A7
330
14C
100
AcDbEntity
  8
AM_9
100
AcDbLine
 10
0.6052206781528944
 20
-1.91615625
 30
0.0
 11
0.6354413563057889
 21
-1.9685
 31
0.0
  0
LINE
  5
1A8
330
14C
100
AcDbEntity
  8
AM_9
100
AcDbLine
 10
0.6354413563057889
 20
1.9685
 30
0.0
 11
0.6052206781528944
 21
1.91615625
 31
0.0
  0
LINE
  5
1A9
330
14C
100
AcDbEntity
  8
AM_9
100
AcDbLine
 10
1.0984375
 20
-1.9185
 30
0.0
 11
1.0984375
 21
1.9185
 31
0.0
  0
LINE
  5
1AA
330
14C
100
AcDbEntity
  8
AM_9
100
AcDbLine
 10
1.0484375
 20
-1.9685
 30
0.0
 11
1.0484375
 21
1.9685
 31
0.0
  0
ARC
  5
1AB
330
14C
100
AcDbEntity
  8
AM_9
100
AcDbCircle
 10
1.0484375
 20
1.9185
 30
0.0
 40
0.05
100
AcDbArc
 50
0.0
 51
90.0
  0
ARC
  5
1AC
330
14C
100
AcDbEntity
  8
AM_9
100
AcDbCircle
 10
1.0484375
 20
-1.9185
 30
0.0
 40
0.05
100
AcDbArc
 50
270.0
 51
0.0
  0
LINE
  5
1AD
330
14C
100
AcDbEntity
  8
AM_9
100
AcDbLine
 10
0.5447793218471055
 20
-1.91615625
 30
0.0
 11
0.5447793218471055
 21
1.91615625
 31
0.0
  0
LINE
  5
1AE
330
14C
100
AcDbEntity
  8
AM_9
100
AcDbLine
 10
0.514558643694211
 20
-1.9685
 30
0.0
 11
0.514558643694211
 21
1.9685
 31
0.0
  0
LINE
  5
1AF
330
14C
100
AcDbEntity
  8
AM_9
100
AcDbLine
 10
0.5447793218471055
 20
1.91615625
 30
0.0
 11
0.514558643694211
 21
1.9685
 31
0.0
  0
LINE
  5
1B0
330
14C
100
AcDbEntity
  8
AM_9
100
AcDbLine
 10
0.514558643694211
 20
-1.9685
 30
0.0
 11
0.5447793218471055
 21
-1.91615625
 31
0.0
  0
LINE
  5
1B1
330
14C
100
AcDbEntity
  8
AM_9
100
AcDbLine
 10
0.1015624999999998
 20
-1.9685
 30
0.0
 11
0.1015624999999998
 21
1.9685
 31
0.0
  0
LINE
  5
1B2
330
14C
100
AcDbEntity
  8
AM_9
100
AcDbLine
 10
0.0515625000000001
 20
-1.918499999999998
 30
0.0
 11
0.0515625000000001
 21
1.918499999999998
 31
0.0
  0
ARC
  5
1B3
330
14C
100
AcDbEntity
  8
AM_9
100
AcDbCircle
 10
0.1015624999999997
 20
1.9185
 30
0.0
 40
0.0499999999999996
100
AcDbArc
 50
90.0
 51
180.0
  0
ARC
  5
1B4
330
14C
100
AcDbEntity
  8
AM_9
100
AcDbCircle
 10
0.1015624999999997
 20
-1.9185
 30
0.0
 40
0.0499999999999997
100
AcDbArc
 50
180.0
 51
270.0
  0
LINE
  5
1B5
330
14C
100
AcDbEntity
  8
AM_5
100
AcDbLine
 10
-0.4012499999999999
 20
1.555088888888889
 30
0.0
 11
-0.4012499999999999
 21
1.577638888888889
 31
0.0
  0
LINE
  5
1B6
330
14C
100
AcDbEntity
  8
AM_5
100
AcDbLine
 10
-0.4012499999999999
 20
1.577638888888889
 30
0.0
 11
-0.3882307514297739
 21
1.555088888888889
 31
0.0
  0
LINE
  5
1B7
330
14C
100
AcDbEntity
  8
AM_5
100
AcDbLine
 10
-0.4012499999999999
 20
1.410188888888889
 30
0.0
 11
-0.4012499999999999
 21
1.387638888888889
 31
0.0
  0
LINE
  5
1B8
330
14C
100
AcDbEntity
  8
AM_5
100
AcDbLine
 10
-0.4012499999999999
 20
1.387638888888889
 30
0.0
 11
-0.3882307514297739
 21
1.410188888888889
 31
0.0
  0
LINE
  5
1B9
330
14C
100
AcDbEntity
  8
AM_5
100
AcDbLine
 10
-0.4012500000000007
 20
-1.555088888888889
 30
0.0
 11
-0.4012500000000007
 21
-1.577638888888889
 31
0.0
  0
LINE
  5
1BA
330
14C
100
AcDbEntity
  8
AM_5
100
AcDbLine
 10
-0.4012500000000007
 20
-1.577638888888889
 30
0.0
 11
-0.388230751429765
 21
-1.555088888888889
 31
0.0
  0
LINE
  5
1BB
330
14C
100
AcDbEntity
  8
AM_5
100
AcDbLine
 10
-0.4012500000000007
 20
-1.410188888888889
 30
0.0
 11
-0.4012500000000007
 21
-1.387638888888889
 31
0.0
  0
LINE
  5
1BC
330
14C
100
AcDbEntity
  8
AM_5
100
AcDbLine
 10
-0.4012500000000007
 20
-1.387638888888889
 30
0.0
 11
-0.388230751429765
 21
-1.410188888888889
 31
0.0
  0
LINE
  5
1BD
330
14C
100
AcDbEntity
  8
AM_7
100
AcDbLine
 10
-0.2792499999999998
 20
1.482638888888889
 30
0.0
 11
-1.3773
 21
1.482638888888889
 31
0.0
  0
LINE
  5
1BE
330
14C
100
AcDbEntity
  8
AM_7
100
AcDbLine
 10
-0.2792500000000049
 20
-1.482638888888889
 30
0.0
 11
-1.3773
 21
-1.482638888888889
 31
0.0
  0
ARC
  5
1BF
330
14C
100
AcDbEntity
  8
AM_4
100
AcDbCircle
 10
-1.111249999999999
 20
-1.701715561259647
 30
0.0
 40
0.0500000000000005
100
AcDbArc
 50
180.0
 51
267.9999999999995
  0
ARC
  5
1C0
330
14C
100
AcDbEntity
  8
AM_4
100
AcDbCircle
 10
-1.111249999999999
 20
1.701715561259647
 30
0.0
 40
0.0500000000000003
100
AcDbArc
 50
92.0000000000005
 51
180.0
  0
LWPOLYLINE
  5
1C1
330
14C
100
AcDbEntity
  8
AM_4
100
AcDbPolyline
 90
        6
 70
     0
 43
0.0
 10
-1.112994974835125
 20
-1.402725450079624
 10
-1.129309537852182
 20
-1.400335707104308
 10
-1.143594563500847
 20
-1.394265809917441
 10
-1.154318035502369
 20
-1.385169656136095
 10
-1.16029144724135
 20
-1.373980152177874
 10
-1.16125
 20
-1.367015295627099
  0
LWPOLYLINE
  5
1C2
330
14C
100
AcDbEntity
  8
AM_4
100
AcDbPolyline
 90
        6
 70
     0
 43
0.0
 10
-1.16125
 20
1.367015295627099
 10
-1.160739130908627
 20
1.37211148542419
 10
-1.155494884505245
 20
1.383661460948832
 10
-1.14514621377439
 20
1.393285102677707
 10
-1.13096955036443
 20
1.399851693899151
 10
-1.112994974835125
 20
1.402725450079624
  0
LINE
  5
1C3
330
14C
100
AcDbEntity
  8
AM_4
100
AcDbLine
 10
-1.23125
 20
1.151315789473684
 30
0.0
 11
-1.40625
 21
1.151315789473684
 31
0.0
  0
LINE
  5
1C4
330
14C
100
AcDbEntity
  8
AM_4
100
AcDbLine
 10
-1.40625
 20
-1.151315789473684
 30
0.0
 11
-1.23125
 21
-1.151315789473684
 31
0.0
  0
LINE
  5
1C5
330
14C
100
AcDbEntity
  8
AM_4
100
AcDbLine
 10
-1.40625
 20
-1.151315789473684
 30
0.0
 11
-1.40625
 21
1.151315789473684
 31
0.0
  0
LINE
  5
1C6
330
14C
100
AcDbEntity
  8
AM_4
100
AcDbLine
 10
-0.765625
 20
-1.209152595828996
 30
0.0
 11
-1.16125
 21
-1.209152595828996
 31
0.0
  0
LINE
  5
1C7
330
14C
100
AcDbEntity
  8
AM_4
100
AcDbLine
 10
-0.765625
 20
1.209152595828995
 30
0.0
 11
-1.16125
 21
1.209152595828995
 31
0.0
  0
LINE
  5
1C8
330
14C
100
AcDbEntity
  8
AM_4
100
AcDbLine
 10
1.65
 20
-1.407719017094017
 30
0.0
 11
1.65
 21
1.407719017094017
 31
0.0
  0
ARC
  5
1C9
330
14C
100
AcDbEntity
  8
AM_4
100
AcDbCircle
 10
1.616746794871794
 20
1.407719017094016
 30
0.0
 40
0.0332532051282057
100
AcDbArc
 50
0.0
 51
90.0
  0
ARC
  5
1CA
330
14C
100
AcDbEntity
  8
AM_4
100
AcDbCircle
 10
1.616746794871794
 20
-1.407719017094016
 30
0.0
 40
0.0332532051282057
100
AcDbArc
 50
270.0
 51
0.0
  0
LINE
  5
1CB
330
14C
100
AcDbEntity
  8
AM_4
100
AcDbLine
 10
1.616746794871795
 20
-1.440972222222222
 30
0.0
 11
1.616746794871795
 21
1.440972222222222
 31
0.0
  0
LINE
  5
1CC
330
14C
100
AcDbEntity
  8
AM_4
100
AcDbLine
 10
1.616746794871795
 20
1.440972222222222
 30
0.0
 11
1.421874999999999
 21
1.440972222222222
 31
0.0
  0
LINE
  5
1CD
330
14C
100
AcDbEntity
  8
AM_4
100
AcDbLine
 10
1.421874999999999
 20
-1.440972222222222
 30
0.0
 11
1.616746794871795
 21
-1.440972222222222
 31
0.0
  0
LWPOLYLINE
  5
1CE
330
14C
100
AcDbEntity
  8
AM_4
100
AcDbPolyline
 90
        6
 70
     0
 43
0.0
 10
-1.112994974835125
 20
1.04917205948635
 10
-1.129309537852182
 20
1.046782316511033
 10
-1.143594563500847
 20
1.040712419324166
 10
-1.15431803550237
 20
1.03161626554282
 10
-1.16029144724135
 20
1.020426761584599
 10
-1.16125
 20
1.013461905033825
  0
LWPOLYLINE
  5
1CF
330
14C
100
AcDbEntity
  8
AM_4
100
AcDbPolyline
 90
        6
 70
     0
 43
0.0
 10
-1.16125
 20
-1.013461905033825
 10
-1.160739130908627
 20
-1.018558094830917
 10
-1.155494884505245
 20
-1.030108070355559
 10
-1.14514621377439
 20
-1.039731712084434
 10
-1.130969550364431
 20
-1.046298303305878
 10
-1.112994974835125
 20
-1.049172059486351
  0
LINE
  5
1D0
330
14C
100
AcDbEntity
  8
AM_4
100
AcDbLine
 10
-1.112994974835125
 20
-1.049172059486351
 30
0.0
 11
-1.112994974835125
 21
1.04917205948635
 31
0.0
  0
LINE
  5
1D1
330
14C
100
AcDbEntity
  8
AM_4
100
AcDbLine
 10
-1.112994974835125
 20
-1.049172059486351
 30
0.0
 11
-0.7656250039122761
 21
-1.057837661775461
 31
0.0
  0
LINE
  5
1D2
330
14C
100
AcDbEntity
  8
AM_4
100
AcDbLine
 10
-0.7656250039122761
 20
-1.411391052368735
 30
0.0
 11
-1.112994974835125
 21
-1.402725450079624
 31
0.0
  0
LINE
  5
1D3
330
14C
100
AcDbEntity
  8
AM_4
100
AcDbLine
 10
-1.112994974835125
 20
1.402725450079624
 30
0.0
 11
-1.112994974835125
 21
1.751685102610602
 31
0.0
  0
LINE
  5
1D4
330
14C
100
AcDbEntity
  8
AM_4
100
AcDbLine
 10
-1.112994974835125
 20
1.402725450079624
 30
0.0
 11
-0.7656250039122761
 21
1.411391052368734
 31
0.0
  0
LINE
  5
1D5
330
14C
100
AcDbEntity
  8
AM_4
100
AcDbLine
 10
-0.7656250039122761
 20
1.057837661775461
 30
0.0
 11
-1.112994974835125
 21
1.04917205948635
 31
0.0
  0
LINE
  5
1D6
330
14C
100
AcDbEntity
  8
AM_4
100
AcDbLine
 10
-1.112994974835125
 20
-1.751685102610602
 30
0.0
 11
-0.7656249999999999
 21
-1.763815529430174
 31
0.0
  0
LINE
  5
1D7
330
14C
100
AcDbEntity
  8
AM_4
100
AcDbLine
 10
-0.7656249999999999
 20
1.763815529430174
 30
0.0
 11
-1.112994974835125
 21
1.751685102610602
 31
0.0
  0
LINE
  5
1D8
330
14C
100
AcDbEntity
  8
AM_4
100
AcDbLine
 10
-1.112994974835125
 20
-1.751685102610602
 30
0.0
 11
-1.112994974835125
 21
-1.402725450079624
 31
0.0
  0
ENDBLK
  5
14F
330
14C
100
AcDbEntity
  8
0
100
AcDbBlockEnd
  0
BLOCK
  5
1DB
330
1D9
100
AcDbEntity
  8
0
100
AcDbBlockBegin
  2
7_069913H_0_in_069913_2
 70
     2
 10
0.0
 20
0.0
 30
0.0
  3
7_069913H_0_in_069913_2
  1

  0
ATTDEF
  5
1DD
330
1D9
100
AcDbEntity
  8
AM_6
100
AcDbText
 10
6.876875
 20
3.5625
 30
0.0
 40
0.5
  1
FC-IP -(Labyrinth Seal)-Housing -Inch
100
AcDbAttributeDefinition
  3

  2
NN
 70
     8
280
     0
  0
ATTDEF
  5
1DE
330
1D9
100
AcDbEntity
  8
AM_6
100
AcDbText
 10
6.876875
 20
3.0625
 30
0.0
 40
0.5
  1
Imperial Piloted Flange Bearings
100
AcDbAttributeDefinition
  3

  2
NT
 70
     8
280
     0
  0
ATTDEF
  5
1DF
330
1D9
100
AcDbEntity
  8
AM_6
100
AcDbText
 10
6.876875
 20
2.5625
 30
0.0
 40
0.5
  1
069913H
100
AcDbAttributeDefinition
  3

  2
NB
 70
     8
280
     0
  0
ATTDEF
  5
1E0
330
1D9
100
AcDbEntity
  8
AM_6
100
AcDbText
 10
6.876875
 20
2.0625
 30
0.0
 40
0.5
  1
$PN.H
100
AcDbAttributeDefinition
  3

  2
NBSYN
 70
     8
280
     0
  0
ATTDEF
  5
1E1
330
1D9
100
AcDbEntity
  8
AM_6
100
AcDbText
 10
6.876875
 20
1.5625
 30
0.0
 40
0.5
  1
069913
100
AcDbAttributeDefinition
  3

  2
LINA
 70
     8
280
     0
  0
ATTDEF
  5
1E2
330
1D9
100
AcDbEntity
  8
AM_6
100
AcDbText
 10
6.876875
 20
1.0625
 30
0.0
 40
0.5
  1
2-3/16
100
AcDbAttributeDefinition
  3

  2
SS
 70
     8
280
     0
  0
ATTDEF
  5
1E3
330
1D9
100
AcDbEntity
  8
AM_6
100
AcDbText
 10
6.876875
 20
0.5625
 30
0.0
 40
0.5
  1
069913
100
AcDbAttributeDefinition
  3

  2
PN
 70
     8
280
     0
  0
ATTDEF
  5
1E4
330
1D9
100
AcDbEntity
  8
AM_6
100
AcDbText
 10
6.876875
 20
0.0625
 30
0.0
 40
0.5
  1
FC-IP-203LE
100
AcDbAttributeDefinition
  3

  2
DESCRIPTION
 70
     8
280
     0
  0
ATTDEF
  5
1E5
330
1D9
100
AcDbEntity
  8
AM_6
100
AcDbText
 10
6.876875
 20
-0.4375
 30
0.0
 40
0.5
  1
Expansion Type
100
AcDbAttributeDefinition
  3

  2
EF
 70
     8
280
     0
  0
ATTDEF
  5
1E6
330
1D9
100
AcDbEntity
  8
AM_6
100
AcDbText
 10
6.876875
 20
-0.9375
 30
0.0
 40
0.5
  1
Labyrinth Seal
100
AcDbAttributeDefinition
  3

  2
ST
 70
     8
280
     0
  0
ATTDEF
  5
1E7
330
1D9
100
AcDbEntity
  8
AM_6
100
AcDbText
 10
6.876875
 20
-1.4375
 30
0.0
 40
0.5
  1
3-1/32
100
AcDbAttributeDefinition
  3

  2
A
 70
     8
280
     0
  0
ATTDEF
  5
1E8
330
1D9
100
AcDbEntity
  8
AM_6
100
AcDbText
 10
6.876875
 20
-1.9375
 30
0.0
 40
0.5
  1
7-1/8
100
AcDbAttributeDefinition
  3

  2
B
 70
     8
280
     0
  0
ATTDEF
  5
1E9
330
1D9
100
AcDbEntity
  8
AM_6
100
AcDbText
 10
6.876875
 20
-2.4375
 30
0.0
 40
0.5
  1
2-3/16
100
AcDbAttributeDefinition
  3

  2
C
 70
     8
280
     0
  0
ATTDEF
  5
1EA
330
1D9
100
AcDbEntity
  8
AM_6
100
AcDbText
 10
6.876875
 20
-2.9375
 30
0.0
 40
0.5
  1
4-1/4
100
AcDbAttributeDefinition
  3

  2
D
 70
     8
280
     0
  0
ATTDEF
  5
1EB
330
1D9
100
AcDbEntity
  8
AM_6
100
AcDbText
 10
6.876875
 20
-3.4375
 30
0.0
 40
0.5
  1
6
100
AcDbAttributeDefinition
  3

  2
DD
 70
     8
280
     0
  0
ATTDEF
  5
1EC
330
1D9
100
AcDbEntity
  8
AM_6
100
AcDbText
 10
6.876875
 20
-3.9375
 30
0.0
 40
0.5
  1
1
100
AcDbAttributeDefinition
  3

  2
E
 70
     8
280
     0
  0
ATTDEF
  5
1ED
330
1D9
100
AcDbEntity
  8
AM_6
100
AcDbText
 10
6.876875
 20
-4.4375
 30
0.0
 40
0.5
  1
1/2
100
AcDbAttributeDefinition
  3

  2
F
 70
     8
280
     0
  0
ATTDEF
  5
1EE
330
1D9
100
AcDbEntity
  8
AM_6
100
AcDbText
 10
6.876875
 20
-4.9375
 30
0.0
 40
0.5
  1
1-21/32
100
AcDbAttributeDefinition
  3

  2
G
 70
     8
280
     0
  0
ATTDEF
  5
1EF
330
1D9
100
AcDbEntity
  8
AM_6
100
AcDbText
 10
6.876875
 20
-5.4375
 30
0.0
 40
0.5
  1
9/16
100
AcDbAttributeDefinition
  3

  2
H
 70
     8
280
     0
  0
ATTDEF
  5
1F0
330
1D9
100
AcDbEntity
  8
AM_6
100
AcDbText
 10
6.876875
 20
-5.9375
 30
0.0
 40
0.5
  1
5.000
100
AcDbAttributeDefinition
  3

  2
K
 70
     8
280
     0
  0
ATTDEF
  5
1F1
330
1D9
100
AcDbEntity
  8
AM_6
100
AcDbText
 10
6.876875
 20
-6.4375
 30
0.0
 40
0.5
  1
3-1/2
100
AcDbAttributeDefinition
  3

  2
L
 70
     8
280
     0
  0
ATTDEF
  5
1F2
330
1D9
100
AcDbEntity
  8
AM_6
100
AcDbText
 10
6.876875
 20
-6.9375
 30
0.0
 40
0.5
  1
1/2-13
100
AcDbAttributeDefinition
  3

  2
M
 70
     8
280
     0
  0
ATTDEF
  5
1F3
330
1D9
100
AcDbEntity
  8
AM_6
100
AcDbText
 10
6.876875
 20
-7.4375
 30
0.0
 40
0.5
  1
3-5/64
100
AcDbAttributeDefinition
  3

  2
N
 70
     8
280
     0
  0
ATTDEF
  5
1F4
330
1D9
100
AcDbEntity
  8
AM_6
100
AcDbText
 10
6.876875
 20
-7.9375
 30
0.0
 40
0.5
  1
1-3/8
100
AcDbAttributeDefinition
  3

  2
P
 70
     8
280
     0
  0
ATTDEF
  5
1F5
330
1D9
100
AcDbEntity
  8
AM_6
100
AcDbText
 10
6.876875
 20
-8.4375
 30
0.0
 40
0.5
  1
1-27/64
100
AcDbAttributeDefinition
  3

  2
Q
 70
     8
280
     0
  0
ATTDEF
  5
1F6
330
1D9
100
AcDbEntity
  8
AM_6
100
AcDbText
 10
6.876875
 20
-8.9375
 30
0.0
 40
0.5
  1
1/4
100
AcDbAttributeDefinition
  3

  2
X
 70
     8
280
     0
  0
ATTDEF
  5
1F7
330
1D9
100
AcDbEntity
  8
AM_6
100
AcDbText
 10
6.876875
 20
-9.4375
 30
0.0
 40
0.5
  1
0.025
100
AcDbAttributeDefinition
  3

  2
Y
 70
     8
280
     0
  0
ATTDEF
  5
1F8
330
1D9
100
AcDbEntity
  8
AM_6
100
AcDbText
 10
6.876875
 20
-9.9375
 30
0.0
 40
0.5
  1
2-19/32
100
AcDbAttributeDefinition
  3

  2
Z
 70
     8
280
     0
  0
ATTDEF
  5
1F9
330
1D9
100
AcDbEntity
  8
AM_6
100
AcDbText
 10
6.876875
 20
-10.4375
 30
0.0
 40
0.5
  1
baldor
100
AcDbAttributeDefinition
  3

  2
COMPANY
 70
     8
280
     0
  0
LINE
  5
1FA
330
1D9
100
AcDbEntity
  8
AM_9
100
AcDbLine
 10
-0.4500000000000001
 20
2.271444211100948
 30
0.0
 11
-0.5625000000000001
 21
2.271444211100947
 31
0.0
  0
LINE
  5
1FB
330
1D9
100
AcDbEntity
  8
AM_9
100
AcDbLine
 10
-0.5509075087231923
 20
2.870169553357589
 30
0.0
 11
-0.5625000000000001
 21
2.850090769479859
 31
0.0
  0
LINE
  5
1FC
330
1D9
100
AcDbEntity
  8
AM_9
100
AcDbLine
 10
-0.4499999999999999
 20
-2.281504595617978
 30
0.0
 11
-0.5624999999999999
 21
-2.281504595617978
 31
0.0
  0
LINE
  5
1FD
330
1D9
100
AcDbEntity
  8
AM_9
100
AcDbLine
 10
-0.4499999999999999
 20
-2.261159200600491
 30
0.0
 11
-0.5624999999999999
 21
-2.261159200600491
 31
0.0
  0
LINE
  5
1FE
330
1D9
100
AcDbEntity
  8
AM_9
100
AcDbLine
 10
-0.4499999999999999
 20
2.281504595617978
 30
0.0
 11
-0.5624999999999999
 21
2.281504595617978
 31
0.0
  0
LINE
  5
1FF
330
1D9
100
AcDbEntity
  8
AM_9
100
AcDbLine
 10
-0.5624999999999999
 20
2.26115920060049
 30
0.0
 11
-0.4499999999999999
 21
2.26115920060049
 31
0.0
  0
LINE
  5
200
330
1D9
100
AcDbEntity
  8
AM_9
100
AcDbLine
 10
-0.4499999999999999
 20
-2.271444211100947
 30
0.0
 11
-0.5624999999999999
 21
-2.271444211100946
 31
0.0
  0
LINE
  5
201
330
1D9
100
AcDbEntity
  8
AM_9
100
AcDbLine
 10
-0.5624999999999999
 20
-2.5
 30
0.0
 11
-0.45
 21
-2.5
 31
0.0
  0
LINE
  5
202
330
1D9
100
AcDbEntity
  8
AM_9
100
AcDbLine
 10
-0.4500000000000001
 20
2.449489742783178
 30
0.0
 11
-0.5624999999999998
 21
2.449489742783178
 31
0.0
  0
LINE
  5
203
330
1D9
100
AcDbEntity
  8
AM_9
100
AcDbLine
 10
-0.765625
 20
-1.9685
 30
0.0
 11
1.421875
 21
-1.9685
 31
0.0
  0
LINE
  5
204
330
1D9
100
AcDbEntity
  8
AM_9
100
AcDbLine
 10
1.421875
 20
1.9685
 30
0.0
 11
-0.765625
 21
1.9685
 31
0.0
  0
LINE
  5
205
330
1D9
100
AcDbEntity
  8
AM_9
100
AcDbLine
 10
-0.4499999999999998
 20
-2.824957564429837
 30
0.0
 11
-0.5624999999999999
 21
-2.824957564429837
 31
0.0
  0
LINE
  5
206
330
1D9
100
AcDbEntity
  8
AM_9
100
AcDbLine
 10
-0.4499999999999999
 20
-2.261159200600491
 30
0.0
 11
-0.4499999999999998
 21
-2.867076469487258
 31
0.0
  0
LINE
  5
207
330
1D9
100
AcDbEntity
  8
AM_9
100
AcDbLine
 10
-0.4499999999999998
 20
2.824957564429835
 30
0.0
 11
-0.5624999999999999
 21
2.824957564429835
 31
0.0
  0
LINE
  5
208
330
1D9
100
AcDbEntity
  8
AM_9
100
AcDbLine
 10
-0.4499999999999998
 20
2.867076469487256
 30
0.0
 11
-0.4499999999999999
 21
2.26115920060049
 31
0.0
  0
LINE
  5
209
330
1D9
100
AcDbEntity
  8
AM_9
100
AcDbLine
 10
-0.5625000000000001
 20
-2.371320343559643
 30
0.0
 11
0.0000000000000001
 21
-2.371320343559643
 31
0.0
  0
LINE
  5
20A
330
1D9
100
AcDbEntity
  8
AM_9
100
AcDbLine
 10
0.0000000000000001
 20
-1.871320343559643
 30
0.0
 11
-0.5625000000000001
 21
-1.871320343559643
 31
0.0
  0
LINE
  5
20B
330
1D9
100
AcDbEntity
  8
AM_9
100
AcDbLine
 10
-0.5625000000000001
 20
1.871320343559643
 30
0.0
 11
0.0000000000000001
 21
1.871320343559643
 31
0.0
  0
LINE
  5
20C
330
1D9
100
AcDbEntity
  8
AM_9
100
AcDbLine
 10
0.0000000000000001
 20
2.371320343559643
 30
0.0
 11
-0.5625000000000001
 21
2.371320343559643
 31
0.0
  0
LINE
  5
20D
330
1D9
100
AcDbEntity
  8
AM_9
100
AcDbLine
 10
-0.0169
 20
0.2331000000000003
 30
0.0
 11
-0.4330999999999997
 21
0.2331000000000003
 31
0.0
  0
LINE
  5
20E
330
1D9
100
AcDbEntity
  8
AM_9
100
AcDbLine
 10
-0.4330999999999997
 20
-0.2331000000000003
 30
0.0
 11
-0.0169
 21
-0.2331000000000003
 31
0.0
  0
LINE
  5
20F
330
1D9
100
AcDbEntity
  8
AM_9
100
AcDbLine
 10
-0.4330999999999997
 20
-0.2331000000000003
 30
0.0
 11
-0.4330999999999997
 21
0.2331000000000003
 31
0.0
  0
LINE
  5
210
330
1D9
100
AcDbEntity
  8
AM_9
100
AcDbLine
 10
-0.4330999999999997
 20
0.2331000000000003
 30
0.0
 11
-0.4499999999999998
 21
0.2500000000000003
 31
0.0
  0
LINE
  5
211
330
1D9
100
AcDbEntity
  8
AM_9
100
AcDbLine
 10
-0.4499999999999998
 20
-0.2500000000000003
 30
0.0
 11
-0.4330999999999997
 21
-0.2331000000000003
 31
0.0
  0
LINE
  5
212
330
1D9
100
AcDbEntity
  8
AM_9
100
AcDbLine
 10
-0.0169
 20
-0.2331000000000003
 30
0.0
 11
-0.0169
 21
0.2331000000000003
 31
0.0
  0
LINE
  5
213
330
1D9
100
AcDbEntity
  8
AM_9
100
AcDbLine
 10
-0.0169
 20
-0.2331000000000003
 30
0.0
 11
0.0000000000000002
 21
-0.2500000000000003
 31
0.0
  0
LINE
  5
214
330
1D9
100
AcDbEntity
  8
AM_9
100
AcDbLine
 10
0.0000000000000002
 20
0.2500000000000003
 30
0.0
 11
-0.0169
 21
0.2331000000000003
 31
0.0
  0
LINE
  5
215
330
1D9
100
AcDbEntity
  8
AM_5
100
AcDbLine
 10
-0.0000000000000002
 20
-0.2499999999999998
 30
0.0
 11
-0.4500000000000002
 21
-0.2499999999999998
 31
0.0
  0
LINE
  5
216
330
1D9
100
AcDbEntity
  8
AM_5
100
AcDbLine
 10
0.0000000000000004
 20
0.2500000000000003
 30
0.0
 11
-0.4500000000000002
 21
0.2500000000000003
 31
0.0
  0
LINE
  5
217
330
1D9
100
AcDbEntity
  8
AM_7
100
AcDbLine
 10
0.0295312499999999
 20
2.121320343559643
 30
0.0
 11
-0.6201562500000002
 21
2.121320343559643
 31
0.0
  0
LINE
  5
218
330
1D9
100
AcDbEntity
  8
AM_7
100
AcDbLine
 10
0.0295312499999999
 20
-2.121320343559643
 30
0.0
 11
-0.6201562500000002
 21
-2.121320343559643
 31
0.0
  0
LINE
  5
219
330
1D9
100
AcDbEntity
  8
AM_7
100
AcDbLine
 10
1.876875
 20
0.0
 30
0.0
 11
-1.876875
 21
0.0
 31
0.0
  0
LINE
  5
21A
330
1D9
100
AcDbEntity
  8
AM_4
100
AcDbLine
 10
-0.5625000000000001
 20
2.850090769479859
 30
0.0
 11
-0.764625
 21
2.5
 31
0.0
  0
LINE
  5
21B
330
1D9
100
AcDbEntity
  8
AM_4
100
AcDbLine
 10
-0.4500000000000001
 20
3.044946485331357
 30
0.0
 11
-0.5509075087231923
 21
2.870169553357589
 31
0.0
  0
LINE
  5
21C
330
1D9
100
AcDbEntity
  8
AM_4
100
AcDbLine
 10
-0.764625
 20
2.5
 30
0.0
 11
-0.764625
 21
2.419988987979762
 31
0.0
  0
LINE
  5
21D
330
1D9
100
AcDbEntity
  8
AM_4
100
AcDbLine
 10
-0.7281249999999998
 20
-2.5
 30
0.0
 11
-0.5624999999999999
 21
-2.5
 31
0.0
  0
LINE
  5
21E
330
1D9
100
AcDbEntity
  8
AM_4
100
AcDbLine
 10
-0.5624999999999998
 20
2.449489742783178
 30
0.0
 11
-0.7281249999999998
 21
2.449489742783178
 31
0.0
  0
LINE
  5
21F
330
1D9
100
AcDbEntity
  8
AM_4
100
AcDbLine
 10
-0.7281249999999998
 20
2.044083957038156
 30
0.0
 11
-0.5624999999999999
 21
2.044083957038156
 31
0.0
  0
LINE
  5
220
330
1D9
100
AcDbEntity
  8
AM_4
100
AcDbLine
 10
-0.7281249999999998
 20
-2.044083957038156
 30
0.0
 11
-0.5624999999999999
 21
-2.044083957038156
 31
0.0
  0
LWPOLYLINE
  5
221
330
1D9
100
AcDbEntity
  8
AM_4
100
AcDbPolyline
 90
        7
 70
     0
 43
0.0
 10
-0.7281249999999998
 20
2.044083957038156
 10
-0.7283393760593009
 20
2.043852233476563
 10
-0.7403729340459441
 20
2.028981724221772
 10
-0.7518131863827491
 20
2.010232884771451
 10
-0.758167505855886
 20
1.996139994857766
 10
-0.7631037706693646
 20
1.980267619475591
 10
-0.7648544945000456
 20
1.970821788923892
  0
LINE
  5
222
330
1D9
100
AcDbEntity
  8
AM_4
100
AcDbLine
 10
-0.7281249999999998
 20
2.449489742783178
 30
0.0
 11
-0.7281249999999998
 21
2.044083957038156
 31
0.0
  0
LWPOLYLINE
  5
223
330
1D9
100
AcDbEntity
  8
AM_4
100
AcDbPolyline
 90
        6
 70
     0
 43
0.0
 10
-0.764625
 20
2.419988987979762
 10
-0.7633122164779531
 20
2.424444371824797
 10
-0.7568384678777965
 20
2.435832567908147
 10
-0.7470420319464831
 20
2.444262861594015
 10
-0.7352169894540933
 20
2.448799060765478
 10
-0.7281249999999998
 20
2.449489742783178
  0
LINE
  5
224
330
1D9
100
AcDbEntity
  8
AM_4
100
AcDbLine
 10
-0.7656250000000001
 20
2.4625
 30
0.0
 11
-0.7656250000000001
 21
-2.4625
 31
0.0
  0
ARC
  5
225
330
1D9
100
AcDbEntity
  8
AM_4
100
AcDbCircle
 10
-0.7281249999999817
 20
2.462499999999998
 30
0.0
 40
0.0375000000000182
100
AcDbArc
 50
166.7385244638468
 51
180.0
  0
LWPOLYLINE
  5
226
330
1D9
100
AcDbEntity
  8
AM_4
100
AcDbPolyline
 90
        7
 70
     0
 43
0.0
 10
-0.7648544945000457
 20
-1.970821788923893
 10
-0.7619298221146027
 20
-1.984837967050955
 10
-0.7573339121098082
 20
-1.998247957715734
 10
-0.7489015445859858
 20
-2.015601748118854
 10
-0.7389243477083337
 20
-2.030986384259449
 10
-0.728339376059422
 20
-2.043852233476599
 10
-0.7281249999999998
 20
-2.044083957038155
  0
LINE
  5
227
330
1D9
100
AcDbEntity
  8
AM_4
100
AcDbLine
 10
-0.7281249999999998
 20
-2.044083957038156
 30
0.0
 11
-0.7281249999999998
 21
-2.5
 31
0.0
  0
ARC
  5
228
330
1D9
100
AcDbEntity
  8
AM_4
100
AcDbCircle
 10
-0.7281250000000006
 20
-2.4625
 30
0.0
 40
0.0374999999999995
100
AcDbArc
 50
180.0
 51
270.0
  0
LINE
  5
229
330
1D9
100
AcDbEntity
  8
AM_4
100
AcDbLine
 10
-0.7648544945000457
 20
-1.970821788923893
 30
0.0
 11
-0.7656249999999999
 21
-1.9591325196352
 31
0.0
  0
LINE
  5
22A
330
1D9
100
AcDbEntity
  8
AM_4
100
AcDbLine
 10
-0.7648544945000457
 20
-1.970821788923893
 30
0.0
 11
-0.5624999999999999
 21
-1.970821788923893
 31
0.0
  0
LINE
  5
22B
330
1D9
100
AcDbEntity
  8
AM_4
100
AcDbLine
 10
-0.7648544945000456
 20
1.970821788923892
 30
0.0
 11
-0.5624999999999999
 21
1.970821788923892
 31
0.0
  0
LWPOLYLINE
  5
22C
330
1D9
100
AcDbEntity
  8
AM_4
100
AcDbPolyline
 90
        3
 70
     0
 43
0.0
 10
-0.7656249999999999
 20
1.959132519635201
 10
-0.765498967034855
 20
1.963913235748437
 10
-0.7648544945000456
 20
1.970821788923892
  0
LINE
  5
22D
330
1D9
100
AcDbEntity
  8
AM_4
100
AcDbLine
 10
-0.7648544961916471
 20
-1.488983264721308
 30
0.0
 11
-0.5624999999999999
 21
-1.488983264721308
 31
0.0
  0
LINE
  5
22E
330
1D9
100
AcDbEntity
  8
AM_4
100
AcDbLine
 10
-0.7648544945000457
 20
1.488983261733383
 30
0.0
 11
-0.5624999999999999
 21
1.488983261733383
 31
0.0
  0
LINE
  5
22F
330
1D9
100
AcDbEntity
  8
AM_4
100
AcDbLine
 10
-0.5624999999999999
 20
-2.870169553357589
 30
0.0
 11
-0.4499999999999998
 21
-2.870169553357589
 31
0.0
  0
LINE
  5
230
330
1D9
100
AcDbEntity
  8
AM_4
100
AcDbLine
 10
-0.5624999999999999
 20
-2.870169553357589
 30
0.0
 11
-0.5624999999999999
 21
-1.044289804535119
 31
0.0
  0
LINE
  5
231
330
1D9
100
AcDbEntity
  8
AM_4
100
AcDbLine
 10
-0.5624999999999999
 20
1.044289804535118
 30
0.0
 11
-0.5624999999999999
 21
2.870169553357587
 31
0.0
  0
LINE
  5
232
330
1D9
100
AcDbEntity
  8
AM_4
100
AcDbLine
 10
-0.4499999999999998
 20
2.870169553357587
 30
0.0
 11
-0.5624999999999999
 21
2.870169553357587
 31
0.0
  0
LINE
  5
233
330
1D9
100
AcDbEntity
  8
AM_4
100
AcDbLine
 10
1.421875
 20
2.311900187740153
 30
0.0
 11
1.421875
 21
-2.311900187740153
 31
0.0
  0
ARC
  5
234
330
1D9
100
AcDbEntity
  8
AM_4
100
AcDbCircle
 10
1.365625000000001
 20
-2.311900187740154
 30
0.0
 40
0.0562499999999984
100
AcDbArc
 50
271.9999999999994
 51
0.0000008537736463
  0
ARC
  5
235
330
1D9
100
AcDbEntity
  8
AM_4
100
AcDbCircle
 10
1.365625000000001
 20
2.311900187740154
 30
0.0
 40
0.0562499999999988
100
AcDbArc
 50
0.0000008537736463
 51
88.00000000000065
  0
LINE
  5
236
330
1D9
100
AcDbEntity
  8
AM_4
100
AcDbLine
 10
1.367588096689516
 20
2.368115921759976
 30
0.0
 11
1.054286903310484
 21
2.379056640515455
 31
0.0
  0
LINE
  5
237
330
1D9
100
AcDbEntity
  8
AM_4
100
AcDbLine
 10
1.054286903310484
 20
-2.379056640515455
 30
0.0
 11
1.367588096689516
 21
-2.368115921759976
 31
0.0
  0
LINE
  5
238
330
1D9
100
AcDbEntity
  8
AM_4
100
AcDbLine
 10
1.367588096689516
 20
2.368115921759976
 30
0.0
 11
1.367588096689516
 21
-2.368115921759976
 31
0.0
  0
ARC
  5
239
330
1D9
100
AcDbEntity
  8
AM_4
100
AcDbCircle
 10
1.056249999999999
 20
-2.435272374535278
 30
0.0
 40
0.0562499999999989
100
AcDbArc
 50
91.99999999999889
 51
179.9999991462263
  0
ARC
  5
23A
330
1D9
100
AcDbEntity
  8
AM_4
100
AcDbCircle
 10
1.056249999999999
 20
2.435272374535278
 30
0.0
 40
0.0562499999999988
100
AcDbArc
 50
179.9999991462263
 51
268.0000000000011
  0
LINE
  5
23B
330
1D9
100
AcDbEntity
  8
AM_4
100
AcDbLine
 10
1.054286903310484
 20
2.379056640515455
 30
0.0
 11
1.054286903310484
 21
-2.379056640515455
 31
0.0
  0
LINE
  5
23C
330
1D9
100
AcDbEntity
  8
AM_4
100
AcDbLine
 10
-0.4499999999999998
 20
1.044289804535118
 30
0.0
 11
-0.5624999999999999
 21
1.044289804535118
 31
0.0
  0
LINE
  5
23D
330
1D9
100
AcDbEntity
  8
AM_4
100
AcDbLine
 10
-0.7281249999999998
 20
1.439347343965046
 30
0.0
 11
-0.5624999999999999
 21
1.439347343965046
 31
0.0
  0
LINE
  5
23E
330
1D9
100
AcDbEntity
  8
AM_4
100
AcDbLine
 10
-0.7281249999999998
 20
-1.439347352166444
 30
0.0
 11
-0.5624999999999999
 21
-1.439347352166444
 31
0.0
  0
LINE
  5
23F
330
1D9
100
AcDbEntity
  8
AM_4
100
AcDbLine
 10
-0.4499999999999998
 20
-1.044289804535119
 30
0.0
 11
-0.5624999999999999
 21
-1.044289804535119
 31
0.0
  0
LINE
  5
240
330
1D9
100
AcDbEntity
  8
AM_4
100
AcDbLine
 10
0.0
 20
-2.5
 30
0.0
 11
1.0
 21
-2.5
 31
0.0
  0
LINE
  5
241
330
1D9
100
AcDbEntity
  8
AM_4
100
AcDbLine
 10
1.0
 20
2.5
 30
0.0
 11
0.0
 21
2.5
 31
0.0
  0
LINE
  5
242
330
1D9
100
AcDbEntity
  8
AM_4
100
AcDbLine
 10
1.0
 20
2.5
 30
0.0
 11
1.0
 21
-2.5
 31
0.0
  0
LWPOLYLINE
  5
243
330
1D9
100
AcDbEntity
  8
AM_4
100
AcDbPolyline
 90
        7
 70
     0
 43
0.0
 10
-0.7648544945000457
 20
1.488983261733383
 10
-0.7619298221146027
 20
1.484766485263523
 10
-0.7573339121098082
 20
1.478948907005192
 10
-0.7489015445859867
 20
1.46832584517071
 10
-0.7389243477083338
 20
1.455044161974124
 10
-0.7283393760594943
 20
1.439675305019035
 10
-0.7281249999999998
 20
1.439347343965048
  0
LINE
  5
244
330
1D9
100
AcDbEntity
  8
AM_4
100
AcDbLine
 10
-0.7648544945000457
 20
1.488983261733383
 30
0.0
 11
-0.7656249999999999
 21
1.491880028858833
 31
0.0
  0
LWPOLYLINE
  5
245
330
1D9
100
AcDbEntity
  8
AM_4
100
AcDbPolyline
 90
        3
 70
     0
 43
0.0
 10
-0.7656249999999999
 20
-1.491880028858832
 10
-0.7654989670348549
 20
-1.490667505295584
 10
-0.7648544961916471
 20
-1.488983264721308
  0
LWPOLYLINE
  5
246
330
1D9
100
AcDbEntity
  8
AM_4
100
AcDbPolyline
 90
        7
 70
     0
 43
0.0
 10
-0.7281249999999998
 20
-1.439347352166444
 10
-0.7283393760592858
 20
-1.439675305019125
 10
-0.7403729340458157
 20
-1.457036251990111
 10
-0.7518131863825235
 20
-1.472035842453693
 10
-0.7581675053576327
 20
-1.479989153500698
 10
-0.7631037699815849
 20
-1.486339515925948
 10
-0.7648544961916471
 20
-1.488983264721308
  0
LINE
  5
247
330
1D9
100
AcDbEntity
  8
AM_4
100
AcDbLine
 10
-0.7281249999999998
 20
1.439347343965046
 30
0.0
 11
-0.7281249999999998
 21
-1.439347352166444
 31
0.0
  0
LINE
  5
248
330
1D9
100
AcDbEntity
  8
AM_4
100
AcDbLine
 10
-0.4499999999999998
 20
-1.155810194828693
 30
0.0
 11
-0.5624999999999999
 21
-1.155810194828693
 31
0.0
  0
LINE
  5
249
330
1D9
100
AcDbEntity
  8
AM_4
100
AcDbLine
 10
-0.4499999999999998
 20
1.15581019482869
 30
0.0
 11
-0.5624999999999999
 21
1.15581019482869
 31
0.0
  0
LINE
  5
24A
330
1D9
100
AcDbEntity
  8
AM_4
100
AcDbLine
 10
-0.4499999999999998
 20
-1.931941468995431
 30
0.0
 11
-0.5624999999999998
 21
-1.931941468995431
 31
0.0
  0
LINE
  5
24B
330
1D9
100
AcDbEntity
  8
AM_4
100
AcDbLine
 10
-0.4499999999999998
 20
1.931941468995429
 30
0.0
 11
-0.5624999999999998
 21
1.931941468995429
 31
0.0
  0
LINE
  5
24C
330
1D9
100
AcDbEntity
  8
AM_4
100
AcDbLine
 10
-0.4499999999999998
 20
-2.114539847842194
 30
0.0
 11
-0.4499999999999998
 21
2.114539847842191
 31
0.0
  0
LINE
  5
24D
330
1D9
100
AcDbEntity
  8
AM_4
100
AcDbLine
 10
-0.4499999999999998
 20
2.867076469487256
 30
0.0
 11
-0.4499999999999998
 21
3.5625
 31
0.0
  0
LINE
  5
24E
330
1D9
100
AcDbEntity
  8
AM_4
100
AcDbLine
 10
-0.5624999999999999
 20
2.867076469487256
 30
0.0
 11
-0.4499999999999998
 21
2.867076469487256
 31
0.0
  0
LINE
  5
24F
330
1D9
100
AcDbEntity
  8
AM_4
100
AcDbLine
 10
-0.4499999999999998
 20
2.114539847842191
 30
0.0
 11
-0.5624999999999998
 21
2.114539847842191
 31
0.0
  0
LINE
  5
250
330
1D9
100
AcDbEntity
  8
AM_4
100
AcDbLine
 10
-0.5624999999999998
 20
-2.114539847842194
 30
0.0
 11
-0.4499999999999998
 21
-2.114539847842194
 31
0.0
  0
LINE
  5
251
330
1D9
100
AcDbEntity
  8
AM_4
100
AcDbLine
 10
-0.4499999999999998
 20
-2.867076469487258
 30
0.0
 11
-0.5624999999999999
 21
-2.867076469487258
 31
0.0
  0
LINE
  5
252
330
1D9
100
AcDbEntity
  8
AM_4
100
AcDbLine
 10
-0.4499999999999998
 20
-3.5625
 30
0.0
 11
0.0
 21
-3.5625
 31
0.0
  0
LINE
  5
253
330
1D9
100
AcDbEntity
  8
AM_4
100
AcDbLine
 10
0.0
 20
3.5625
 30
0.0
 11
-0.4499999999999998
 21
3.5625
 31
0.0
  0
LINE
  5
254
330
1D9
100
AcDbEntity
  8
AM_4
100
AcDbLine
 10
0.0
 20
3.5625
 30
0.0
 11
0.0
 21
-3.5625
 31
0.0
  0
LINE
  5
255
330
1D9
100
AcDbEntity
  8
AM_4
100
AcDbLine
 10
-0.4499999999999998
 20
-3.5625
 30
0.0
 11
-0.4499999999999998
 21
-2.867076469487258
 31
0.0
  0
ENDBLK
  5
1DC
330
1D9
100
AcDbEntity
  8
0
100
AcDbBlockEnd
  0
ENDSEC
  0
SECTION
  2
ENTITIES
  0
INSERT
  5
6F
330
1F
100
AcDbEntity
  8
0
100
AcDbBlockReference
  2
1_069913_2
 10
0.0
 20
0.0
 30
0.0
  0
POINT
  5
257
330
1F
100
AcDbEntity
  8
ConnectionPoints
100
AcDbPoint
 10
-1.23125
 20
-1.482638888888889
 30
0.0000000000000001
  0
POINT
  5
258
330
1F
100
AcDbEntity
  8
ConnectionPoints
100
AcDbPoint
 10
-1.23125
 20
1.482638888888889
 30
0.0000000000000001
  0
POINT
  5
259
330
1F
100
AcDbEntity
  8
ConnectionPoints
100
AcDbPoint
 10
-1.16125
 20
0.0
 30
0.0000000000000001
  0
POINT
  5
25A
330
1F
100
AcDbEntity
  8
ConnectionPoints
100
AcDbPoint
 10
-1.40625
 20
0.0
 30
0.0000000000000001
  0
POINT
  5
25B
330
1F
100
AcDbEntity
  8
ConnectionPoints
100
AcDbPoint
 10
-1.36025
 20
0.0
 30
0.0000000000000001
  0
POINT
  5
25C
330
1F
100
AcDbEntity
  8
ConnectionPoints
100
AcDbPoint
 10
-1.16125
 20
1.482638888888889
 30
0.0000000000000001
  0
POINT
  5
25D
330
1F
100
AcDbEntity
  8
ConnectionPoints
100
AcDbPoint
 10
-1.30525
 20
1.482638888888889
 30
0.0000000000000001
  0
POINT
  5
25E
330
1F
100
AcDbEntity
  8
ConnectionPoints
100
AcDbPoint
 10
-1.16125
 20
-1.482638888888889
 30
0.0000000000000001
  0
POINT
  5
25F
330
1F
100
AcDbEntity
  8
ConnectionPoints
100
AcDbPoint
 10
-1.30525
 20
-1.482638888888889
 30
0.0000000000000001
  0
POINT
  5
260
330
1F
100
AcDbEntity
  8
ConnectionPoints
100
AcDbPoint
 10
-1.16125
 20
0.0
 30
0.0000000000000001
  0
POINT
  5
261
330
1F
100
AcDbEntity
  8
ConnectionPoints
100
AcDbPoint
 10
-0.6073125
 20
2.772473242665679
 30
0.0
  0
POINT
  5
262
330
1F
100
AcDbEntity
  8
ConnectionPoints
100
AcDbPoint
 10
-0.506879344111774
 20
2.946428571428571
 30
0.0
  0
POINT
  5
263
330
1F
100
AcDbEntity
  8
ConnectionPoints
100
AcDbPoint
 10
-1.40625
 20
0.0
 30
0.0000000000000001
  0
POINT
  5
264
330
1F
100
AcDbEntity
  8
ConnectionPoints
100
AcDbPoint
 10
-1.65625
 20
0.0
 30
0.0000000000000001
  0
ENDSEC
  0
SECTION
  2
OBJECTS
  0
DICTIONARY
  5
C
330
0
100
AcDbDictionary
281
     1
  3
ACAD_DETAILVIEWSTYLE
350
26C
  3
ACAD_GROUP
350
D
  3
ACAD_LAYOUT
350
1A
  3
ACAD_MATERIAL
350
43
  3
ACAD_MLEADERSTYLE
350
6B
  3
ACAD_MLINESTYLE
350
17
  3
ACAD_PLOTSETTINGS
350
19
  3
ACAD_PLOTSTYLENAME
350
E
  3
ACAD_SCALELIST
350
47
  3
ACAD_SECTIONVIEWSTYLE
350
26D
  3
ACAD_TABLESTYLE
350
69
  3
ACAD_VISUALSTYLE
350
2A
  3
ACDB_RECOMPOSE_DATA
350
269
  3
AcDbVariableDictionary
350
265
  0
SUN
  5
6D
330
29
100
AcDbSun
 90
        1
290
     0
 63
     7
421
 16777215
 40
1.0
291
     1
 91
  2455826
 92
 54000000
292
     0
 70
     2
 71
   256
280
     1
  0
DICTIONARY
  5
26C
102
{ACAD_REACTORS
330
C
102
}
330
C
100
AcDbDictionary
281
     1
  0
DICTIONARY
  5
D
102
{ACAD_REACTORS
330
C
102
}
330
C
100
AcDbDictionary
281
     1
  0
DICTIONARY
  5
1A
102
{ACAD_REACTORS
330
C
102
}
330
C
100
AcDbDictionary
281
     1
  3
Layout1
350
1E
  3
Layout2
350
26
  3
Model
350
22
  0
DICTIONARY
  5
43
102
{ACAD_REACTORS
330
C
102
}
330
C
100
AcDbDictionary
281
     1
  3
ByBlock
350
45
  3
ByLayer
350
44
  3
Global
350
46
  0
DICTIONARY
  5
6B
102
{ACAD_REACTORS
330
C
102
}
330
C
100
AcDbDictionary
281
     1
  3
Standard
350
6C
  0
DICTIONARY
  5
17
102
{ACAD_REACTORS
330
C
102
}
330
C
100
AcDbDictionary
281
     1
  3
Standard
350
18
  0
DICTIONARY
  5
19
102
{ACAD_REACTORS
330
C
102
}
330
C
100
AcDbDictionary
281
     1
  0
ACDBDICTIONARYWDFLT
  5
E
102
{ACAD_REACTORS
330
C
102
}
330
C
100
AcDbDictionary
281
     1
  3
Normal
350
F
100
AcDbDictionaryWithDefault
340
F
  0
DICTIONARY
  5
47
102
{ACAD_REACTORS
330
C
102
}
330
C
100
AcDbDictionary
281
     1
  3
A0
350
48
  3
A1
350
49
  3
A2
350
4A
  3
A3
350
4B
  3
A4
350
4C
  3
A5
350
4D
  3
A6
350
4E
  3
A7
350
4F
  3
A8
350
50
  3
A9
350
51
  3
B0
350
52
  3
B1
350
53
  3
B2
350
54
  3
B3
350
55
  3
B4
350
56
  3
B5
350
57
  3
B6
350
58
  3
B7
350
59
  3
B8
350
5A
  3
B9
350
5B
  3
C0
350
5C
  3
C1
350
5D
  3
C2
350
5E
  3
C3
350
5F
  3
C4
350
60
  3
C5
350
61
  3
C6
350
62
  3
C7
350
63
  3
C8
350
64
  3
C9
350
65
  3
D0
350
66
  3
D1
350
67
  3
D2
350
68
  0
DICTIONARY
  5
26D
102
{ACAD_REACTORS
330
C
102
}
330
C
100
AcDbDictionary
281
     1
  0
DICTIONARY
  5
69
102
{ACAD_REACTORS
330
C
102
}
330
C
100
AcDbDictionary
281
     1
  3
Standard
350
6A
  0
DICTIONARY
  5
2A
102
{ACAD_REACTORS
330
C
102
}
330
C
100
AcDbDictionary
281
     1
  3
2dWireframe
350
2F
  3
Basic
350
32
  3
Brighten
350
36
  3
ColorChange
350
3A
  3
Conceptual
350
34
  3
Dim
350
35
  3
EdgeColorOff
350
3D
  3
Facepattern
350
39
  3
Flat
350
2B
  3
FlatWithEdges
350
2C
  3
Gouraud
350
2D
  3
GouraudWithEdges
350
2E
  3
Hidden
350
31
  3
JitterOff
350
3B
  3
Linepattern
350
38
  3
OverhangOff
350
3C
  3
Realistic
350
33
  3
Shaded
350
42
  3
Shaded with edges
350
41
  3
Shades of Gray
350
3E
  3
Sketchy
350
3F
  3
Thicken
350
37
  3
Wireframe
350
30
  3
X-Ray
350
40
  0
XRECORD
  5
269
102
{ACAD_REACTORS
330
C
102
}
330
C
100
AcDbXrecord
280
     1
 90
        1
330
6A
  0
DICTIONARY
  5
265
102
{ACAD_REACTORS
330
C
102
}
330
C
100
AcDbDictionary
281
     1
  3
CANNOSCALE
350
266
  3
CMLEADERSTYLE
350
26B
  3
CTABLESTYLE
350
26A
  0
LAYOUT
  5
1E
102
{ACAD_REACTORS
330
1A
102
}
330
1A
100
AcDbPlotSettings
  1

  2
none_device
  4

  6

 40
0.0
 41
0.0
 42
0.0
 43
0.0
 44
0.0
 45
0.0
 46
0.0
 47
0.0
 48
0.0
 49
0.0
140
0.0
141
0.0
142
1.0
143
1.0
 70
   688
 72
     0
 73
     0
 74
     5
  7

 75
    16
 76
     0
 77
     2
 78
   300
147
1.0
148
0.0
149
0.0
100
AcDbLayout
  1
Layout1
 70
     1
 71
     1
 10
0.0
 20
0.0
 11
12.0
 21
9.0
 12
0.0
 22
0.0
 32
0.0
 14
1.000000000000000E+20
 24
1.000000000000000E+20
 34
1.000000000000000E+20
 15
-1.000000000000000E+20
 25
-1.000000000000000E+20
 35
-1.000000000000000E+20
146
0.0
 13
0.0
 23
0.0
 33
0.0
 16
1.0
 26
0.0
 36
0.0
 17
0.0
 27
1.0
 37
0.0
 76
     0
330
1B
  0
LAYOUT
  5
26
102
{ACAD_REACTORS
330
1A
102
}
330
1A
100
AcDbPlotSettings
  1

  2
none_device
  4

  6

 40
0.0
 41
0.0
 42
0.0
 43
0.0
 44
0.0
 45
0.0
 46
0.0
 47
0.0
 48
0.0
 49
0.0
140
0.0
141
0.0
142
1.0
143
1.0
 70
   688
 72
     0
 73
     0
 74
     5
  7

 75
    16
 76
     0
 77
     2
 78
   300
147
1.0
148
0.0
149
0.0
100
AcDbLayout
  1
Layout2
 70
     1
 71
     2
 10
0.0
 20
0.0
 11
0.0
 21
0.0
 12
0.0
 22
0.0
 32
0.0
 14
0.0
 24
0.0
 34
0.0
 15
0.0
 25
0.0
 35
0.0
146
0.0
 13
0.0
 23
0.0
 33
0.0
 16
1.0
 26
0.0
 36
0.0
 17
0.0
 27
1.0
 37
0.0
 76
     0
330
23
  0
LAYOUT
  5
22
102
{ACAD_REACTORS
330
1A
102
}
330
1A
100
AcDbPlotSettings
  1

  2
none_device
  4
Letter_(8.50_x_11.00_Inches)
  6

 40
6.35
 41
6.35
 42
6.35000508
 43
6.35000508
 44
215.9
 45
279.4
 46
0.0
 47
0.0
 48
0.0
 49
0.0
140
0.0
141
0.0
142
1.0
143
1.0
 70
  1712
 72
     0
 73
     0
 74
     0
  7

 75
     0
 76
     0
 77
     2
 78
   300
147
1.0
148
0.0
149
0.0
100
AcDbLayout
  1
Model
 70
     1
 71
     0
 10
0.0
 20
0.0
 11
12.0
 21
9.0
 12
0.0
 22
0.0
 32
0.0
 14
1.000000000000000E+20
 24
1.000000000000000E+20
 34
1.000000000000000E+20
 15
-1.000000000000000E+20
 25
-1.000000000000000E+20
 35
-1.000000000000000E+20
146
0.0
 13
0.0
 23
0.0
 33
0.0
 16
1.0
 26
0.0
 36
0.0
 17
0.0
 27
1.0
 37
0.0
 76
     0
330
1F
331
29
  0
MATERIAL
  5
45
102
{ACAD_REACTORS
330
43
102
}
330
43
100
AcDbMaterial
  1
ByBlock
 72
     1
 94
      127
  0
MATERIAL
  5
44
102
{ACAD_REACTORS
330
43
102
}
330
43
100
AcDbMaterial
  1
ByLayer
 72
     1
 94
      127
  0
MATERIAL
  5
46
102
{ACAD_REACTORS
330
43
102
}
330
43
100
AcDbMaterial
  1
Global
 72
     1
 94
      127
  0
MLEADERSTYLE
  5
6C
102
{ACAD_REACTORS
330
6B
102
}
330
6B
100
AcDbMLeaderStyle
179
     2
170
     2
171
     1
172
     0
 90
        2
 40
0.0
 41
0.0
173
     1
 91
-1056964608
340
14
 92
       -2
290
     1
 42
0.09
291
     1
 43
0.36
  3
Standard
341
0
 44
0.18
300

342
11
174
     1
178
     6
175
     1
176
     0
 93
-1056964608
 45
0.18
292
     0
297
     0
 46
0.18
343
0
 94
-1056964608
 47
1.0
 49
1.0
140
1.0
293
     1
141
0.0
294
     1
177
     0
142
1.0
295
     0
296
     0
143
0.125
271
     0
272
     9
273
     9
298
     0
  0
MLINESTYLE
  5
18
102
{ACAD_REACTORS
330
17
102
}
330
17
100
AcDbMlineStyle
  2
Standard
 70
     0
  3

 62
   256
 51
90.0
 52
90.0
 71
     2
 49
0.5
 62
   256
  6
BYLAYER
 49
-0.5
 62
   256
  6
BYLAYER
  0
ACDBPLACEHOLDER
  5
F
102
{ACAD_REACTORS
330
E
102
}
330
E
  0
SCALE
  5
48
102
{ACAD_REACTORS
330
47
102
}
330
47
100
AcDbScale
 70
     0
300
1:1
140
1.0
141
1.0
290
     1
  0
SCALE
  5
49
102
{ACAD_REACTORS
330
47
102
}
330
47
100
AcDbScale
 70
     0
300
1:2
140
1.0
141
2.0
290
     0
  0
SCALE
  5
4A
102
{ACAD_REACTORS
330
47
102
}
330
47
100
AcDbScale
 70
     0
300
1:4
140
1.0
141
4.0
290
     0
  0
SCALE
  5
4B
102
{ACAD_REACTORS
330
47
102
}
330
47
100
AcDbScale
 70
     0
300
1:5
140
1.0
141
5.0
290
     0
  0
SCALE
  5
4C
102
{ACAD_REACTORS
330
47
102
}
330
47
100
AcDbScale
 70
     0
300
1:8
140
1.0
141
8.0
290
     0
  0
SCALE
  5
4D
102
{ACAD_REACTORS
330
47
102
}
330
47
100
AcDbScale
 70
     0
300
1:10
140
1.0
141
10.0
290
     0
  0
SCALE
  5
4E
102
{ACAD_REACTORS
330
47
102
}
330
47
100
AcDbScale
 70
     0
300
1:16
140
1.0
141
16.0
290
     0
  0
SCALE
  5
4F
102
{ACAD_REACTORS
330
47
102
}
330
47
100
AcDbScale
 70
     0
300
1:20
140
1.0
141
20.0
290
     0
  0
SCALE
  5
50
102
{ACAD_REACTORS
330
47
102
}
330
47
100
AcDbScale
 70
     0
300
1:30
140
1.0
141
30.0
290
     0
  0
SCALE
  5
51
102
{ACAD_REACTORS
330
47
102
}
330
47
100
AcDbScale
 70
     0
300
1:40
140
1.0
141
40.0
290
     0
  0
SCALE
  5
52
102
{ACAD_REACTORS
330
47
102
}
330
47
100
AcDbScale
 70
     0
300
1:50
140
1.0
141
50.0
290
     0
  0
SCALE
  5
53
102
{ACAD_REACTORS
330
47
102
}
330
47
100
AcDbScale
 70
     0
300
1:100
140
1.0
141
100.0
290
     0
  0
SCALE
  5
54
102
{ACAD_REACTORS
330
47
102
}
330
47
100
AcDbScale
 70
     0
300
2:1
140
2.0
141
1.0
290
     0
  0
SCALE
  5
55
102
{ACAD_REACTORS
330
47
102
}
330
47
100
AcDbScale
 70
     0
300
4:1
140
4.0
141
1.0
290
     0
  0
SCALE
  5
56
102
{ACAD_REACTORS
330
47
102
}
330
47
100
AcDbScale
 70
     0
300
8:1
140
8.0
141
1.0
290
     0
  0
SCALE
  5
57
102
{ACAD_REACTORS
330
47
102
}
330
47
100
AcDbScale
 70
     0
300
10:1
140
10.0
141
1.0
290
     0
  0
SCALE
  5
58
102
{ACAD_REACTORS
330
47
102
}
330
47
100
AcDbScale
 70
     0
300
100:1
140
100.0
141
1.0
290
     0
  0
SCALE
  5
59
102
{ACAD_REACTORS
330
47
102
}
330
47
100
AcDbScale
 70
     0
300
1/128" = 1'-0"
140
0.0078125
141
12.0
290
     0
  0
SCALE
  5
5A
102
{ACAD_REACTORS
330
47
102
}
330
47
100
AcDbScale
 70
     0
300
1/64" = 1'-0"
140
0.015625
141
12.0
290
     0
  0
SCALE
  5
5B
102
{ACAD_REACTORS
330
47
102
}
330
47
100
AcDbScale
 70
     0
300
1/32" = 1'-0"
140
0.03125
141
12.0
290
     0
  0
SCALE
  5
5C
102
{ACAD_REACTORS
330
47
102
}
330
47
100
AcDbScale
 70
     0
300
1/16" = 1'-0"
140
0.0625
141
12.0
290
     0
  0
SCALE
  5
5D
102
{ACAD_REACTORS
330
47
102
}
330
47
100
AcDbScale
 70
     0
300
3/32" = 1'-0"
140
0.09375
141
12.0
290
     0
  0
SCALE
  5
5E
102
{ACAD_REACTORS
330
47
102
}
330
47
100
AcDbScale
 70
     0
300
1/8" = 1'-0"
140
0.125
141
12.0
290
     0
  0
SCALE
  5
5F
102
{ACAD_REACTORS
330
47
102
}
330
47
100
AcDbScale
 70
     0
300
3/16" = 1'-0"
140
0.1875
141
12.0
290
     0
  0
SCALE
  5
60
102
{ACAD_REACTORS
330
47
102
}
330
47
100
AcDbScale
 70
     0
300
1/4" = 1'-0"
140
0.25
141
12.0
290
     0
  0
SCALE
  5
61
102
{ACAD_REACTORS
330
47
102
}
330
47
100
AcDbScale
 70
     0
300
3/8" = 1'-0"
140
0.375
141
12.0
290
     0
  0
SCALE
  5
62
102
{ACAD_REACTORS
330
47
102
}
330
47
100
AcDbScale
 70
     0
300
1/2" = 1'-0"
140
0.5
141
12.0
290
     0
  0
SCALE
  5
63
102
{ACAD_REACTORS
330
47
102
}
330
47
100
AcDbScale
 70
     0
300
3/4" = 1'-0"
140
0.75
141
12.0
290
     0
  0
SCALE
  5
64
102
{ACAD_REACTORS
330
47
102
}
330
47
100
AcDbScale
 70
     0
300
1" = 1'-0"
140
1.0
141
12.0
290
     0
  0
SCALE
  5
65
102
{ACAD_REACTORS
330
47
102
}
330
47
100
AcDbScale
 70
     0
300
1-1/2" = 1'-0"
140
1.5
141
12.0
290
     0
  0
SCALE
  5
66
102
{ACAD_REACTORS
330
47
102
}
330
47
100
AcDbScale
 70
     0
300
3" = 1'-0"
140
3.0
141
12.0
290
     0
  0
SCALE
  5
67
102
{ACAD_REACTORS
330
47
102
}
330
47
100
AcDbScale
 70
     0
300
6" = 1'-0"
140
6.0
141
12.0
290
     0
  0
SCALE
  5
68
102
{ACAD_REACTORS
330
47
102
}
330
47
100
AcDbScale
 70
     0
300
1'-0" = 1'-0"
140
12.0
141
12.0
290
     0
  0
TABLESTYLE
  5
6A
102
{ACAD_REACTORS
330
69
102
}
102
{ACAD_XDICTIONARY
360
267
102
}
330
69
100
AcDbTableStyle
  3
Standard
 70
     0
 71
     0
 40
0.06
 41
0.06
280
     0
281
     0
  7
Standard
140
0.18
170
     2
 62
     0
 63
   257
283
     0
 90
        4
 91
        0
  1

274
    -2
284
     1
 64
     0
275
    -2
285
     1
 65
     0
276
    -2
286
     1
 66
     0
277
    -2
287
     1
 67
     0
278
    -2
288
     1
 68
     0
279
    -2
289
     1
 69
     0
  7
Standard
140
0.25
170
     5
 62
     0
 63
   257
283
     0
 90
        4
 91
        0
  1

274
    -2
284
     1
 64
     0
275
    -2
285
     1
 65
     0
276
    -2
286
     1
 66
     0
277
    -2
287
     1
 67
     0
278
    -2
288
     1
 68
     0
279
    -2
289
     1
 69
     0
  7
Standard
140
0.18
170
     5
 62
     0
 63
   257
283
     0
 90
        4
 91
        0
  1

274
    -2
284
     1
 64
     0
275
    -2
285
     1
 65
     0
276
    -2
286
     1
 66
     0
277
    -2
287
     1
 67
     0
278
    -2
288
     1
 68
     0
279
    -2
289
     1
 69
     0
  0
VISUALSTYLE
  5
2F
102
{ACAD_REACTORS
330
2A
102
}
330
2A
100
AcDbVisualStyle
  2
2dWireframe
 70
     4
177
     3
291
     0
 70
    58
 90
        0
176
     1
 90
        2
176
     1
 90
        0
176
     1
 90
        0
176
     1
 40
0.6
176
     1
 40
30.0
176
     1
 62
     7
420
 16777215
176
     1
 90
        1
176
     1
 90
        4
176
     1
 62
     7
176
     1
 62
   257
176
     1
 90
        1
176
     1
 90
        1
176
     1
 40
1.0
176
     1
 90
        0
176
     1
 62
   257
176
     1
 40
1.0
176
     1
 90
        1
176
     1
 90
        6
176
     1
 90
        2
176
     1
 62
     7
176
     1
 90
        5
176
     1
 90
        0
176
     1
 90
        0
176
     1
290
     0
176
     1
 90
        1
176
     1
 40
0.0
176
     1
 90
        0
176
     1
290
     1
176
     1
290
     1
176
     1
290
     0
176
     1
290
     0
176
     1
290
     0
176
     1
290
     0
176
     1
290
     0
176
     1
290
     0
176
     1
290
     0
176
     1
 90
       50
176
     1
 40
0.0
176
     1
 40
1.0
176
     1
 90
        0
176
     1
 62
    18
420
        0
176
     1
 90
       50
176
     1
 90
        3
176
     1
 62
     5
420
      255
176
     1
290
     0
176
     1
 90
       50
176
     1
 90
       50
176
     1
 90
       50
176
     1
290
     0
176
     1
 90
       50
176
     1
 62
   256
176
     0
 40
1.0
176
     0
 90
        2
176
     1
  1
strokes_ogs.tif
176
     1
290
     0
176
     1
 40
1.0
176
     1
 40
1.0
176
     1
  0
VISUALSTYLE
  5
32
102
{ACAD_REACTORS
330
2A
102
}
330
2A
100
AcDbVisualStyle
  2
Basic
 70
     7
177
     3
291
     1
 70
    58
 90
        1
176
     1
 90
        0
176
     1
 90
        1
176
     1
 90
        0
176
     1
 40
0.6
176
     1
 40
30.0
176
     1
 62
     7
420
 16777215
176
     1
 90
        0
176
     1
 90
        4
176
     1
 62
     7
176
     1
 62
   257
176
     1
 90
        1
176
     1
 90
        1
176
     1
 40
1.0
176
     1
 90
        8
176
     1
 62
     7
176
     1
 40
1.0
176
     1
 90
        1
176
     1
 90
        6
176
     1
 90
        2
176
     1
 62
     7
176
     1
 90
        5
176
     1
 90
        0
176
     1
 90
        0
176
     1
290
     0
176
     1
 90
        1
176
     1
 40
0.0
176
     1
 90
        0
176
     1
290
     0
176
     1
290
     1
176
     1
290
     1
176
     1
290
     0
176
     1
290
     0
176
     1
290
     0
176
     1
290
     0
176
     1
290
     0
176
     1
290
     0
176
     1
 90
       50
176
     1
 40
0.0
176
     1
 40
1.0
176
     1
 90
        0
176
     1
 62
    18
420
        0
176
     1
 90
       50
176
     1
 90
        3
176
     1
 62
     5
420
      255
176
     1
290
     0
176
     1
 90
       50
176
     1
 90
       50
176
     1
 90
       50
176
     1
290
     0
176
     1
 90
       50
176
     1
 62
   256
176
     0
 40
1.0
176
     0
 90
        2
176
     1
  1
strokes_ogs.tif
176
     1
290
     0
176
     1
 40
1.0
176
     1
 40
1.0
176
     1
  0
VISUALSTYLE
  5
36
102
{ACAD_REACTORS
330
2A
102
}
330
2A
100
AcDbVisualStyle
  2
Brighten
 70
    12
177
     3
291
     1
 70
    58
 90
        2
176
     1
 90
        2
176
     1
 90
        0
176
     1
 90
        0
176
     1
 40
0.6
176
     1
 40
30.0
176
     1
 62
     7
420
 16777215
176
     1
 90
        1
176
     1
 90
        4
176
     1
 62
     7
176
     1
 62
   257
176
     1
 90
        1
176
     1
 90
        1
176
     1
 40
1.0
176
     1
 90
        8
176
     1
 62
     7
176
     1
 40
1.0
176
     1
 90
        1
176
     1
 90
        6
176
     1
 90
        2
176
     1
 62
     7
176
     1
 90
        5
176
     1
 90
        0
176
     1
 90
        0
176
     1
290
     0
176
     1
 90
        1
176
     1
 40
50.0
176
     1
 90
        0
176
     1
290
     0
176
     1
290
     1
176
     1
290
     1
176
     1
290
     0
176
     1
290
     0
176
     1
290
     0
176
     1
290
     0
176
     1
290
     0
176
     1
290
     0
176
     1
 90
       50
176
     1
 40
0.0
176
     1
 40
1.0
176
     1
 90
        0
176
     1
 62
    18
420
        0
176
     1
 90
       50
176
     1
 90
        3
176
     1
 62
     5
420
      255
176
     1
290
     0
176
     1
 90
       50
176
     1
 90
       50
176
     1
 90
       50
176
     1
290
     0
176
     1
 90
       50
176
     1
 62
   256
176
     0
 40
1.0
176
     0
 90
        2
176
     1
  1
strokes_ogs.tif
176
     1
290
     0
176
     1
 40
1.0
176
     1
 40
1.0
176
     1
  0
VISUALSTYLE
  5
3A
102
{ACAD_REACTORS
330
2A
102
}
330
2A
100
AcDbVisualStyle
  2
ColorChange
 70
    16
177
     3
291
     1
 70
    58
 90
        2
176
     1
 90
        2
176
     1
 90
        3
176
     1
 90
        0
176
     1
 40
0.6
176
     1
 40
30.0
176
     1
 62
     8
420
  8421504
176
     1
 90
        1
176
     1
 90
        4
176
     1
 62
     7
176
     1
 62
   257
176
     1
 90
        1
176
     1
 90
        1
176
     1
 40
1.0
176
     1
 90
        8
176
     1
 62
     8
420
  8421504
176
     1
 40
1.0
176
     1
 90
        1
176
     1
 90
        6
176
     1
 90
        2
176
     1
 62
     7
176
     1
 90
        5
176
     1
 90
        0
176
     1
 90
        0
176
     1
290
     0
176
     1
 90
        1
176
     1
 40
0.0
176
     1
 90
        0
176
     1
290
     0
176
     1
290
     1
176
     1
290
     1
176
     1
290
     0
176
     1
290
     0
176
     1
290
     0
176
     1
290
     0
176
     1
290
     0
176
     1
290
     0
176
     1
 90
       50
176
     1
 40
0.0
176
     1
 40
1.0
176
     1
 90
        0
176
     1
 62
    18
420
        0
176
     1
 90
       50
176
     1
 90
        3
176
     1
 62
     5
420
      255
176
     1
290
     0
176
     1
 90
       50
176
     1
 90
       50
176
     1
 90
       50
176
     1
290
     0
176
     1
 90
       50
176
     1
 62
   256
176
     0
 40
1.0
176
     0
 90
        2
176
     1
  1
strokes_ogs.tif
176
     1
290
     0
176
     1
 40
1.0
176
     1
 40
1.0
176
     1
  0
VISUALSTYLE
  5
34
102
{ACAD_REACTORS
330
2A
102
}
330
2A
100
AcDbVisualStyle
  2
Conceptual
 70
     9
177
     3
291
     0
 70
    58
 90
        3
176
     1
 90
        2
176
     1
 90
        0
176
     1
 90
        0
176
     1
 40
0.6
176
     1
 40
30.0
176
     1
 62
     7
420
 16777215
176
     1
 90
        2
176
     1
 90
        2
176
     1
 62
     7
176
     1
 62
   257
176
     1
 90
        1
176
     1
 90
        1
176
     1
 40
179.0
176
     1
 90
        8
176
     1
 62
     7
176
     1
 40
1.0
176
     1
 90
        1
176
     1
 90
        6
176
     1
 90
        2
176
     1
 62
     7
176
     1
 90
        3
176
     1
 90
        0
176
     1
 90
        0
176
     1
290
     0
176
     1
 90
        1
176
     1
 40
0.0
176
     1
 90
        0
176
     1
290
     0
176
     1
290
     1
176
     1
290
     1
176
     1
290
     0
176
     1
290
     0
176
     1
290
     0
176
     1
290
     0
176
     1
290
     0
176
     1
290
     0
176
     1
 90
       50
176
     1
 40
0.0
176
     1
 40
1.0
176
     1
 90
        0
176
     1
 62
    18
420
        0
176
     1
 90
       50
176
     1
 90
        3
176
     1
 62
     5
420
      255
176
     1
290
     0
176
     1
 90
       50
176
     1
 90
       50
176
     1
 90
       50
176
     1
290
     0
176
     1
 90
       50
176
     1
 62
   256
176
     0
 40
1.0
176
     0
 90
        2
176
     1
  1
strokes_ogs.tif
176
     1
290
     0
176
     1
 40
1.0
176
     1
 40
1.0
176
     1
  0
VISUALSTYLE
  5
35
102
{ACAD_REACTORS
330
2A
102
}
330
2A
100
AcDbVisualStyle
  2
Dim
 70
    11
177
     3
291
     1
 70
    58
 90
        2
176
     1
 90
        2
176
     1
 90
        0
176
     1
 90
        0
176
     1
 40
0.6
176
     1
 40
30.0
176
     1
 62
     7
420
 16777215
176
     1
 90
        1
176
     1
 90
        4
176
     1
 62
     7
176
     1
 62
   257
176
     1
 90
        1
176
     1
 90
        1
176
     1
 40
1.0
176
     1
 90
        8
176
     1
 62
     7
176
     1
 40
1.0
176
     1
 90
        1
176
     1
 90
        6
176
     1
 90
        2
176
     1
 62
     7
176
     1
 90
        5
176
     1
 90
        0
176
     1
 90
        0
176
     1
290
     0
176
     1
 90
        1
176
     1
 40
-50.0
176
     1
 90
        0
176
     1
290
     0
176
     1
290
     1
176
     1
290
     1
176
     1
290
     0
176
     1
290
     0
176
     1
290
     0
176
     1
290
     0
176
     1
290
     0
176
     1
290
     0
176
     1
 90
       50
176
     1
 40
0.0
176
     1
 40
1.0
176
     1
 90
        0
176
     1
 62
    18
420
        0
176
     1
 90
       50
176
     1
 90
        3
176
     1
 62
     5
420
      255
176
     1
290
     0
176
     1
 90
       50
176
     1
 90
       50
176
     1
 90
       50
176
     1
290
     0
176
     1
 90
       50
176
     1
 62
   256
176
     0
 40
1.0
176
     0
 90
        2
176
     1
  1
strokes_ogs.tif
176
     1
290
     0
176
     1
 40
1.0
176
     1
 40
1.0
176
     1
  0
VISUALSTYLE
  5
3D
102
{ACAD_REACTORS
330
2A
102
}
330
2A
100
AcDbVisualStyle
  2
EdgeColorOff
 70
    22
177
     3
291
     1
 70
    58
 90
        2
176
     0
 90
        2
176
     0
 90
        0
176
     0
 90
        0
176
     0
 40
0.6
176
     0
 40
30.0
176
     0
 62
     7
420
 16777215
176
     0
 90
        1
176
     0
 90
        4
176
     0
 62
     7
176
     0
 62
   257
176
     0
 90
        1
176
     0
 90
        1
176
     0
 40
1.0
176
     0
 90
        8
176
     2
 62
     7
176
     0
 40
1.0
176
     0
 90
        1
176
     0
 90
        6
176
     0
 90
        2
176
     0
 62
     7
176
     0
 90
        5
176
     0
 90
        0
176
     0
 90
        0
176
     0
290
     0
176
     0
 90
        1
176
     0
 40
0.0
176
     0
 90
        0
176
     0
290
     0
176
     0
290
     1
176
     0
290
     1
176
     0
290
     0
176
     0
290
     0
176
     0
290
     0
176
     0
290
     0
176
     0
290
     0
176
     0
290
     0
176
     0
 90
       50
176
     0
 40
0.0
176
     0
 40
1.0
176
     0
 90
        0
176
     0
 62
    18
420
        0
176
     0
 90
       50
176
     0
 90
        3
176
     0
 62
     5
420
      255
176
     0
290
     0
176
     0
 90
       50
176
     0
 90
       50
176
     0
 90
       50
176
     0
290
     0
176
     0
 90
       50
176
     0
 62
   256
176
     0
 40
1.0
176
     0
 90
        2
176
     0
  1
strokes_ogs.tif
176
     0
290
     0
176
     0
 40
1.0
176
     0
 40
1.0
176
     0
  0
VISUALSTYLE
  5
39
102
{ACAD_REACTORS
330
2A
102
}
330
2A
100
AcDbVisualStyle
  2
Facepattern
 70
    15
177
     3
291
     1
 70
    58
 90
        2
176
     1
 90
        2
176
     1
 90
        0
176
     1
 90
        0
176
     1
 40
0.6
176
     1
 40
30.0
176
     1
 62
     7
420
 16777215
176
     1
 90
        1
176
     1
 90
        4
176
     1
 62
     7
176
     1
 62
   257
176
     1
 90
        1
176
     1
 90
        1
176
     1
 40
1.0
176
     1
 90
        8
176
     1
 62
     7
176
     1
 40
1.0
176
     1
 90
        1
176
     1
 90
        6
176
     1
 90
        2
176
     1
 62
     7
176
     1
 90
        5
176
     1
 90
        0
176
     1
 90
        0
176
     1
290
     0
176
     1
 90
        1
176
     1
 40
0.0
176
     1
 90
        0
176
     1
290
     0
176
     1
290
     1
176
     1
290
     1
176
     1
290
     0
176
     1
290
     0
176
     1
290
     0
176
     1
290
     0
176
     1
290
     0
176
     1
290
     0
176
     1
 90
       50
176
     1
 40
0.0
176
     1
 40
1.0
176
     1
 90
        0
176
     1
 62
    18
420
        0
176
     1
 90
       50
176
     1
 90
        3
176
     1
 62
     5
420
      255
176
     1
290
     0
176
     1
 90
       50
176
     1
 90
       50
176
     1
 90
       50
176
     1
290
     0
176
     1
 90
       50
176
     1
 62
   256
176
     0
 40
1.0
176
     0
 90
        2
176
     1
  1
strokes_ogs.tif
176
     1
290
     0
176
     1
 40
1.0
176
     1
 40
1.0
176
     1
  0
VISUALSTYLE
  5
2B
102
{ACAD_REACTORS
330
2A
102
}
330
2A
100
AcDbVisualStyle
  2
Flat
 70
     0
177
     3
291
     1
 70
    58
 90
        2
176
     1
 90
        1
176
     1
 90
        1
176
     1
 90
        2
176
     1
 40
0.6
176
     1
 40
30.0
176
     1
 62
     7
420
 16777215
176
     1
 90
        0
176
     1
 90
        0
176
     1
 62
     7
176
     1
 62
   257
176
     1
 90
        1
176
     1
 90
        1
176
     1
 40
1.0
176
     1
 90
        8
176
     1
 62
     7
176
     1
 40
1.0
176
     1
 90
        1
176
     1
 90
        6
176
     1
 90
        2
176
     1
 62
     7
176
     1
 90
        5
176
     1
 90
        0
176
     1
 90
        0
176
     1
290
     0
176
     1
 90
       13
176
     1
 40
0.0
176
     1
 90
        0
176
     1
290
     0
176
     1
290
     1
176
     1
290
     1
176
     1
290
     0
176
     1
290
     0
176
     1
290
     0
176
     1
290
     0
176
     1
290
     0
176
     1
290
     0
176
     1
 90
       50
176
     1
 40
0.0
176
     1
 40
1.0
176
     1
 90
        0
176
     1
 62
    18
420
        0
176
     1
 90
       50
176
     1
 90
        3
176
     1
 62
     5
420
      255
176
     1
290
     0
176
     1
 90
       50
176
     1
 90
       50
176
     1
 90
       50
176
     1
290
     0
176
     1
 90
       50
176
     1
 62
   256
176
     0
 40
1.0
176
     0
 90
        2
176
     1
  1
strokes_ogs.tif
176
     1
290
     0
176
     1
 40
1.0
176
     1
 40
1.0
176
     1
  0
VISUALSTYLE
  5
2C
102
{ACAD_REACTORS
330
2A
102
}
330
2A
100
AcDbVisualStyle
  2
FlatWithEdges
 70
     1
177
     3
291
     1
 70
    58
 90
        2
176
     1
 90
        1
176
     1
 90
        1
176
     1
 90
        2
176
     1
 40
0.6
176
     1
 40
30.0
176
     1
 62
     7
420
 16777215
176
     1
 90
        1
176
     1
 90
        0
176
     1
 62
     7
176
     1
 62
   257
176
     1
 90
        1
176
     1
 90
        1
176
     1
 40
1.0
176
     1
 90
        0
176
     1
 62
   257
176
     1
 40
1.0
176
     1
 90
        1
176
     1
 90
        6
176
     1
 90
        2
176
     1
 62
     7
176
     1
 90
        5
176
     1
 90
        0
176
     1
 90
        0
176
     1
290
     0
176
     1
 90
       13
176
     1
 40
0.0
176
     1
 90
        0
176
     1
290
     0
176
     1
290
     1
176
     1
290
     1
176
     1
290
     0
176
     1
290
     0
176
     1
290
     0
176
     1
290
     0
176
     1
290
     0
176
     1
290
     0
176
     1
 90
       50
176
     1
 40
0.0
176
     1
 40
1.0
176
     1
 90
        0
176
     1
 62
    18
420
        0
176
     1
 90
       50
176
     1
 90
        3
176
     1
 62
     5
420
      255
176
     1
290
     0
176
     1
 90
       50
176
     1
 90
       50
176
     1
 90
       50
176
     1
290
     0
176
     1
 90
       50
176
     1
 62
   256
176
     0
 40
1.0
176
     0
 90
        2
176
     1
  1
strokes_ogs.tif
176
     1
290
     0
176
     1
 40
1.0
176
     1
 40
1.0
176
     1
  0
VISUALSTYLE
  5
2D
102
{ACAD_REACTORS
330
2A
102
}
330
2A
100
AcDbVisualStyle
  2
Gouraud
 70
     2
177
     3
291
     1
 70
    58
 90
        2
176
     1
 90
        2
176
     1
 90
        1
176
     1
 90
        2
176
     1
 40
0.6
176
     1
 40
30.0
176
     1
 62
     7
420
 16777215
176
     1
 90
        0
176
     1
 90
        0
176
     1
 62
     7
176
     1
 62
   257
176
     1
 90
        1
176
     1
 90
        1
176
     1
 40
1.0
176
     1
 90
        0
176
     1
 62
     7
176
     1
 40
1.0
176
     1
 90
        1
176
     1
 90
        6
176
     1
 90
        2
176
     1
 62
     7
176
     1
 90
        5
176
     1
 90
        0
176
     1
 90
        0
176
     1
290
     0
176
     1
 90
       13
176
     1
 40
0.0
176
     1
 90
        0
176
     1
290
     0
176
     1
290
     1
176
     1
290
     1
176
     1
290
     0
176
     1
290
     0
176
     1
290
     0
176
     1
290
     0
176
     1
290
     0
176
     1
290
     0
176
     1
 90
       50
176
     1
 40
0.0
176
     1
 40
1.0
176
     1
 90
        0
176
     1
 62
    18
420
        0
176
     1
 90
       50
176
     1
 90
        3
176
     1
 62
     5
420
      255
176
     1
290
     0
176
     1
 90
       50
176
     1
 90
       50
176
     1
 90
       50
176
     1
290
     0
176
     1
 90
       50
176
     1
 62
   256
176
     0
 40
1.0
176
     0
 90
        2
176
     1
  1
strokes_ogs.tif
176
     1
290
     0
176
     1
 40
1.0
176
     1
 40
1.0
176
     1
  0
VISUALSTYLE
  5
2E
102
{ACAD_REACTORS
330
2A
102
}
330
2A
100
AcDbVisualStyle
  2
GouraudWithEdges
 70
     3
177
     3
291
     1
 70
    58
 90
        2
176
     1
 90
        2
176
     1
 90
        1
176
     1
 90
        2
176
     1
 40
0.6
176
     1
 40
30.0
176
     1
 62
     7
420
 16777215
176
     1
 90
        1
176
     1
 90
        0
176
     1
 62
     7
176
     1
 62
   257
176
     1
 90
        1
176
     1
 90
        1
176
     1
 40
1.0
176
     1
 90
        0
176
     1
 62
   257
176
     1
 40
1.0
176
     1
 90
        1
176
     1
 90
        6
176
     1
 90
        2
176
     1
 62
     7
176
     1
 90
        5
176
     1
 90
        0
176
     1
 90
        0
176
     1
290
     0
176
     1
 90
       13
176
     1
 40
0.0
176
     1
 90
        0
176
     1
290
     0
176
     1
290
     1
176
     1
290
     1
176
     1
290
     0
176
     1
290
     0
176
     1
290
     0
176
     1
290
     0
176
     1
290
     0
176
     1
290
     0
176
     1
 90
       50
176
     1
 40
0.0
176
     1
 40
1.0
176
     1
 90
        0
176
     1
 62
    18
420
        0
176
     1
 90
       50
176
     1
 90
        3
176
     1
 62
     5
420
      255
176
     1
290
     0
176
     1
 90
       50
176
     1
 90
       50
176
     1
 90
       50
176
     1
290
     0
176
     1
 90
       50
176
     1
 62
   256
176
     0
 40
1.0
176
     0
 90
        2
176
     1
  1
strokes_ogs.tif
176
     1
290
     0
176
     1
 40
1.0
176
     1
 40
1.0
176
     1
  0
VISUALSTYLE
  5
31
102
{ACAD_REACTORS
330
2A
102
}
330
2A
100
AcDbVisualStyle
  2
Hidden
 70
     6
177
     3
291
     0
 70
    58
 90
        1
176
     1
 90
        2
176
     1
 90
        2
176
     1
 90
        0
176
     1
 40
0.6
176
     1
 40
30.0
176
     1
 62
     7
420
 16777215
176
     1
 90
        2
176
     1
 90
        2
176
     1
 62
     7
176
     1
 62
   257
176
     1
 90
        2
176
     1
 90
        1
176
     1
 40
40.0
176
     1
 90
        0
176
     1
 62
   257
176
     1
 40
1.0
176
     1
 90
        1
176
     1
 90
        6
176
     1
 90
        2
176
     1
 62
     7
176
     1
 90
        3
176
     1
 90
        0
176
     1
 90
        0
176
     1
290
     0
176
     1
 90
        1
176
     1
 40
0.0
176
     1
 90
        0
176
     1
290
     0
176
     1
290
     1
176
     1
290
     1
176
     1
290
     0
176
     1
290
     0
176
     1
290
     0
176
     1
290
     0
176
     1
290
     0
176
     1
290
     0
176
     1
 90
       50
176
     1
 40
0.0
176
     1
 40
1.0
176
     1
 90
        0
176
     1
 62
    18
420
        0
176
     1
 90
       50
176
     1
 90
        3
176
     1
 62
     5
420
      255
176
     1
290
     0
176
     1
 90
       50
176
     1
 90
       50
176
     1
 90
       50
176
     1
290
     0
176
     1
 90
       50
176
     1
 62
   256
176
     0
 40
1.0
176
     0
 90
        2
176
     1
  1
strokes_ogs.tif
176
     1
290
     0
176
     1
 40
1.0
176
     1
 40
1.0
176
     1
  0
VISUALSTYLE
  5
3B
102
{ACAD_REACTORS
330
2A
102
}
330
2A
100
AcDbVisualStyle
  2
JitterOff
 70
    20
177
     3
291
     1
 70
    58
 90
        2
176
     0
 90
        2
176
     0
 90
        0
176
     0
 90
        0
176
     0
 40
0.6
176
     0
 40
30.0
176
     0
 62
     7
420
 16777215
176
     0
 90
        1
176
     0
 90
        4
176
     0
 62
     7
176
     0
 62
   257
176
     0
 90
        1
176
     0
 90
        1
176
     0
 40
1.0
176
     0
 90
       10
176
     2
 62
     7
176
     0
 40
1.0
176
     0
 90
        1
176
     0
 90
        6
176
     0
 90
        2
176
     0
 62
     7
176
     0
 90
        5
176
     0
 90
        0
176
     0
 90
        0
176
     0
290
     0
176
     0
 90
        1
176
     0
 40
0.0
176
     0
 90
        0
176
     0
290
     0
176
     0
290
     1
176
     0
290
     1
176
     0
290
     0
176
     0
290
     0
176
     0
290
     0
176
     0
290
     0
176
     0
290
     0
176
     0
290
     0
176
     0
 90
       50
176
     0
 40
0.0
176
     0
 40
1.0
176
     0
 90
        0
176
     0
 62
    18
420
        0
176
     0
 90
       50
176
     0
 90
        3
176
     0
 62
     5
420
      255
176
     0
290
     0
176
     0
 90
       50
176
     0
 90
       50
176
     0
 90
       50
176
     0
290
     0
176
     0
 90
       50
176
     0
 62
   256
176
     0
 40
1.0
176
     0
 90
        2
176
     0
  1
strokes_ogs.tif
176
     0
290
     0
176
     0
 40
1.0
176
     0
 40
1.0
176
     0
  0
VISUALSTYLE
  5
38
102
{ACAD_REACTORS
330
2A
102
}
330
2A
100
AcDbVisualStyle
  2
Linepattern
 70
    14
177
     3
291
     1
 70
    58
 90
        2
176
     1
 90
        2
176
     1
 90
        0
176
     1
 90
        0
176
     1
 40
0.6
176
     1
 40
30.0
176
     1
 62
     7
420
 16777215
176
     1
 90
        1
176
     1
 90
        4
176
     1
 62
     7
176
     1
 62
   257
176
     1
 90
        7
176
     1
 90
        7
176
     1
 40
1.0
176
     1
 90
        8
176
     1
 62
     7
176
     1
 40
1.0
176
     1
 90
        1
176
     1
 90
        6
176
     1
 90
        2
176
     1
 62
     7
176
     1
 90
        5
176
     1
 90
        0
176
     1
 90
        0
176
     1
290
     0
176
     1
 90
        1
176
     1
 40
0.0
176
     1
 90
        0
176
     1
290
     0
176
     1
290
     1
176
     1
290
     1
176
     1
290
     0
176
     1
290
     0
176
     1
290
     0
176
     1
290
     0
176
     1
290
     0
176
     1
290
     0
176
     1
 90
       50
176
     1
 40
0.0
176
     1
 40
1.0
176
     1
 90
        0
176
     1
 62
    18
420
        0
176
     1
 90
       50
176
     1
 90
        3
176
     1
 62
     5
420
      255
176
     1
290
     0
176
     1
 90
       50
176
     1
 90
       50
176
     1
 90
       50
176
     1
290
     0
176
     1
 90
       50
176
     1
 62
   256
176
     0
 40
1.0
176
     0
 90
        2
176
     1
  1
strokes_ogs.tif
176
     1
290
     0
176
     1
 40
1.0
176
     1
 40
1.0
176
     1
  0
VISUALSTYLE
  5
3C
102
{ACAD_REACTORS
330
2A
102
}
330
2A
100
AcDbVisualStyle
  2
OverhangOff
 70
    21
177
     3
291
     1
 70
    58
 90
        2
176
     0
 90
        2
176
     0
 90
        0
176
     0
 90
        0
176
     0
 40
0.6
176
     0
 40
30.0
176
     0
 62
     7
420
 16777215
176
     0
 90
        1
176
     0
 90
        4
176
     0
 62
     7
176
     0
 62
   257
176
     0
 90
        1
176
     0
 90
        1
176
     0
 40
1.0
176
     0
 90
        9
176
     2
 62
     7
176
     0
 40
1.0
176
     0
 90
        1
176
     0
 90
        6
176
     0
 90
        2
176
     0
 62
     7
176
     0
 90
        5
176
     0
 90
        0
176
     0
 90
        0
176
     0
290
     0
176
     0
 90
        1
176
     0
 40
0.0
176
     0
 90
        0
176
     0
290
     0
176
     0
290
     1
176
     0
290
     1
176
     0
290
     0
176
     0
290
     0
176
     0
290
     0
176
     0
290
     0
176
     0
290
     0
176
     0
290
     0
176
     0
 90
       50
176
     0
 40
0.0
176
     0
 40
1.0
176
     0
 90
        0
176
     0
 62
    18
420
        0
176
     0
 90
       50
176
     0
 90
        3
176
     0
 62
     5
420
      255
176
     0
290
     0
176
     0
 90
       50
176
     0
 90
       50
176
     0
 90
       50
176
     0
290
     0
176
     0
 90
       50
176
     0
 62
   256
176
     0
 40
1.0
176
     0
 90
        2
176
     0
  1
strokes_ogs.tif
176
     0
290
     0
176
     0
 40
1.0
176
     0
 40
1.0
176
     0
  0
VISUALSTYLE
  5
33
102
{ACAD_REACTORS
330
2A
102
}
330
2A
100
AcDbVisualStyle
  2
Realistic
 70
     8
177
     3
291
     0
 70
    58
 90
        2
176
     1
 90
        3
176
     1
 90
        0
176
     1
 90
        2
176
     1
 40
0.6
176
     1
 40
30.0
176
     1
 62
     7
420
 16777215
176
     1
 90
        0
176
     1
 90
        0
176
     1
 62
     7
176
     1
 62
   257
176
     1
 90
        1
176
     1
 90
        1
176
     1
 40
1.0
176
     1
 90
        8
176
     1
 62
   257
176
     1
 40
1.0
176
     1
 90
        1
176
     1
 90
        6
176
     1
 90
        2
176
     1
 62
     7
176
     1
 90
        3
176
     1
 90
        0
176
     1
 90
        0
176
     1
290
     0
176
     1
 90
       13
176
     1
 40
0.0
176
     1
 90
        0
176
     1
290
     0
176
     1
290
     1
176
     1
290
     1
176
     1
290
     0
176
     1
290
     0
176
     1
290
     0
176
     1
290
     0
176
     1
290
     0
176
     1
290
     0
176
     1
 90
       50
176
     1
 40
0.0
176
     1
 40
1.0
176
     1
 90
        0
176
     1
 62
    18
420
        0
176
     1
 90
       50
176
     1
 90
        3
176
     1
 62
     5
420
      255
176
     1
290
     0
176
     1
 90
       50
176
     1
 90
       50
176
     1
 90
       50
176
     1
290
     0
176
     1
 90
       50
176
     1
 62
   256
176
     0
 40
1.0
176
     0
 90
        2
176
     1
  1
strokes_ogs.tif
176
     1
290
     0
176
     1
 40
1.0
176
     1
 40
1.0
176
     1
  0
VISUALSTYLE
  5
42
102
{ACAD_REACTORS
330
2A
102
}
330
2A
100
AcDbVisualStyle
  2
Shaded
 70
    27
177
     3
291
     0
 70
    58
 90
        2
176
     1
 90
        2
176
     1
 90
        1
176
     1
 90
        2
176
     1
 40
0.6
176
     1
 40
30.0
176
     1
 62
     7
420
 16777215
176
     1
 90
        0
176
     1
 90
        4
176
     1
 62
     7
176
     1
 62
   257
176
     1
 90
        1
176
     1
 90
        1
176
     1
 40
1.0
176
     1
 90
        8
176
     1
 62
   257
176
     1
 40
1.0
176
     1
 90
        1
176
     1
 90
        6
176
     1
 90
        2
176
     1
 62
     8
420
  7895160
176
     1
 90
        3
176
     1
 90
        0
176
     1
 90
        0
176
     1
290
     0
176
     1
 90
        5
176
     1
 40
0.0
176
     1
 90
        0
176
     1
290
     0
176
     1
290
     1
176
     1
290
     1
176
     1
290
     0
176
     1
290
     0
176
     1
290
     0
176
     1
290
     0
176
     1
290
     0
176
     1
290
     0
176
     1
 90
       50
176
     1
 40
0.0
176
     1
 40
1.0
176
     1
 90
        0
176
     1
 62
    18
420
        0
176
     1
 90
       50
176
     1
 90
        3
176
     1
 62
     5
420
      255
176
     1
290
     0
176
     1
 90
       50
176
     1
 90
       50
176
     1
 90
       50
176
     1
290
     0
176
     1
 90
       50
176
     1
 62
   256
176
     0
 40
1.0
176
     0
 90
        2
176
     1
  1
strokes_ogs.tif
176
     1
290
     0
176
     1
 40
1.0
176
     1
 40
1.0
176
     1
  0
VISUALSTYLE
  5
41
102
{ACAD_REACTORS
330
2A
102
}
330
2A
100
AcDbVisualStyle
  2
Shaded with edges
 70
    26
177
     3
291
     0
 70
    58
 90
        2
176
     1
 90
        2
176
     1
 90
        1
176
     1
 90
        2
176
     1
 40
0.6
176
     1
 40
30.0
176
     1
 62
     7
420
 16777215
176
     1
 90
        1
176
     1
 90
       10
176
     1
 62
     7
176
     1
 62
   257
176
     1
 90
        2
176
     1
 90
        1
176
     1
 40
1.0
176
     1
 90
        8
176
     1
 62
   257
176
     1
 40
1.0
176
     1
 90
        1
176
     1
 90
        6
176
     1
 90
        2
176
     1
 62
     7
176
     1
 90
        3
176
     1
 90
        0
176
     1
 90
        0
176
     1
290
     0
176
     1
 90
        5
176
     1
 40
0.0
176
     1
 90
        0
176
     1
290
     0
176
     1
290
     1
176
     1
290
     1
176
     1
290
     0
176
     1
290
     0
176
     1
290
     0
176
     1
290
     0
176
     1
290
     0
176
     1
290
     0
176
     1
 90
       50
176
     1
 40
0.0
176
     1
 40
1.0
176
     1
 90
        0
176
     1
 62
    18
420
        0
176
     1
 90
       50
176
     1
 90
        3
176
     1
 62
     5
420
      255
176
     1
290
     0
176
     1
 90
       50
176
     1
 90
       50
176
     1
 90
       50
176
     1
290
     0
176
     1
 90
       50
176
     1
 62
   256
176
     0
 40
1.0
176
     0
 90
        2
176
     1
  1
strokes_ogs.tif
176
     1
290
     0
176
     1
 40
1.0
176
     1
 40
1.0
176
     1
  0
VISUALSTYLE
  5
3E
102
{ACAD_REACTORS
330
2A
102
}
330
2A
100
AcDbVisualStyle
  2
Shades of Gray
 70
    23
177
     3
291
     0
 70
    58
 90
        2
176
     1
 90
        2
176
     1
 90
        3
176
     1
 90
        0
176
     1
 40
0.6
176
     1
 40
30.0
176
     1
 62
     7
420
 16777215
176
     1
 90
        2
176
     1
 90
        2
176
     1
 62
     7
176
     1
 62
     7
176
     1
 90
        1
176
     1
 90
        1
176
     1
 40
40.0
176
     1
 90
        8
176
     1
 62
     7
176
     1
 40
1.0
176
     1
 90
        1
176
     1
 90
        6
176
     1
 90
        2
176
     1
 62
     7
176
     1
 90
        3
176
     1
 90
        0
176
     1
 90
        0
176
     1
290
     0
176
     1
 90
        1
176
     1
 40
0.0
176
     1
 90
        0
176
     1
290
     0
176
     1
290
     1
176
     1
290
     1
176
     1
290
     0
176
     1
290
     0
176
     1
290
     0
176
     1
290
     0
176
     1
290
     0
176
     1
290
     0
176
     1
 90
       50
176
     1
 40
0.0
176
     1
 40
1.0
176
     1
 90
        0
176
     1
 62
    18
420
        0
176
     1
 90
       50
176
     1
 90
        3
176
     1
 62
     5
420
      255
176
     1
290
     0
176
     1
 90
       50
176
     1
 90
       50
176
     1
 90
       50
176
     1
290
     0
176
     1
 90
       50
176
     1
 62
   256
176
     0
 40
1.0
176
     0
 90
        2
176
     1
  1
strokes_ogs.tif
176
     1
290
     0
176
     1
 40
1.0
176
     1
 40
1.0
176
     1
  0
VISUALSTYLE
  5
3F
102
{ACAD_REACTORS
330
2A
102
}
330
2A
100
AcDbVisualStyle
  2
Sketchy
 70
    24
177
     3
291
     0
 70
    58
 90
        1
176
     1
 90
        2
176
     1
 90
        2
176
     1
 90
        0
176
     1
 40
0.6
176
     1
 40
30.0
176
     1
 62
     7
420
 16777215
176
     1
 90
        2
176
     1
 90
        2
176
     1
 62
     7
176
     1
 62
     7
176
     1
 90
        1
176
     1
 90
        1
176
     1
 40
40.0
176
     1
 90
       11
176
     1
 62
     7
176
     1
 40
1.0
176
     1
 90
        1
176
     1
 90
        6
176
     1
 90
        2
176
     1
 62
     7
176
     1
 90
        6
176
     1
 90
        0
176
     1
 90
        0
176
     1
290
     0
176
     1
 90
        1
176
     1
 40
0.0
176
     1
 90
        0
176
     1
290
     0
176
     1
290
     1
176
     1
290
     1
176
     1
290
     0
176
     1
290
     0
176
     1
290
     0
176
     1
290
     0
176
     1
290
     0
176
     1
290
     0
176
     1
 90
       50
176
     1
 40
0.0
176
     1
 40
1.0
176
     1
 90
        0
176
     1
 62
    18
420
        0
176
     1
 90
       50
176
     1
 90
        3
176
     1
 62
     5
420
      255
176
     1
290
     0
176
     1
 90
       50
176
     1
 90
       50
176
     1
 90
       50
176
     1
290
     0
176
     1
 90
       50
176
     1
 62
   256
176
     0
 40
1.0
176
     0
 90
        2
176
     1
  1
strokes_ogs.tif
176
     1
290
     0
176
     1
 40
1.0
176
     1
 40
1.0
176
     1
  0
VISUALSTYLE
  5
37
102
{ACAD_REACTORS
330
2A
102
}
330
2A
100
AcDbVisualStyle
  2
Thicken
 70
    13
177
     3
291
     1
 70
    58
 90
        2
176
     1
 90
        2
176
     1
 90
        0
176
     1
 90
        0
176
     1
 40
0.6
176
     1
 40
30.0
176
     1
 62
     7
420
 16777215
176
     1
 90
        1
176
     1
 90
        4
176
     1
 62
     7
176
     1
 62
   257
176
     1
 90
        1
176
     1
 90
        1
176
     1
 40
1.0
176
     1
 90
       12
176
     1
 62
     7
176
     1
 40
1.0
176
     1
 90
        1
176
     1
 90
        6
176
     1
 90
        2
176
     1
 62
     7
176
     1
 90
        5
176
     1
 90
        0
176
     1
 90
        0
176
     1
290
     0
176
     1
 90
        1
176
     1
 40
0.0
176
     1
 90
        0
176
     1
290
     0
176
     1
290
     1
176
     1
290
     1
176
     1
290
     0
176
     1
290
     0
176
     1
290
     0
176
     1
290
     0
176
     1
290
     0
176
     1
290
     0
176
     1
 90
       50
176
     1
 40
0.0
176
     1
 40
1.0
176
     1
 90
        0
176
     1
 62
    18
420
        0
176
     1
 90
       50
176
     1
 90
        3
176
     1
 62
     5
420
      255
176
     1
290
     0
176
     1
 90
       50
176
     1
 90
       50
176
     1
 90
       50
176
     1
290
     0
176
     1
 90
       50
176
     1
 62
   256
176
     0
 40
1.0
176
     0
 90
        2
176
     1
  1
strokes_ogs.tif
176
     1
290
     0
176
     1
 40
1.0
176
     1
 40
1.0
176
     1
  0
VISUALSTYLE
  5
30
102
{ACAD_REACTORS
330
2A
102
}
330
2A
100
AcDbVisualStyle
  2
Wireframe
 70
     5
177
     3
291
     0
 70
    58
 90
        0
176
     1
 90
        2
176
     1
 90
        0
176
     1
 90
        0
176
     1
 40
0.6
176
     1
 40
30.0
176
     1
 62
     7
420
 16777215
176
     1
 90
        1
176
     1
 90
        4
176
     1
 62
     7
176
     1
 62
   257
176
     1
 90
        1
176
     1
 90
        1
176
     1
 40
1.0
176
     1
 90
        0
176
     1
 62
   257
176
     1
 40
1.0
176
     1
 90
        1
176
     1
 90
        6
176
     1
 90
        2
176
     1
 62
     7
176
     1
 90
        3
176
     1
 90
        0
176
     1
 90
        0
176
     1
290
     0
176
     1
 90
        1
176
     1
 40
0.0
176
     1
 90
        0
176
     1
290
     0
176
     1
290
     1
176
     1
290
     1
176
     1
290
     0
176
     1
290
     0
176
     1
290
     0
176
     1
290
     0
176
     1
290
     0
176
     1
290
     0
176
     1
 90
       50
176
     1
 40
0.0
176
     1
 40
1.0
176
     1
 90
        0
176
     1
 62
    18
420
        0
176
     1
 90
       50
176
     1
 90
        3
176
     1
 62
     5
420
      255
176
     1
290
     0
176
     1
 90
       50
176
     1
 90
       50
176
     1
 90
       50
176
     1
290
     0
176
     1
 90
       50
176
     1
 62
   256
176
     0
 40
1.0
176
     0
 90
        2
176
     1
  1
strokes_ogs.tif
176
     1
290
     0
176
     1
 40
1.0
176
     1
 40
1.0
176
     1
  0
VISUALSTYLE
  5
40
102
{ACAD_REACTORS
330
2A
102
}
330
2A
100
AcDbVisualStyle
  2
X-Ray
 70
    25
177
     3
291
     0
 70
    58
 90
        2
176
     1
 90
        2
176
     1
 90
        1
176
     1
 90
        1
176
     1
 40
0.5
176
     1
 40
30.0
176
     1
 62
     7
420
 16777215
176
     1
 90
        1
176
     1
 90
        0
176
     1
 62
     7
176
     1
 62
   257
176
     1
 90
        1
176
     1
 90
        1
176
     1
 40
1.0
176
     1
 90
        8
176
     1
 62
     7
176
     1
 40
1.0
176
     1
 90
        1
176
     1
 90
        6
176
     1
 90
        2
176
     1
 62
     7
176
     1
 90
        3
176
     1
 90
        0
176
     1
 90
        0
176
     1
290
     0
176
     1
 90
       13
176
     1
 40
0.0
176
     1
 90
        0
176
     1
290
     0
176
     1
290
     1
176
     1
290
     1
176
     1
290
     0
176
     1
290
     0
176
     1
290
     0
176
     1
290
     0
176
     1
290
     0
176
     1
290
     0
176
     1
 90
       50
176
     1
 40
0.0
176
     1
 40
1.0
176
     1
 90
        0
176
     1
 62
    18
420
        0
176
     1
 90
       50
176
     1
 90
        3
176
     1
 62
     5
420
      255
176
     1
290
     0
176
     1
 90
       50
176
     1
 90
       50
176
     1
 90
       50
176
     1
290
     0
176
     1
 90
       50
176
     1
 62
   256
176
     0
 40
1.0
176
     0
 90
        2
176
     1
  1
strokes_ogs.tif
176
     1
290
     0
176
     1
 40
1.0
176
     1
 40
1.0
176
     1
  0
DICTIONARYVAR
  5
266
102
{ACAD_REACTORS
330
265
102
}
330
265
100
DictionaryVariables
280
     0
  1
1:1
  0
DICTIONARYVAR
  5
26B
102
{ACAD_REACTORS
330
265
102
}
330
265
100
DictionaryVariables
280
     0
  1
Standard
  0
DICTIONARYVAR
  5
26A
102
{ACAD_REACTORS
330
265
102
}
330
265
100
DictionaryVariables
280
     0
  1
Standard
  0
DICTIONARY
  5
267
330
6A
100
AcDbDictionary
280
     1
281
     1
  3
ACAD_ROUNDTRIP_2008_TABLESTYLE_CELLSTYLEMAP
360
268
  0
CELLSTYLEMAP
  5
268
102
{ACAD_REACTORS
330
267
102
}
330
267
100
AcDbCellStyleMap
 90
        3
300
CELLSTYLE
  1
TABLEFORMAT_BEGIN
 90
        5
170
     1
 91
        0
 92
    32768
 62
   257
 93
        1
300
CONTENTFORMAT
  1
CONTENTFORMAT_BEGIN
 90
        0
 91
        0
 92
        4
 93
        0
300

 40
0.0
140
1.0
 94
        5
 62
     0
340
11
144
0.25
309
CONTENTFORMAT_END
171
     1
301
MARGIN
  1
CELLMARGIN_BEGIN
 40
0.06
 40
0.06
 40
0.06
 40
0.06
 40
0.06
 40
0.06
309
CELLMARGIN_END
 94
        6
 95
        1
302
GRIDFORMAT
  1
GRIDFORMAT_BEGIN
 90
        0
 91
        1
 62
     0
 92
       -2
340
14
 93
        0
 40
0.045
309
GRIDFORMAT_END
 95
        2
302
GRIDFORMAT
  1
GRIDFORMAT_BEGIN
 90
        0
 91
        1
 62
     0
 92
       -2
340
14
 93
        0
 40
0.045
309
GRIDFORMAT_END
 95
        4
302
GRIDFORMAT
  1
GRIDFORMAT_BEGIN
 90
        0
 91
        1
 62
     0
 92
       -2
340
14
 93
        0
 40
0.045
309
GRIDFORMAT_END
 95
        8
302
GRIDFORMAT
  1
GRIDFORMAT_BEGIN
 90
        0
 91
        1
 62
     0
 92
       -2
340
14
 93
        0
 40
0.045
309
GRIDFORMAT_END
 95
       16
302
GRIDFORMAT
  1
GRIDFORMAT_BEGIN
 90
        0
 91
        1
 62
     0
 92
       -2
340
14
 93
        0
 40
0.045
309
GRIDFORMAT_END
 95
       32
302
GRIDFORMAT
  1
GRIDFORMAT_BEGIN
 90
        0
 91
        1
 62
     0
 92
       -2
340
14
 93
        0
 40
0.045
309
GRIDFORMAT_END
309
TABLEFORMAT_END
  1
CELLSTYLE_BEGIN
 90
        1
 91
        1
300
_TITLE
309
CELLSTYLE_END
300
CELLSTYLE
  1
TABLEFORMAT_BEGIN
 90
        5
170
     1
 91
        0
 92
        0
 62
   257
 93
        1
300
CONTENTFORMAT
  1
CONTENTFORMAT_BEGIN
 90
        0
 91
        0
 92
        4
 93
        0
300

 40
0.0
140
1.0
 94
        5
 62
     0
340
11
144
0.18
309
CONTENTFORMAT_END
171
     1
301
MARGIN
  1
CELLMARGIN_BEGIN
 40
0.06
 40
0.06
 40
0.06
 40
0.06
 40
0.06
 40
0.06
309
CELLMARGIN_END
 94
        6
 95
        1
302
GRIDFORMAT
  1
GRIDFORMAT_BEGIN
 90
        0
 91
        1
 62
     0
 92
       -2
340
14
 93
        0
 40
0.045
309
GRIDFORMAT_END
 95
        2
302
GRIDFORMAT
  1
GRIDFORMAT_BEGIN
 90
        0
 91
        1
 62
     0
 92
       -2
340
14
 93
        0
 40
0.045
309
GRIDFORMAT_END
 95
        4
302
GRIDFORMAT
  1
GRIDFORMAT_BEGIN
 90
        0
 91
        1
 62
     0
 92
       -2
340
14
 93
        0
 40
0.045
309
GRIDFORMAT_END
 95
        8
302
GRIDFORMAT
  1
GRIDFORMAT_BEGIN
 90
        0
 91
        1
 62
     0
 92
       -2
340
14
 93
        0
 40
0.045
309
GRIDFORMAT_END
 95
       16
302
GRIDFORMAT
  1
GRIDFORMAT_BEGIN
 90
        0
 91
        1
 62
     0
 92
       -2
340
14
 93
        0
 40
0.045
309
GRIDFORMAT_END
 95
       32
302
GRIDFORMAT
  1
GRIDFORMAT_BEGIN
 90
        0
 91
        1
 62
     0
 92
       -2
340
14
 93
        0
 40
0.045
309
GRIDFORMAT_END
309
TABLEFORMAT_END
  1
CELLSTYLE_BEGIN
 90
        2
 91
        1
300
_HEADER
309
CELLSTYLE_END
300
CELLSTYLE
  1
TABLEFORMAT_BEGIN
 90
        5
170
     1
 91
        0
 92
        0
 62
   257
 93
        1
300
CONTENTFORMAT
  1
CONTENTFORMAT_BEGIN
 90
        0
 91
        0
 92
        4
 93
        0
300

 40
0.0
140
1.0
 94
        2
 62
     0
340
11
144
0.18
309
CONTENTFORMAT_END
171
     1
301
MARGIN
  1
CELLMARGIN_BEGIN
 40
0.06
 40
0.06
 40
0.06
 40
0.06
 40
0.06
 40
0.06
309
CELLMARGIN_END
 94
        6
 95
        1
302
GRIDFORMAT
  1
GRIDFORMAT_BEGIN
 90
        0
 91
        1
 62
     0
 92
       -2
340
14
 93
        0
 40
0.045
309
GRIDFORMAT_END
 95
        2
302
GRIDFORMAT
  1
GRIDFORMAT_BEGIN
 90
        0
 91
        1
 62
     0
 92
       -2
340
14
 93
        0
 40
0.045
309
GRIDFORMAT_END
 95
        4
302
GRIDFORMAT
  1
GRIDFORMAT_BEGIN
 90
        0
 91
        1
 62
     0
 92
       -2
340
14
 93
        0
 40
0.045
309
GRIDFORMAT_END
 95
        8
302
GRIDFORMAT
  1
GRIDFORMAT_BEGIN
 90
        0
 91
        1
 62
     0
 92
       -2
340
14
 93
        0
 40
0.045
309
GRIDFORMAT_END
 95
       16
302
GRIDFORMAT
  1
GRIDFORMAT_BEGIN
 90
        0
 91
        1
 62
     0
 92
       -2
340
14
 93
        0
 40
0.045
309
GRIDFORMAT_END
 95
       32
302
GRIDFORMAT
  1
GRIDFORMAT_BEGIN
 90
        0
 91
        1
 62
     0
 92
       -2
340
14
 93
        0
 40
0.045
309
GRIDFORMAT_END
309
TABLEFORMAT_END
  1
CELLSTYLE_BEGIN
 90
        3
 91
        2
300
_DATA
309
CELLSTYLE_END
  0
ENDSEC
  0
EOF