0
SECTION
  2
HEADER
  9
$ACADVER
  1
AC1027
  9
$ACADMAINTVER
 70
     8
  9
$DWGCODEPAGE
  3
ANSI_1252
  9
$REQUIREDVERSIONS
160
                 0
  9
$COMMENTS
  1
File was created by Cadenas
  9
$CUSTOMPROPERTYTAG
  1
NN
  9
$CUSTOMPROPERTY
  1
Imperial - IP Piloted Flange Labyrinth Seal
  9
$CUSTOMPROPERTYTAG
  1
NT
  9
$CUSTOMPROPERTY
  1
Imperial Piloted Flange Bearings
  9
$CUSTOMPROPERTYTAG
  1
NB
  9
$CUSTOMPROPERTY
  1
069895
  9
$CUSTOMPROPERTYTAG
  1
NBSYN
  9
$CUSTOMPROPERTY
  1
$PN.
  9
$CUSTOMPROPERTYTAG
  1
LINA
  9
$CUSTOMPROPERTY
  1
069895
  9
$CUSTOMPROPERTYTAG
  1
SS
  9
$CUSTOMPROPERTY
  1
3-15/16
  9
$CUSTOMPROPERTYTAG
  1
PN
  9
$CUSTOMPROPERTY
  1
069895
  9
$CUSTOMPROPERTYTAG
  1
DESCRIPTION
  9
$CUSTOMPROPERTY
  1
FC-IP-315L
  9
$CUSTOMPROPERTYTAG
  1
EF
  9
$CUSTOMPROPERTY
  1
Non-Expansion Type
  9
$CUSTOMPROPERTYTAG
  1
ST
  9
$CUSTOMPROPERTY
  1
Labyrinth Seal
  9
$CUSTOMPROPERTYTAG
  1
A
  9
$CUSTOMPROPERTY
  1
4-45/64
  9
$CUSTOMPROPERTYTAG
  1
B
  9
$CUSTOMPROPERTY
  1
10-7/8
  9
$CUSTOMPROPERTYTAG
  1
C
  9
$CUSTOMPROPERTY
  1
3-1/2
  9
$CUSTOMPROPERTYTAG
  1
D
  9
$CUSTOMPROPERTY
  1
6-5/8
  9
$CUSTOMPROPERTYTAG
  1
DD
  9
$CUSTOMPROPERTY
  1
9-3/8
  9
$CUSTOMPROPERTYTAG
  1
E
  9
$CUSTOMPROPERTY
  1
1-15/32
  9
$CUSTOMPROPERTYTAG
  1
F
  9
$CUSTOMPROPERTY
  1
3/4
  9
$CUSTOMPROPERTYTAG
  1
G
  9
$CUSTOMPROPERTY
  1
2-57/64
  9
$CUSTOMPROPERTYTAG
  1
H
  9
$CUSTOMPROPERTY
  1
1-1/8
  9
$CUSTOMPROPERTYTAG
  1
K
  9
$CUSTOMPROPERTY
  1
8.125
  9
$CUSTOMPROPERTYTAG
  1
L
  9
$CUSTOMPROPERTY
  1
5-9/16
  9
$CUSTOMPROPERTYTAG
  1
M
  9
$CUSTOMPROPERTY
  1
3/4-10
  9
$CUSTOMPROPERTYTAG
  1
N
  9
$CUSTOMPROPERTY
  1
4-25/32
  9
$CUSTOMPROPERTYTAG
  1
P
  9
$CUSTOMPROPERTY
  1
1-13/16
  9
$CUSTOMPROPERTYTAG
  1
Q
  9
$CUSTOMPROPERTY
  1
1-29/32
  9
$CUSTOMPROPERTYTAG
  1
X
  9
$CUSTOMPROPERTY
  1
5/16
  9
$CUSTOMPROPERTYTAG
  1
Y
  9
$CUSTOMPROPERTY
  1
0.025
  9
$CUSTOMPROPERTYTAG
  1
Z
  9
$CUSTOMPROPERTY
  1
4-1/2
  9
$CUSTOMPROPERTYTAG
  1
COMPANY
  9
$CUSTOMPROPERTY
  1
baldor
  9
$INSBASE
 10
0.0
 20
0.0
 30
0.0
  9
$EXTMIN
 10
1.000000000000000E+20
 20
1.000000000000000E+20
 30
1.000000000000000E+20
  9
$EXTMAX
 10
-1.000000000000000E+20
 20
-1.000000000000000E+20
 30
-1.000000000000000E+20
  9
$LIMMIN
 10
0.0
 20
0.0
  9
$LIMMAX
 10
12.0
 20
9.0
  9
$ORTHOMODE
 70
     0
  9
$REGENMODE
 70
     1
  9
$FILLMODE
 70
     1
  9
$QTEXTMODE
 70
     0
  9
$MIRRTEXT
 70
     1
  9
$LTSCALE
 40
1.0
  9
$ATTMODE
 70
     1
  9
$TEXTSIZE
 40
0.2
  9
$TRACEWID
 40
0.05
  9
$TEXTSTYLE
  7
Standard
  9
$CLAYER
  8
0
  9
$CELTYPE
  6
ByLayer
  9
$CECOLOR
 62
   256
  9
$CELTSCALE
 40
1.0
  9
$DISPSILH
 70
     0
  9
$DIMSCALE
 40
1.0
  9
$DIMASZ
 40
0.18
  9
$DIMEXO
 40
0.0625
  9
$DIMDLI
 40
0.38
  9
$DIMRND
 40
0.0
  9
$DIMDLE
 40
0.0
  9
$DIMEXE
 40
0.18
  9
$DIMTP
 40
0.0
  9
$DIMTM
 40
0.0
  9
$DIMTXT
 40
0.18
  9
$DIMCEN
 40
0.09
  9
$DIMTSZ
 40
0.0
  9
$DIMTOL
 70
     0
  9
$DIMLIM
 70
     0
  9
$DIMTIH
 70
     1
  9
$DIMTOH
 70
     1
  9
$DIMSE1
 70
     0
  9
$DIMSE2
 70
     0
  9
$DIMTAD
 70
     0
  9
$DIMZIN
 70
     0
  9
$DIMBLK
  1

  9
$DIMASO
 70
     1
  9
$DIMSHO
 70
     1
  9
$DIMPOST
  1

  9
$DIMAPOST
  1

  9
$DIMALT
 70
     0
  9
$DIMALTD
 70
     2
  9
$DIMALTF
 40
25.4
  9
$DIMLFAC
 40
1.0
  9
$DIMTOFL
 70
     0
  9
$DIMTVP
 40
0.0
  9
$DIMTIX
 70
     0
  9
$DIMSOXD
 70
     0
  9
$DIMSAH
 70
     0
  9
$DIMBLK1
  1

  9
$DIMBLK2
  1

  9
$DIMSTYLE
  2
Standard
  9
$DIMCLRD
 70
     0
  9
$DIMCLRE
 70
     0
  9
$DIMCLRT
 70
     0
  9
$DIMTFAC
 40
1.0
  9
$DIMGAP
 40
0.09
  9
$DIMJUST
 70
     0
  9
$DIMSD1
 70
     0
  9
$DIMSD2
 70
     0
  9
$DIMTOLJ
 70
     1
  9
$DIMTZIN
 70
     0
  9
$DIMALTZ
 70
     0
  9
$DIMALTTZ
 70
     0
  9
$DIMUPT
 70
     0
  9
$DIMDEC
 70
     4
  9
$DIMTDEC
 70
     4
  9
$DIMALTU
 70
     2
  9
$DIMALTTD
 70
     2
  9
$DIMTXSTY
  7
Standard
  9
$DIMAUNIT
 70
     0
  9
$DIMADEC
 70
     0
  9
$DIMALTRND
 40
0.0
  9
$DIMAZIN
 70
     0
  9
$DIMDSEP
 70
    46
  9
$DIMATFIT
 70
     3
  9
$DIMFRAC
 70
     0
  9
$DIMLDRBLK
  1

  9
$DIMLUNIT
 70
     2
  9
$DIMLWD
 70
    -2
  9
$DIMLWE
 70
    -2
  9
$DIMTMOVE
 70
     0
  9
$DIMFXL
 40
1.0
  9
$DIMFXLON
 70
     0
  9
$DIMJOGANG
 40
0.7853981633974483
  9
$DIMTFILL
 70
     0
  9
$DIMTFILLCLR
 70
     0
  9
$DIMARCSYM
 70
     0
  9
$DIMLTYPE
  6

  9
$DIMLTEX1
  6

  9
$DIMLTEX2
  6

  9
$DIMTXTDIRECTION
 70
     0
  9
$LUNITS
 70
     2
  9
$LUPREC
 70
     4
  9
$SKETCHINC
 40
0.1
  9
$FILLETRAD
 40
0.5
  9
$AUNITS
 70
     0
  9
$AUPREC
 70
     0
  9
$MENU
  1
.
  9
$ELEVATION
 40
0.0
  9
$PELEVATION
 40
0.0
  9
$THICKNESS
 40
0.0
  9
$LIMCHECK
 70
     0
  9
$CHAMFERA
 40
0.0
  9
$CHAMFERB
 40
0.0
  9
$CHAMFERC
 40
0.0
  9
$CHAMFERD
 40
0.0
  9
$SKPOLY
 70
     0
  9
$TDCREATE
 40
2458168.989950614
  9
$TDUCREATE
 40
2458168.948283947
  9
$TDUPDATE
 40
2458168.989950787
  9
$TDUUPDATE
 40
2458168.94828412
  9
$TDINDWG
 40
0.0000000116
  9
$TDUSRTIMER
 40
0.0000000116
  9
$USRTIMER
 70
     1
  9
$ANGBASE
 50
0.0
  9
$ANGDIR
 70
     0
  9
$PDMODE
 70
     0
  9
$PDSIZE
 40
0.0
  9
$PLINEWID
 40
0.0
  9
$SPLFRAME
 70
     0
  9
$SPLINETYPE
 70
     6
  9
$SPLINESEGS
 70
     8
  9
$HANDSEED
  5
276
  9
$SURFTAB1
 70
     6
  9
$SURFTAB2
 70
     6
  9
$SURFTYPE
 70
     6
  9
$SURFU
 70
     6
  9
$SURFV
 70
     6
  9
$UCSBASE
  2

  9
$UCSNAME
  2

  9
$UCSORG
 10
0.0
 20
0.0
 30
0.0
  9
$UCSXDIR
 10
1.0
 20
0.0
 30
0.0
  9
$UCSYDIR
 10
0.0
 20
1.0
 30
0.0
  9
$UCSORTHOREF
  2

  9
$UCSORTHOVIEW
 70
     0
  9
$UCSORGTOP
 10
0.0
 20
0.0
 30
0.0
  9
$UCSORGBOTTOM
 10
0.0
 20
0.0
 30
0.0
  9
$UCSORGLEFT
 10
0.0
 20
0.0
 30
0.0
  9
$UCSORGRIGHT
 10
0.0
 20
0.0
 30
0.0
  9
$UCSORGFRONT
 10
0.0
 20
0.0
 30
0.0
  9
$UCSORGBACK
 10
0.0
 20
0.0
 30
0.0
  9
$PUCSBASE
  2

  9
$PUCSNAME
  2

  9
$PUCSORG
 10
0.0
 20
0.0
 30
0.0
  9
$PUCSXDIR
 10
1.0
 20
0.0
 30
0.0
  9
$PUCSYDIR
 10
0.0
 20
1.0
 30
0.0
  9
$PUCSORTHOREF
  2

  9
$PUCSORTHOVIEW
 70
     0
  9
$PUCSORGTOP
 10
0.0
 20
0.0
 30
0.0
  9
$PUCSORGBOTTOM
 10
0.0
 20
0.0
 30
0.0
  9
$PUCSORGLEFT
 10
0.0
 20
0.0
 30
0.0
  9
$PUCSORGRIGHT
 10
0.0
 20
0.0
 30
0.0
  9
$PUCSORGFRONT
 10
0.0
 20
0.0
 30
0.0
  9
$PUCSORGBACK
 10
0.0
 20
0.0
 30
0.0
  9
$USERI1
 70
     0
  9
$USERI2
 70
     0
  9
$USERI3
 70
     0
  9
$USERI4
 70
     0
  9
$USERI5
 70
     0
  9
$USERR1
 40
0.0
  9
$USERR2
 40
0.0
  9
$USERR3
 40
0.0
  9
$USERR4
 40
0.0
  9
$USERR5
 40
0.0
  9
$WORLDVIEW
 70
     1
  9
$SHADEDGE
 70
     3
  9
$SHADEDIF
 70
    70
  9
$TILEMODE
 70
     1
  9
$MAXACTVP
 70
    64
  9
$PINSBASE
 10
0.0
 20
0.0
 30
0.0
  9
$PLIMCHECK
 70
     0
  9
$PEXTMIN
 10
1.000000000000000E+20
 20
1.000000000000000E+20
 30
1.000000000000000E+20
  9
$PEXTMAX
 10
-1.000000000000000E+20
 20
-1.000000000000000E+20
 30
-1.000000000000000E+20
  9
$PLIMMIN
 10
0.0
 20
0.0
  9
$PLIMMAX
 10
12.0
 20
9.0
  9
$UNITMODE
 70
     0
  9
$VISRETAIN
 70
     1
  9
$PLINEGEN
 70
     0
  9
$PSLTSCALE
 70
     1
  9
$TREEDEPTH
 70
  3020
  9
$CMLSTYLE
  2
Standard
  9
$CMLJUST
 70
     0
  9
$CMLSCALE
 40
1.0
  9
$PROXYGRAPHICS
 70
     1
  9
$MEASUREMENT
 70
     0
  9
$CELWEIGHT
370
    -1
  9
$ENDCAPS
280
     0
  9
$JOINSTYLE
280
     0
  9
$LWDISPLAY
290
     0
  9
$INSUNITS
 70
     1
  9
$HYPERLINKBASE
  1

  9
$STYLESHEET
  1

  9
$XEDIT
290
     1
  9
$CEPSNTYPE
380
     0
  9
$PSTYLEMODE
290
     1
  9
$FINGERPRINTGUID
  2
{642F9DBC-ED38-4AA6-B6C2-F27702DA23F8}
  9
$VERSIONGUID
  2
{FAEB1C32-E019-11D5-929B-00C0DF256EC4}
  9
$EXTNAMES
290
     1
  9
$PSVPSCALE
 40
0.0
  9
$OLESTARTUP
290
     0
  9
$SORTENTS
280
   127
  9
$INDEXCTL
280
     0
  9
$HIDETEXT
280
     1
  9
$XCLIPFRAME
280
     2
  9
$HALOGAP
280
     0
  9
$OBSCOLOR
 70
   257
  9
$OBSLTYPE
280
     0
  9
$INTERSECTIONDISPLAY
280
     0
  9
$INTERSECTIONCOLOR
 70
   257
  9
$DIMASSOC
280
     2
  9
$PROJECTNAME
  1

  9
$CAMERADISPLAY
290
     0
  9
$LENSLENGTH
 40
50.0
  9
$CAMERAHEIGHT
 40
0.0
  9
$STEPSPERSEC
 40
2.0
  9
$STEPSIZE
 40
6.0
  9
$3DDWFPREC
 40
2.0
  9
$PSOLWIDTH
 40
0.25
  9
$PSOLHEIGHT
 40
4.0
  9
$LOFTANG1
 40
1.570796326794897
  9
$LOFTANG2
 40
1.570796326794897
  9
$LOFTMAG1
 40
0.0
  9
$LOFTMAG2
 40
0.0
  9
$LOFTPARAM
 70
     7
  9
$LOFTNORMALS
280
     1
  9
$LATITUDE
 40
37.795
  9
$LONGITUDE
 40
-122.394
  9
$NORTHDIRECTION
 40
0.0
  9
$TIMEZONE
 70
 -8000
  9
$LIGHTGLYPHDISPLAY
280
     1
  9
$TILEMODELIGHTSYNCH
280
     1
  9
$CMATERIAL
347
44
  9
$SOLIDHIST
280
     0
  9
$SHOWHIST
280
     1
  9
$DWFFRAME
280
     2
  9
$DGNFRAME
280
     2
  9
$REALWORLDSCALE
290
     1
  9
$INTERFERECOLOR
 62
   256
  9
$CSHADOW
280
     0
  9
$SHADOWPLANELOCATION
 40
0.0
  0
ENDSEC
  0
SECTION
  2
CLASSES
  0
CLASS
  1
ACDBDICTIONARYWDFLT
  2
AcDbDictionaryWithDefault
  3
ObjectDBX Classes
 90
        0
 91
        4
280
     0
281
     0
  0
CLASS
  1
VISUALSTYLE
  2
AcDbVisualStyle
  3
ObjectDBX Classes
 90
     4095
 91
        4
280
     0
281
     0
  0
CLASS
  1
MATERIAL
  2
AcDbMaterial
  3
ObjectDBX Classes
 90
     1153
 91
        4
280
     0
281
     0
  0
CLASS
  1
SCALE
  2
AcDbScale
  3
ObjectDBX Classes
 90
     1153
 91
        4
280
     0
281
     0
  0
CLASS
  1
TABLESTYLE
  2
AcDbTableStyle
  3
ObjectDBX Classes
 90
     4095
 91
        4
280
     0
281
     0
  0
CLASS
  1
MLEADERSTYLE
  2
AcDbMLeaderStyle
  3
ACDB_MLEADERSTYLE_CLASS
 90
     4095
 91
        4
280
     0
281
     0
  0
CLASS
  1
SUN
  2
AcDbSun
  3
SCENEOE
 90
     1153
 91
        4
280
     0
281
     0
  0
CLASS
  1
DICTIONARYVAR
  2
AcDbDictionaryVar
  3
ObjectDBX Classes
 90
        0
 91
        4
280
     0
281
     0
  0
CLASS
  1
CELLSTYLEMAP
  2
AcDbCellStyleMap
  3
ObjectDBX Classes
 90
     1152
 91
        4
280
     0
281
     0
  0
ENDSEC
  0
SECTION
  2
TABLES
  0
TABLE
  2
VPORT
  5
8
330
0
100
AcDbSymbolTable
 70
     1
  0
VPORT
  5
29
330
8
100
AcDbSymbolTableRecord
100
AcDbViewportTableRecord
  2
*Active
 70
     0
 10
0.0
 20
0.0
 11
1.0
 21
1.0
 12
0.0
 22
-0.2975781249999994
 13
0.0
 23
0.0
 14
0.5
 24
0.5
 15
0.5
 25
0.5
 16
0.0
 26
0.0
 36
1.0
 17
0.0
 27
0.0
 37
0.0
 40
5.740209375000001
 41
1.93242080128828
 42
50.0
 43
0.0
 44
0.0
 50
0.0
 51
0.0
 71
     0
 72
   100
 73
     1
 74
     3
 75
     0
 76
     0
 77
     0
 78
     0
281
     0
 65
     1
110
0.0
120
0.0
130
0.0
111
1.0
121
0.0
131
0.0
112
0.0
122
1.0
132
0.0
 79
     0
146
0.0
348
2F
 60
     3
 61
     5
292
     1
282
     1
141
0.0
142
0.0
 63
   250
361
6D
  0
ENDTAB
  0
TABLE
  2
LTYPE
  5
5
330
0
100
AcDbSymbolTable
 70
     3
  0
LTYPE
  5
14
330
5
100
AcDbSymbolTableRecord
100
AcDbLinetypeTableRecord
  2
ByBlock
 70
     0
  3

 72
    65
 73
     0
 40
0.0
  0
LTYPE
  5
15
330
5
100
AcDbSymbolTableRecord
100
AcDbLinetypeTableRecord
  2
ByLayer
 70
     0
  3

 72
    65
 73
     0
 40
0.0
  0
LTYPE
  5
16
330
5
100
AcDbSymbolTableRecord
100
AcDbLinetypeTableRecord
  2
Continuous
 70
     0
  3
Solid line
 72
    65
 73
     0
 40
0.0
  0
LTYPE
  5
9C
330
5
100
AcDbSymbolTableRecord
100
AcDbLinetypeTableRecord
  2
Dashed
 70
     0
  3

 72
    65
 73
     2
 40
2.0
 49
1.0
 74
     0
 49
-1.0
 74
     0
  0
LTYPE
  5
219
330
5
100
AcDbSymbolTableRecord
100
AcDbLinetypeTableRecord
  2
Center
 70
     0
  3

 72
    65
 73
     4
 40
1.5
 49
0.45
 74
     0
 49
-0.5
 74
     0
 49
0.05
 74
     0
 49
-0.5
 74
     0
  0
ENDTAB
  0
TABLE
  2
LAYER
  5
2
330
0
100
AcDbSymbolTable
 70
     7
  0
LAYER
  5
10
330
2
100
AcDbSymbolTableRecord
100
AcDbLayerTableRecord
  2
0
 70
     0
 62
     7
  6
Continuous
370
    -3
390
F
347
46
348
0
  0
LAYER
  5
72
330
2
100
AcDbSymbolTableRecord
100
AcDbLayerTableRecord
  2
AM_6
 70
     0
 62
    -2
  6
Continuous
370
    35
390
F
347
46
348
0
  0
LAYER
  5
9D
330
2
100
AcDbSymbolTableRecord
100
AcDbLayerTableRecord
  2
AM_9
 70
     0
 62
     6
  6
Dashed
370
    25
390
F
347
46
348
0
  0
LAYER
  5
BF
330
2
100
AcDbSymbolTableRecord
100
AcDbLayerTableRecord
  2
AM_4
 70
     0
 62
     7
  6
Continuous
370
    50
390
F
347
46
348
0
  0
LAYER
  5
F8
330
2
100
AcDbSymbolTableRecord
100
AcDbLayerTableRecord
  2
AM_5
 70
     0
 62
     3
  6
Continuous
370
    25
390
F
347
46
348
0
  0
LAYER
  5
21A
330
2
100
AcDbSymbolTableRecord
100
AcDbLayerTableRecord
  2
AM_7
 70
     0
 62
     7
  6
Center
370
    25
390
F
347
46
348
0
  0
LAYER
  5
25E
330
2
100
AcDbSymbolTableRecord
100
AcDbLayerTableRecord
  2
ConnectionPoints
 70
     0
 62
     7
  6
Continuous
370
    50
390
F
347
46
348
0
  0
ENDTAB
  0
TABLE
  2
STYLE
  5
3
330
0
100
AcDbSymbolTable
 70
     1
  0
STYLE
  5
11
330
3
100
AcDbSymbolTableRecord
100
AcDbTextStyleTableRecord
  2
Standard
 70
     0
 40
0.0
 41
1.0
 50
0.0
 71
     0
 42
0.2
  3
txt
  4

  0
ENDTAB
  0
TABLE
  2
VIEW
  5
6
330
0
100
AcDbSymbolTable
 70
     0
  0
ENDTAB
  0
TABLE
  2
UCS
  5
7
330
0
100
AcDbSymbolTable
 70
     0
  0
ENDTAB
  0
TABLE
  2
APPID
  5
9
330
0
100
AcDbSymbolTable
 70
     1
  0
APPID
  5
12
330
9
100
AcDbSymbolTableRecord
100
AcDbRegAppTableRecord
  2
ACAD
 70
     0
  0
ENDTAB
  0
TABLE
  2
DIMSTYLE
  5
A
330
0
100
AcDbSymbolTable
 70
     1
100
AcDbDimStyleTable
  0
DIMSTYLE
105
27
330
A
100
AcDbSymbolTableRecord
100
AcDbDimStyleTableRecord
  2
Standard
 70
     0
178
     0
340
11
  0
ENDTAB
  0
TABLE
  2
BLOCK_RECORD
  5
1
330
0
100
AcDbSymbolTable
 70
     8
  0
BLOCK_RECORD
  5
1F
330
1
100
AcDbSymbolTableRecord
100
AcDbBlockTableRecord
  2
*Model_Space
340
22
 70
     0
280
     1
281
     0
  0
BLOCK_RECORD
  5
1B
330
1
100
AcDbSymbolTableRecord
100
AcDbBlockTableRecord
  2
*Paper_Space
340
1E
 70
     0
280
     1
281
     0
  0
BLOCK_RECORD
  5
23
330
1
100
AcDbSymbolTableRecord
100
AcDbBlockTableRecord
  2
*Paper_Space0
340
26
 70
     0
280
     1
281
     0
  0
BLOCK_RECORD
  5
6E
330
1
100
AcDbSymbolTableRecord
100
AcDbBlockTableRecord
  2
1_069895_4
340
0
102
{BLKREFS
331
6F
102
}
 70
     0
280
     1
281
     0
  0
BLOCK_RECORD
  5
90
330
1
100
AcDbSymbolTableRecord
100
AcDbBlockTableRecord
  2
2_405015E_Inch_0_in_069895_4
340
0
102
{BLKREFS
331
91
102
}
 70
     0
280
     1
281
     0
  0
BLOCK_RECORD
  5
E8
330
1
100
AcDbSymbolTableRecord
100
AcDbBlockTableRecord
  2
3_ASME_B18_3_1_4_1_0_in_069895_4
340
0
102
{BLKREFS
331
E9
102
}
 70
     0
280
     1
281
     0
  0
BLOCK_RECORD
  5
FB
330
1
100
AcDbSymbolTableRecord
100
AcDbBlockTableRecord
  2
4_ASME_B18_3_1_4_2_0_in_069895_4
340
0
102
{BLKREFS
331
FC
102
}
 70
     0
280
     1
281
     0
  0
BLOCK_RECORD
  5
11D
330
1
100
AcDbSymbolTableRecord
100
AcDbBlockTableRecord
  2
5_070906LW_0_in_069895_4
340
0
102
{BLKREFS
331
11E
102
}
 70
     0
280
     1
281
     0
  0
BLOCK_RECORD
  5
153
330
1
100
AcDbSymbolTableRecord
100
AcDbBlockTableRecord
  2
6_070938I_0_in_069895_4
340
0
102
{BLKREFS
331
154
102
}
 70
     0
280
     1
281
     0
  0
BLOCK_RECORD
  5
1CF
330
1
100
AcDbSymbolTableRecord
100
AcDbBlockTableRecord
  2
7_069895H_0_in_069895_4
340
0
102
{BLKREFS
331
1D0
102
}
 70
     0
280
     1
281
     0
  0
ENDTAB
  0
ENDSEC
  0
SECTION
  2
BLOCKS
  0
BLOCK
  5
20
330
1F
100
AcDbEntity
  8
0
100
AcDbBlockBegin
  2
*Model_Space
 70
     0
 10
0.0
 20
0.0
 30
0.0
  3
*Model_Space
  1

  0
ENDBLK
  5
21
330
1F
100
AcDbEntity
  8
0
100
AcDbBlockEnd
  0
BLOCK
  5
1C
330
1B
100
AcDbEntity
 67
     1
  8
0
100
AcDbBlockBegin
  2
*Paper_Space
 70
     0
 10
0.0
 20
0.0
 30
0.0
  3
*Paper_Space
  1

  0
ENDBLK
  5
1D
330
1B
100
AcDbEntity
 67
     1
  8
0
100
AcDbBlockEnd
  0
BLOCK
  5
24
330
23
100
AcDbEntity
  8
0
100
AcDbBlockBegin
  2
*Paper_Space0
 70
     0
 10
0.0
 20
0.0
 30
0.0
  3
*Paper_Space0
  1

  0
ENDBLK
  5
25
330
23
100
AcDbEntity
  8
0
100
AcDbBlockEnd
  0
BLOCK
  5
70
330
6E
100
AcDbEntity
  8
0
100
AcDbBlockBegin
  2
1_069895_4
 70
     2
 10
0.0
 20
0.0
 30
0.0
  3
1_069895_4
  1

  0
ATTDEF
  5
73
330
6E
100
AcDbEntity
  8
AM_6
100
AcDbText
 10
10.4375
 20
2.51625
 30
0.0
 40
0.5
  1
Imperial - IP Piloted Flange Labyrinth Seal
100
AcDbAttributeDefinition
  3

  2
NN
 70
     8
280
     0
  0
ATTDEF
  5
74
330
6E
100
AcDbEntity
  8
AM_6
100
AcDbText
 10
10.4375
 20
2.01625
 30
0.0
 40
0.5
  1
Imperial Piloted Flange Bearings
100
AcDbAttributeDefinition
  3

  2
NT
 70
     8
280
     0
  0
ATTDEF
  5
75
330
6E
100
AcDbEntity
  8
AM_6
100
AcDbText
 10
10.4375
 20
1.51625
 30
0.0
 40
0.5
  1
069895
100
AcDbAttributeDefinition
  3

  2
NB
 70
     8
280
     0
  0
ATTDEF
  5
76
330
6E
100
AcDbEntity
  8
AM_6
100
AcDbText
 10
10.4375
 20
1.01625
 30
0.0
 40
0.5
  1
$PN.
100
AcDbAttributeDefinition
  3

  2
NBSYN
 70
     8
280
     0
  0
ATTDEF
  5
77
330
6E
100
AcDbEntity
  8
AM_6
100
AcDbText
 10
10.4375
 20
0.5162500000000003
 30
0.0
 40
0.5
  1
069895
100
AcDbAttributeDefinition
  3

  2
LINA
 70
     8
280
     0
  0
ATTDEF
  5
78
330
6E
100
AcDbEntity
  8
AM_6
100
AcDbText
 10
10.4375
 20
0.0162500000000003
 30
0.0
 40
0.5
  1
3-15/16
100
AcDbAttributeDefinition
  3

  2
SS
 70
     8
280
     0
  0
ATTDEF
  5
79
330
6E
100
AcDbEntity
  8
AM_6
100
AcDbText
 10
10.4375
 20
-0.4837499999999997
 30
0.0
 40
0.5
  1
069895
100
AcDbAttributeDefinition
  3

  2
PN
 70
     8
280
     0
  0
ATTDEF
  5
7A
330
6E
100
AcDbEntity
  8
AM_6
100
AcDbText
 10
10.4375
 20
-0.9837499999999997
 30
0.0
 40
0.5
  1
FC-IP-315L
100
AcDbAttributeDefinition
  3

  2
DESCRIPTION
 70
     8
280
     0
  0
ATTDEF
  5
7B
330
6E
100
AcDbEntity
  8
AM_6
100
AcDbText
 10
10.4375
 20
-1.48375
 30
0.0
 40
0.5
  1
Non-Expansion Type
100
AcDbAttributeDefinition
  3

  2
EF
 70
     8
280
     0
  0
ATTDEF
  5
7C
330
6E
100
AcDbEntity
  8
AM_6
100
AcDbText
 10
10.4375
 20
-1.98375
 30
0.0
 40
0.5
  1
Labyrinth Seal
100
AcDbAttributeDefinition
  3

  2
ST
 70
     8
280
     0
  0
ATTDEF
  5
7D
330
6E
100
AcDbEntity
  8
AM_6
100
AcDbText
 10
10.4375
 20
-2.48375
 30
0.0
 40
0.5
  1
4-45/64
100
AcDbAttributeDefinition
  3

  2
A
 70
     8
280
     0
  0
ATTDEF
  5
7E
330
6E
100
AcDbEntity
  8
AM_6
100
AcDbText
 10
10.4375
 20
-2.98375
 30
0.0
 40
0.5
  1
10-7/8
100
AcDbAttributeDefinition
  3

  2
B
 70
     8
280
     0
  0
ATTDEF
  5
7F
330
6E
100
AcDbEntity
  8
AM_6
100
AcDbText
 10
10.4375
 20
-3.48375
 30
0.0
 40
0.5
  1
3-1/2
100
AcDbAttributeDefinition
  3

  2
C
 70
     8
280
     0
  0
ATTDEF
  5
80
330
6E
100
AcDbEntity
  8
AM_6
100
AcDbText
 10
10.4375
 20
-3.98375
 30
0.0
 40
0.5
  1
6-5/8
100
AcDbAttributeDefinition
  3

  2
D
 70
     8
280
     0
  0
ATTDEF
  5
81
330
6E
100
AcDbEntity
  8
AM_6
100
AcDbText
 10
10.4375
 20
-4.48375
 30
0.0
 40
0.5
  1
9-3/8
100
AcDbAttributeDefinition
  3

  2
DD
 70
     8
280
     0
  0
ATTDEF
  5
82
330
6E
100
AcDbEntity
  8
AM_6
100
AcDbText
 10
10.4375
 20
-4.98375
 30
0.0
 40
0.5
  1
1-15/32
100
AcDbAttributeDefinition
  3

  2
E
 70
     8
280
     0
  0
ATTDEF
  5
83
330
6E
100
AcDbEntity
  8
AM_6
100
AcDbText
 10
10.4375
 20
-5.48375
 30
0.0
 40
0.5
  1
3/4
100
AcDbAttributeDefinition
  3

  2
F
 70
     8
280
     0
  0
ATTDEF
  5
84
330
6E
100
AcDbEntity
  8
AM_6
100
AcDbText
 10
10.4375
 20
-5.98375
 30
0.0
 40
0.5
  1
2-57/64
100
AcDbAttributeDefinition
  3

  2
G
 70
     8
280
     0
  0
ATTDEF
  5
85
330
6E
100
AcDbEntity
  8
AM_6
100
AcDbText
 10
10.4375
 20
-6.48375
 30
0.0
 40
0.5
  1
1-1/8
100
AcDbAttributeDefinition
  3

  2
H
 70
     8
280
     0
  0
ATTDEF
  5
86
330
6E
100
AcDbEntity
  8
AM_6
100
AcDbText
 10
10.4375
 20
-6.98375
 30
0.0
 40
0.5
  1
8.125
100
AcDbAttributeDefinition
  3

  2
K
 70
     8
280
     0
  0
ATTDEF
  5
87
330
6E
100
AcDbEntity
  8
AM_6
100
AcDbText
 10
10.4375
 20
-7.48375
 30
0.0
 40
0.5
  1
5-9/16
100
AcDbAttributeDefinition
  3

  2
L
 70
     8
280
     0
  0
ATTDEF
  5
88
330
6E
100
AcDbEntity
  8
AM_6
100
AcDbText
 10
10.4375
 20
-7.98375
 30
0.0
 40
0.5
  1
3/4-10
100
AcDbAttributeDefinition
  3

  2
M
 70
     8
280
     0
  0
ATTDEF
  5
89
330
6E
100
AcDbEntity
  8
AM_6
100
AcDbText
 10
10.4375
 20
-8.48375
 30
0.0
 40
0.5
  1
4-25/32
100
AcDbAttributeDefinition
  3

  2
N
 70
     8
280
     0
  0
ATTDEF
  5
8A
330
6E
100
AcDbEntity
  8
AM_6
100
AcDbText
 10
10.4375
 20
-8.98375
 30
0.0
 40
0.5
  1
1-13/16
100
AcDbAttributeDefinition
  3

  2
P
 70
     8
280
     0
  0
ATTDEF
  5
8B
330
6E
100
AcDbEntity
  8
AM_6
100
AcDbText
 10
10.4375
 20
-9.48375
 30
0.0
 40
0.5
  1
1-29/32
100
AcDbAttributeDefinition
  3

  2
Q
 70
     8
280
     0
  0
ATTDEF
  5
8C
330
6E
100
AcDbEntity
  8
AM_6
100
AcDbText
 10
10.4375
 20
-9.98375
 30
0.0
 40
0.5
  1
5/16
100
AcDbAttributeDefinition
  3

  2
X
 70
     8
280
     0
  0
ATTDEF
  5
8D
330
6E
100
AcDbEntity
  8
AM_6
100
AcDbText
 10
10.4375
 20
-10.48375
 30
0.0
 40
0.5
  1
0.025
100
AcDbAttributeDefinition
  3

  2
Y
 70
     8
280
     0
  0
ATTDEF
  5
8E
330
6E
100
AcDbEntity
  8
AM_6
100
AcDbText
 10
10.4375
 20
-10.98375
 30
0.0
 40
0.5
  1
4-1/2
100
AcDbAttributeDefinition
  3

  2
Z
 70
     8
280
     0
  0
ATTDEF
  5
8F
330
6E
100
AcDbEntity
  8
AM_6
100
AcDbText
 10
10.4375
 20
-11.48375
 30
0.0
 40
0.5
  1
baldor
100
AcDbAttributeDefinition
  3

  2
COMPANY
 70
     8
280
     0
  0
INSERT
  5
91
330
6E
100
AcDbEntity
  8
0
100
AcDbBlockReference
  2
2_405015E_Inch_0_in_069895_4
 10
0.0
 20
0.0
 30
0.0
  0
INSERT
  5
E9
330
6E
100
AcDbEntity
  8
0
100
AcDbBlockReference
  2
3_ASME_B18_3_1_4_1_0_in_069895_4
 10
0.0
 20
0.0
 30
0.0
  0
INSERT
  5
FC
330
6E
100
AcDbEntity
  8
0
100
AcDbBlockReference
  2
4_ASME_B18_3_1_4_2_0_in_069895_4
 10
0.0
 20
0.0
 30
0.0
  0
INSERT
  5
11E
330
6E
100
AcDbEntity
  8
0
100
AcDbBlockReference
  2
5_070906LW_0_in_069895_4
 10
0.0
 20
0.0
 30
0.0
  0
INSERT
  5
154
330
6E
100
AcDbEntity
  8
0
100
AcDbBlockReference
  2
6_070938I_0_in_069895_4
 10
0.0
 20
0.0
 30
0.0
  0
INSERT
  5
1D0
330
6E
100
AcDbEntity
  8
0
100
AcDbBlockReference
  2
7_069895H_0_in_069895_4
 10
0.0
 20
0.0
 30
0.0
  0
ENDBLK
  5
71
330
6E
100
AcDbEntity
  8
0
100
AcDbBlockEnd
  0
BLOCK
  5
92
330
90
100
AcDbEntity
  8
0
100
AcDbBlockBegin
  2
2_405015E_Inch_0_in_069895_4
 70
     2
 10
0.0
 20
0.0
 30
0.0
  3
2_405015E_Inch_0_in_069895_4
  1

  0
ATTDEF
  5
94
330
90
100
AcDbEntity
  8
AM_6
100
AcDbText
 10
5.252590742770462
 20
-0.9359268317609888
 30
0.0
 40
0.5
  1
405015E -Inch
100
AcDbAttributeDefinition
  3

  2
NN
 70
     8
280
     0
  0
ATTDEF
  5
95
330
90
100
AcDbEntity
  8
AM_6
100
AcDbText
 10
5.252590742770462
 20
-1.435926831760989
 30
0.0
 40
0.5
  1
Grease Fitting
100
AcDbAttributeDefinition
  3

  2
NT
 70
     8
280
     0
  0
ATTDEF
  5
96
330
90
100
AcDbEntity
  8
AM_6
100
AcDbText
 10
5.252590742770462
 20
-1.935926831760989
 30
0.0
 40
0.5
  1
405015E-Inch
100
AcDbAttributeDefinition
  3

  2
NB
 70
     8
280
     0
  0
ATTDEF
  5
97
330
90
100
AcDbEntity
  8
AM_6
100
AcDbText
 10
5.252590742770462
 20
-2.435926831760989
 30
0.0
 40
0.5
  1
$MN.-Inch
100
AcDbAttributeDefinition
  3

  2
NBSYN
 70
     8
280
     0
  0
ATTDEF
  5
98
330
90
100
AcDbEntity
  8
AM_6
100
AcDbText
 10
5.252590742770462
 20
-2.935926831760989
 30
0.0
 40
0.5
  1
405015E
100
AcDbAttributeDefinition
  3

  2
LINA
 70
     8
280
     0
  0
ATTDEF
  5
99
330
90
100
AcDbEntity
  8
AM_6
100
AcDbText
 10
5.252590742770462
 20
-3.435926831760989
 30
0.0
 40
0.5
  1
405015E
100
AcDbAttributeDefinition
  3

  2
MN
 70
     8
280
     0
  0
ATTDEF
  5
9A
330
90
100
AcDbEntity
  8
AM_6
100
AcDbText
 10
5.252590742770462
 20
-3.935926831760989
 30
0.0
 40
0.5
  1
1/8 x 27PTF
100
AcDbAttributeDefinition
  3

  2
T
 70
     8
280
     0
  0
ATTDEF
  5
9B
330
90
100
AcDbEntity
  8
AM_6
100
AcDbText
 10
5.252590742770462
 20
-4.435926831760989
 30
0.0
 40
0.5
  1
baldor
100
AcDbAttributeDefinition
  3

  2
COMPANY
 70
     8
280
     0
  0
LINE
  5
9E
330
90
100
AcDbEntity
  8
AM_9
100
AcDbLine
 10
-0.1262953713852306
 20
-1.434499768689828
 30
0.0
 11
-0.1262953713852306
 21
-1.363602771688616
 31
0.0
  0
LINE
  5
9F
330
90
100
AcDbEntity
  8
AM_9
100
AcDbLine
 10
0.1262953713852306
 20
-1.434499768689828
 30
0.0
 11
0.1262953713852306
 21
-1.363602771688616
 31
0.0
  0
LWPOLYLINE
  5
A0
330
90
100
AcDbEntity
  8
AM_9
100
AcDbPolyline
 90
        3
 70
     0
 43
0.0
 10
0.1262953713852306
 20
-1.363602771688616
 10
0.0634316146914367
 20
-1.357841039944442
 10
0.0
 20
-1.35575
  0
LWPOLYLINE
  5
A1
330
90
100
AcDbEntity
  8
AM_9
100
AcDbPolyline
 90
        4
 70
     0
 43
0.0
 10
0.0
 20
-1.35575
 10
-0.0483998160558989
 20
-1.356977643592447
 10
-0.0967996321117978
 20
-1.360497908514478
 10
-0.1262953713852306
 20
-1.363602771688616
  0
LWPOLYLINE
  5
A2
330
90
100
AcDbEntity
  8
AM_9
100
AcDbPolyline
 90
        3
 70
     0
 43
0.0
 10
-0.1262953713852306
 20
-1.363602771688616
 10
-0.1577272497321276
 20
-1.330620234807367
 10
-0.1894430570778459
 20
-1.3010625
  0
LWPOLYLINE
  5
A3
330
90
100
AcDbEntity
  8
AM_9
100
AcDbPolyline
 90
        3
 70
     0
 43
0.0
 10
0.1894430570778459
 20
-1.3010625
 10
0.1578692142315383
 20
-1.330478978560769
 10
0.1262953713852306
 20
-1.363602771688616
  0
LWPOLYLINE
  5
A4
330
90
100
AcDbEntity
  8
AM_9
100
AcDbPolyline
 90
        4
 70
     0
 43
0.0
 10
-0.1019341979784574
 20
-1.437111883949302
 10
-0.0967996321117978
 20
-1.437604631863965
 10
-0.0485424412477544
 20
-1.44111773689851
 10
0.0
 20
-1.442352540378443
  0
LINE
  5
A5
330
90
100
AcDbEntity
  8
AM_9
100
AcDbLine
 10
-0.1050087569988763
 20
-1.436806822993173
 30
0.0
 11
-0.1019341979784574
 21
-1.437111883949302
 31
0.0
  0
LINE
  5
A6
330
90
100
AcDbEntity
  8
AM_9
100
AcDbLine
 10
0.101866192704947
 20
-1.437118547533002
 30
0.0
 11
0.105047408358816
 21
-1.436802940950328
 31
0.0
  0
LWPOLYLINE
  5
A7
330
90
100
AcDbEntity
  8
AM_9
100
AcDbPolyline
 90
        3
 70
     0
 43
0.0
 10
0.0
 20
-1.442352540378443
 10
0.0631476856926153
 20
-1.440279811817674
 10
0.101866192704947
 20
-1.437118547533002
  0
LWPOLYLINE
  5
A8
330
90
100
AcDbEntity
  8
AM_9
100
AcDbPolyline
 90
        3
 70
     0
 43
0.0
 10
0.2525907427704612
 20
-1.254227771688616
 10
0.2211588644235643
 20
-1.275686845081517
 10
0.1894430570778459
 20
-1.3010625
  0
LWPOLYLINE
  5
A9
330
90
100
AcDbEntity
  8
AM_9
100
AcDbPolyline
 90
        3
 70
     0
 43
0.0
 10
-0.1894430570778459
 20
-1.3010625
 10
-0.2210168999241536
 20
-1.275791478560769
 10
-0.2525907427704612
 20
-1.254227771688616
  0
LINE
  5
AA
330
90
100
AcDbEntity
  8
AM_9
100
AcDbLine
 10
-0.1321931418159853
 20
-0.9701409344949044
 30
0.0
 11
-0.1621706131788416
 21
-0.9913382077784055
 31
0.0
  0
LINE
  5
AB
330
90
100
AcDbEntity
  8
AM_9
100
AcDbLine
 10
0.1621706131788416
 20
-0.9913382077784055
 30
0.0
 11
0.1321931418159853
 21
-0.9701409344949044
 31
0.0
  0
LINE
  5
AC
330
90
100
AcDbEntity
  8
AM_9
100
AcDbLine
 10
-0.1985852938306408
 20
-1.046882339313555
 30
0.0
 11
-0.2057184028850727
 21
-1.24451879922237
 31
0.0
  0
LINE
  5
AD
330
90
100
AcDbEntity
  8
AM_9
100
AcDbLine
 10
0.2057184028850727
 20
-1.24451879922237
 30
0.0
 11
0.1985852938306408
 21
-1.046882339313555
 31
0.0
  0
LINE
  5
AE
330
90
100
AcDbEntity
  8
AM_9
100
AcDbLine
 10
0.1017810272422101
 20
-1.436810374164287
 30
0.0
 11
0.105
 21
-1.430507979524759
 31
0.0
  0
LINE
  5
AF
330
90
100
AcDbEntity
  8
AM_9
100
AcDbLine
 10
-0.105
 20
-1.430507979524759
 30
0.0
 11
-0.1017810272422101
 21
-1.436810374164287
 31
0.0
  0
ELLIPSE
  5
B0
330
90
100
AcDbEntity
  8
AM_9
100
AcDbEllipse
 10
0.0
 20
-1.423910207775809
 30
0.0
 11
-0.1050000000000001
 21
1.285879139104722E-17
 31
0.0
210
0.0
220
0.0
230
1.0
 40
0.5000000000000122
 41
0.0
 42
3.141592653589793
  0
LINE
  5
B1
330
90
100
AcDbEntity
  8
AM_9
100
AcDbLine
 10
-0.105
 20
-1.442148436588269
 30
0.0
 11
-0.105
 21
-1.449890969889343
 31
0.0
  0
LINE
  5
B2
330
90
100
AcDbEntity
  8
AM_9
100
AcDbLine
 10
0.105
 20
-1.449890969889343
 30
0.0
 11
0.105
 21
-1.442148436588269
 31
0.0
  0
ELLIPSE
  5
B3
330
90
100
AcDbEntity
  8
AM_9
100
AcDbEllipse
 10
0.0
 20
-1.449890969889343
 30
0.0
 11
-0.1049999999999996
 21
1.285879139104716E-17
 31
0.0
210
0.0
220
0.0
230
1.0
 40
0.5000000000000038
 41
5.990342535451018
 42
9.717620732497949
  0
LINE
  5
B4
330
90
100
AcDbEntity
  8
AM_9
100
AcDbLine
 10
0.0976523208201058
 20
-1.429829707637192
 30
0.0
 11
0.1098343496897826
 21
-1.421042854510342
 31
0.0
  0
LINE
  5
B5
330
90
100
AcDbEntity
  8
AM_9
100
AcDbLine
 10
-0.1098343496897826
 20
-1.421042854510342
 30
0.0
 11
-0.0976523208201058
 21
-1.429829707637192
 31
0.0
  0
ELLIPSE
  5
B6
330
90
100
AcDbEntity
  8
AM_9
100
AcDbEllipse
 10
0.0000000000000021
 20
-1.395983591904748
 30
0.0
 11
-0.1188200907348953
 21
1.770557339659543E-9
 31
0.0
210
0.0
220
0.0
230
1.0
 40
0.4999999999999897
 41
0.25003292153262
 42
2.891559788924861
  0
ELLIPSE
  5
B7
330
90
100
AcDbEntity
  8
AM_9
100
AcDbEllipse
 10
0.0
 20
-1.348841565666415
 30
0.0
 11
-0.1725340532830156
 21
2.112932760969639E-17
 31
0.0
210
0.0
220
0.0
230
1.0
 40
0.4999999999999986
 41
0.6061451401950855
 42
2.535447513394709
  0
ELLIPSE
  5
B8
330
90
100
AcDbEntity
  8
AM_9
100
AcDbEllipse
 10
0.0
 20
-1.332977540378435
 30
0.0
 11
-0.2187500000000069
 21
3.259629037943426E-9
 31
0.0
210
0.0
220
0.0
230
1.0
 40
0.5000000000000249
 41
1.065244650944142
 42
2.076348028031433
  0
ELLIPSE
  5
B9
330
90
100
AcDbEntity
  8
AM_9
100
AcDbEllipse
 10
-0.0000000000022656
 20
-1.332977540376866
 30
0.0
 11
-0.2137499999954404
 21
3.185123231293818E-9
 31
0.0
210
0.0
220
0.0
230
1.0
 40
0.5000000000144171
 41
1.04297213729202
 42
2.098620542557101
  0
ELLIPSE
  5
BA
330
90
100
AcDbEntity
  8
AM_9
100
AcDbEllipse
 10
0.0
 20
-1.50185249411641
 30
0.0
 11
-0.1349999999999995
 21
1.653273178848921E-17
 31
0.0
210
0.0
220
0.0
230
1.0
 40
0.4999999999999943
 41
0.2354336045415568
 42
2.906159049048238
  0
ELLIPSE
  5
BB
330
90
100
AcDbEntity
  8
AM_9
100
AcDbEllipse
 10
0.0000000000000015
 20
-1.016878267997123
 30
0.0
 11
-0.1619028724722676
 21
1.982738345459246E-17
 31
0.0
210
0.0
220
0.0
230
1.0
 40
0.5000000000000004
 41
0.0
 42
6.283185307179586
  0
ELLIPSE
  5
BC
330
90
100
AcDbEntity
  8
AM_9
100
AcDbEllipse
 10
-0.0000000000000013
 20
-1.246374999999999
 30
0.0
 11
-0.2187500000000016
 21
2.678914873134855E-17
 31
0.0
210
0.0
220
0.0
230
1.0
 40
0.4999999999999932
 41
0.0
 42
6.283185307179586
  0
ELLIPSE
  5
BD
330
90
100
AcDbEntity
  8
AM_9
100
AcDbEllipse
 10
-0.0000000000001283
 20
-1.246374999995792
 30
0.0
 11
-0.2057518972231979
 21
2.519734023528845E-17
 31
0.0
210
0.0
220
0.0
230
1.0
 40
0.4999999999998368
 41
0.0
 42
6.283185307179586
  0
ELLIPSE
  5
BE
330
90
100
AcDbEntity
  8
AM_9
100
AcDbEllipse
 10
-0.0000000000009166
 20
-1.04867417792637
 30
0.0
 11
-0.198617626782132
 21
2.959633296943667E-9
 31
0.0
210
0.0
220
0.0
230
1.0
 40
0.5000000000002672
 41
0.0
 42
6.283185307179586
  0
LWPOLYLINE
  5
C0
330
90
100
AcDbEntity
  8
AM_4
100
AcDbPolyline
 90
        3
 70
     0
 43
0.0
 10
-0.1894430570778459
 20
-1.387665040378444
 10
-0.1578692142315383
 20
-1.412936061817674
 10
-0.1262953713852306
 20
-1.434499768689828
  0
LINE
  5
C1
330
90
100
AcDbEntity
  8
AM_4
100
AcDbLine
 10
-0.1262953713852306
 20
-1.434499768689828
 30
0.0
 11
-0.1050087569988763
 21
-1.436806822993173
 31
0.0
  0
LWPOLYLINE
  5
C2
330
90
100
AcDbEntity
  8
AM_4
100
AcDbPolyline
 90
        3
 70
     0
 43
0.0
 10
0.1262953713852306
 20
-1.434499768689828
 10
0.1577272497321276
 20
-1.413040695296926
 10
0.1894430570778459
 20
-1.387665040378444
  0
LINE
  5
C3
330
90
100
AcDbEntity
  8
AM_4
100
AcDbLine
 10
0.105047408358816
 20
-1.436802940950328
 30
0.0
 11
0.1262953713852306
 21
-1.434499768689828
 31
0.0
  0
LWPOLYLINE
  5
C4
330
90
100
AcDbEntity
  8
AM_4
100
AcDbPolyline
 90
        3
 70
     0
 43
0.0
 10
-0.2525907427704612
 20
-1.325124768689827
 10
-0.2211588644235643
 20
-1.358107305571076
 10
-0.1894430570778459
 20
-1.387665040378444
  0
LWPOLYLINE
  5
C5
330
90
100
AcDbEntity
  8
AM_4
100
AcDbPolyline
 90
        3
 70
     0
 43
0.0
 10
0.1894430570778459
 20
-1.387665040378444
 10
0.2210168999241535
 20
-1.358248561817674
 10
0.2525907427704612
 20
-1.325124768689827
  0
LINE
  5
C6
330
90
100
AcDbEntity
  8
AM_4
100
AcDbLine
 10
0.105
 20
-1.430507979524759
 30
0.0
 11
0.1151252948555658
 21
-1.410683765769945
 31
0.0
  0
LINE
  5
C7
330
90
100
AcDbEntity
  8
AM_4
100
AcDbLine
 10
-0.1151252948555658
 20
-1.410683765769945
 30
0.0
 11
-0.105
 21
-1.430507979524759
 31
0.0
  0
ELLIPSE
  5
C8
330
90
100
AcDbEntity
  8
AM_4
100
AcDbEllipse
 10
0.0000000000000016
 20
-1.395983591904778
 30
0.0
 11
-0.1188200907348959
 21
1.455126437928884E-17
 31
0.0
210
0.0
220
0.0
230
1.0
 40
0.4999999999999666
 41
2.891559760491492
 42
6.53321820027788
  0
ELLIPSE
  5
C9
330
90
100
AcDbEntity
  8
AM_4
100
AcDbEllipse
 10
0.0
 20
-1.42391020777581
 30
0.0
 11
-0.1050000000000004
 21
1.285879139104726E-17
 31
0.0
210
0.0
220
0.0
230
1.0
 40
0.5000000000000044
 41
3.141592653589793
 42
6.283185307179586
  0
LINE
  5
CA
330
90
100
AcDbEntity
  8
AM_4
100
AcDbLine
 10
-0.105
 20
-1.42391020777581
 30
0.0
 11
-0.105
 21
-1.442148436588269
 31
0.0
  0
LINE
  5
CB
330
90
100
AcDbEntity
  8
AM_4
100
AcDbLine
 10
0.105
 20
-1.442148436588269
 30
0.0
 11
0.105
 21
-1.42391020777581
 31
0.0
  0
LINE
  5
CC
330
90
100
AcDbEntity
  8
AM_4
100
AcDbLine
 10
0.1098343496897826
 20
-1.421042854510342
 30
0.0
 11
0.1417971541629018
 21
-1.397988199868485
 31
0.0
  0
LINE
  5
CD
330
90
100
AcDbEntity
  8
AM_4
100
AcDbLine
 10
-0.1417971541629018
 20
-1.397988199868485
 30
0.0
 11
-0.1098343496897826
 21
-1.421042854510342
 31
0.0
  0
ELLIPSE
  5
CE
330
90
100
AcDbEntity
  8
AM_4
100
AcDbEllipse
 10
0.0000000000000008
 20
-1.348841565666414
 30
0.0
 11
-0.1725340532830146
 21
2.570957760527428E-9
 31
0.0
210
0.0
220
0.0
230
1.0
 40
0.500000000000004
 41
2.535447535942501
 42
6.889330469922458
  0
LWPOLYLINE
  5
CF
330
90
100
AcDbEntity
  8
AM_4
100
AcDbPolyline
 90
        3
 70
     0
 43
0.0
 10
0.2525907427704612
 20
-1.325124768689827
 10
0.2211588644235643
 20
-1.303665695296926
 10
0.1894430570778459
 20
-1.278290040378444
  0
LINE
  5
D0
330
90
100
AcDbEntity
  8
AM_4
100
AcDbLine
 10
0.2525907427704612
 20
-1.325124768689827
 30
0.0
 11
0.2525907427704612
 21
-1.254227771688616
 31
0.0
  0
LWPOLYLINE
  5
D1
330
90
100
AcDbEntity
  8
AM_4
100
AcDbPolyline
 90
        3
 70
     0
 43
0.0
 10
0.1894430570778459
 20
-1.1916875
 10
0.2210168999241536
 20
-1.221103978560769
 10
0.2525907427704612
 20
-1.254227771688616
  0
LWPOLYLINE
  5
D2
330
90
100
AcDbEntity
  8
AM_4
100
AcDbPolyline
 90
        3
 70
     0
 43
0.0
 10
0.1262953713852306
 20
-1.144852771688616
 10
0.1577272497321276
 20
-1.166311845081517
 10
0.1894430570778459
 20
-1.1916875
  0
LINE
  5
D3
330
90
100
AcDbEntity
  8
AM_4
100
AcDbLine
 10
0.1262953713852306
 20
-1.215749768689827
 30
0.0
 11
0.1262953713852306
 21
-1.144852771688616
 31
0.0
  0
LWPOLYLINE
  5
D4
330
90
100
AcDbEntity
  8
AM_4
100
AcDbPolyline
 90
        3
 70
     0
 43
0.0
 10
0.0
 20
-1.137
 10
0.0631476856926153
 20
-1.139072728560769
 10
0.1262953713852306
 20
-1.144852771688616
  0
LWPOLYLINE
  5
D5
330
90
100
AcDbEntity
  8
AM_4
100
AcDbPolyline
 90
        4
 70
     0
 43
0.0
 10
-0.1262953713852306
 20
-1.144852771688616
 10
-0.0967996321117978
 20
-1.141747908514478
 10
-0.0485424412477544
 20
-1.138234803479933
 10
0.0
 20
-1.137
  0
LINE
  5
D6
330
90
100
AcDbEntity
  8
AM_4
100
AcDbLine
 10
-0.2525907427704612
 20
-1.325124768689827
 30
0.0
 11
-0.2525907427704612
 21
-1.254227771688616
 31
0.0
  0
LWPOLYLINE
  5
D7
330
90
100
AcDbEntity
  8
AM_4
100
AcDbPolyline
 90
        3
 70
     0
 43
0.0
 10
-0.1894430570778459
 20
-1.278290040378444
 10
-0.2210168999241536
 20
-1.303561061817674
 10
-0.2525907427704612
 20
-1.325124768689827
  0
LINE
  5
D8
330
90
100
AcDbEntity
  8
AM_4
100
AcDbLine
 10
-0.1262953713852306
 20
-1.215749768689827
 30
0.0
 11
-0.1262953713852306
 21
-1.144852771688616
 31
0.0
  0
LWPOLYLINE
  5
D9
330
90
100
AcDbEntity
  8
AM_4
100
AcDbPolyline
 90
        3
 70
     0
 43
0.0
 10
-0.1894430570778459
 20
-1.1916875
 10
-0.1578692142315383
 20
-1.166416478560769
 10
-0.1262953713852306
 20
-1.144852771688616
  0
LWPOLYLINE
  5
DA
330
90
100
AcDbEntity
  8
AM_4
100
AcDbPolyline
 90
        3
 70
     0
 43
0.0
 10
-0.2525907427704612
 20
-1.254227771688616
 10
-0.2211588644235643
 20
-1.221245234807367
 10
-0.1894430570778459
 20
-1.1916875
  0
LWPOLYLINE
  5
DB
330
90
100
AcDbEntity
  8
AM_4
100
AcDbPolyline
 90
        4
 70
     0
 43
0.0
 10
0.0
 20
-1.223602540378443
 10
-0.0483998160558989
 20
-1.222374896785996
 10
-0.0967996321117978
 20
-1.218854631863965
 10
-0.1262953713852306
 20
-1.215749768689827
  0
LWPOLYLINE
  5
DC
330
90
100
AcDbEntity
  8
AM_4
100
AcDbPolyline
 90
        3
 70
     0
 43
0.0
 10
-0.1262953713852306
 20
-1.215749768689827
 10
-0.1577272497321276
 20
-1.248732305571076
 10
-0.1894430570778459
 20
-1.278290040378444
  0
ELLIPSE
  5
DD
330
90
100
AcDbEntity
  8
AM_4
100
AcDbEllipse
 10
0.0000000000000009
 20
-1.332977540378443
 30
0.0
 11
-0.2187500000000007
 21
2.678914873134844E-17
 31
0.0
210
0.0
220
0.0
230
1.0
 40
0.4999999999999962
 41
2.076348015338551
 42
7.348429945430821
  0
LWPOLYLINE
  5
DE
330
90
100
AcDbEntity
  8
AM_4
100
AcDbPolyline
 90
        3
 70
     0
 43
0.0
 10
0.1894430570778459
 20
-1.278290040378444
 10
0.1578692142315383
 20
-1.248873561817674
 10
0.1262953713852306
 20
-1.215749768689827
  0
LWPOLYLINE
  5
DF
330
90
100
AcDbEntity
  8
AM_4
100
AcDbPolyline
 90
        3
 70
     0
 43
0.0
 10
0.1262953713852306
 20
-1.215749768689827
 10
0.0634316146914367
 20
-1.221511500434001
 10
0.0
 20
-1.223602540378443
  0
ELLIPSE
  5
E0
330
90
100
AcDbEntity
  8
AM_4
100
AcDbEllipse
 10
-0.0000000000000008
 20
-1.332977540378443
 30
0.0
 11
-0.2137500000000009
 21
3.185123231361775E-9
 31
0.0
210
0.0
220
0.0
230
1.0
 40
0.5000000000000011
 41
2.098620542542836
 42
7.326157444467563
  0
LINE
  5
E1
330
90
100
AcDbEntity
  8
AM_4
100
AcDbLine
 10
-0.1005298463144155
 20
-1.434735525323115
 30
0.0
 11
-0.1292526595471057
 21
-1.482366922531259
 31
0.0
  0
LINE
  5
E2
330
90
100
AcDbEntity
  8
AM_4
100
AcDbLine
 10
0.1292526595471057
 20
-1.482366922531259
 30
0.0
 11
0.1005298463144155
 21
-1.434735525323115
 31
0.0
  0
ELLIPSE
  5
E3
330
90
100
AcDbEntity
  8
AM_4
100
AcDbEllipse
 10
0.0
 20
-1.449890969889343
 30
0.0
 11
-0.1049999999999996
 21
1.285879139104717E-17
 31
0.0
210
0.0
220
0.0
230
1.0
 40
0.5000000000000038
 41
3.434435425318366
 42
5.990342535451012
  0
LINE
  5
E4
330
90
100
AcDbEntity
  8
AM_4
100
AcDbLine
 10
0.0998453562378797
 20
-1.583110088860362
 30
0.0
 11
0.1312757938985219
 21
-1.517597858007987
 31
0.0
  0
LINE
  5
E5
330
90
100
AcDbEntity
  8
AM_4
100
AcDbLine
 10
-0.1312757938985219
 20
-1.517597858007987
 30
0.0
 11
-0.0998453562378797
 21
-1.583110088860362
 31
0.0
  0
ELLIPSE
  5
E6
330
90
100
AcDbEntity
  8
AM_4
100
AcDbEllipse
 10
0.0
 20
-1.501852494116425
 30
0.0
 11
-0.1350000000000001
 21
1.653273178848928E-17
 31
0.0
210
0.0
220
0.0
230
1.0
 40
0.4999999999999906
 41
2.906159049048463
 42
6.518618911720917
  0
ELLIPSE
  5
E7
330
90
100
AcDbEntity
  8
AM_4
100
AcDbEllipse
 10
-0.0000000000000002
 20
-1.571134526419164
 30
0.0
 11
-0.1026779019331875
 21
1.257441639456439E-17
 31
0.0
210
0.0
220
0.0
230
1.0
 40
0.4999999999999917
 41
0.0
 42
6.283185307179586
  0
ENDBLK
  5
93
330
90
100
AcDbEntity
  8
0
100
AcDbBlockEnd
  0
BLOCK
  5
EA
330
E8
100
AcDbEntity
  8
0
100
AcDbBlockBegin
  2
3_ASME_B18_3_1_4_1_0_in_069895_4
 70
     2
 10
0.0
 20
0.0
 30
0.0
  3
3_ASME_B18_3_1_4_1_0_in_069895_4
  1

  0
ATTDEF
  5
EC
330
E8
100
AcDbEntity
  8
AM_6
100
AcDbText
 10
5.125
 20
-2.520666666666667
 30
0.0
 40
0.5
  1
ANSI/ASME B18.3-1998
100
AcDbAttributeDefinition
  3

  2
NN
 70
     8
280
     0
  0
ATTDEF
  5
ED
330
E8
100
AcDbEntity
  8
AM_6
100
AcDbText
 10
5.125
 20
-3.020666666666667
 30
0.0
 40
0.5
  1
Socket Button Head Cap Screws
100
AcDbAttributeDefinition
  3

  2
NT
 70
     8
280
     0
  0
ATTDEF
  5
EE
330
E8
100
AcDbEntity
  8
AM_6
100
AcDbText
 10
5.125
 20
-3.520666666666667
 30
0.0
 40
0.5
  1
ASME B18.3-1/4
100
AcDbAttributeDefinition
  3

  2
NB
 70
     8
280
     0
  0
ATTDEF
  5
EF
330
E8
100
AcDbEntity
  8
AM_6
100
AcDbText
 10
5.125
 20
-4.020666666666667
 30
0.0
 40
0.5
  1
ASME B18.3-$NS.
100
AcDbAttributeDefinition
  3

  2
NBSYN
 70
     8
280
     0
  0
ATTDEF
  5
F0
330
E8
100
AcDbEntity
  8
AM_6
100
AcDbText
 10
5.125
 20
-4.520666666666667
 30
0.0
 40
0.5
  1
ASME B18.3-1/4
100
AcDbAttributeDefinition
  3

  2
LINA
 70
     8
280
     0
  0
ATTDEF
  5
F1
330
E8
100
AcDbEntity
  8
AM_6
100
AcDbText
 10
5.125
 20
-5.020666666666667
 30
0.0
 40
0.5
  1
1/4
100
AcDbAttributeDefinition
  3

  2
NS
 70
     8
280
     0
  0
ATTDEF
  5
F2
330
E8
100
AcDbEntity
  8
AM_6
100
AcDbText
 10
5.125
 20
-5.520666666666667
 30
0.0
 40
0.5
  1
0.437
100
AcDbAttributeDefinition
  3

  2
A
 70
     8
280
     0
  0
ATTDEF
  5
F3
330
E8
100
AcDbEntity
  8
AM_6
100
AcDbText
 10
5.125
 20
-6.020666666666667
 30
0.0
 40
0.5
  1
0.132
100
AcDbAttributeDefinition
  3

  2
H
 70
     8
280
     0
  0
ATTDEF
  5
F4
330
E8
100
AcDbEntity
  8
AM_6
100
AcDbText
 10
5.125
 20
-6.520666666666667
 30
0.0
 40
0.5
  1
0.800
100
AcDbAttributeDefinition
  3

  2
L
 70
     8
280
     0
  0
ATTDEF
  5
F5
330
E8
100
AcDbEntity
  8
AM_6
100
AcDbText
 10
5.125
 20
-7.020666666666667
 30
0.0
 40
0.5
  1
0.031
100
AcDbAttributeDefinition
  3

  2
S
 70
     8
280
     0
  0
ATTDEF
  5
F6
330
E8
100
AcDbEntity
  8
AM_6
100
AcDbText
 10
5.125
 20
-7.520666666666667
 30
0.0
 40
0.5
  1
0.156250
100
AcDbAttributeDefinition
  3

  2
J
 70
     8
280
     0
  0
ATTDEF
  5
F7
330
E8
100
AcDbEntity
  8
AM_6
100
AcDbText
 10
5.125
 20
-8.020666666666667
 30
0.0
 40
0.5
  1
baldor
100
AcDbAttributeDefinition
  3

  2
COMPANY
 70
     8
280
     0
  0
LINE
  5
F9
330
E8
100
AcDbEntity
  8
AM_5
100
AcDbLine
 10
0.125
 20
-2.520666666666667
 30
0.0
 11
-0.125
 21
-2.520666666666667
 31
0.0
  0
LINE
  5
FA
330
E8
100
AcDbEntity
  8
AM_5
100
AcDbLine
 10
0.1064
 20
-2.520666666666667
 30
0.0
 11
0.1249999999999999
 21
-2.552882811687448
 31
0.0
  0
ENDBLK
  5
EB
330
E8
100
AcDbEntity
  8
0
100
AcDbBlockEnd
  0
BLOCK
  5
FD
330
FB
100
AcDbEntity
  8
0
100
AcDbBlockBegin
  2
4_ASME_B18_3_1_4_2_0_in_069895_4
 70
     2
 10
0.0
 20
0.0
 30
0.0
  3
4_ASME_B18_3_1_4_2_0_in_069895_4
  1

  0
ATTDEF
  5
FF
330
FB
100
AcDbEntity
  8
AM_6
100
AcDbText
 10
5.2185
 20
-1.800666666666666
 30
0.0
 40
0.5
  1
ANSI/ASME B18.3-1998
100
AcDbAttributeDefinition
  3

  2
NN
 70
     8
280
     0
  0
ATTDEF
  5
100
330
FB
100
AcDbEntity
  8
AM_6
100
AcDbText
 10
5.2185
 20
-2.300666666666666
 30
0.0
 40
0.5
  1
Socket Button Head Cap Screws
100
AcDbAttributeDefinition
  3

  2
NT
 70
     8
280
     0
  0
ATTDEF
  5
101
330
FB
100
AcDbEntity
  8
AM_6
100
AcDbText
 10
5.2185
 20
-2.800666666666666
 30
0.0
 40
0.5
  1
ASME B18.3-1/4
100
AcDbAttributeDefinition
  3

  2
NB
 70
     8
280
     0
  0
ATTDEF
  5
102
330
FB
100
AcDbEntity
  8
AM_6
100
AcDbText
 10
5.2185
 20
-3.300666666666666
 30
0.0
 40
0.5
  1
ASME B18.3-$NS.
100
AcDbAttributeDefinition
  3

  2
NBSYN
 70
     8
280
     0
  0
ATTDEF
  5
103
330
FB
100
AcDbEntity
  8
AM_6
100
AcDbText
 10
5.2185
 20
-3.800666666666666
 30
0.0
 40
0.5
  1
ASME B18.3-1/4
100
AcDbAttributeDefinition
  3

  2
LINA
 70
     8
280
     0
  0
ATTDEF
  5
104
330
FB
100
AcDbEntity
  8
AM_6
100
AcDbText
 10
5.2185
 20
-4.300666666666666
 30
0.0
 40
0.5
  1
1/4
100
AcDbAttributeDefinition
  3

  2
NS
 70
     8
280
     0
  0
ATTDEF
  5
105
330
FB
100
AcDbEntity
  8
AM_6
100
AcDbText
 10
5.2185
 20
-4.800666666666666
 30
0.0
 40
0.5
  1
0.437
100
AcDbAttributeDefinition
  3

  2
A
 70
     8
280
     0
  0
ATTDEF
  5
106
330
FB
100
AcDbEntity
  8
AM_6
100
AcDbText
 10
5.2185
 20
-5.300666666666666
 30
0.0
 40
0.5
  1
0.132
100
AcDbAttributeDefinition
  3

  2
H
 70
     8
280
     0
  0
ATTDEF
  5
107
330
FB
100
AcDbEntity
  8
AM_6
100
AcDbText
 10
5.2185
 20
-5.800666666666666
 30
0.0
 40
0.5
  1
0.800
100
AcDbAttributeDefinition
  3

  2
L
 70
     8
280
     0
  0
ATTDEF
  5
108
330
FB
100
AcDbEntity
  8
AM_6
100
AcDbText
 10
5.2185
 20
-6.300666666666666
 30
0.0
 40
0.5
  1
0.031
100
AcDbAttributeDefinition
  3

  2
S
 70
     8
280
     0
  0
ATTDEF
  5
109
330
FB
100
AcDbEntity
  8
AM_6
100
AcDbText
 10
5.2185
 20
-6.800666666666666
 30
0.0
 40
0.5
  1
0.156250
100
AcDbAttributeDefinition
  3

  2
J
 70
     8
280
     0
  0
ATTDEF
  5
10A
330
FB
100
AcDbEntity
  8
AM_6
100
AcDbText
 10
5.2185
 20
-7.300666666666666
 30
0.0
 40
0.5
  1
baldor
100
AcDbAttributeDefinition
  3

  2
COMPANY
 70
     8
280
     0
  0
LINE
  5
10B
330
FB
100
AcDbEntity
  8
AM_9
100
AcDbLine
 10
0.078125
 20
-2.662666666666667
 30
0.0
 11
0.078125
 21
-2.732666666666667
 31
0.0
  0
LINE
  5
10C
330
FB
100
AcDbEntity
  8
AM_9
100
AcDbLine
 10
-0.078125
 20
-2.662666666666667
 30
0.0
 11
-0.078125
 21
-2.732666666666667
 31
0.0
  0
LINE
  5
10D
330
FB
100
AcDbEntity
  8
AM_9
100
AcDbLine
 10
0.0
 20
-2.662666666666667
 30
0.0
 11
0.0
 21
-2.732666666666667
 31
0.0
  0
LINE
  5
10E
330
FB
100
AcDbEntity
  8
AM_9
100
AcDbLine
 10
-0.078125
 20
-2.662666666666667
 30
0.0
 11
0.078125
 21
-2.662666666666667
 31
0.0
  0
LINE
  5
10F
330
FB
100
AcDbEntity
  8
AM_9
100
AcDbLine
 10
-0.1064
 20
-1.800666666666666
 30
0.0
 11
-0.125
 21
-1.819266666666667
 31
0.0
  0
LINE
  5
110
330
FB
100
AcDbEntity
  8
AM_9
100
AcDbLine
 10
0.125
 20
-1.819266666666667
 30
0.0
 11
0.1064
 21
-1.800666666666666
 31
0.0
  0
LINE
  5
111
330
FB
100
AcDbEntity
  8
AM_9
100
AcDbLine
 10
-0.1064
 20
-1.800666666666666
 30
0.0
 11
0.1064
 21
-1.800666666666666
 31
0.0
  0
LINE
  5
112
330
FB
100
AcDbEntity
  8
AM_9
100
AcDbLine
 10
0.125
 20
-2.600666666666667
 30
0.0
 11
0.125
 21
-1.819266666666667
 31
0.0
  0
LINE
  5
113
330
FB
100
AcDbEntity
  8
AM_9
100
AcDbLine
 10
-0.125
 20
-1.819266666666667
 30
0.0
 11
-0.125
 21
-2.600666666666667
 31
0.0
  0
LINE
  5
114
330
FB
100
AcDbEntity
  8
AM_9
100
AcDbLine
 10
-0.125
 20
-1.819266666666667
 30
0.0
 11
0.125
 21
-1.819266666666667
 31
0.0
  0
LINE
  5
115
330
FB
100
AcDbEntity
  8
AM_5
100
AcDbLine
 10
-0.1250000001014273
 20
-2.520666666666667
 30
0.0
 11
0.1250000001014271
 21
-2.520666666666667
 31
0.0
  0
LINE
  5
116
330
FB
100
AcDbEntity
  8
AM_5
100
AcDbLine
 10
-0.1064
 20
-2.520666666666667
 30
0.0
 11
-0.1250000062704235
 21
-2.55288282254814
 31
0.0
  0
LINE
  5
117
330
FB
100
AcDbEntity
  8
AM_4
100
AcDbLine
 10
0.2185
 20
-2.631666666666667
 30
0.0
 11
0.2185
 21
-2.600666666666667
 31
0.0
  0
LINE
  5
118
330
FB
100
AcDbEntity
  8
AM_4
100
AcDbLine
 10
-0.2185
 20
-2.600666666666667
 30
0.0
 11
-0.2185
 21
-2.631666666666667
 31
0.0
  0
LINE
  5
119
330
FB
100
AcDbEntity
  8
AM_4
100
AcDbLine
 10
-0.1174999937798297
 20
-2.732666666666667
 30
0.0
 11
0.1175
 21
-2.732666666666667
 31
0.0
  0
ARC
  5
11A
330
FB
100
AcDbEntity
  8
AM_4
100
AcDbCircle
 10
0.1174999999999992
 20
-2.631666666666666
 30
0.0
 40
0.1010000000000009
100
AcDbArc
 50
270.0
 51
0.0
  0
ARC
  5
11B
330
FB
100
AcDbEntity
  8
AM_4
100
AcDbCircle
 10
-0.1174999999999992
 20
-2.631666666666666
 30
0.0
 40
0.1010000000000009
100
AcDbArc
 50
180.0
 51
270.0
  0
LINE
  5
11C
330
FB
100
AcDbEntity
  8
AM_4
100
AcDbLine
 10
-0.2185
 20
-2.631666666666667
 30
0.0
 11
0.2185
 21
-2.631666666666667
 31
0.0
  0
ENDBLK
  5
FE
330
FB
100
AcDbEntity
  8
0
100
AcDbBlockEnd
  0
BLOCK
  5
11F
330
11D
100
AcDbEntity
  8
0
100
AcDbBlockBegin
  2
5_070906LW_0_in_069895_4
 70
     2
 10
0.0
 20
0.0
 30
0.0
  3
5_070906LW_0_in_069895_4
  1

  0
ATTDEF
  5
121
330
11D
100
AcDbEntity
  8
AM_6
100
AcDbText
 10
7.781249999999999
 20
-2.100666666666667
 30
0.0
 40
0.5
  1
Imperial Insert Lockwasher -Inch
100
AcDbAttributeDefinition
  3

  2
NN
 70
     8
280
     0
  0
ATTDEF
  5
122
330
11D
100
AcDbEntity
  8
AM_6
100
AcDbText
 10
7.781249999999999
 20
-2.600666666666667
 30
0.0
 40
0.5
  1
Imperial Bearings
100
AcDbAttributeDefinition
  3

  2
NT
 70
     8
280
     0
  0
ATTDEF
  5
123
330
11D
100
AcDbEntity
  8
AM_6
100
AcDbText
 10
7.781249999999999
 20
-3.100666666666667
 30
0.0
 40
0.5
  1
070906LW
100
AcDbAttributeDefinition
  3

  2
NB
 70
     8
280
     0
  0
ATTDEF
  5
124
330
11D
100
AcDbEntity
  8
AM_6
100
AcDbText
 10
7.781249999999999
 20
-3.600666666666667
 30
0.0
 40
0.5
  1
$PN.LW
100
AcDbAttributeDefinition
  3

  2
NBSYN
 70
     8
280
     0
  0
ATTDEF
  5
125
330
11D
100
AcDbEntity
  8
AM_6
100
AcDbText
 10
7.781249999999999
 20
-4.100666666666667
 30
0.0
 40
0.5
  1
070906
100
AcDbAttributeDefinition
  3

  2
LINA
 70
     8
280
     0
  0
ATTDEF
  5
126
330
11D
100
AcDbEntity
  8
AM_6
100
AcDbText
 10
7.781249999999999
 20
-4.600666666666667
 30
0.0
 40
0.5
  1
3-15/16
100
AcDbAttributeDefinition
  3

  2
SS
 70
     8
280
     0
  0
ATTDEF
  5
127
330
11D
100
AcDbEntity
  8
AM_6
100
AcDbText
 10
7.781249999999999
 20
-5.100666666666667
 30
0.0
 40
0.5
  1
3.937500
100
AcDbAttributeDefinition
  3

  2
SS1
 70
     8
280
     0
  0
ATTDEF
  5
128
330
11D
100
AcDbEntity
  8
AM_6
100
AcDbText
 10
7.781249999999999
 20
-5.600666666666667
 30
0.0
 40
0.5
  1
070906
100
AcDbAttributeDefinition
  3

  2
PN
 70
     8
280
     0
  0
ATTDEF
  5
129
330
11D
100
AcDbEntity
  8
AM_6
100
AcDbText
 10
7.781249999999999
 20
-6.100666666666667
 30
0.0
 40
0.5
  1
INS-IP-315R
100
AcDbAttributeDefinition
  3

  2
DESCRIPTION
 70
     8
280
     0
  0
ATTDEF
  5
12A
330
11D
100
AcDbEntity
  8
AM_6
100
AcDbText
 10
7.781249999999999
 20
-6.600666666666667
 30
0.0
 40
0.5
  1
7.0866
100
AcDbAttributeDefinition
  3

  2
A
 70
     8
280
     0
  0
ATTDEF
  5
12B
330
11D
100
AcDbEntity
  8
AM_6
100
AcDbText
 10
7.781249999999999
 20
-7.100666666666667
 30
0.0
 40
0.5
  1
1-7/8
100
AcDbAttributeDefinition
  3

  2
B
 70
     8
280
     0
  0
ATTDEF
  5
12C
330
11D
100
AcDbEntity
  8
AM_6
100
AcDbText
 10
7.781249999999999
 20
-7.600666666666667
 30
0.0
 40
0.5
  1
4-45/64
100
AcDbAttributeDefinition
  3

  2
C
 70
     8
280
     0
  0
ATTDEF
  5
12D
330
11D
100
AcDbEntity
  8
AM_6
100
AcDbText
 10
7.781249999999999
 20
-8.100666666666667
 30
0.0
 40
0.5
  1
1.646
100
AcDbAttributeDefinition
  3

  2
D
 70
     8
280
     0
  0
ATTDEF
  5
12E
330
11D
100
AcDbEntity
  8
AM_6
100
AcDbText
 10
7.781249999999999
 20
-8.600666666666667
 30
0.0
 40
0.5
  1
5-9/16
100
AcDbAttributeDefinition
  3

  2
E
 70
     8
280
     0
  0
ATTDEF
  5
12F
330
11D
100
AcDbEntity
  8
AM_6
100
AcDbText
 10
7.781249999999999
 20
-9.100666666666667
 30
0.0
 40
0.5
  1
0.2500
100
AcDbAttributeDefinition
  3

  2
NDM
 70
     8
280
     0
  0
ATTDEF
  5
130
330
11D
100
AcDbEntity
  8
AM_6
100
AcDbText
 10
7.781249999999999
 20
-9.600666666666667
 30
0.0
 40
0.5
  1
0.1960
100
AcDbAttributeDefinition
  3

  2
KDM
 70
     8
280
     0
  0
ATTDEF
  5
131
330
11D
100
AcDbEntity
  8
AM_6
100
AcDbText
 10
7.781249999999999
 20
-10.10066666666667
 30
0.0
 40
0.5
  1
4.83
100
AcDbAttributeDefinition
  3

  2
AL
 70
     8
280
     0
  0
ATTDEF
  5
132
330
11D
100
AcDbEntity
  8
AM_6
100
AcDbText
 10
7.781249999999999
 20
-10.60066666666667
 30
0.0
 40
0.5
  1
0.50
100
AcDbAttributeDefinition
  3

  2
BL
 70
     8
280
     0
  0
ATTDEF
  5
133
330
11D
100
AcDbEntity
  8
AM_6
100
AcDbText
 10
7.781249999999999
 20
-11.10066666666667
 30
0.0
 40
0.5
  1
0.07
100
AcDbAttributeDefinition
  3

  2
CL
 70
     8
280
     0
  0
ATTDEF
  5
134
330
11D
100
AcDbEntity
  8
AM_6
100
AcDbText
 10
7.781249999999999
 20
-11.60066666666667
 30
0.0
 40
0.5
  1
0.50
100
AcDbAttributeDefinition
  3

  2
DL
 70
     8
280
     0
  0
ATTDEF
  5
135
330
11D
100
AcDbEntity
  8
AM_6
100
AcDbText
 10
7.781249999999999
 20
-12.10066666666667
 30
0.0
 40
0.5
  1
baldor
100
AcDbAttributeDefinition
  3

  2
COMPANY
 70
     8
280
     0
  0
LINE
  5
136
330
11D
100
AcDbEntity
  8
AM_9
100
AcDbLine
 10
-2.484375
 20
-2.530666666666666
 30
0.0
 11
-2.484375
 21
-2.600666666666667
 31
0.0
  0
LINE
  5
137
330
11D
100
AcDbEntity
  8
AM_9
100
AcDbLine
 10
-2.609414599272426
 20
-2.530666666666666
 30
0.0
 11
-2.609414599272426
 21
-2.600666666666667
 31
0.0
  0
LINE
  5
138
330
11D
100
AcDbEntity
  8
AM_9
100
AcDbLine
 10
2.484375
 20
-2.530666666666666
 30
0.0
 11
2.484375
 21
-2.600666666666667
 31
0.0
  0
LINE
  5
139
330
11D
100
AcDbEntity
  8
AM_9
100
AcDbLine
 10
2.609414599272426
 20
-2.600666666666667
 30
0.0
 11
2.609414599272426
 21
-2.530666666666666
 31
0.0
  0
LINE
  5
13A
330
11D
100
AcDbEntity
  8
AM_9
100
AcDbLine
 10
-2.124704572769724
 20
-2.530666666666666
 30
0.0
 11
-2.124704572769724
 21
-2.600666666666667
 31
0.0
  0
LINE
  5
13B
330
11D
100
AcDbEntity
  8
AM_9
100
AcDbLine
 10
2.124704572769724
 20
-2.530666666666666
 30
0.0
 11
2.124704572769724
 21
-2.600666666666667
 31
0.0
  0
LINE
  5
13C
330
11D
100
AcDbEntity
  8
AM_9
100
AcDbLine
 10
-1.590781359071856
 20
-2.530666666666666
 30
0.0
 11
-1.590781359071856
 21
-2.600666666666667
 31
0.0
  0
LINE
  5
13D
330
11D
100
AcDbEntity
  8
AM_9
100
AcDbLine
 10
1.590781359071856
 20
-2.530666666666666
 30
0.0
 11
1.590781359071856
 21
-2.600666666666667
 31
0.0
  0
LINE
  5
13E
330
11D
100
AcDbEntity
  8
AM_9
100
AcDbLine
 10
-1.41400466377522
 20
-2.530666666666666
 30
0.0
 11
-1.41400466377522
 21
-2.600666666666667
 31
0.0
  0
LINE
  5
13F
330
11D
100
AcDbEntity
  8
AM_9
100
AcDbLine
 10
1.414004663775219
 20
-2.530666666666666
 30
0.0
 11
1.41400466377522
 21
-2.600666666666667
 31
0.0
  0
LINE
  5
140
330
11D
100
AcDbEntity
  8
AM_9
100
AcDbLine
 10
-0.9285741802332311
 20
-2.530666666666666
 30
0.0
 11
-0.9285741802332311
 21
-2.600666666666667
 31
0.0
  0
LINE
  5
141
330
11D
100
AcDbEntity
  8
AM_9
100
AcDbLine
 10
-0.8673728304450146
 20
-2.100666666666667
 30
0.0
 11
-0.8673728304450146
 21
-2.600666666666667
 31
0.0
  0
LINE
  5
142
330
11D
100
AcDbEntity
  8
AM_9
100
AcDbLine
 10
-1.845106757158647
 20
-2.530666666666666
 30
0.0
 11
-1.845106757158647
 21
-2.600666666666667
 31
0.0
  0
LINE
  5
143
330
11D
100
AcDbEntity
  8
AM_9
100
AcDbLine
 10
-1.668330061861998
 20
-2.530666666666666
 30
0.0
 11
-1.668330061861998
 21
-2.600666666666667
 31
0.0
  0
LINE
  5
144
330
11D
100
AcDbEntity
  8
AM_9
100
AcDbLine
 10
-1.881746412260957
 20
-2.530666666666666
 30
0.0
 11
-1.881746412260957
 21
-2.600666666666667
 31
0.0
  0
LINE
  5
145
330
11D
100
AcDbEntity
  8
AM_9
100
AcDbLine
 10
1.66833006186201
 20
-2.530666666666666
 30
0.0
 11
1.66833006186201
 21
-2.600666666666667
 31
0.0
  0
LINE
  5
146
330
11D
100
AcDbEntity
  8
AM_9
100
AcDbLine
 10
1.845106757158647
 20
-2.530666666666666
 30
0.0
 11
1.845106757158647
 21
-2.600666666666667
 31
0.0
  0
LINE
  5
147
330
11D
100
AcDbEntity
  8
AM_9
100
AcDbLine
 10
1.881746412260956
 20
-2.600666666666667
 30
0.0
 11
1.881746412260956
 21
-2.530666666666666
 31
0.0
  0
LINE
  5
148
330
11D
100
AcDbEntity
  8
AM_9
100
AcDbLine
 10
-0.6976042971054086
 20
-2.530666666666666
 30
0.0
 11
-0.6976042971054086
 21
-2.600666666666667
 31
0.0
  0
LINE
  5
149
330
11D
100
AcDbEntity
  8
AM_9
100
AcDbLine
 10
-0.6364029473171935
 20
-2.100666666666667
 30
0.0
 11
-0.9071020317021952
 21
-2.100666666666667
 31
0.0
  0
LINE
  5
14A
330
11D
100
AcDbEntity
  8
AM_9
100
AcDbLine
 10
-0.6364029473171935
 20
-2.100666666666667
 30
0.0
 11
-0.6364029473171935
 21
-2.600666666666667
 31
0.0
  0
LINE
  5
14B
330
11D
100
AcDbEntity
  8
AM_9
100
AcDbLine
 10
-0.6761321485743734
 20
-2.530666666666666
 30
0.0
 11
-0.6761321485743734
 21
-2.100666666666667
 31
0.0
  0
LINE
  5
14C
330
11D
100
AcDbEntity
  8
AM_9
100
AcDbLine
 10
-0.9071020317021952
 20
-2.100666666666667
 30
0.0
 11
-0.9071020317021952
 21
-2.530666666666666
 31
0.0
  0
LINE
  5
14D
330
11D
100
AcDbEntity
  8
AM_9
100
AcDbLine
 10
-0.1250000000000004
 20
-2.530666666666666
 30
0.0
 11
-0.1250000000000004
 21
-2.600666666666667
 31
0.0
  0
LINE
  5
14E
330
11D
100
AcDbEntity
  8
AM_9
100
AcDbLine
 10
0.1249999999999998
 20
-2.530666666666666
 30
0.0
 11
0.1249999999999998
 21
-2.600666666666667
 31
0.0
  0
LINE
  5
14F
330
11D
100
AcDbEntity
  8
AM_4
100
AcDbLine
 10
-2.781249999999999
 20
-2.530666666666666
 30
0.0
 11
-2.781249999999999
 21
-2.600666666666667
 31
0.0
  0
LINE
  5
150
330
11D
100
AcDbEntity
  8
AM_4
100
AcDbLine
 10
2.781249999999999
 20
-2.600666666666667
 30
0.0
 11
2.781249999999999
 21
-2.530666666666666
 31
0.0
  0
LINE
  5
151
330
11D
100
AcDbEntity
  8
AM_4
100
AcDbLine
 10
-2.781249999999999
 20
-2.600666666666667
 30
0.0
 11
2.781249999999999
 21
-2.600666666666667
 31
0.0
  0
LINE
  5
152
330
11D
100
AcDbEntity
  8
AM_4
100
AcDbLine
 10
-2.781249999999999
 20
-2.530666666666666
 30
0.0
 11
2.781249999999999
 21
-2.530666666666666
 31
0.0
  0
ENDBLK
  5
120
330
11D
100
AcDbEntity
  8
0
100
AcDbBlockEnd
  0
BLOCK
  5
155
330
153
100
AcDbEntity
  8
0
100
AcDbBlockBegin
  2
6_070938I_0_in_069895_4
 70
     2
 10
0.0
 20
0.0
 30
0.0
  3
6_070938I_0_in_069895_4
  1

  0
ATTDEF
  5
157
330
153
100
AcDbEntity
  8
AM_6
100
AcDbText
 10
8.5433
 20
1.853125
 30
0.0
 40
0.5
  1
Imperial Insert -Inch
100
AcDbAttributeDefinition
  3

  2
NN
 70
     8
280
     0
  0
ATTDEF
  5
158
330
153
100
AcDbEntity
  8
AM_6
100
AcDbText
 10
8.5433
 20
1.353125
 30
0.0
 40
0.5
  1
Imperial Bearings
100
AcDbAttributeDefinition
  3

  2
NT
 70
     8
280
     0
  0
ATTDEF
  5
159
330
153
100
AcDbEntity
  8
AM_6
100
AcDbText
 10
8.5433
 20
0.8531250000000001
 30
0.0
 40
0.5
  1
070938I
100
AcDbAttributeDefinition
  3

  2
NB
 70
     8
280
     0
  0
ATTDEF
  5
15A
330
153
100
AcDbEntity
  8
AM_6
100
AcDbText
 10
8.5433
 20
0.3531250000000001
 30
0.0
 40
0.5
  1
$PN.I
100
AcDbAttributeDefinition
  3

  2
NBSYN
 70
     8
280
     0
  0
ATTDEF
  5
15B
330
153
100
AcDbEntity
  8
AM_6
100
AcDbText
 10
8.5433
 20
-0.1468749999999999
 30
0.0
 40
0.5
  1
070938
100
AcDbAttributeDefinition
  3

  2
LINA
 70
     8
280
     0
  0
ATTDEF
  5
15C
330
153
100
AcDbEntity
  8
AM_6
100
AcDbText
 10
8.5433
 20
-0.6468749999999999
 30
0.0
 40
0.5
  1
3-15/16
100
AcDbAttributeDefinition
  3

  2
SS
 70
     8
280
     0
  0
ATTDEF
  5
15D
330
153
100
AcDbEntity
  8
AM_6
100
AcDbText
 10
8.5433
 20
-1.146875
 30
0.0
 40
0.5
  1
3.937500
100
AcDbAttributeDefinition
  3

  2
SS1
 70
     8
280
     0
  0
ATTDEF
  5
15E
330
153
100
AcDbEntity
  8
AM_6
100
AcDbText
 10
8.5433
 20
-1.646875
 30
0.0
 40
0.5
  1
070938
100
AcDbAttributeDefinition
  3

  2
PN
 70
     8
280
     0
  0
ATTDEF
  5
15F
330
153
100
AcDbEntity
  8
AM_6
100
AcDbText
 10
8.5433
 20
-2.146875
 30
0.0
 40
0.5
  1
INS-IP-315L
100
AcDbAttributeDefinition
  3

  2
DESCRIPTION
 70
     8
280
     0
  0
ATTDEF
  5
160
330
153
100
AcDbEntity
  8
AM_6
100
AcDbText
 10
8.5433
 20
-2.646875
 30
0.0
 40
0.5
  1
Labyrinth Seal
100
AcDbAttributeDefinition
  3

  2
ST
 70
     8
280
     0
  0
ATTDEF
  5
161
330
153
100
AcDbEntity
  8
AM_6
100
AcDbText
 10
8.5433
 20
-3.146875
 30
0.0
 40
0.5
  1
7.0866
100
AcDbAttributeDefinition
  3

  2
A
 70
     8
280
     0
  0
ATTDEF
  5
162
330
153
100
AcDbEntity
  8
AM_6
100
AcDbText
 10
8.5433
 20
-3.646875
 30
0.0
 40
0.5
  1
1-7/8
100
AcDbAttributeDefinition
  3

  2
B
 70
     8
280
     0
  0
ATTDEF
  5
163
330
153
100
AcDbEntity
  8
AM_6
100
AcDbText
 10
8.5433
 20
-4.146875
 30
0.0
 40
0.5
  1
4-45/64
100
AcDbAttributeDefinition
  3

  2
C
 70
     8
280
     0
  0
ATTDEF
  5
164
330
153
100
AcDbEntity
  8
AM_6
100
AcDbText
 10
8.5433
 20
-4.646875
 30
0.0
 40
0.5
  1
1.646
100
AcDbAttributeDefinition
  3

  2
D
 70
     8
280
     0
  0
ATTDEF
  5
165
330
153
100
AcDbEntity
  8
AM_6
100
AcDbText
 10
8.5433
 20
-5.146875
 30
0.0
 40
0.5
  1
5-9/16
100
AcDbAttributeDefinition
  3

  2
E
 70
     8
280
     0
  0
ATTDEF
  5
166
330
153
100
AcDbEntity
  8
AM_6
100
AcDbText
 10
8.5433
 20
-5.646875
 30
0.0
 40
0.5
  1
0.2500
100
AcDbAttributeDefinition
  3

  2
NDM
 70
     8
280
     0
  0
ATTDEF
  5
167
330
153
100
AcDbEntity
  8
AM_6
100
AcDbText
 10
8.5433
 20
-6.146875
 30
0.0
 40
0.5
  1
0.132
100
AcDbAttributeDefinition
  3

  2
H
 70
     8
280
     0
  0
ATTDEF
  5
168
330
153
100
AcDbEntity
  8
AM_6
100
AcDbText
 10
8.5433
 20
-6.646875
 30
0.0
 40
0.5
  1
0.1960
100
AcDbAttributeDefinition
  3

  2
KDM
 70
     8
280
     0
  0
ATTDEF
  5
169
330
153
100
AcDbEntity
  8
AM_6
100
AcDbText
 10
8.5433
 20
-7.146875
 30
0.0
 40
0.5
  1
4.83
100
AcDbAttributeDefinition
  3

  2
AL
 70
     8
280
     0
  0
ATTDEF
  5
16A
330
153
100
AcDbEntity
  8
AM_6
100
AcDbText
 10
8.5433
 20
-7.646875
 30
0.0
 40
0.5
  1
0.50
100
AcDbAttributeDefinition
  3

  2
BL
 70
     8
280
     0
  0
ATTDEF
  5
16B
330
153
100
AcDbEntity
  8
AM_6
100
AcDbText
 10
8.5433
 20
-8.146875
 30
0.0
 40
0.5
  1
0.07
100
AcDbAttributeDefinition
  3

  2
CL
 70
     8
280
     0
  0
ATTDEF
  5
16C
330
153
100
AcDbEntity
  8
AM_6
100
AcDbText
 10
8.5433
 20
-8.646875
 30
0.0
 40
0.5
  1
0.50
100
AcDbAttributeDefinition
  3

  2
DL
 70
     8
280
     0
  0
ATTDEF
  5
16D
330
153
100
AcDbEntity
  8
AM_6
100
AcDbText
 10
8.5433
 20
-9.146875
 30
0.0
 40
0.5
  1
0.8000
100
AcDbAttributeDefinition
  3

  2
LL
 70
     8
280
     0
  0
ATTDEF
  5
16E
330
153
100
AcDbEntity
  8
AM_6
100
AcDbText
 10
8.5433
 20
-9.646875
 30
0.0
 40
0.5
  1
0.025
100
AcDbAttributeDefinition
  3

  2
Y
 70
     8
280
     0
  0
ATTDEF
  5
16F
330
153
100
AcDbEntity
  8
AM_6
100
AcDbText
 10
8.5433
 20
-10.146875
 30
0.0
 40
0.5
  1
0.025000
100
AcDbAttributeDefinition
  3

  2
Y1
 70
     8
280
     0
  0
ATTDEF
  5
170
330
153
100
AcDbEntity
  8
AM_6
100
AcDbText
 10
8.5433
 20
-10.646875
 30
0.0
 40
0.5
  1
4-1/2
100
AcDbAttributeDefinition
  3

  2
Z
 70
     8
280
     0
  0
ATTDEF
  5
171
330
153
100
AcDbEntity
  8
AM_6
100
AcDbText
 10
8.5433
 20
-11.146875
 30
0.0
 40
0.5
  1
4.500000
100
AcDbAttributeDefinition
  3

  2
Z1
 70
     8
280
     0
  0
ATTDEF
  5
172
330
153
100
AcDbEntity
  8
AM_6
100
AcDbText
 10
8.5433
 20
-11.646875
 30
0.0
 40
0.5
  1
baldor
100
AcDbAttributeDefinition
  3

  2
COMPANY
 70
     8
280
     0
  0
LINE
  5
173
330
153
100
AcDbEntity
  8
AM_9
100
AcDbLine
 10
-0.9091983479225701
 20
1.119625
 30
0.0
 11
-0.9091983479225701
 21
-2.530666666666666
 31
0.0
  0
LINE
  5
174
330
153
100
AcDbEntity
  8
AM_9
100
AcDbLine
 10
1.530886181268876
 20
-2.030666666666666
 30
0.0
 11
1.530886181268876
 21
-2.530666666666666
 31
0.0
  0
LINE
  5
175
330
153
100
AcDbEntity
  8
AM_9
100
AcDbLine
 10
-1.530886181268875
 20
-2.030666666666666
 30
0.0
 11
-1.530886181268875
 21
-2.530666666666666
 31
0.0
  0
LINE
  5
176
330
153
100
AcDbEntity
  8
AM_9
100
AcDbLine
 10
-0.6782284647947485
 20
1.119625
 30
0.0
 11
-0.6782284647947485
 21
-2.530666666666666
 31
0.0
  0
LINE
  5
177
330
153
100
AcDbEntity
  8
AM_9
100
AcDbLine
 10
-0.6364029473171927
 20
1.119625
 30
0.0
 11
-0.6364029473171927
 21
-2.875
 31
0.0
  0
LINE
  5
178
330
153
100
AcDbEntity
  8
AM_9
100
AcDbLine
 10
-0.8673728304450142
 20
-2.600666666666667
 30
0.0
 11
-0.8673728304450142
 21
1.119625
 31
0.0
  0
LINE
  5
179
330
153
100
AcDbEntity
  8
AM_9
100
AcDbLine
 10
-1.96875
 20
1.119625
 30
0.0
 11
-1.96875
 21
-2.874999999999999
 31
0.0
  0
LINE
  5
17A
330
153
100
AcDbEntity
  8
AM_9
100
AcDbLine
 10
1.96875
 20
-2.874999999999999
 30
0.0
 11
1.96875
 21
1.119625
 31
0.0
  0
LINE
  5
17B
330
153
100
AcDbEntity
  8
AM_9
100
AcDbLine
 10
-2.072368421052632
 20
1.828125
 30
0.0
 11
-2.072368421052632
 21
1.119625
 31
0.0
  0
LINE
  5
17C
330
153
100
AcDbEntity
  8
AM_9
100
AcDbLine
 10
2.072368421052632
 20
1.119625
 30
0.0
 11
2.072368421052632
 21
1.828125
 31
0.0
  0
LINE
  5
17D
330
153
100
AcDbEntity
  8
AM_9
100
AcDbLine
 10
-0.6761321485743731
 20
-2.600666666666667
 30
0.0
 11
-0.6761321485743731
 21
-2.530666666666666
 31
0.0
  0
LINE
  5
17E
330
153
100
AcDbEntity
  8
AM_9
100
AcDbLine
 10
-0.9071020317021949
 20
-2.530666666666666
 30
0.0
 11
-0.9071020317021946
 21
-2.600666666666667
 31
0.0
  0
LINE
  5
17F
330
153
100
AcDbEntity
  8
AM_9
100
AcDbLine
 10
-2.072368421052632
 20
-2.530666666666666
 30
0.0
 11
-2.072368421052632
 21
-2.600666666666667
 31
0.0
  0
LINE
  5
180
330
153
100
AcDbEntity
  8
AM_9
100
AcDbLine
 10
2.072368421052632
 20
-2.600666666666667
 30
0.0
 11
2.072368421052632
 21
-2.530666666666666
 31
0.0
  0
LINE
  5
181
330
153
100
AcDbEntity
  8
AM_9
100
AcDbLine
 10
1.530886181268876
 20
-2.030666666666666
 30
0.0
 11
1.794299129942517
 21
-2.030666666666666
 31
0.0
  0
LINE
  5
182
330
153
100
AcDbEntity
  8
AM_9
100
AcDbLine
 10
-1.794299129942516
 20
-2.030666666666666
 30
0.0
 11
-1.530886181268875
 21
-2.030666666666666
 31
0.0
  0
LINE
  5
183
330
153
100
AcDbEntity
  8
AM_9
100
AcDbLine
 10
2.25
 20
1.828125
 30
0.0
 11
-2.25
 21
1.828125
 31
0.0
  0
LINE
  5
184
330
153
100
AcDbEntity
  8
AM_9
100
AcDbLine
 10
-2.25
 20
1.853124999999999
 30
0.0
 11
-2.25
 21
1.828125
 31
0.0
  0
LINE
  5
185
330
153
100
AcDbEntity
  8
AM_9
100
AcDbLine
 10
2.25
 20
1.828125
 30
0.0
 11
2.25
 21
1.853124999999999
 31
0.0
  0
LINE
  5
186
330
153
100
AcDbEntity
  8
AM_9
100
AcDbLine
 10
-2.5
 20
1.795432692307692
 30
0.0
 11
-2.5
 21
1.494625000000001
 31
0.0
  0
LINE
  5
187
330
153
100
AcDbEntity
  8
AM_9
100
AcDbLine
 10
2.5
 20
1.494625000000001
 30
0.0
 11
2.5
 21
1.795432692307692
 31
0.0
  0
LINE
  5
188
330
153
100
AcDbEntity
  8
AM_9
100
AcDbLine
 10
2.442307692307692
 20
1.853125
 30
0.0
 11
-2.442307692293953
 21
1.853125
 31
0.0
  0
LINE
  5
189
330
153
100
AcDbEntity
  8
AM_9
100
AcDbLine
 10
2.5
 20
1.795432692307692
 30
0.0
 11
-2.5
 21
1.795432692307692
 31
0.0
  0
ARC
  5
18A
330
153
100
AcDbEntity
  8
AM_9
100
AcDbCircle
 10
-2.442307692307692
 20
1.795432692307692
 30
0.0
 40
0.0576923076923086
100
AcDbArc
 50
90.0
 51
180.0
  0
ARC
  5
18B
330
153
100
AcDbEntity
  8
AM_9
100
AcDbCircle
 10
2.442307692307692
 20
1.795432692307692
 30
0.0
 40
0.0576923076923084
100
AcDbArc
 50
0.0
 51
90.0
  0
LINE
  5
18C
330
153
100
AcDbEntity
  8
AM_9
100
AcDbLine
 10
0.0
 20
-1.690666666666666
 30
0.0
 11
-0.09795
 21
-1.736341501782949
 31
0.0
  0
LINE
  5
18D
330
153
100
AcDbEntity
  8
AM_9
100
AcDbLine
 10
0.09795
 20
-1.736341501782949
 30
0.0
 11
0.0
 21
-1.690666666666666
 31
0.0
  0
LINE
  5
18E
330
153
100
AcDbEntity
  8
AM_9
100
AcDbLine
 10
0.09795
 20
-1.736341501782949
 30
0.0
 11
-0.09795
 21
-1.736341501782949
 31
0.0
  0
LINE
  5
18F
330
153
100
AcDbEntity
  8
AM_9
100
AcDbLine
 10
-0.09795
 20
-1.736341501782949
 30
0.0
 11
-0.09795
 21
-2.503616666666667
 31
0.0
  0
LINE
  5
190
330
153
100
AcDbEntity
  8
AM_9
100
AcDbLine
 10
0.09795
 20
-2.503616666666667
 30
0.0
 11
0.09795
 21
-1.736341501782949
 31
0.0
  0
LINE
  5
191
330
153
100
AcDbEntity
  8
AM_9
100
AcDbLine
 10
0.09795
 20
-2.503616666666667
 30
0.0
 11
-0.09795
 21
-2.503616666666667
 31
0.0
  0
LINE
  5
192
330
153
100
AcDbEntity
  8
AM_9
100
AcDbLine
 10
-0.09795
 20
-2.503616666666667
 30
0.0
 11
-0.1249999999999999
 21
-2.530666666666666
 31
0.0
  0
LINE
  5
193
330
153
100
AcDbEntity
  8
AM_9
100
AcDbLine
 10
0.1249999999999999
 20
-2.530666666666666
 30
0.0
 11
0.09795
 21
-2.503616666666667
 31
0.0
  0
LINE
  5
194
330
153
100
AcDbEntity
  8
AM_9
100
AcDbLine
 10
2.813967850949646
 20
-1.59375
 30
0.0
 11
2.843244551072289
 21
-0.755375
 31
0.0
  0
LINE
  5
195
330
153
100
AcDbEntity
  8
AM_9
100
AcDbLine
 10
-2.843244551072289
 20
-0.755375
 30
0.0
 11
-2.813967850949646
 21
-1.59375
 31
0.0
  0
LINE
  5
196
330
153
100
AcDbEntity
  8
AM_9
100
AcDbLine
 10
3.069058622134929
 20
1.494625000000001
 30
0.0
 11
-3.069058622134908
 21
1.494625000000001
 31
0.0
  0
ARC
  5
197
330
153
100
AcDbEntity
  8
AM_9
100
AcDbCircle
 10
-3.069058622134921
 20
1.394624999999988
 30
0.0
 40
0.1000000000000127
100
AcDbArc
 50
90.0
 51
149.9999999999959
  0
ARC
  5
198
330
153
100
AcDbEntity
  8
AM_9
100
AcDbCircle
 10
3.069058622134927
 20
1.394624999999999
 30
0.0
 40
0.1000000000000018
100
AcDbArc
 50
30.0000000000003
 51
90.0
  0
LINE
  5
199
330
153
100
AcDbEntity
  8
AM_9
100
AcDbLine
 10
3.155661162513372
 20
1.444625
 30
0.0
 11
-3.155661162513372
 21
1.444625
 31
0.0
  0
LINE
  5
19A
330
153
100
AcDbEntity
  8
AM_9
100
AcDbLine
 10
-3.155661162513372
 20
1.444625
 30
0.0
 11
-3.3433
 21
1.119625
 31
0.0
  0
LINE
  5
19B
330
153
100
AcDbEntity
  8
AM_9
100
AcDbLine
 10
3.3433
 20
1.119625
 30
0.0
 11
3.155661162513372
 21
1.444625
 31
0.0
  0
LINE
  5
19C
330
153
100
AcDbEntity
  8
AM_9
100
AcDbLine
 10
-3.44955
 20
0.2362515877365273
 30
0.0
 11
-3.44955
 21
0.1279984122634728
 31
0.0
  0
LINE
  5
19D
330
153
100
AcDbEntity
  8
AM_9
100
AcDbLine
 10
3.44955
 20
0.1279984122634728
 30
0.0
 11
3.44955
 21
0.2362515877365273
 31
0.0
  0
LINE
  5
19E
330
153
100
AcDbEntity
  8
AM_9
100
AcDbLine
 10
3.44955
 20
0.1279984122634728
 30
0.0
 11
-3.44955
 21
0.1279984122634728
 31
0.0
  0
LINE
  5
19F
330
153
100
AcDbEntity
  8
AM_9
100
AcDbLine
 10
-3.44955
 20
0.1279984122634728
 30
0.0
 11
-3.5433
 21
0.073871824526945
 31
0.0
  0
LINE
  5
1A0
330
153
100
AcDbEntity
  8
AM_9
100
AcDbLine
 10
3.5433
 20
0.073871824526945
 30
0.0
 11
3.44955
 21
0.1279984122634728
 31
0.0
  0
LINE
  5
1A1
330
153
100
AcDbEntity
  8
AM_9
100
AcDbLine
 10
3.5433
 20
0.073871824526945
 30
0.0
 11
-3.5433
 21
0.073871824526945
 31
0.0
  0
LINE
  5
1A2
330
153
100
AcDbEntity
  8
AM_9
100
AcDbLine
 10
-3.5433
 20
0.073871824526945
 30
0.0
 11
-3.5433
 21
-0.7053749999999992
 31
0.0
  0
LINE
  5
1A3
330
153
100
AcDbEntity
  8
AM_9
100
AcDbLine
 10
3.5433
 20
-0.7053749999999992
 30
0.0
 11
3.5433
 21
0.073871824526945
 31
0.0
  0
LINE
  5
1A4
330
153
100
AcDbEntity
  8
AM_9
100
AcDbLine
 10
3.44955
 20
0.2362515877365273
 30
0.0
 11
-3.44955
 21
0.2362515877365273
 31
0.0
  0
LINE
  5
1A5
330
153
100
AcDbEntity
  8
AM_9
100
AcDbLine
 10
3.44955
 20
0.2362515877365273
 30
0.0
 11
3.5433
 21
0.2903781754730551
 31
0.0
  0
LINE
  5
1A6
330
153
100
AcDbEntity
  8
AM_9
100
AcDbLine
 10
-3.5433
 20
0.2903781754730551
 30
0.0
 11
-3.44955
 21
0.2362515877365273
 31
0.0
  0
LINE
  5
1A7
330
153
100
AcDbEntity
  8
AM_9
100
AcDbLine
 10
3.5433
 20
-0.7053749999999992
 30
0.0
 11
-3.5433
 21
-0.7053749999999992
 31
0.0
  0
LINE
  5
1A8
330
153
100
AcDbEntity
  8
AM_9
100
AcDbLine
 10
3.493300000000001
 20
-0.755375
 30
0.0
 11
-3.493299999999744
 21
-0.755375
 31
0.0
  0
ARC
  5
1A9
330
153
100
AcDbEntity
  8
AM_9
100
AcDbCircle
 10
-3.493299999999998
 20
-0.705374999999998
 30
0.0
 40
0.050000000000002
100
AcDbArc
 50
180.0
 51
270.0
  0
ARC
  5
1AA
330
153
100
AcDbEntity
  8
AM_9
100
AcDbCircle
 10
3.493299999999998
 20
-0.705374999999998
 30
0.0
 40
0.050000000000002
100
AcDbArc
 50
270.0
 51
0.0
  0
LINE
  5
1AB
330
153
100
AcDbEntity
  8
AM_9
100
AcDbLine
 10
3.493300000000001
 20
1.119624999999999
 30
0.0
 11
-3.493299999999744
 21
1.119624999999999
 31
0.0
  0
ARC
  5
1AC
330
153
100
AcDbEntity
  8
AM_9
100
AcDbCircle
 10
-3.493300000000002
 20
1.069625000000001
 30
0.0
 40
0.049999999999998
100
AcDbArc
 50
90.0
 51
180.0
  0
ARC
  5
1AD
330
153
100
AcDbEntity
  8
AM_9
100
AcDbCircle
 10
3.493300000000002
 20
1.069625000000001
 30
0.0
 40
0.049999999999998
100
AcDbArc
 50
0.0
 51
90.0
  0
LINE
  5
1AE
330
153
100
AcDbEntity
  8
AM_9
100
AcDbLine
 10
3.5433
 20
1.069625
 30
0.0
 11
-3.5433
 21
1.069625
 31
0.0
  0
LINE
  5
1AF
330
153
100
AcDbEntity
  8
AM_9
100
AcDbLine
 10
3.5433
 20
0.2903781754730551
 30
0.0
 11
-3.5433
 21
0.2903781754730551
 31
0.0
  0
LINE
  5
1B0
330
153
100
AcDbEntity
  8
AM_9
100
AcDbLine
 10
-3.5433
 20
1.069625
 30
0.0
 11
-3.5433
 21
0.2903781754730551
 31
0.0
  0
LINE
  5
1B1
330
153
100
AcDbEntity
  8
AM_9
100
AcDbLine
 10
3.5433
 20
0.2903781754730551
 30
0.0
 11
3.5433
 21
1.069625
 31
0.0
  0
LINE
  5
1B2
330
153
100
AcDbEntity
  8
AM_5
100
AcDbLine
 10
0.09795
 20
-1.770666666666687
 30
0.0
 11
0.1249999999999999
 21
-1.770666666666687
 31
0.0
  0
LINE
  5
1B3
330
153
100
AcDbEntity
  8
AM_5
100
AcDbLine
 10
0.1249999999999999
 20
-1.770666666666687
 30
0.0
 11
0.09795
 21
-1.755049341885106
 31
0.0
  0
LINE
  5
1B4
330
153
100
AcDbEntity
  8
AM_5
100
AcDbLine
 10
-0.09795
 20
-1.770666666666687
 30
0.0
 11
-0.1249999999999999
 21
-1.770666666666687
 31
0.0
  0
LINE
  5
1B5
330
153
100
AcDbEntity
  8
AM_5
100
AcDbLine
 10
-0.1249999999999999
 20
-1.770666666666687
 30
0.0
 11
-0.09795
 21
-1.755049341885106
 31
0.0
  0
ARC
  5
1B6
330
153
100
AcDbEntity
  8
AM_4
100
AcDbCircle
 10
2.73296556125965
 20
-2.480666666666666
 30
0.0
 40
0.0500000000000003
100
AcDbArc
 50
270.0
 51
357.9999999999993
  0
ARC
  5
1B7
330
153
100
AcDbEntity
  8
AM_4
100
AcDbCircle
 10
-2.73296556125965
 20
-2.480666666666666
 30
0.0
 40
0.0500000000000003
100
AcDbArc
 50
182.0000000000006
 51
270.0
  0
LWPOLYLINE
  5
1B8
330
153
100
AcDbEntity
  8
AM_4
100
AcDbPolyline
 90
        6
 70
     0
 43
0.0
 10
2.136652684401853
 20
-2.482411641501792
 10
2.134257803231375
 20
-2.498798890176765
 10
2.128162669148618
 20
-2.513149248657491
 10
2.119042286506946
 20
-2.523871508438446
 10
2.107888383254296
 20
-2.529764060913803
 10
2.101172803044632
 20
-2.530666666666666
  0
LWPOLYLINE
  5
1B9
330
153
100
AcDbEntity
  8
AM_4
100
AcDbPolyline
 90
        6
 70
     0
 43
0.0
 10
-2.101172803044632
 20
-2.530666666666666
 10
-2.106402560521313
 20
-2.530121249552766
 10
-2.117780018141494
 20
-2.524859169704142
 10
-2.127266852350879
 20
-2.514570136382742
 10
-2.133775567744502
 20
-2.500455918800177
 10
-2.136652684401852
 20
-2.482411641501792
  0
LINE
  5
1BA
330
153
100
AcDbEntity
  8
AM_4
100
AcDbLine
 10
1.884439571862149
 20
-2.030666666666666
 30
0.0
 11
1.884439571862149
 21
-2.530666666666666
 31
0.0
  0
LINE
  5
1BB
330
153
100
AcDbEntity
  8
AM_4
100
AcDbLine
 10
-1.884439571862149
 20
-2.030666666666666
 30
0.0
 11
-1.884439571862149
 21
-2.530666666666666
 31
0.0
  0
LINE
  5
1BC
330
153
100
AcDbEntity
  8
AM_4
100
AcDbLine
 10
-0.8673728304450147
 20
-2.875
 30
0.0
 11
-0.8673728304450142
 21
-2.600666666666667
 31
0.0
  0
LINE
  5
1BD
330
153
100
AcDbEntity
  8
AM_4
100
AcDbLine
 10
-0.6761321485743731
 20
-2.875
 30
0.0
 11
-0.6761321485743731
 21
-2.600666666666667
 31
0.0
  0
LINE
  5
1BE
330
153
100
AcDbEntity
  8
AM_4
100
AcDbLine
 10
-0.9071020317021946
 20
-2.600666666666667
 30
0.0
 11
-0.9071020317021946
 21
-2.875
 31
0.0
  0
LINE
  5
1BF
330
153
100
AcDbEntity
  8
AM_4
100
AcDbLine
 10
-2.072368421052632
 20
-2.600666666666667
 30
0.0
 11
-2.072368421052632
 21
-2.875
 31
0.0
  0
LINE
  5
1C0
330
153
100
AcDbEntity
  8
AM_4
100
AcDbLine
 10
2.072368421052632
 20
-2.875
 30
0.0
 11
2.072368421052632
 21
-2.600666666666667
 31
0.0
  0
LINE
  5
1C1
330
153
100
AcDbEntity
  8
AM_4
100
AcDbLine
 10
2.072368421052632
 20
-2.875
 30
0.0
 11
-2.072368421052632
 21
-2.875
 31
0.0
  0
LWPOLYLINE
  5
1C2
330
153
100
AcDbEntity
  8
AM_4
100
AcDbPolyline
 90
        6
 70
     0
 43
0.0
 10
1.74761941245136
 20
-2.530666666666666
 10
1.752849169928041
 20
-2.530121249552766
 10
1.764226627548221
 20
-2.524859169704142
 10
1.773713461757606
 20
-2.514570136382742
 10
1.78022217715123
 20
-2.500455918800179
 10
1.78309929380858
 20
-2.482411641501792
  0
LWPOLYLINE
  5
1C3
330
153
100
AcDbEntity
  8
AM_4
100
AcDbPolyline
 90
        6
 70
     0
 43
0.0
 10
-1.783099293808579
 20
-2.482411641501792
 10
-1.780704412638101
 20
-2.498798890176765
 10
-1.774609278555344
 20
-2.51314924865749
 10
-1.765488895913672
 20
-2.523871508438446
 10
-1.754334992661023
 20
-2.529764060913803
 10
-1.747619412451358
 20
-2.530666666666666
  0
LINE
  5
1C4
330
153
100
AcDbEntity
  8
AM_4
100
AcDbLine
 10
-2.136652684401852
 20
-2.482411641501792
 30
0.0
 11
-2.782935102610605
 21
-2.482411641501792
 31
0.0
  0
LINE
  5
1C5
330
153
100
AcDbEntity
  8
AM_4
100
AcDbLine
 10
-2.136652684401852
 20
-2.482411641501792
 30
0.0
 11
-2.147852520535789
 21
-2.030666666666666
 31
0.0
  0
LINE
  5
1C6
330
153
100
AcDbEntity
  8
AM_4
100
AcDbLine
 10
-2.147852520535789
 20
-2.030666666666666
 30
0.0
 11
-1.794299129942516
 21
-2.030666666666666
 31
0.0
  0
LINE
  5
1C7
330
153
100
AcDbEntity
  8
AM_4
100
AcDbLine
 10
-1.794299129942516
 20
-2.030666666666666
 30
0.0
 11
-1.783099293808579
 21
-2.482411641501792
 31
0.0
  0
LINE
  5
1C8
330
153
100
AcDbEntity
  8
AM_4
100
AcDbLine
 10
1.78309929380858
 20
-2.482411641501792
 30
0.0
 11
-1.783099293808579
 21
-2.482411641501792
 31
0.0
  0
LINE
  5
1C9
330
153
100
AcDbEntity
  8
AM_4
100
AcDbLine
 10
1.78309929380858
 20
-2.482411641501792
 30
0.0
 11
1.794299129942517
 21
-2.030666666666666
 31
0.0
  0
LINE
  5
1CA
330
153
100
AcDbEntity
  8
AM_4
100
AcDbLine
 10
1.794299129942517
 20
-2.030666666666666
 30
0.0
 11
2.14785252053579
 21
-2.030666666666666
 31
0.0
  0
LINE
  5
1CB
330
153
100
AcDbEntity
  8
AM_4
100
AcDbLine
 10
2.14785252053579
 20
-2.030666666666666
 30
0.0
 11
2.136652684401853
 21
-2.482411641501792
 31
0.0
  0
LINE
  5
1CC
330
153
100
AcDbEntity
  8
AM_4
100
AcDbLine
 10
2.782935102610605
 20
-2.482411641501792
 30
0.0
 11
2.813967850949646
 21
-1.59375
 31
0.0
  0
LINE
  5
1CD
330
153
100
AcDbEntity
  8
AM_4
100
AcDbLine
 10
-2.813967850949646
 20
-1.59375
 30
0.0
 11
-2.782935102610605
 21
-2.482411641501792
 31
0.0
  0
LINE
  5
1CE
330
153
100
AcDbEntity
  8
AM_4
100
AcDbLine
 10
2.782935102610605
 20
-2.482411641501792
 30
0.0
 11
2.136652684401853
 21
-2.482411641501792
 31
0.0
  0
ENDBLK
  5
156
330
153
100
AcDbEntity
  8
0
100
AcDbBlockEnd
  0
BLOCK
  5
1D1
330
1CF
100
AcDbEntity
  8
0
100
AcDbBlockBegin
  2
7_069895H_0_in_069895_4
 70
     2
 10
0.0
 20
0.0
 30
0.0
  3
7_069895H_0_in_069895_4
  1

  0
ATTDEF
  5
1D3
330
1CF
100
AcDbEntity
  8
AM_6
100
AcDbText
 10
10.4375
 20
2.51625
 30
0.0
 40
0.5
  1
FC-IP -(Labyrinth Seal)-Housing -Inch
100
AcDbAttributeDefinition
  3

  2
NN
 70
     8
280
     0
  0
ATTDEF
  5
1D4
330
1CF
100
AcDbEntity
  8
AM_6
100
AcDbText
 10
10.4375
 20
2.01625
 30
0.0
 40
0.5
  1
Imperial Piloted Flange Bearings
100
AcDbAttributeDefinition
  3

  2
NT
 70
     8
280
     0
  0
ATTDEF
  5
1D5
330
1CF
100
AcDbEntity
  8
AM_6
100
AcDbText
 10
10.4375
 20
1.51625
 30
0.0
 40
0.5
  1
069895H
100
AcDbAttributeDefinition
  3

  2
NB
 70
     8
280
     0
  0
ATTDEF
  5
1D6
330
1CF
100
AcDbEntity
  8
AM_6
100
AcDbText
 10
10.4375
 20
1.01625
 30
0.0
 40
0.5
  1
$PN.H
100
AcDbAttributeDefinition
  3

  2
NBSYN
 70
     8
280
     0
  0
ATTDEF
  5
1D7
330
1CF
100
AcDbEntity
  8
AM_6
100
AcDbText
 10
10.4375
 20
0.5162500000000003
 30
0.0
 40
0.5
  1
069895
100
AcDbAttributeDefinition
  3

  2
LINA
 70
     8
280
     0
  0
ATTDEF
  5
1D8
330
1CF
100
AcDbEntity
  8
AM_6
100
AcDbText
 10
10.4375
 20
0.0162500000000003
 30
0.0
 40
0.5
  1
3-15/16
100
AcDbAttributeDefinition
  3

  2
SS
 70
     8
280
     0
  0
ATTDEF
  5
1D9
330
1CF
100
AcDbEntity
  8
AM_6
100
AcDbText
 10
10.4375
 20
-0.4837499999999997
 30
0.0
 40
0.5
  1
069895
100
AcDbAttributeDefinition
  3

  2
PN
 70
     8
280
     0
  0
ATTDEF
  5
1DA
330
1CF
100
AcDbEntity
  8
AM_6
100
AcDbText
 10
10.4375
 20
-0.9837499999999997
 30
0.0
 40
0.5
  1
FC-IP-315L
100
AcDbAttributeDefinition
  3

  2
DESCRIPTION
 70
     8
280
     0
  0
ATTDEF
  5
1DB
330
1CF
100
AcDbEntity
  8
AM_6
100
AcDbText
 10
10.4375
 20
-1.48375
 30
0.0
 40
0.5
  1
Non-Expansion Type
100
AcDbAttributeDefinition
  3

  2
EF
 70
     8
280
     0
  0
ATTDEF
  5
1DC
330
1CF
100
AcDbEntity
  8
AM_6
100
AcDbText
 10
10.4375
 20
-1.98375
 30
0.0
 40
0.5
  1
Labyrinth Seal
100
AcDbAttributeDefinition
  3

  2
ST
 70
     8
280
     0
  0
ATTDEF
  5
1DD
330
1CF
100
AcDbEntity
  8
AM_6
100
AcDbText
 10
10.4375
 20
-2.48375
 30
0.0
 40
0.5
  1
4-45/64
100
AcDbAttributeDefinition
  3

  2
A
 70
     8
280
     0
  0
ATTDEF
  5
1DE
330
1CF
100
AcDbEntity
  8
AM_6
100
AcDbText
 10
10.4375
 20
-2.98375
 30
0.0
 40
0.5
  1
10-7/8
100
AcDbAttributeDefinition
  3

  2
B
 70
     8
280
     0
  0
ATTDEF
  5
1DF
330
1CF
100
AcDbEntity
  8
AM_6
100
AcDbText
 10
10.4375
 20
-3.48375
 30
0.0
 40
0.5
  1
3-1/2
100
AcDbAttributeDefinition
  3

  2
C
 70
     8
280
     0
  0
ATTDEF
  5
1E0
330
1CF
100
AcDbEntity
  8
AM_6
100
AcDbText
 10
10.4375
 20
-3.98375
 30
0.0
 40
0.5
  1
6-5/8
100
AcDbAttributeDefinition
  3

  2
D
 70
     8
280
     0
  0
ATTDEF
  5
1E1
330
1CF
100
AcDbEntity
  8
AM_6
100
AcDbText
 10
10.4375
 20
-4.48375
 30
0.0
 40
0.5
  1
9-3/8
100
AcDbAttributeDefinition
  3

  2
DD
 70
     8
280
     0
  0
ATTDEF
  5
1E2
330
1CF
100
AcDbEntity
  8
AM_6
100
AcDbText
 10
10.4375
 20
-4.98375
 30
0.0
 40
0.5
  1
1-15/32
100
AcDbAttributeDefinition
  3

  2
E
 70
     8
280
     0
  0
ATTDEF
  5
1E3
330
1CF
100
AcDbEntity
  8
AM_6
100
AcDbText
 10
10.4375
 20
-5.48375
 30
0.0
 40
0.5
  1
3/4
100
AcDbAttributeDefinition
  3

  2
F
 70
     8
280
     0
  0
ATTDEF
  5
1E4
330
1CF
100
AcDbEntity
  8
AM_6
100
AcDbText
 10
10.4375
 20
-5.98375
 30
0.0
 40
0.5
  1
2-57/64
100
AcDbAttributeDefinition
  3

  2
G
 70
     8
280
     0
  0
ATTDEF
  5
1E5
330
1CF
100
AcDbEntity
  8
AM_6
100
AcDbText
 10
10.4375
 20
-6.48375
 30
0.0
 40
0.5
  1
1-1/8
100
AcDbAttributeDefinition
  3

  2
H
 70
     8
280
     0
  0
ATTDEF
  5
1E6
330
1CF
100
AcDbEntity
  8
AM_6
100
AcDbText
 10
10.4375
 20
-6.98375
 30
0.0
 40
0.5
  1
8.125
100
AcDbAttributeDefinition
  3

  2
K
 70
     8
280
     0
  0
ATTDEF
  5
1E7
330
1CF
100
AcDbEntity
  8
AM_6
100
AcDbText
 10
10.4375
 20
-7.48375
 30
0.0
 40
0.5
  1
5-9/16
100
AcDbAttributeDefinition
  3

  2
L
 70
     8
280
     0
  0
ATTDEF
  5
1E8
330
1CF
100
AcDbEntity
  8
AM_6
100
AcDbText
 10
10.4375
 20
-7.98375
 30
0.0
 40
0.5
  1
3/4-10
100
AcDbAttributeDefinition
  3

  2
M
 70
     8
280
     0
  0
ATTDEF
  5
1E9
330
1CF
100
AcDbEntity
  8
AM_6
100
AcDbText
 10
10.4375
 20
-8.48375
 30
0.0
 40
0.5
  1
4-25/32
100
AcDbAttributeDefinition
  3

  2
N
 70
     8
280
     0
  0
ATTDEF
  5
1EA
330
1CF
100
AcDbEntity
  8
AM_6
100
AcDbText
 10
10.4375
 20
-8.98375
 30
0.0
 40
0.5
  1
1-13/16
100
AcDbAttributeDefinition
  3

  2
P
 70
     8
280
     0
  0
ATTDEF
  5
1EB
330
1CF
100
AcDbEntity
  8
AM_6
100
AcDbText
 10
10.4375
 20
-9.48375
 30
0.0
 40
0.5
  1
1-29/32
100
AcDbAttributeDefinition
  3

  2
Q
 70
     8
280
     0
  0
ATTDEF
  5
1EC
330
1CF
100
AcDbEntity
  8
AM_6
100
AcDbText
 10
10.4375
 20
-9.98375
 30
0.0
 40
0.5
  1
5/16
100
AcDbAttributeDefinition
  3

  2
X
 70
     8
280
     0
  0
ATTDEF
  5
1ED
330
1CF
100
AcDbEntity
  8
AM_6
100
AcDbText
 10
10.4375
 20
-10.48375
 30
0.0
 40
0.5
  1
0.025
100
AcDbAttributeDefinition
  3

  2
Y
 70
     8
280
     0
  0
ATTDEF
  5
1EE
330
1CF
100
AcDbEntity
  8
AM_6
100
AcDbText
 10
10.4375
 20
-10.98375
 30
0.0
 40
0.5
  1
4-1/2
100
AcDbAttributeDefinition
  3

  2
Z
 70
     8
280
     0
  0
ATTDEF
  5
1EF
330
1CF
100
AcDbEntity
  8
AM_6
100
AcDbText
 10
10.4375
 20
-11.48375
 30
0.0
 40
0.5
  1
baldor
100
AcDbAttributeDefinition
  3

  2
COMPANY
 70
     8
280
     0
  0
LINE
  5
1F0
330
1CF
100
AcDbEntity
  8
AM_9
100
AcDbLine
 10
0.5
 20
-1.518749999999999
 30
0.0
 11
-0.5
 21
-1.518749999999999
 31
0.0
  0
LINE
  5
1F1
330
1CF
100
AcDbEntity
  8
AM_9
100
AcDbLine
 10
4.3294
 20
-0.0168999999999998
 30
0.0
 11
4.3294
 21
-0.8831000000000003
 31
0.0
  0
LINE
  5
1F2
330
1CF
100
AcDbEntity
  8
AM_9
100
AcDbLine
 10
5.0456
 20
-0.8831000000000003
 30
0.0
 11
5.0456
 21
-0.0168999999999998
 31
0.0
  0
LINE
  5
1F3
330
1CF
100
AcDbEntity
  8
AM_9
100
AcDbLine
 10
-5.045600000000001
 20
-0.0168999999999998
 30
0.0
 11
-5.045600000000001
 21
-0.8831000000000003
 31
0.0
  0
LINE
  5
1F4
330
1CF
100
AcDbEntity
  8
AM_9
100
AcDbLine
 10
-4.3294
 20
-0.8831000000000003
 30
0.0
 11
-4.3294
 21
-0.0168999999999998
 31
0.0
  0
LINE
  5
1F5
330
1CF
100
AcDbEntity
  8
AM_9
100
AcDbLine
 10
5.0456
 20
-0.0168999999999998
 30
0.0
 11
4.3294
 21
-0.0168999999999998
 31
0.0
  0
LINE
  5
1F6
330
1CF
100
AcDbEntity
  8
AM_9
100
AcDbLine
 10
5.0456
 20
-0.0168999999999998
 30
0.0
 11
5.0625
 21
0.0
 31
0.0
  0
LINE
  5
1F7
330
1CF
100
AcDbEntity
  8
AM_9
100
AcDbLine
 10
4.312500000000001
 20
0.0
 30
0.0
 11
4.3294
 21
-0.0168999999999998
 31
0.0
  0
LINE
  5
1F8
330
1CF
100
AcDbEntity
  8
AM_9
100
AcDbLine
 10
5.0456
 20
-0.8831000000000003
 30
0.0
 11
4.3294
 21
-0.8831000000000003
 31
0.0
  0
LINE
  5
1F9
330
1CF
100
AcDbEntity
  8
AM_9
100
AcDbLine
 10
4.3294
 20
-0.8831000000000003
 30
0.0
 11
4.312500000000001
 21
-0.8999999999999999
 31
0.0
  0
LINE
  5
1FA
330
1CF
100
AcDbEntity
  8
AM_9
100
AcDbLine
 10
5.0625
 20
-0.8999999999999999
 30
0.0
 11
5.0456
 21
-0.8831000000000003
 31
0.0
  0
LINE
  5
1FB
330
1CF
100
AcDbEntity
  8
AM_9
100
AcDbLine
 10
-4.3294
 20
-0.0168999999999998
 30
0.0
 11
-5.045600000000001
 21
-0.0168999999999998
 31
0.0
  0
LINE
  5
1FC
330
1CF
100
AcDbEntity
  8
AM_9
100
AcDbLine
 10
-4.3294
 20
-0.0168999999999998
 30
0.0
 11
-4.3125
 21
0.0
 31
0.0
  0
LINE
  5
1FD
330
1CF
100
AcDbEntity
  8
AM_9
100
AcDbLine
 10
-5.062500000000001
 20
0.0
 30
0.0
 11
-5.045600000000001
 21
-0.0168999999999998
 31
0.0
  0
LINE
  5
1FE
330
1CF
100
AcDbEntity
  8
AM_9
100
AcDbLine
 10
-4.3294
 20
-0.8831000000000003
 30
0.0
 11
-5.045600000000001
 21
-0.8831000000000003
 31
0.0
  0
LINE
  5
1FF
330
1CF
100
AcDbEntity
  8
AM_9
100
AcDbLine
 10
-5.045600000000001
 20
-0.8831000000000003
 30
0.0
 11
-5.062500000000001
 21
-0.8999999999999999
 31
0.0
  0
LINE
  5
200
330
1CF
100
AcDbEntity
  8
AM_9
100
AcDbLine
 10
-4.3125
 20
-0.8999999999999999
 30
0.0
 11
-4.3294
 21
-0.8831000000000003
 31
0.0
  0
LINE
  5
201
330
1CF
100
AcDbEntity
  8
AM_9
100
AcDbLine
 10
3.653726289499356
 20
-0.8999999999999998
 30
0.0
 11
3.653726289499356
 21
-1.125
 31
0.0
  0
LINE
  5
202
330
1CF
100
AcDbEntity
  8
AM_9
100
AcDbLine
 10
3.613035499464379
 20
-0.8999999999999998
 30
0.0
 11
3.613035499464379
 21
-1.125
 31
0.0
  0
LINE
  5
203
330
1CF
100
AcDbEntity
  8
AM_9
100
AcDbLine
 10
-3.653726289499356
 20
-0.8999999999999998
 30
0.0
 11
-3.653726289499356
 21
-1.125
 31
0.0
  0
LINE
  5
204
330
1CF
100
AcDbEntity
  8
AM_9
100
AcDbLine
 10
-3.613035499464379
 20
-1.125
 30
0.0
 11
-3.613035499464379
 21
-0.8999999999999998
 31
0.0
  0
LINE
  5
205
330
1CF
100
AcDbEntity
  8
AM_9
100
AcDbLine
 10
-3.636622563553544
 20
-0.8999999999999998
 30
0.0
 11
-3.636622557801525
 21
-1.125
 31
0.0
  0
LINE
  5
206
330
1CF
100
AcDbEntity
  8
AM_9
100
AcDbLine
 10
-4.0625
 20
-0.8999999999999999
 30
0.0
 11
-4.062500000000001
 21
-1.125
 31
0.0
  0
LINE
  5
207
330
1CF
100
AcDbEntity
  8
AM_9
100
AcDbLine
 10
3.636622563553544
 20
-0.9000000000000001
 30
0.0
 11
3.636622557801525
 21
-1.125
 31
0.0
  0
LINE
  5
208
330
1CF
100
AcDbEntity
  8
AM_9
100
AcDbLine
 10
4.0625
 20
-1.125
 30
0.0
 11
4.0625
 21
-0.8999999999999999
 31
0.0
  0
LINE
  5
209
330
1CF
100
AcDbEntity
  8
AM_9
100
AcDbLine
 10
4.293554740467314
 20
-0.8999999999999998
 30
0.0
 11
4.293554740467314
 21
-1.125
 31
0.0
  0
LINE
  5
20A
330
1CF
100
AcDbEntity
  8
AM_9
100
AcDbLine
 10
3.613035499464379
 20
-0.8999999999999998
 30
0.0
 11
4.349270555981562
 21
-0.8999999999999998
 31
0.0
  0
LINE
  5
20B
330
1CF
100
AcDbEntity
  8
AM_9
100
AcDbLine
 10
-4.293554740467313
 20
-0.8999999999999998
 30
0.0
 11
-4.293554740467313
 21
-1.125
 31
0.0
  0
LINE
  5
20C
330
1CF
100
AcDbEntity
  8
AM_9
100
AcDbLine
 10
-4.349270555981559
 20
-0.8999999999999998
 30
0.0
 11
-3.613035499464379
 21
-0.8999999999999998
 31
0.0
  0
LINE
  5
20D
330
1CF
100
AcDbEntity
  8
AM_9
100
AcDbLine
 10
3.5433
 20
-1.59375
 30
0.0
 11
3.5433
 21
1.90625
 31
0.0
  0
LINE
  5
20E
330
1CF
100
AcDbEntity
  8
AM_9
100
AcDbLine
 10
-3.5433
 20
1.90625
 30
0.0
 11
-3.5433
 21
-1.59375
 31
0.0
  0
LINE
  5
20F
330
1CF
100
AcDbEntity
  8
AM_9
100
AcDbLine
 10
-2.939563036811941
 20
-1.125
 30
0.0
 11
-2.939563036811941
 21
0.0000000000000002
 31
0.0
  0
LINE
  5
210
330
1CF
100
AcDbEntity
  8
AM_9
100
AcDbLine
 10
-3.689563036811942
 20
0.0000000000000002
 30
0.0
 11
-3.689563036811942
 21
-1.125
 31
0.0
  0
LINE
  5
211
330
1CF
100
AcDbEntity
  8
AM_9
100
AcDbLine
 10
3.689563036811942
 20
-1.125
 30
0.0
 11
3.689563036811942
 21
0.0000000000000002
 31
0.0
  0
LINE
  5
212
330
1CF
100
AcDbEntity
  8
AM_9
100
AcDbLine
 10
2.939563036811941
 20
0.0000000000000002
 30
0.0
 11
2.939563036811941
 21
-1.125
 31
0.0
  0
LINE
  5
213
330
1CF
100
AcDbEntity
  8
AM_9
100
AcDbLine
 10
-0.0921787012506653
 20
-1.59375
 30
0.0
 11
0.0921787012506653
 21
-1.59375
 31
0.0
  0
LINE
  5
214
330
1CF
100
AcDbEntity
  8
AM_9
100
AcDbLine
 10
0.093133435204045
 20
-1.59275
 30
0.0
 11
-0.093133435204045
 21
-1.59275
 31
0.0
  0
LINE
  5
215
330
1CF
100
AcDbEntity
  8
AM_5
100
AcDbLine
 10
5.0625
 20
0.0
 30
0.0
 11
5.0625
 21
-0.8999999999999999
 31
0.0
  0
LINE
  5
216
330
1CF
100
AcDbEntity
  8
AM_5
100
AcDbLine
 10
4.3125
 20
0.0000000000000006
 30
0.0
 11
4.3125
 21
-0.8999999999999999
 31
0.0
  0
LINE
  5
217
330
1CF
100
AcDbEntity
  8
AM_5
100
AcDbLine
 10
-4.3125
 20
0.0
 30
0.0
 11
-4.3125
 21
-0.8999999999999999
 31
0.0
  0
LINE
  5
218
330
1CF
100
AcDbEntity
  8
AM_5
100
AcDbLine
 10
-5.0625
 20
-0.0000000000000006
 30
0.0
 11
-5.0625
 21
-0.8999999999999995
 31
0.0
  0
LINE
  5
21B
330
1CF
100
AcDbEntity
  8
AM_7
100
AcDbLine
 10
-3.314563036811941
 20
0.0590624999999998
 30
0.0
 11
-3.314563036811941
 21
-1.2403125
 31
0.0
  0
LINE
  5
21C
330
1CF
100
AcDbEntity
  8
AM_7
100
AcDbLine
 10
3.314563036811941
 20
0.0590624999999998
 30
0.0
 11
3.314563036811941
 21
-1.2403125
 31
0.0
  0
LINE
  5
21D
330
1CF
100
AcDbEntity
  8
AM_7
100
AcDbLine
 10
4.6875
 20
0.045
 30
0.0
 11
4.6875
 21
-0.945
 31
0.0
  0
LINE
  5
21E
330
1CF
100
AcDbEntity
  8
AM_7
100
AcDbLine
 10
-4.6875
 20
0.045
 30
0.0
 11
-4.6875
 21
-0.945
 31
0.0
  0
LINE
  5
21F
330
1CF
100
AcDbEntity
  8
AM_7
100
AcDbLine
 10
0.0
 20
2.51625
 30
0.0
 11
0.0
 21
-3.11140625
 31
0.0
  0
LINE
  5
220
330
1CF
100
AcDbEntity
  8
AM_4
100
AcDbLine
 10
-4.062500000000001
 20
-1.125
 30
0.0
 11
-4.0625
 21
-1.518749999999999
 31
0.0
  0
LINE
  5
221
330
1CF
100
AcDbEntity
  8
AM_4
100
AcDbLine
 10
4.0625
 20
-1.518749999999999
 30
0.0
 11
4.0625
 21
-1.125
 31
0.0
  0
LINE
  5
222
330
1CF
100
AcDbEntity
  8
AM_4
100
AcDbLine
 10
3.292033222492784
 20
-1.518749999999999
 30
0.0
 11
3.292033222492784
 21
-1.125
 31
0.0
  0
LINE
  5
223
330
1CF
100
AcDbEntity
  8
AM_4
100
AcDbLine
 10
-3.292033230210278
 20
-1.518749999999999
 30
0.0
 11
-3.292033230210278
 21
-1.125
 31
0.0
  0
LWPOLYLINE
  5
224
330
1CF
100
AcDbEntity
  8
AM_4
100
AcDbPolyline
 90
        7
 70
     0
 43
0.0
 10
-3.292033230210278
 20
-1.518749999999999
 10
-3.291755371547799
 20
-1.519042389614886
 10
-3.270749434802863
 20
-1.538672189265758
 10
-3.244837859676317
 20
-1.55782102884502
 10
-3.220855840377369
 20
-1.571720688849202
 10
-3.193429381641564
 20
-1.583601077648541
 10
-3.182489719035309
 20
-1.587150059032939
  0
ARC
  5
225
330
1CF
100
AcDbEntity
  8
AM_4
100
AcDbCircle
 10
-3.987499999999997
 20
-1.518749999999998
 30
0.0
 40
0.0750000000000028
100
AcDbArc
 50
180.0
 51
270.0
  0
LINE
  5
226
330
1CF
100
AcDbEntity
  8
AM_4
100
AcDbLine
 10
-4.0625
 20
-1.518749999999999
 30
0.0
 11
-3.292033230210278
 21
-1.518749999999999
 31
0.0
  0
LWPOLYLINE
  5
227
330
1CF
100
AcDbEntity
  8
AM_4
100
AcDbPolyline
 90
        7
 70
     0
 43
0.0
 10
3.182489720748598
 20
-1.587150058531837
 10
3.207647209314555
 20
-1.577968776947747
 10
3.231250466401438
 20
-1.566110182234302
 10
3.259337984219729
 20
-1.547691276821847
 10
3.283572043860517
 20
-1.5272310021101
 10
3.291755371547785
 20
-1.519042389614842
 10
3.292033222492786
 20
-1.518749999999999
  0
LINE
  5
228
330
1CF
100
AcDbEntity
  8
AM_4
100
AcDbLine
 10
3.292033222492784
 20
-1.518749999999999
 30
0.0
 11
4.0625
 21
-1.518749999999999
 31
0.0
  0
ARC
  5
229
330
1CF
100
AcDbEntity
  8
AM_4
100
AcDbCircle
 10
3.987499999999998
 20
-1.518749999999998
 30
0.0
 40
0.0750000000000017
100
AcDbArc
 50
270.0
 51
0.0
  0
LWPOLYLINE
  5
22A
330
1CF
100
AcDbEntity
  8
AM_4
100
AcDbPolyline
 90
        3
 70
     0
 43
0.0
 10
3.182489720748598
 20
-1.587150058531837
 10
3.15844905929068
 20
-1.592157257651497
 10
3.13361434551757
 20
-1.59375
  0
LINE
  5
22B
330
1CF
100
AcDbEntity
  8
AM_4
100
AcDbLine
 10
3.182489720748598
 20
-1.587150058531837
 30
0.0
 11
3.182489720748598
 21
-1.125
 31
0.0
  0
LINE
  5
22C
330
1CF
100
AcDbEntity
  8
AM_4
100
AcDbLine
 10
-3.182489719035309
 20
-1.587150059032939
 30
0.0
 11
-3.182489719035309
 21
-1.125
 31
0.0
  0
LWPOLYLINE
  5
22D
330
1CF
100
AcDbEntity
  8
AM_4
100
AcDbPolyline
 90
        3
 70
     0
 43
0.0
 10
-3.133614345517572
 20
-1.59375
 10
-3.139660488037989
 20
-1.593659022465627
 10
-3.182489719035309
 20
-1.587150059032939
  0
LINE
  5
22E
330
1CF
100
AcDbEntity
  8
AM_4
100
AcDbLine
 10
4.361372723858942
 20
-1.125
 30
0.0
 11
4.361372723858942
 21
-0.8999999999999998
 31
0.0
  0
LINE
  5
22F
330
1CF
100
AcDbEntity
  8
AM_4
100
AcDbLine
 10
4.361372723858942
 20
-1.125
 30
0.0
 11
1.810768516980869
 21
-1.125
 31
0.0
  0
LINE
  5
230
330
1CF
100
AcDbEntity
  8
AM_4
100
AcDbLine
 10
-1.810768516980866
 20
-1.125
 30
0.0
 11
-4.36137272385894
 21
-1.125
 31
0.0
  0
LINE
  5
231
330
1CF
100
AcDbEntity
  8
AM_4
100
AcDbLine
 10
-4.36137272385894
 20
-0.8999999999999998
 30
0.0
 11
-4.36137272385894
 21
-1.125
 31
0.0
  0
LINE
  5
232
330
1CF
100
AcDbEntity
  8
AM_4
100
AcDbLine
 10
-2.453203178442746
 20
-1.587150058531837
 30
0.0
 11
-2.453203178442746
 21
-1.125
 31
0.0
  0
LINE
  5
233
330
1CF
100
AcDbEntity
  8
AM_4
100
AcDbLine
 10
2.453203178840445
 20
-1.587150059032939
 30
0.0
 11
2.453203178840445
 21
-1.125
 31
0.0
  0
LINE
  5
234
330
1CF
100
AcDbEntity
  8
AM_4
100
AcDbLine
 10
-3.745129795229184
 20
1.90625
 30
0.0
 11
3.745129795222137
 21
1.90625
 31
0.0
  0
ARC
  5
235
330
1CF
100
AcDbEntity
  8
AM_4
100
AcDbCircle
 10
3.745129795229184
 20
1.79375
 30
0.0
 40
0.1124999999999996
100
AcDbArc
 50
1.999999999999765
 51
90.0
  0
ARC
  5
236
330
1CF
100
AcDbEntity
  8
AM_4
100
AcDbCircle
 10
-3.745129795229184
 20
1.79375
 30
0.0
 40
0.1124999999999998
100
AcDbArc
 50
90.0
 51
178.0000000000003
  0
LINE
  5
237
330
1CF
100
AcDbEntity
  8
AM_4
100
AcDbLine
 10
-3.857561263268832
 20
1.797676193379032
 30
0.0
 11
3.857561263268832
 21
1.797676193379032
 31
0.0
  0
LINE
  5
238
330
1CF
100
AcDbEntity
  8
AM_4
100
AcDbLine
 10
-3.857561263268832
 20
1.797676193379032
 30
0.0
 11
-3.865256138173767
 21
1.577323806620968
 31
0.0
  0
LINE
  5
239
330
1CF
100
AcDbEntity
  8
AM_4
100
AcDbLine
 10
3.865256138173767
 20
1.577323806620968
 30
0.0
 11
3.857561263268832
 21
1.797676193379032
 31
0.0
  0
LINE
  5
23A
330
1CF
100
AcDbEntity
  8
AM_4
100
AcDbLine
 10
-3.865256138173767
 20
1.577323806620968
 30
0.0
 11
3.865256138173767
 21
1.577323806620968
 31
0.0
  0
ARC
  5
23B
330
1CF
100
AcDbEntity
  8
AM_4
100
AcDbCircle
 10
3.977687606213415
 20
1.581250000000001
 30
0.0
 40
0.1125000000000005
100
AcDbArc
 50
182.0000000000003
 51
270.0
  0
ARC
  5
23C
330
1CF
100
AcDbEntity
  8
AM_4
100
AcDbCircle
 10
-3.977687606213415
 20
1.581250000000001
 30
0.0
 40
0.1125000000000007
100
AcDbArc
 50
270.0
 51
357.9999999999997
  0
LINE
  5
23D
330
1CF
100
AcDbEntity
  8
AM_4
100
AcDbLine
 10
-1.810768516980866
 20
-0.8999999999999997
 30
0.0
 11
-1.810768516980866
 21
-1.125
 31
0.0
  0
LINE
  5
23E
330
1CF
100
AcDbEntity
  8
AM_4
100
AcDbLine
 10
-2.38042506960496
 20
-1.518749999999999
 30
0.0
 11
-2.38042506960496
 21
-1.125
 31
0.0
  0
LINE
  5
23F
330
1CF
100
AcDbEntity
  8
AM_4
100
AcDbLine
 10
2.380425058931971
 20
-1.518749999999999
 30
0.0
 11
2.380425058931971
 21
-1.125
 31
0.0
  0
LINE
  5
240
330
1CF
100
AcDbEntity
  8
AM_4
100
AcDbLine
 10
1.81076850542891
 20
-0.8999999999999997
 30
0.0
 11
1.810768516980869
 21
-1.125
 31
0.0
  0
LWPOLYLINE
  5
241
330
1CF
100
AcDbEntity
  8
AM_4
100
AcDbPolyline
 90
        3
 70
     0
 43
0.0
 10
-2.453203178442746
 20
-1.587150058531837
 10
-2.459106263168282
 20
-1.592157257651497
 10
-2.465890789059096
 20
-1.59375
  0
LINE
  5
242
330
1CF
100
AcDbEntity
  8
AM_4
100
AcDbLine
 10
0.0921787012506653
 20
-1.59375
 30
0.0
 11
3.9875
 21
-1.59375
 31
0.0
  0
LINE
  5
243
330
1CF
100
AcDbEntity
  8
AM_4
100
AcDbLine
 10
-3.9875
 20
-1.59375
 30
0.0
 11
-0.0921787012506653
 21
-1.59375
 31
0.0
  0
LWPOLYLINE
  5
244
330
1CF
100
AcDbEntity
  8
AM_4
100
AcDbPolyline
 90
        3
 70
     0
 43
0.0
 10
2.465890789059095
 20
-1.59375
 10
2.464174039260047
 20
-1.593659022465627
 10
2.453203178840445
 20
-1.587150059032939
  0
LWPOLYLINE
  5
245
330
1CF
100
AcDbEntity
  8
AM_4
100
AcDbPolyline
 90
        7
 70
     0
 43
0.0
 10
2.380425058931971
 20
-1.518749999999999
 10
2.380808306661675
 20
-1.519042389614886
 10
2.405040543146304
 20
-1.538672189265758
 10
2.426073965450469
 20
-1.55782102884502
 10
2.439774102597661
 20
-1.571720688849202
 10
2.450313308724571
 20
-1.583601077648541
 10
2.453203178840445
 20
-1.587150059032939
  0
LINE
  5
246
330
1CF
100
AcDbEntity
  8
AM_4
100
AcDbLine
 10
0.5
 20
-1.518749999999999
 30
0.0
 11
2.380425058931971
 21
-1.518749999999999
 31
0.0
  0
LINE
  5
247
330
1CF
100
AcDbEntity
  8
AM_4
100
AcDbLine
 10
-2.38042506960496
 20
-1.518749999999999
 30
0.0
 11
-0.5
 21
-1.518749999999998
 31
0.0
  0
LWPOLYLINE
  5
248
330
1CF
100
AcDbEntity
  8
AM_4
100
AcDbPolyline
 90
        7
 70
     0
 43
0.0
 10
-2.453203178442746
 20
-1.587150058531837
 10
-2.44546701441752
 20
-1.577968776947747
 10
-2.43440864203568
 20
-1.566110182234302
 10
-2.415255316528918
 20
-1.547691276821847
 10
-2.39126588060647
 20
-1.5272310021101
 10
-2.380808306661695
 20
-1.519042389614841
 10
-2.380425069604957
 20
-1.518749999999999
  0
LINE
  5
249
330
1CF
100
AcDbEntity
  8
AM_4
100
AcDbLine
 10
-4.0625
 20
1.46875
 30
0.0
 11
4.0625
 21
1.46875
 31
0.0
  0
LINE
  5
24A
330
1CF
100
AcDbEntity
  8
AM_4
100
AcDbLine
 10
4.0625
 20
0.0
 30
0.0
 11
4.0625
 21
1.46875
 31
0.0
  0
LINE
  5
24B
330
1CF
100
AcDbEntity
  8
AM_4
100
AcDbLine
 10
-4.0625
 20
1.46875
 30
0.0
 11
-4.0625
 21
0.0
 31
0.0
  0
LINE
  5
24C
330
1CF
100
AcDbEntity
  8
AM_4
100
AcDbLine
 10
2.040111933023408
 20
-0.8999999999999997
 30
0.0
 11
2.040111933023408
 21
-1.125
 31
0.0
  0
LINE
  5
24D
330
1CF
100
AcDbEntity
  8
AM_4
100
AcDbLine
 10
-2.040111933023407
 20
-0.8999999999999997
 30
0.0
 11
-2.040111933023407
 21
-1.125
 31
0.0
  0
LINE
  5
24E
330
1CF
100
AcDbEntity
  8
AM_4
100
AcDbLine
 10
2.953881659930191
 20
-0.8999999999999997
 30
0.0
 11
2.953881659930191
 21
-1.125
 31
0.0
  0
LINE
  5
24F
330
1CF
100
AcDbEntity
  8
AM_4
100
AcDbLine
 10
-2.953881659930189
 20
-0.8999999999999997
 30
0.0
 11
-2.953881659930189
 21
-1.125
 31
0.0
  0
LINE
  5
250
330
1CF
100
AcDbEntity
  8
AM_4
100
AcDbLine
 10
0.5
 20
-0.8999999999999997
 30
0.0
 11
0.5
 21
-1.59275
 31
0.0
  0
LINE
  5
251
330
1CF
100
AcDbEntity
  8
AM_4
100
AcDbLine
 10
-0.5
 20
-0.8999999999999997
 30
0.0
 11
-0.5
 21
-1.59275
 31
0.0
  0
LINE
  5
252
330
1CF
100
AcDbEntity
  8
AM_4
100
AcDbLine
 10
-0.093133435204045
 20
-1.59275
 30
0.0
 11
-0.5
 21
-1.59275
 31
0.0
  0
LINE
  5
253
330
1CF
100
AcDbEntity
  8
AM_4
100
AcDbLine
 10
0.5
 20
-1.59275
 30
0.0
 11
0.093133435204045
 21
-1.59275
 31
0.0
  0
LINE
  5
254
330
1CF
100
AcDbEntity
  8
AM_4
100
AcDbLine
 10
-5.4375
 20
0.0
 30
0.0
 11
5.4375
 21
0.0
 31
0.0
  0
LINE
  5
255
330
1CF
100
AcDbEntity
  8
AM_4
100
AcDbLine
 10
-3.263472365575025
 20
-0.8999999999999997
 30
0.0
 11
-3.263472365575025
 21
-1.125
 31
0.0
  0
LINE
  5
256
330
1CF
100
AcDbEntity
  8
AM_4
100
AcDbLine
 10
3.263472365575025
 20
-0.8999999999999997
 30
0.0
 11
-3.263472365575025
 21
-0.8999999999999997
 31
0.0
  0
LINE
  5
257
330
1CF
100
AcDbEntity
  8
AM_4
100
AcDbLine
 10
3.263472365575025
 20
-1.125
 30
0.0
 11
3.263472365575025
 21
-0.8999999999999997
 31
0.0
  0
LINE
  5
258
330
1CF
100
AcDbEntity
  8
AM_4
100
AcDbLine
 10
4.349270555981562
 20
-0.8999999999999998
 30
0.0
 11
4.349270555981562
 21
-1.125
 31
0.0
  0
LINE
  5
259
330
1CF
100
AcDbEntity
  8
AM_4
100
AcDbLine
 10
-4.349270555981559
 20
-0.8999999999999998
 30
0.0
 11
-5.4375
 21
-0.9000000000000002
 31
0.0
  0
LINE
  5
25A
330
1CF
100
AcDbEntity
  8
AM_4
100
AcDbLine
 10
-4.349270555981559
 20
-1.125
 30
0.0
 11
-4.349270555981559
 21
-0.8999999999999998
 31
0.0
  0
LINE
  5
25B
330
1CF
100
AcDbEntity
  8
AM_4
100
AcDbLine
 10
5.4375
 20
-0.9000000000000002
 30
0.0
 11
5.4375
 21
0.0
 31
0.0
  0
LINE
  5
25C
330
1CF
100
AcDbEntity
  8
AM_4
100
AcDbLine
 10
-5.4375
 20
0.0
 30
0.0
 11
-5.4375
 21
-0.9000000000000002
 31
0.0
  0
LINE
  5
25D
330
1CF
100
AcDbEntity
  8
AM_4
100
AcDbLine
 10
5.4375
 20
-0.9000000000000002
 30
0.0
 11
4.349270555981562
 21
-0.8999999999999998
 31
0.0
  0
ENDBLK
  5
1D2
330
1CF
100
AcDbEntity
  8
0
100
AcDbBlockEnd
  0
ENDSEC
  0
SECTION
  2
ENTITIES
  0
INSERT
  5
6F
330
1F
100
AcDbEntity
  8
0
100
AcDbBlockReference
  2
1_069895_4
 10
0.0
 20
0.0
 30
0.0
  0
POINT
  5
25F
330
1F
100
AcDbEntity
  8
ConnectionPoints
100
AcDbPoint
 10
0.0
 20
-2.600666666666667
 30
-2.484375
  0
POINT
  5
260
330
1F
100
AcDbEntity
  8
ConnectionPoints
100
AcDbPoint
 10
0.0
 20
-2.600666666666667
 30
2.484375
  0
POINT
  5
261
330
1F
100
AcDbEntity
  8
ConnectionPoints
100
AcDbPoint
 10
0.0
 20
-2.530666666666667
 30
0.0000000000000002
  0
POINT
  5
262
330
1F
100
AcDbEntity
  8
ConnectionPoints
100
AcDbPoint
 10
0.0
 20
-2.875
 30
0.0000000000000002
  0
POINT
  5
263
330
1F
100
AcDbEntity
  8
ConnectionPoints
100
AcDbPoint
 10
0.0
 20
-2.729666666666667
 30
0.0000000000000002
  0
POINT
  5
264
330
1F
100
AcDbEntity
  8
ConnectionPoints
100
AcDbPoint
 10
0.0
 20
-2.530666666666667
 30
2.484375
  0
POINT
  5
265
330
1F
100
AcDbEntity
  8
ConnectionPoints
100
AcDbPoint
 10
0.0
 20
-2.743
 30
2.484375
  0
POINT
  5
266
330
1F
100
AcDbEntity
  8
ConnectionPoints
100
AcDbPoint
 10
0.0
 20
-2.530666666666667
 30
-2.484375
  0
POINT
  5
267
330
1F
100
AcDbEntity
  8
ConnectionPoints
100
AcDbPoint
 10
0.0
 20
-2.743
 30
-2.484375
  0
POINT
  5
268
330
1F
100
AcDbEntity
  8
ConnectionPoints
100
AcDbPoint
 10
0.0
 20
-2.530666666666667
 30
0.0000000000000002
  0
POINT
  5
269
330
1F
100
AcDbEntity
  8
ConnectionPoints
100
AcDbPoint
 10
0.0
 20
-1.246375
 30
4.66243909847167
  0
POINT
  5
26A
330
1F
100
AcDbEntity
  8
ConnectionPoints
100
AcDbPoint
 10
0.0
 20
-1.270567930139717
 30
4.620535714285714
  0
POINT
  5
26B
330
1F
100
AcDbEntity
  8
ConnectionPoints
100
AcDbPoint
 10
0.0
 20
-2.5625
 30
0.0000000000000002
  0
POINT
  5
26C
330
1F
100
AcDbEntity
  8
ConnectionPoints
100
AcDbPoint
 10
0.0
 20
-2.875
 30
0.0000000000000002
  0
ENDSEC
  0
SECTION
  2
OBJECTS
  0
DICTIONARY
  5
C
330
0
100
AcDbDictionary
281
     1
  3
ACAD_DETAILVIEWSTYLE
350
274
  3
ACAD_GROUP
350
D
  3
ACAD_LAYOUT
350
1A
  3
ACAD_MATERIAL
350
43
  3
ACAD_MLEADERSTYLE
350
6B
  3
ACAD_MLINESTYLE
350
17
  3
ACAD_PLOTSETTINGS
350
19
  3
ACAD_PLOTSTYLENAME
350
E
  3
ACAD_SCALELIST
350
47
  3
ACAD_SECTIONVIEWSTYLE
350
275
  3
ACAD_TABLESTYLE
350
69
  3
ACAD_VISUALSTYLE
350
2A
  3
ACDB_RECOMPOSE_DATA
350
271
  3
AcDbVariableDictionary
350
26D
  0
SUN
  5
6D
330
29
100
AcDbSun
 90
        1
290
     0
 63
     7
421
 16777215
 40
1.0
291
     1
 91
  2455826
 92
 54000000
292
     0
 70
     2
 71
   256
280
     1
  0
DICTIONARY
  5
274
102
{ACAD_REACTORS
330
C
102
}
330
C
100
AcDbDictionary
281
     1
  0
DICTIONARY
  5
D
102
{ACAD_REACTORS
330
C
102
}
330
C
100
AcDbDictionary
281
     1
  0
DICTIONARY
  5
1A
102
{ACAD_REACTORS
330
C
102
}
330
C
100
AcDbDictionary
281
     1
  3
Layout1
350
1E
  3
Layout2
350
26
  3
Model
350
22
  0
DICTIONARY
  5
43
102
{ACAD_REACTORS
330
C
102
}
330
C
100
AcDbDictionary
281
     1
  3
ByBlock
350
45
  3
ByLayer
350
44
  3
Global
350
46
  0
DICTIONARY
  5
6B
102
{ACAD_REACTORS
330
C
102
}
330
C
100
AcDbDictionary
281
     1
  3
Standard
350
6C
  0
DICTIONARY
  5
17
102
{ACAD_REACTORS
330
C
102
}
330
C
100
AcDbDictionary
281
     1
  3
Standard
350
18
  0
DICTIONARY
  5
19
102
{ACAD_REACTORS
330
C
102
}
330
C
100
AcDbDictionary
281
     1
  0
ACDBDICTIONARYWDFLT
  5
E
102
{ACAD_REACTORS
330
C
102
}
330
C
100
AcDbDictionary
281
     1
  3
Normal
350
F
100
AcDbDictionaryWithDefault
340
F
  0
DICTIONARY
  5
47
102
{ACAD_REACTORS
330
C
102
}
330
C
100
AcDbDictionary
281
     1
  3
A0
350
48
  3
A1
350
49
  3
A2
350
4A
  3
A3
350
4B
  3
A4
350
4C
  3
A5
350
4D
  3
A6
350
4E
  3
A7
350
4F
  3
A8
350
50
  3
A9
350
51
  3
B0
350
52
  3
B1
350
53
  3
B2
350
54
  3
B3
350
55
  3
B4
350
56
  3
B5
350
57
  3
B6
350
58
  3
B7
350
59
  3
B8
350
5A
  3
B9
350
5B
  3
C0
350
5C
  3
C1
350
5D
  3
C2
350
5E
  3
C3
350
5F
  3
C4
350
60
  3
C5
350
61
  3
C6
350
62
  3
C7
350
63
  3
C8
350
64
  3
C9
350
65
  3
D0
350
66
  3
D1
350
67
  3
D2
350
68
  0
DICTIONARY
  5
275
102
{ACAD_REACTORS
330
C
102
}
330
C
100
AcDbDictionary
281
     1
  0
DICTIONARY
  5
69
102
{ACAD_REACTORS
330
C
102
}
330
C
100
AcDbDictionary
281
     1
  3
Standard
350
6A
  0
DICTIONARY
  5
2A
102
{ACAD_REACTORS
330
C
102
}
330
C
100
AcDbDictionary
281
     1
  3
2dWireframe
350
2F
  3
Basic
350
32
  3
Brighten
350
36
  3
ColorChange
350
3A
  3
Conceptual
350
34
  3
Dim
350
35
  3
EdgeColorOff
350
3D
  3
Facepattern
350
39
  3
Flat
350
2B
  3
FlatWithEdges
350
2C
  3
Gouraud
350
2D
  3
GouraudWithEdges
350
2E
  3
Hidden
350
31
  3
JitterOff
350
3B
  3
Linepattern
350
38
  3
OverhangOff
350
3C
  3
Realistic
350
33
  3
Shaded
350
42
  3
Shaded with edges
350
41
  3
Shades of Gray
350
3E
  3
Sketchy
350
3F
  3
Thicken
350
37
  3
Wireframe
350
30
  3
X-Ray
350
40
  0
XRECORD
  5
271
102
{ACAD_REACTORS
330
C
102
}
330
C
100
AcDbXrecord
280
     1
 90
        1
330
6A
  0
DICTIONARY
  5
26D
102
{ACAD_REACTORS
330
C
102
}
330
C
100
AcDbDictionary
281
     1
  3
CANNOSCALE
350
26E
  3
CMLEADERSTYLE
350
273
  3
CTABLESTYLE
350
272
  0
LAYOUT
  5
1E
102
{ACAD_REACTORS
330
1A
102
}
330
1A
100
AcDbPlotSettings
  1

  2
none_device
  4

  6

 40
0.0
 41
0.0
 42
0.0
 43
0.0
 44
0.0
 45
0.0
 46
0.0
 47
0.0
 48
0.0
 49
0.0
140
0.0
141
0.0
142
1.0
143
1.0
 70
   688
 72
     0
 73
     0
 74
     5
  7

 75
    16
 76
     0
 77
     2
 78
   300
147
1.0
148
0.0
149
0.0
100
AcDbLayout
  1
Layout1
 70
     1
 71
     1
 10
0.0
 20
0.0
 11
12.0
 21
9.0
 12
0.0
 22
0.0
 32
0.0
 14
1.000000000000000E+20
 24
1.000000000000000E+20
 34
1.000000000000000E+20
 15
-1.000000000000000E+20
 25
-1.000000000000000E+20
 35
-1.000000000000000E+20
146
0.0
 13
0.0
 23
0.0
 33
0.0
 16
1.0
 26
0.0
 36
0.0
 17
0.0
 27
1.0
 37
0.0
 76
     0
330
1B
  0
LAYOUT
  5
26
102
{ACAD_REACTORS
330
1A
102
}
330
1A
100
AcDbPlotSettings
  1

  2
none_device
  4

  6

 40
0.0
 41
0.0
 42
0.0
 43
0.0
 44
0.0
 45
0.0
 46
0.0
 47
0.0
 48
0.0
 49
0.0
140
0.0
141
0.0
142
1.0
143
1.0
 70
   688
 72
     0
 73
     0
 74
     5
  7

 75
    16
 76
     0
 77
     2
 78
   300
147
1.0
148
0.0
149
0.0
100
AcDbLayout
  1
Layout2
 70
     1
 71
     2
 10
0.0
 20
0.0
 11
0.0
 21
0.0
 12
0.0
 22
0.0
 32
0.0
 14
0.0
 24
0.0
 34
0.0
 15
0.0
 25
0.0
 35
0.0
146
0.0
 13
0.0
 23
0.0
 33
0.0
 16
1.0
 26
0.0
 36
0.0
 17
0.0
 27
1.0
 37
0.0
 76
     0
330
23
  0
LAYOUT
  5
22
102
{ACAD_REACTORS
330
1A
102
}
330
1A
100
AcDbPlotSettings
  1

  2
none_device
  4
Letter_(8.50_x_11.00_Inches)
  6

 40
6.35
 41
6.35
 42
6.35000508
 43
6.35000508
 44
215.9
 45
279.4
 46
0.0
 47
0.0
 48
0.0
 49
0.0
140
0.0
141
0.0
142
1.0
143
1.0
 70
  1712
 72
     0
 73
     0
 74
     0
  7

 75
     0
 76
     0
 77
     2
 78
   300
147
1.0
148
0.0
149
0.0
100
AcDbLayout
  1
Model
 70
     1
 71
     0
 10
0.0
 20
0.0
 11
12.0
 21
9.0
 12
0.0
 22
0.0
 32
0.0
 14
1.000000000000000E+20
 24
1.000000000000000E+20
 34
1.000000000000000E+20
 15
-1.000000000000000E+20
 25
-1.000000000000000E+20
 35
-1.000000000000000E+20
146
0.0
 13
0.0
 23
0.0
 33
0.0
 16
1.0
 26
0.0
 36
0.0
 17
0.0
 27
1.0
 37
0.0
 76
     0
330
1F
331
29
  0
MATERIAL
  5
45
102
{ACAD_REACTORS
330
43
102
}
330
43
100
AcDbMaterial
  1
ByBlock
 72
     1
 94
      127
  0
MATERIAL
  5
44
102
{ACAD_REACTORS
330
43
102
}
330
43
100
AcDbMaterial
  1
ByLayer
 72
     1
 94
      127
  0
MATERIAL
  5
46
102
{ACAD_REACTORS
330
43
102
}
330
43
100
AcDbMaterial
  1
Global
 72
     1
 94
      127
  0
MLEADERSTYLE
  5
6C
102
{ACAD_REACTORS
330
6B
102
}
330
6B
100
AcDbMLeaderStyle
179
     2
170
     2
171
     1
172
     0
 90
        2
 40
0.0
 41
0.0
173
     1
 91
-1056964608
340
14
 92
       -2
290
     1
 42
0.09
291
     1
 43
0.36
  3
Standard
341
0
 44
0.18
300

342
11
174
     1
178
     6
175
     1
176
     0
 93
-1056964608
 45
0.18
292
     0
297
     0
 46
0.18
343
0
 94
-1056964608
 47
1.0
 49
1.0
140
1.0
293
     1
141
0.0
294
     1
177
     0
142
1.0
295
     0
296
     0
143
0.125
271
     0
272
     9
273
     9
298
     0
  0
MLINESTYLE
  5
18
102
{ACAD_REACTORS
330
17
102
}
330
17
100
AcDbMlineStyle
  2
Standard
 70
     0
  3

 62
   256
 51
90.0
 52
90.0
 71
     2
 49
0.5
 62
   256
  6
BYLAYER
 49
-0.5
 62
   256
  6
BYLAYER
  0
ACDBPLACEHOLDER
  5
F
102
{ACAD_REACTORS
330
E
102
}
330
E
  0
SCALE
  5
48
102
{ACAD_REACTORS
330
47
102
}
330
47
100
AcDbScale
 70
     0
300
1:1
140
1.0
141
1.0
290
     1
  0
SCALE
  5
49
102
{ACAD_REACTORS
330
47
102
}
330
47
100
AcDbScale
 70
     0
300
1:2
140
1.0
141
2.0
290
     0
  0
SCALE
  5
4A
102
{ACAD_REACTORS
330
47
102
}
330
47
100
AcDbScale
 70
     0
300
1:4
140
1.0
141
4.0
290
     0
  0
SCALE
  5
4B
102
{ACAD_REACTORS
330
47
102
}
330
47
100
AcDbScale
 70
     0
300
1:5
140
1.0
141
5.0
290
     0
  0
SCALE
  5
4C
102
{ACAD_REACTORS
330
47
102
}
330
47
100
AcDbScale
 70
     0
300
1:8
140
1.0
141
8.0
290
     0
  0
SCALE
  5
4D
102
{ACAD_REACTORS
330
47
102
}
330
47
100
AcDbScale
 70
     0
300
1:10
140
1.0
141
10.0
290
     0
  0
SCALE
  5
4E
102
{ACAD_REACTORS
330
47
102
}
330
47
100
AcDbScale
 70
     0
300
1:16
140
1.0
141
16.0
290
     0
  0
SCALE
  5
4F
102
{ACAD_REACTORS
330
47
102
}
330
47
100
AcDbScale
 70
     0
300
1:20
140
1.0
141
20.0
290
     0
  0
SCALE
  5
50
102
{ACAD_REACTORS
330
47
102
}
330
47
100
AcDbScale
 70
     0
300
1:30
140
1.0
141
30.0
290
     0
  0
SCALE
  5
51
102
{ACAD_REACTORS
330
47
102
}
330
47
100
AcDbScale
 70
     0
300
1:40
140
1.0
141
40.0
290
     0
  0
SCALE
  5
52
102
{ACAD_REACTORS
330
47
102
}
330
47
100
AcDbScale
 70
     0
300
1:50
140
1.0
141
50.0
290
     0
  0
SCALE
  5
53
102
{ACAD_REACTORS
330
47
102
}
330
47
100
AcDbScale
 70
     0
300
1:100
140
1.0
141
100.0
290
     0
  0
SCALE
  5
54
102
{ACAD_REACTORS
330
47
102
}
330
47
100
AcDbScale
 70
     0
300
2:1
140
2.0
141
1.0
290
     0
  0
SCALE
  5
55
102
{ACAD_REACTORS
330
47
102
}
330
47
100
AcDbScale
 70
     0
300
4:1
140
4.0
141
1.0
290
     0
  0
SCALE
  5
56
102
{ACAD_REACTORS
330
47
102
}
330
47
100
AcDbScale
 70
     0
300
8:1
140
8.0
141
1.0
290
     0
  0
SCALE
  5
57
102
{ACAD_REACTORS
330
47
102
}
330
47
100
AcDbScale
 70
     0
300
10:1
140
10.0
141
1.0
290
     0
  0
SCALE
  5
58
102
{ACAD_REACTORS
330
47
102
}
330
47
100
AcDbScale
 70
     0
300
100:1
140
100.0
141
1.0
290
     0
  0
SCALE
  5
59
102
{ACAD_REACTORS
330
47
102
}
330
47
100
AcDbScale
 70
     0
300
1/128" = 1'-0"
140
0.0078125
141
12.0
290
     0
  0
SCALE
  5
5A
102
{ACAD_REACTORS
330
47
102
}
330
47
100
AcDbScale
 70
     0
300
1/64" = 1'-0"
140
0.015625
141
12.0
290
     0
  0
SCALE
  5
5B
102
{ACAD_REACTORS
330
47
102
}
330
47
100
AcDbScale
 70
     0
300
1/32" = 1'-0"
140
0.03125
141
12.0
290
     0
  0
SCALE
  5
5C
102
{ACAD_REACTORS
330
47
102
}
330
47
100
AcDbScale
 70
     0
300
1/16" = 1'-0"
140
0.0625
141
12.0
290
     0
  0
SCALE
  5
5D
102
{ACAD_REACTORS
330
47
102
}
330
47
100
AcDbScale
 70
     0
300
3/32" = 1'-0"
140
0.09375
141
12.0
290
     0
  0
SCALE
  5
5E
102
{ACAD_REACTORS
330
47
102
}
330
47
100
AcDbScale
 70
     0
300
1/8" = 1'-0"
140
0.125
141
12.0
290
     0
  0
SCALE
  5
5F
102
{ACAD_REACTORS
330
47
102
}
330
47
100
AcDbScale
 70
     0
300
3/16" = 1'-0"
140
0.1875
141
12.0
290
     0
  0
SCALE
  5
60
102
{ACAD_REACTORS
330
47
102
}
330
47
100
AcDbScale
 70
     0
300
1/4" = 1'-0"
140
0.25
141
12.0
290
     0
  0
SCALE
  5
61
102
{ACAD_REACTORS
330
47
102
}
330
47
100
AcDbScale
 70
     0
300
3/8" = 1'-0"
140
0.375
141
12.0
290
     0
  0
SCALE
  5
62
102
{ACAD_REACTORS
330
47
102
}
330
47
100
AcDbScale
 70
     0
300
1/2" = 1'-0"
140
0.5
141
12.0
290
     0
  0
SCALE
  5
63
102
{ACAD_REACTORS
330
47
102
}
330
47
100
AcDbScale
 70
     0
300
3/4" = 1'-0"
140
0.75
141
12.0
290
     0
  0
SCALE
  5
64
102
{ACAD_REACTORS
330
47
102
}
330
47
100
AcDbScale
 70
     0
300
1" = 1'-0"
140
1.0
141
12.0
290
     0
  0
SCALE
  5
65
102
{ACAD_REACTORS
330
47
102
}
330
47
100
AcDbScale
 70
     0
300
1-1/2" = 1'-0"
140
1.5
141
12.0
290
     0
  0
SCALE
  5
66
102
{ACAD_REACTORS
330
47
102
}
330
47
100
AcDbScale
 70
     0
300
3" = 1'-0"
140
3.0
141
12.0
290
     0
  0
SCALE
  5
67
102
{ACAD_REACTORS
330
47
102
}
330
47
100
AcDbScale
 70
     0
300
6" = 1'-0"
140
6.0
141
12.0
290
     0
  0
SCALE
  5
68
102
{ACAD_REACTORS
330
47
102
}
330
47
100
AcDbScale
 70
     0
300
1'-0" = 1'-0"
140
12.0
141
12.0
290
     0
  0
TABLESTYLE
  5
6A
102
{ACAD_REACTORS
330
69
102
}
102
{ACAD_XDICTIONARY
360
26F
102
}
330
69
100
AcDbTableStyle
  3
Standard
 70
     0
 71
     0
 40
0.06
 41
0.06
280
     0
281
     0
  7
Standard
140
0.18
170
     2
 62
     0
 63
   257
283
     0
 90
        4
 91
        0
  1

274
    -2
284
     1
 64
     0
275
    -2
285
     1
 65
     0
276
    -2
286
     1
 66
     0
277
    -2
287
     1
 67
     0
278
    -2
288
     1
 68
     0
279
    -2
289
     1
 69
     0
  7
Standard
140
0.25
170
     5
 62
     0
 63
   257
283
     0
 90
        4
 91
        0
  1

274
    -2
284
     1
 64
     0
275
    -2
285
     1
 65
     0
276
    -2
286
     1
 66
     0
277
    -2
287
     1
 67
     0
278
    -2
288
     1
 68
     0
279
    -2
289
     1
 69
     0
  7
Standard
140
0.18
170
     5
 62
     0
 63
   257
283
     0
 90
        4
 91
        0
  1

274
    -2
284
     1
 64
     0
275
    -2
285
     1
 65
     0
276
    -2
286
     1
 66
     0
277
    -2
287
     1
 67
     0
278
    -2
288
     1
 68
     0
279
    -2
289
     1
 69
     0
  0
VISUALSTYLE
  5
2F
102
{ACAD_REACTORS
330
2A
102
}
330
2A
100
AcDbVisualStyle
  2
2dWireframe
 70
     4
177
     3
291
     0
 70
    58
 90
        0
176
     1
 90
        2
176
     1
 90
        0
176
     1
 90
        0
176
     1
 40
0.6
176
     1
 40
30.0
176
     1
 62
     7
420
 16777215
176
     1
 90
        1
176
     1
 90
        4
176
     1
 62
     7
176
     1
 62
   257
176
     1
 90
        1
176
     1
 90
        1
176
     1
 40
1.0
176
     1
 90
        0
176
     1
 62
   257
176
     1
 40
1.0
176
     1
 90
        1
176
     1
 90
        6
176
     1
 90
        2
176
     1
 62
     7
176
     1
 90
        5
176
     1
 90
        0
176
     1
 90
        0
176
     1
290
     0
176
     1
 90
        1
176
     1
 40
0.0
176
     1
 90
        0
176
     1
290
     1
176
     1
290
     1
176
     1
290
     0
176
     1
290
     0
176
     1
290
     0
176
     1
290
     0
176
     1
290
     0
176
     1
290
     0
176
     1
290
     0
176
     1
 90
       50
176
     1
 40
0.0
176
     1
 40
1.0
176
     1
 90
        0
176
     1
 62
    18
420
        0
176
     1
 90
       50
176
     1
 90
        3
176
     1
 62
     5
420
      255
176
     1
290
     0
176
     1
 90
       50
176
     1
 90
       50
176
     1
 90
       50
176
     1
290
     0
176
     1
 90
       50
176
     1
 62
   256
176
     0
 40
1.0
176
     0
 90
        2
176
     1
  1
strokes_ogs.tif
176
     1
290
     0
176
     1
 40
1.0
176
     1
 40
1.0
176
     1
  0
VISUALSTYLE
  5
32
102
{ACAD_REACTORS
330
2A
102
}
330
2A
100
AcDbVisualStyle
  2
Basic
 70
     7
177
     3
291
     1
 70
    58
 90
        1
176
     1
 90
        0
176
     1
 90
        1
176
     1
 90
        0
176
     1
 40
0.6
176
     1
 40
30.0
176
     1
 62
     7
420
 16777215
176
     1
 90
        0
176
     1
 90
        4
176
     1
 62
     7
176
     1
 62
   257
176
     1
 90
        1
176
     1
 90
        1
176
     1
 40
1.0
176
     1
 90
        8
176
     1
 62
     7
176
     1
 40
1.0
176
     1
 90
        1
176
     1
 90
        6
176
     1
 90
        2
176
     1
 62
     7
176
     1
 90
        5
176
     1
 90
        0
176
     1
 90
        0
176
     1
290
     0
176
     1
 90
        1
176
     1
 40
0.0
176
     1
 90
        0
176
     1
290
     0
176
     1
290
     1
176
     1
290
     1
176
     1
290
     0
176
     1
290
     0
176
     1
290
     0
176
     1
290
     0
176
     1
290
     0
176
     1
290
     0
176
     1
 90
       50
176
     1
 40
0.0
176
     1
 40
1.0
176
     1
 90
        0
176
     1
 62
    18
420
        0
176
     1
 90
       50
176
     1
 90
        3
176
     1
 62
     5
420
      255
176
     1
290
     0
176
     1
 90
       50
176
     1
 90
       50
176
     1
 90
       50
176
     1
290
     0
176
     1
 90
       50
176
     1
 62
   256
176
     0
 40
1.0
176
     0
 90
        2
176
     1
  1
strokes_ogs.tif
176
     1
290
     0
176
     1
 40
1.0
176
     1
 40
1.0
176
     1
  0
VISUALSTYLE
  5
36
102
{ACAD_REACTORS
330
2A
102
}
330
2A
100
AcDbVisualStyle
  2
Brighten
 70
    12
177
     3
291
     1
 70
    58
 90
        2
176
     1
 90
        2
176
     1
 90
        0
176
     1
 90
        0
176
     1
 40
0.6
176
     1
 40
30.0
176
     1
 62
     7
420
 16777215
176
     1
 90
        1
176
     1
 90
        4
176
     1
 62
     7
176
     1
 62
   257
176
     1
 90
        1
176
     1
 90
        1
176
     1
 40
1.0
176
     1
 90
        8
176
     1
 62
     7
176
     1
 40
1.0
176
     1
 90
        1
176
     1
 90
        6
176
     1
 90
        2
176
     1
 62
     7
176
     1
 90
        5
176
     1
 90
        0
176
     1
 90
        0
176
     1
290
     0
176
     1
 90
        1
176
     1
 40
50.0
176
     1
 90
        0
176
     1
290
     0
176
     1
290
     1
176
     1
290
     1
176
     1
290
     0
176
     1
290
     0
176
     1
290
     0
176
     1
290
     0
176
     1
290
     0
176
     1
290
     0
176
     1
 90
       50
176
     1
 40
0.0
176
     1
 40
1.0
176
     1
 90
        0
176
     1
 62
    18
420
        0
176
     1
 90
       50
176
     1
 90
        3
176
     1
 62
     5
420
      255
176
     1
290
     0
176
     1
 90
       50
176
     1
 90
       50
176
     1
 90
       50
176
     1
290
     0
176
     1
 90
       50
176
     1
 62
   256
176
     0
 40
1.0
176
     0
 90
        2
176
     1
  1
strokes_ogs.tif
176
     1
290
     0
176
     1
 40
1.0
176
     1
 40
1.0
176
     1
  0
VISUALSTYLE
  5
3A
102
{ACAD_REACTORS
330
2A
102
}
330
2A
100
AcDbVisualStyle
  2
ColorChange
 70
    16
177
     3
291
     1
 70
    58
 90
        2
176
     1
 90
        2
176
     1
 90
        3
176
     1
 90
        0
176
     1
 40
0.6
176
     1
 40
30.0
176
     1
 62
     8
420
  8421504
176
     1
 90
        1
176
     1
 90
        4
176
     1
 62
     7
176
     1
 62
   257
176
     1
 90
        1
176
     1
 90
        1
176
     1
 40
1.0
176
     1
 90
        8
176
     1
 62
     8
420
  8421504
176
     1
 40
1.0
176
     1
 90
        1
176
     1
 90
        6
176
     1
 90
        2
176
     1
 62
     7
176
     1
 90
        5
176
     1
 90
        0
176
     1
 90
        0
176
     1
290
     0
176
     1
 90
        1
176
     1
 40
0.0
176
     1
 90
        0
176
     1
290
     0
176
     1
290
     1
176
     1
290
     1
176
     1
290
     0
176
     1
290
     0
176
     1
290
     0
176
     1
290
     0
176
     1
290
     0
176
     1
290
     0
176
     1
 90
       50
176
     1
 40
0.0
176
     1
 40
1.0
176
     1
 90
        0
176
     1
 62
    18
420
        0
176
     1
 90
       50
176
     1
 90
        3
176
     1
 62
     5
420
      255
176
     1
290
     0
176
     1
 90
       50
176
     1
 90
       50
176
     1
 90
       50
176
     1
290
     0
176
     1
 90
       50
176
     1
 62
   256
176
     0
 40
1.0
176
     0
 90
        2
176
     1
  1
strokes_ogs.tif
176
     1
290
     0
176
     1
 40
1.0
176
     1
 40
1.0
176
     1
  0
VISUALSTYLE
  5
34
102
{ACAD_REACTORS
330
2A
102
}
330
2A
100
AcDbVisualStyle
  2
Conceptual
 70
     9
177
     3
291
     0
 70
    58
 90
        3
176
     1
 90
        2
176
     1
 90
        0
176
     1
 90
        0
176
     1
 40
0.6
176
     1
 40
30.0
176
     1
 62
     7
420
 16777215
176
     1
 90
        2
176
     1
 90
        2
176
     1
 62
     7
176
     1
 62
   257
176
     1
 90
        1
176
     1
 90
        1
176
     1
 40
179.0
176
     1
 90
        8
176
     1
 62
     7
176
     1
 40
1.0
176
     1
 90
        1
176
     1
 90
        6
176
     1
 90
        2
176
     1
 62
     7
176
     1
 90
        3
176
     1
 90
        0
176
     1
 90
        0
176
     1
290
     0
176
     1
 90
        1
176
     1
 40
0.0
176
     1
 90
        0
176
     1
290
     0
176
     1
290
     1
176
     1
290
     1
176
     1
290
     0
176
     1
290
     0
176
     1
290
     0
176
     1
290
     0
176
     1
290
     0
176
     1
290
     0
176
     1
 90
       50
176
     1
 40
0.0
176
     1
 40
1.0
176
     1
 90
        0
176
     1
 62
    18
420
        0
176
     1
 90
       50
176
     1
 90
        3
176
     1
 62
     5
420
      255
176
     1
290
     0
176
     1
 90
       50
176
     1
 90
       50
176
     1
 90
       50
176
     1
290
     0
176
     1
 90
       50
176
     1
 62
   256
176
     0
 40
1.0
176
     0
 90
        2
176
     1
  1
strokes_ogs.tif
176
     1
290
     0
176
     1
 40
1.0
176
     1
 40
1.0
176
     1
  0
VISUALSTYLE
  5
35
102
{ACAD_REACTORS
330
2A
102
}
330
2A
100
AcDbVisualStyle
  2
Dim
 70
    11
177
     3
291
     1
 70
    58
 90
        2
176
     1
 90
        2
176
     1
 90
        0
176
     1
 90
        0
176
     1
 40
0.6
176
     1
 40
30.0
176
     1
 62
     7
420
 16777215
176
     1
 90
        1
176
     1
 90
        4
176
     1
 62
     7
176
     1
 62
   257
176
     1
 90
        1
176
     1
 90
        1
176
     1
 40
1.0
176
     1
 90
        8
176
     1
 62
     7
176
     1
 40
1.0
176
     1
 90
        1
176
     1
 90
        6
176
     1
 90
        2
176
     1
 62
     7
176
     1
 90
        5
176
     1
 90
        0
176
     1
 90
        0
176
     1
290
     0
176
     1
 90
        1
176
     1
 40
-50.0
176
     1
 90
        0
176
     1
290
     0
176
     1
290
     1
176
     1
290
     1
176
     1
290
     0
176
     1
290
     0
176
     1
290
     0
176
     1
290
     0
176
     1
290
     0
176
     1
290
     0
176
     1
 90
       50
176
     1
 40
0.0
176
     1
 40
1.0
176
     1
 90
        0
176
     1
 62
    18
420
        0
176
     1
 90
       50
176
     1
 90
        3
176
     1
 62
     5
420
      255
176
     1
290
     0
176
     1
 90
       50
176
     1
 90
       50
176
     1
 90
       50
176
     1
290
     0
176
     1
 90
       50
176
     1
 62
   256
176
     0
 40
1.0
176
     0
 90
        2
176
     1
  1
strokes_ogs.tif
176
     1
290
     0
176
     1
 40
1.0
176
     1
 40
1.0
176
     1
  0
VISUALSTYLE
  5
3D
102
{ACAD_REACTORS
330
2A
102
}
330
2A
100
AcDbVisualStyle
  2
EdgeColorOff
 70
    22
177
     3
291
     1
 70
    58
 90
        2
176
     0
 90
        2
176
     0
 90
        0
176
     0
 90
        0
176
     0
 40
0.6
176
     0
 40
30.0
176
     0
 62
     7
420
 16777215
176
     0
 90
        1
176
     0
 90
        4
176
     0
 62
     7
176
     0
 62
   257
176
     0
 90
        1
176
     0
 90
        1
176
     0
 40
1.0
176
     0
 90
        8
176
     2
 62
     7
176
     0
 40
1.0
176
     0
 90
        1
176
     0
 90
        6
176
     0
 90
        2
176
     0
 62
     7
176
     0
 90
        5
176
     0
 90
        0
176
     0
 90
        0
176
     0
290
     0
176
     0
 90
        1
176
     0
 40
0.0
176
     0
 90
        0
176
     0
290
     0
176
     0
290
     1
176
     0
290
     1
176
     0
290
     0
176
     0
290
     0
176
     0
290
     0
176
     0
290
     0
176
     0
290
     0
176
     0
290
     0
176
     0
 90
       50
176
     0
 40
0.0
176
     0
 40
1.0
176
     0
 90
        0
176
     0
 62
    18
420
        0
176
     0
 90
       50
176
     0
 90
        3
176
     0
 62
     5
420
      255
176
     0
290
     0
176
     0
 90
       50
176
     0
 90
       50
176
     0
 90
       50
176
     0
290
     0
176
     0
 90
       50
176
     0
 62
   256
176
     0
 40
1.0
176
     0
 90
        2
176
     0
  1
strokes_ogs.tif
176
     0
290
     0
176
     0
 40
1.0
176
     0
 40
1.0
176
     0
  0
VISUALSTYLE
  5
39
102
{ACAD_REACTORS
330
2A
102
}
330
2A
100
AcDbVisualStyle
  2
Facepattern
 70
    15
177
     3
291
     1
 70
    58
 90
        2
176
     1
 90
        2
176
     1
 90
        0
176
     1
 90
        0
176
     1
 40
0.6
176
     1
 40
30.0
176
     1
 62
     7
420
 16777215
176
     1
 90
        1
176
     1
 90
        4
176
     1
 62
     7
176
     1
 62
   257
176
     1
 90
        1
176
     1
 90
        1
176
     1
 40
1.0
176
     1
 90
        8
176
     1
 62
     7
176
     1
 40
1.0
176
     1
 90
        1
176
     1
 90
        6
176
     1
 90
        2
176
     1
 62
     7
176
     1
 90
        5
176
     1
 90
        0
176
     1
 90
        0
176
     1
290
     0
176
     1
 90
        1
176
     1
 40
0.0
176
     1
 90
        0
176
     1
290
     0
176
     1
290
     1
176
     1
290
     1
176
     1
290
     0
176
     1
290
     0
176
     1
290
     0
176
     1
290
     0
176
     1
290
     0
176
     1
290
     0
176
     1
 90
       50
176
     1
 40
0.0
176
     1
 40
1.0
176
     1
 90
        0
176
     1
 62
    18
420
        0
176
     1
 90
       50
176
     1
 90
        3
176
     1
 62
     5
420
      255
176
     1
290
     0
176
     1
 90
       50
176
     1
 90
       50
176
     1
 90
       50
176
     1
290
     0
176
     1
 90
       50
176
     1
 62
   256
176
     0
 40
1.0
176
     0
 90
        2
176
     1
  1
strokes_ogs.tif
176
     1
290
     0
176
     1
 40
1.0
176
     1
 40
1.0
176
     1
  0
VISUALSTYLE
  5
2B
102
{ACAD_REACTORS
330
2A
102
}
330
2A
100
AcDbVisualStyle
  2
Flat
 70
     0
177
     3
291
     1
 70
    58
 90
        2
176
     1
 90
        1
176
     1
 90
        1
176
     1
 90
        2
176
     1
 40
0.6
176
     1
 40
30.0
176
     1
 62
     7
420
 16777215
176
     1
 90
        0
176
     1
 90
        0
176
     1
 62
     7
176
     1
 62
   257
176
     1
 90
        1
176
     1
 90
        1
176
     1
 40
1.0
176
     1
 90
        8
176
     1
 62
     7
176
     1
 40
1.0
176
     1
 90
        1
176
     1
 90
        6
176
     1
 90
        2
176
     1
 62
     7
176
     1
 90
        5
176
     1
 90
        0
176
     1
 90
        0
176
     1
290
     0
176
     1
 90
       13
176
     1
 40
0.0
176
     1
 90
        0
176
     1
290
     0
176
     1
290
     1
176
     1
290
     1
176
     1
290
     0
176
     1
290
     0
176
     1
290
     0
176
     1
290
     0
176
     1
290
     0
176
     1
290
     0
176
     1
 90
       50
176
     1
 40
0.0
176
     1
 40
1.0
176
     1
 90
        0
176
     1
 62
    18
420
        0
176
     1
 90
       50
176
     1
 90
        3
176
     1
 62
     5
420
      255
176
     1
290
     0
176
     1
 90
       50
176
     1
 90
       50
176
     1
 90
       50
176
     1
290
     0
176
     1
 90
       50
176
     1
 62
   256
176
     0
 40
1.0
176
     0
 90
        2
176
     1
  1
strokes_ogs.tif
176
     1
290
     0
176
     1
 40
1.0
176
     1
 40
1.0
176
     1
  0
VISUALSTYLE
  5
2C
102
{ACAD_REACTORS
330
2A
102
}
330
2A
100
AcDbVisualStyle
  2
FlatWithEdges
 70
     1
177
     3
291
     1
 70
    58
 90
        2
176
     1
 90
        1
176
     1
 90
        1
176
     1
 90
        2
176
     1
 40
0.6
176
     1
 40
30.0
176
     1
 62
     7
420
 16777215
176
     1
 90
        1
176
     1
 90
        0
176
     1
 62
     7
176
     1
 62
   257
176
     1
 90
        1
176
     1
 90
        1
176
     1
 40
1.0
176
     1
 90
        0
176
     1
 62
   257
176
     1
 40
1.0
176
     1
 90
        1
176
     1
 90
        6
176
     1
 90
        2
176
     1
 62
     7
176
     1
 90
        5
176
     1
 90
        0
176
     1
 90
        0
176
     1
290
     0
176
     1
 90
       13
176
     1
 40
0.0
176
     1
 90
        0
176
     1
290
     0
176
     1
290
     1
176
     1
290
     1
176
     1
290
     0
176
     1
290
     0
176
     1
290
     0
176
     1
290
     0
176
     1
290
     0
176
     1
290
     0
176
     1
 90
       50
176
     1
 40
0.0
176
     1
 40
1.0
176
     1
 90
        0
176
     1
 62
    18
420
        0
176
     1
 90
       50
176
     1
 90
        3
176
     1
 62
     5
420
      255
176
     1
290
     0
176
     1
 90
       50
176
     1
 90
       50
176
     1
 90
       50
176
     1
290
     0
176
     1
 90
       50
176
     1
 62
   256
176
     0
 40
1.0
176
     0
 90
        2
176
     1
  1
strokes_ogs.tif
176
     1
290
     0
176
     1
 40
1.0
176
     1
 40
1.0
176
     1
  0
VISUALSTYLE
  5
2D
102
{ACAD_REACTORS
330
2A
102
}
330
2A
100
AcDbVisualStyle
  2
Gouraud
 70
     2
177
     3
291
     1
 70
    58
 90
        2
176
     1
 90
        2
176
     1
 90
        1
176
     1
 90
        2
176
     1
 40
0.6
176
     1
 40
30.0
176
     1
 62
     7
420
 16777215
176
     1
 90
        0
176
     1
 90
        0
176
     1
 62
     7
176
     1
 62
   257
176
     1
 90
        1
176
     1
 90
        1
176
     1
 40
1.0
176
     1
 90
        0
176
     1
 62
     7
176
     1
 40
1.0
176
     1
 90
        1
176
     1
 90
        6
176
     1
 90
        2
176
     1
 62
     7
176
     1
 90
        5
176
     1
 90
        0
176
     1
 90
        0
176
     1
290
     0
176
     1
 90
       13
176
     1
 40
0.0
176
     1
 90
        0
176
     1
290
     0
176
     1
290
     1
176
     1
290
     1
176
     1
290
     0
176
     1
290
     0
176
     1
290
     0
176
     1
290
     0
176
     1
290
     0
176
     1
290
     0
176
     1
 90
       50
176
     1
 40
0.0
176
     1
 40
1.0
176
     1
 90
        0
176
     1
 62
    18
420
        0
176
     1
 90
       50
176
     1
 90
        3
176
     1
 62
     5
420
      255
176
     1
290
     0
176
     1
 90
       50
176
     1
 90
       50
176
     1
 90
       50
176
     1
290
     0
176
     1
 90
       50
176
     1
 62
   256
176
     0
 40
1.0
176
     0
 90
        2
176
     1
  1
strokes_ogs.tif
176
     1
290
     0
176
     1
 40
1.0
176
     1
 40
1.0
176
     1
  0
VISUALSTYLE
  5
2E
102
{ACAD_REACTORS
330
2A
102
}
330
2A
100
AcDbVisualStyle
  2
GouraudWithEdges
 70
     3
177
     3
291
     1
 70
    58
 90
        2
176
     1
 90
        2
176
     1
 90
        1
176
     1
 90
        2
176
     1
 40
0.6
176
     1
 40
30.0
176
     1
 62
     7
420
 16777215
176
     1
 90
        1
176
     1
 90
        0
176
     1
 62
     7
176
     1
 62
   257
176
     1
 90
        1
176
     1
 90
        1
176
     1
 40
1.0
176
     1
 90
        0
176
     1
 62
   257
176
     1
 40
1.0
176
     1
 90
        1
176
     1
 90
        6
176
     1
 90
        2
176
     1
 62
     7
176
     1
 90
        5
176
     1
 90
        0
176
     1
 90
        0
176
     1
290
     0
176
     1
 90
       13
176
     1
 40
0.0
176
     1
 90
        0
176
     1
290
     0
176
     1
290
     1
176
     1
290
     1
176
     1
290
     0
176
     1
290
     0
176
     1
290
     0
176
     1
290
     0
176
     1
290
     0
176
     1
290
     0
176
     1
 90
       50
176
     1
 40
0.0
176
     1
 40
1.0
176
     1
 90
        0
176
     1
 62
    18
420
        0
176
     1
 90
       50
176
     1
 90
        3
176
     1
 62
     5
420
      255
176
     1
290
     0
176
     1
 90
       50
176
     1
 90
       50
176
     1
 90
       50
176
     1
290
     0
176
     1
 90
       50
176
     1
 62
   256
176
     0
 40
1.0
176
     0
 90
        2
176
     1
  1
strokes_ogs.tif
176
     1
290
     0
176
     1
 40
1.0
176
     1
 40
1.0
176
     1
  0
VISUALSTYLE
  5
31
102
{ACAD_REACTORS
330
2A
102
}
330
2A
100
AcDbVisualStyle
  2
Hidden
 70
     6
177
     3
291
     0
 70
    58
 90
        1
176
     1
 90
        2
176
     1
 90
        2
176
     1
 90
        0
176
     1
 40
0.6
176
     1
 40
30.0
176
     1
 62
     7
420
 16777215
176
     1
 90
        2
176
     1
 90
        2
176
     1
 62
     7
176
     1
 62
   257
176
     1
 90
        2
176
     1
 90
        1
176
     1
 40
40.0
176
     1
 90
        0
176
     1
 62
   257
176
     1
 40
1.0
176
     1
 90
        1
176
     1
 90
        6
176
     1
 90
        2
176
     1
 62
     7
176
     1
 90
        3
176
     1
 90
        0
176
     1
 90
        0
176
     1
290
     0
176
     1
 90
        1
176
     1
 40
0.0
176
     1
 90
        0
176
     1
290
     0
176
     1
290
     1
176
     1
290
     1
176
     1
290
     0
176
     1
290
     0
176
     1
290
     0
176
     1
290
     0
176
     1
290
     0
176
     1
290
     0
176
     1
 90
       50
176
     1
 40
0.0
176
     1
 40
1.0
176
     1
 90
        0
176
     1
 62
    18
420
        0
176
     1
 90
       50
176
     1
 90
        3
176
     1
 62
     5
420
      255
176
     1
290
     0
176
     1
 90
       50
176
     1
 90
       50
176
     1
 90
       50
176
     1
290
     0
176
     1
 90
       50
176
     1
 62
   256
176
     0
 40
1.0
176
     0
 90
        2
176
     1
  1
strokes_ogs.tif
176
     1
290
     0
176
     1
 40
1.0
176
     1
 40
1.0
176
     1
  0
VISUALSTYLE
  5
3B
102
{ACAD_REACTORS
330
2A
102
}
330
2A
100
AcDbVisualStyle
  2
JitterOff
 70
    20
177
     3
291
     1
 70
    58
 90
        2
176
     0
 90
        2
176
     0
 90
        0
176
     0
 90
        0
176
     0
 40
0.6
176
     0
 40
30.0
176
     0
 62
     7
420
 16777215
176
     0
 90
        1
176
     0
 90
        4
176
     0
 62
     7
176
     0
 62
   257
176
     0
 90
        1
176
     0
 90
        1
176
     0
 40
1.0
176
     0
 90
       10
176
     2
 62
     7
176
     0
 40
1.0
176
     0
 90
        1
176
     0
 90
        6
176
     0
 90
        2
176
     0
 62
     7
176
     0
 90
        5
176
     0
 90
        0
176
     0
 90
        0
176
     0
290
     0
176
     0
 90
        1
176
     0
 40
0.0
176
     0
 90
        0
176
     0
290
     0
176
     0
290
     1
176
     0
290
     1
176
     0
290
     0
176
     0
290
     0
176
     0
290
     0
176
     0
290
     0
176
     0
290
     0
176
     0
290
     0
176
     0
 90
       50
176
     0
 40
0.0
176
     0
 40
1.0
176
     0
 90
        0
176
     0
 62
    18
420
        0
176
     0
 90
       50
176
     0
 90
        3
176
     0
 62
     5
420
      255
176
     0
290
     0
176
     0
 90
       50
176
     0
 90
       50
176
     0
 90
       50
176
     0
290
     0
176
     0
 90
       50
176
     0
 62
   256
176
     0
 40
1.0
176
     0
 90
        2
176
     0
  1
strokes_ogs.tif
176
     0
290
     0
176
     0
 40
1.0
176
     0
 40
1.0
176
     0
  0
VISUALSTYLE
  5
38
102
{ACAD_REACTORS
330
2A
102
}
330
2A
100
AcDbVisualStyle
  2
Linepattern
 70
    14
177
     3
291
     1
 70
    58
 90
        2
176
     1
 90
        2
176
     1
 90
        0
176
     1
 90
        0
176
     1
 40
0.6
176
     1
 40
30.0
176
     1
 62
     7
420
 16777215
176
     1
 90
        1
176
     1
 90
        4
176
     1
 62
     7
176
     1
 62
   257
176
     1
 90
        7
176
     1
 90
        7
176
     1
 40
1.0
176
     1
 90
        8
176
     1
 62
     7
176
     1
 40
1.0
176
     1
 90
        1
176
     1
 90
        6
176
     1
 90
        2
176
     1
 62
     7
176
     1
 90
        5
176
     1
 90
        0
176
     1
 90
        0
176
     1
290
     0
176
     1
 90
        1
176
     1
 40
0.0
176
     1
 90
        0
176
     1
290
     0
176
     1
290
     1
176
     1
290
     1
176
     1
290
     0
176
     1
290
     0
176
     1
290
     0
176
     1
290
     0
176
     1
290
     0
176
     1
290
     0
176
     1
 90
       50
176
     1
 40
0.0
176
     1
 40
1.0
176
     1
 90
        0
176
     1
 62
    18
420
        0
176
     1
 90
       50
176
     1
 90
        3
176
     1
 62
     5
420
      255
176
     1
290
     0
176
     1
 90
       50
176
     1
 90
       50
176
     1
 90
       50
176
     1
290
     0
176
     1
 90
       50
176
     1
 62
   256
176
     0
 40
1.0
176
     0
 90
        2
176
     1
  1
strokes_ogs.tif
176
     1
290
     0
176
     1
 40
1.0
176
     1
 40
1.0
176
     1
  0
VISUALSTYLE
  5
3C
102
{ACAD_REACTORS
330
2A
102
}
330
2A
100
AcDbVisualStyle
  2
OverhangOff
 70
    21
177
     3
291
     1
 70
    58
 90
        2
176
     0
 90
        2
176
     0
 90
        0
176
     0
 90
        0
176
     0
 40
0.6
176
     0
 40
30.0
176
     0
 62
     7
420
 16777215
176
     0
 90
        1
176
     0
 90
        4
176
     0
 62
     7
176
     0
 62
   257
176
     0
 90
        1
176
     0
 90
        1
176
     0
 40
1.0
176
     0
 90
        9
176
     2
 62
     7
176
     0
 40
1.0
176
     0
 90
        1
176
     0
 90
        6
176
     0
 90
        2
176
     0
 62
     7
176
     0
 90
        5
176
     0
 90
        0
176
     0
 90
        0
176
     0
290
     0
176
     0
 90
        1
176
     0
 40
0.0
176
     0
 90
        0
176
     0
290
     0
176
     0
290
     1
176
     0
290
     1
176
     0
290
     0
176
     0
290
     0
176
     0
290
     0
176
     0
290
     0
176
     0
290
     0
176
     0
290
     0
176
     0
 90
       50
176
     0
 40
0.0
176
     0
 40
1.0
176
     0
 90
        0
176
     0
 62
    18
420
        0
176
     0
 90
       50
176
     0
 90
        3
176
     0
 62
     5
420
      255
176
     0
290
     0
176
     0
 90
       50
176
     0
 90
       50
176
     0
 90
       50
176
     0
290
     0
176
     0
 90
       50
176
     0
 62
   256
176
     0
 40
1.0
176
     0
 90
        2
176
     0
  1
strokes_ogs.tif
176
     0
290
     0
176
     0
 40
1.0
176
     0
 40
1.0
176
     0
  0
VISUALSTYLE
  5
33
102
{ACAD_REACTORS
330
2A
102
}
330
2A
100
AcDbVisualStyle
  2
Realistic
 70
     8
177
     3
291
     0
 70
    58
 90
        2
176
     1
 90
        3
176
     1
 90
        0
176
     1
 90
        2
176
     1
 40
0.6
176
     1
 40
30.0
176
     1
 62
     7
420
 16777215
176
     1
 90
        0
176
     1
 90
        0
176
     1
 62
     7
176
     1
 62
   257
176
     1
 90
        1
176
     1
 90
        1
176
     1
 40
1.0
176
     1
 90
        8
176
     1
 62
   257
176
     1
 40
1.0
176
     1
 90
        1
176
     1
 90
        6
176
     1
 90
        2
176
     1
 62
     7
176
     1
 90
        3
176
     1
 90
        0
176
     1
 90
        0
176
     1
290
     0
176
     1
 90
       13
176
     1
 40
0.0
176
     1
 90
        0
176
     1
290
     0
176
     1
290
     1
176
     1
290
     1
176
     1
290
     0
176
     1
290
     0
176
     1
290
     0
176
     1
290
     0
176
     1
290
     0
176
     1
290
     0
176
     1
 90
       50
176
     1
 40
0.0
176
     1
 40
1.0
176
     1
 90
        0
176
     1
 62
    18
420
        0
176
     1
 90
       50
176
     1
 90
        3
176
     1
 62
     5
420
      255
176
     1
290
     0
176
     1
 90
       50
176
     1
 90
       50
176
     1
 90
       50
176
     1
290
     0
176
     1
 90
       50
176
     1
 62
   256
176
     0
 40
1.0
176
     0
 90
        2
176
     1
  1
strokes_ogs.tif
176
     1
290
     0
176
     1
 40
1.0
176
     1
 40
1.0
176
     1
  0
VISUALSTYLE
  5
42
102
{ACAD_REACTORS
330
2A
102
}
330
2A
100
AcDbVisualStyle
  2
Shaded
 70
    27
177
     3
291
     0
 70
    58
 90
        2
176
     1
 90
        2
176
     1
 90
        1
176
     1
 90
        2
176
     1
 40
0.6
176
     1
 40
30.0
176
     1
 62
     7
420
 16777215
176
     1
 90
        0
176
     1
 90
        4
176
     1
 62
     7
176
     1
 62
   257
176
     1
 90
        1
176
     1
 90
        1
176
     1
 40
1.0
176
     1
 90
        8
176
     1
 62
   257
176
     1
 40
1.0
176
     1
 90
        1
176
     1
 90
        6
176
     1
 90
        2
176
     1
 62
     8
420
  7895160
176
     1
 90
        3
176
     1
 90
        0
176
     1
 90
        0
176
     1
290
     0
176
     1
 90
        5
176
     1
 40
0.0
176
     1
 90
        0
176
     1
290
     0
176
     1
290
     1
176
     1
290
     1
176
     1
290
     0
176
     1
290
     0
176
     1
290
     0
176
     1
290
     0
176
     1
290
     0
176
     1
290
     0
176
     1
 90
       50
176
     1
 40
0.0
176
     1
 40
1.0
176
     1
 90
        0
176
     1
 62
    18
420
        0
176
     1
 90
       50
176
     1
 90
        3
176
     1
 62
     5
420
      255
176
     1
290
     0
176
     1
 90
       50
176
     1
 90
       50
176
     1
 90
       50
176
     1
290
     0
176
     1
 90
       50
176
     1
 62
   256
176
     0
 40
1.0
176
     0
 90
        2
176
     1
  1
strokes_ogs.tif
176
     1
290
     0
176
     1
 40
1.0
176
     1
 40
1.0
176
     1
  0
VISUALSTYLE
  5
41
102
{ACAD_REACTORS
330
2A
102
}
330
2A
100
AcDbVisualStyle
  2
Shaded with edges
 70
    26
177
     3
291
     0
 70
    58
 90
        2
176
     1
 90
        2
176
     1
 90
        1
176
     1
 90
        2
176
     1
 40
0.6
176
     1
 40
30.0
176
     1
 62
     7
420
 16777215
176
     1
 90
        1
176
     1
 90
       10
176
     1
 62
     7
176
     1
 62
   257
176
     1
 90
        2
176
     1
 90
        1
176
     1
 40
1.0
176
     1
 90
        8
176
     1
 62
   257
176
     1
 40
1.0
176
     1
 90
        1
176
     1
 90
        6
176
     1
 90
        2
176
     1
 62
     7
176
     1
 90
        3
176
     1
 90
        0
176
     1
 90
        0
176
     1
290
     0
176
     1
 90
        5
176
     1
 40
0.0
176
     1
 90
        0
176
     1
290
     0
176
     1
290
     1
176
     1
290
     1
176
     1
290
     0
176
     1
290
     0
176
     1
290
     0
176
     1
290
     0
176
     1
290
     0
176
     1
290
     0
176
     1
 90
       50
176
     1
 40
0.0
176
     1
 40
1.0
176
     1
 90
        0
176
     1
 62
    18
420
        0
176
     1
 90
       50
176
     1
 90
        3
176
     1
 62
     5
420
      255
176
     1
290
     0
176
     1
 90
       50
176
     1
 90
       50
176
     1
 90
       50
176
     1
290
     0
176
     1
 90
       50
176
     1
 62
   256
176
     0
 40
1.0
176
     0
 90
        2
176
     1
  1
strokes_ogs.tif
176
     1
290
     0
176
     1
 40
1.0
176
     1
 40
1.0
176
     1
  0
VISUALSTYLE
  5
3E
102
{ACAD_REACTORS
330
2A
102
}
330
2A
100
AcDbVisualStyle
  2
Shades of Gray
 70
    23
177
     3
291
     0
 70
    58
 90
        2
176
     1
 90
        2
176
     1
 90
        3
176
     1
 90
        0
176
     1
 40
0.6
176
     1
 40
30.0
176
     1
 62
     7
420
 16777215
176
     1
 90
        2
176
     1
 90
        2
176
     1
 62
     7
176
     1
 62
     7
176
     1
 90
        1
176
     1
 90
        1
176
     1
 40
40.0
176
     1
 90
        8
176
     1
 62
     7
176
     1
 40
1.0
176
     1
 90
        1
176
     1
 90
        6
176
     1
 90
        2
176
     1
 62
     7
176
     1
 90
        3
176
     1
 90
        0
176
     1
 90
        0
176
     1
290
     0
176
     1
 90
        1
176
     1
 40
0.0
176
     1
 90
        0
176
     1
290
     0
176
     1
290
     1
176
     1
290
     1
176
     1
290
     0
176
     1
290
     0
176
     1
290
     0
176
     1
290
     0
176
     1
290
     0
176
     1
290
     0
176
     1
 90
       50
176
     1
 40
0.0
176
     1
 40
1.0
176
     1
 90
        0
176
     1
 62
    18
420
        0
176
     1
 90
       50
176
     1
 90
        3
176
     1
 62
     5
420
      255
176
     1
290
     0
176
     1
 90
       50
176
     1
 90
       50
176
     1
 90
       50
176
     1
290
     0
176
     1
 90
       50
176
     1
 62
   256
176
     0
 40
1.0
176
     0
 90
        2
176
     1
  1
strokes_ogs.tif
176
     1
290
     0
176
     1
 40
1.0
176
     1
 40
1.0
176
     1
  0
VISUALSTYLE
  5
3F
102
{ACAD_REACTORS
330
2A
102
}
330
2A
100
AcDbVisualStyle
  2
Sketchy
 70
    24
177
     3
291
     0
 70
    58
 90
        1
176
     1
 90
        2
176
     1
 90
        2
176
     1
 90
        0
176
     1
 40
0.6
176
     1
 40
30.0
176
     1
 62
     7
420
 16777215
176
     1
 90
        2
176
     1
 90
        2
176
     1
 62
     7
176
     1
 62
     7
176
     1
 90
        1
176
     1
 90
        1
176
     1
 40
40.0
176
     1
 90
       11
176
     1
 62
     7
176
     1
 40
1.0
176
     1
 90
        1
176
     1
 90
        6
176
     1
 90
        2
176
     1
 62
     7
176
     1
 90
        6
176
     1
 90
        0
176
     1
 90
        0
176
     1
290
     0
176
     1
 90
        1
176
     1
 40
0.0
176
     1
 90
        0
176
     1
290
     0
176
     1
290
     1
176
     1
290
     1
176
     1
290
     0
176
     1
290
     0
176
     1
290
     0
176
     1
290
     0
176
     1
290
     0
176
     1
290
     0
176
     1
 90
       50
176
     1
 40
0.0
176
     1
 40
1.0
176
     1
 90
        0
176
     1
 62
    18
420
        0
176
     1
 90
       50
176
     1
 90
        3
176
     1
 62
     5
420
      255
176
     1
290
     0
176
     1
 90
       50
176
     1
 90
       50
176
     1
 90
       50
176
     1
290
     0
176
     1
 90
       50
176
     1
 62
   256
176
     0
 40
1.0
176
     0
 90
        2
176
     1
  1
strokes_ogs.tif
176
     1
290
     0
176
     1
 40
1.0
176
     1
 40
1.0
176
     1
  0
VISUALSTYLE
  5
37
102
{ACAD_REACTORS
330
2A
102
}
330
2A
100
AcDbVisualStyle
  2
Thicken
 70
    13
177
     3
291
     1
 70
    58
 90
        2
176
     1
 90
        2
176
     1
 90
        0
176
     1
 90
        0
176
     1
 40
0.6
176
     1
 40
30.0
176
     1
 62
     7
420
 16777215
176
     1
 90
        1
176
     1
 90
        4
176
     1
 62
     7
176
     1
 62
   257
176
     1
 90
        1
176
     1
 90
        1
176
     1
 40
1.0
176
     1
 90
       12
176
     1
 62
     7
176
     1
 40
1.0
176
     1
 90
        1
176
     1
 90
        6
176
     1
 90
        2
176
     1
 62
     7
176
     1
 90
        5
176
     1
 90
        0
176
     1
 90
        0
176
     1
290
     0
176
     1
 90
        1
176
     1
 40
0.0
176
     1
 90
        0
176
     1
290
     0
176
     1
290
     1
176
     1
290
     1
176
     1
290
     0
176
     1
290
     0
176
     1
290
     0
176
     1
290
     0
176
     1
290
     0
176
     1
290
     0
176
     1
 90
       50
176
     1
 40
0.0
176
     1
 40
1.0
176
     1
 90
        0
176
     1
 62
    18
420
        0
176
     1
 90
       50
176
     1
 90
        3
176
     1
 62
     5
420
      255
176
     1
290
     0
176
     1
 90
       50
176
     1
 90
       50
176
     1
 90
       50
176
     1
290
     0
176
     1
 90
       50
176
     1
 62
   256
176
     0
 40
1.0
176
     0
 90
        2
176
     1
  1
strokes_ogs.tif
176
     1
290
     0
176
     1
 40
1.0
176
     1
 40
1.0
176
     1
  0
VISUALSTYLE
  5
30
102
{ACAD_REACTORS
330
2A
102
}
330
2A
100
AcDbVisualStyle
  2
Wireframe
 70
     5
177
     3
291
     0
 70
    58
 90
        0
176
     1
 90
        2
176
     1
 90
        0
176
     1
 90
        0
176
     1
 40
0.6
176
     1
 40
30.0
176
     1
 62
     7
420
 16777215
176
     1
 90
        1
176
     1
 90
        4
176
     1
 62
     7
176
     1
 62
   257
176
     1
 90
        1
176
     1
 90
        1
176
     1
 40
1.0
176
     1
 90
        0
176
     1
 62
   257
176
     1
 40
1.0
176
     1
 90
        1
176
     1
 90
        6
176
     1
 90
        2
176
     1
 62
     7
176
     1
 90
        3
176
     1
 90
        0
176
     1
 90
        0
176
     1
290
     0
176
     1
 90
        1
176
     1
 40
0.0
176
     1
 90
        0
176
     1
290
     0
176
     1
290
     1
176
     1
290
     1
176
     1
290
     0
176
     1
290
     0
176
     1
290
     0
176
     1
290
     0
176
     1
290
     0
176
     1
290
     0
176
     1
 90
       50
176
     1
 40
0.0
176
     1
 40
1.0
176
     1
 90
        0
176
     1
 62
    18
420
        0
176
     1
 90
       50
176
     1
 90
        3
176
     1
 62
     5
420
      255
176
     1
290
     0
176
     1
 90
       50
176
     1
 90
       50
176
     1
 90
       50
176
     1
290
     0
176
     1
 90
       50
176
     1
 62
   256
176
     0
 40
1.0
176
     0
 90
        2
176
     1
  1
strokes_ogs.tif
176
     1
290
     0
176
     1
 40
1.0
176
     1
 40
1.0
176
     1
  0
VISUALSTYLE
  5
40
102
{ACAD_REACTORS
330
2A
102
}
330
2A
100
AcDbVisualStyle
  2
X-Ray
 70
    25
177
     3
291
     0
 70
    58
 90
        2
176
     1
 90
        2
176
     1
 90
        1
176
     1
 90
        1
176
     1
 40
0.5
176
     1
 40
30.0
176
     1
 62
     7
420
 16777215
176
     1
 90
        1
176
     1
 90
        0
176
     1
 62
     7
176
     1
 62
   257
176
     1
 90
        1
176
     1
 90
        1
176
     1
 40
1.0
176
     1
 90
        8
176
     1
 62
     7
176
     1
 40
1.0
176
     1
 90
        1
176
     1
 90
        6
176
     1
 90
        2
176
     1
 62
     7
176
     1
 90
        3
176
     1
 90
        0
176
     1
 90
        0
176
     1
290
     0
176
     1
 90
       13
176
     1
 40
0.0
176
     1
 90
        0
176
     1
290
     0
176
     1
290
     1
176
     1
290
     1
176
     1
290
     0
176
     1
290
     0
176
     1
290
     0
176
     1
290
     0
176
     1
290
     0
176
     1
290
     0
176
     1
 90
       50
176
     1
 40
0.0
176
     1
 40
1.0
176
     1
 90
        0
176
     1
 62
    18
420
        0
176
     1
 90
       50
176
     1
 90
        3
176
     1
 62
     5
420
      255
176
     1
290
     0
176
     1
 90
       50
176
     1
 90
       50
176
     1
 90
       50
176
     1
290
     0
176
     1
 90
       50
176
     1
 62
   256
176
     0
 40
1.0
176
     0
 90
        2
176
     1
  1
strokes_ogs.tif
176
     1
290
     0
176
     1
 40
1.0
176
     1
 40
1.0
176
     1
  0
DICTIONARYVAR
  5
26E
102
{ACAD_REACTORS
330
26D
102
}
330
26D
100
DictionaryVariables
280
     0
  1
1:1
  0
DICTIONARYVAR
  5
273
102
{ACAD_REACTORS
330
26D
102
}
330
26D
100
DictionaryVariables
280
     0
  1
Standard
  0
DICTIONARYVAR
  5
272
102
{ACAD_REACTORS
330
26D
102
}
330
26D
100
DictionaryVariables
280
     0
  1
Standard
  0
DICTIONARY
  5
26F
330
6A
100
AcDbDictionary
280
     1
281
     1
  3
ACAD_ROUNDTRIP_2008_TABLESTYLE_CELLSTYLEMAP
360
270
  0
CELLSTYLEMAP
  5
270
102
{ACAD_REACTORS
330
26F
102
}
330
26F
100
AcDbCellStyleMap
 90
        3
300
CELLSTYLE
  1
TABLEFORMAT_BEGIN
 90
        5
170
     1
 91
        0
 92
    32768
 62
   257
 93
        1
300
CONTENTFORMAT
  1
CONTENTFORMAT_BEGIN
 90
        0
 91
        0
 92
        4
 93
        0
300

 40
0.0
140
1.0
 94
        5
 62
     0
340
11
144
0.25
309
CONTENTFORMAT_END
171
     1
301
MARGIN
  1
CELLMARGIN_BEGIN
 40
0.06
 40
0.06
 40
0.06
 40
0.06
 40
0.06
 40
0.06
309
CELLMARGIN_END
 94
        6
 95
        1
302
GRIDFORMAT
  1
GRIDFORMAT_BEGIN
 90
        0
 91
        1
 62
     0
 92
       -2
340
14
 93
        0
 40
0.045
309
GRIDFORMAT_END
 95
        2
302
GRIDFORMAT
  1
GRIDFORMAT_BEGIN
 90
        0
 91
        1
 62
     0
 92
       -2
340
14
 93
        0
 40
0.045
309
GRIDFORMAT_END
 95
        4
302
GRIDFORMAT
  1
GRIDFORMAT_BEGIN
 90
        0
 91
        1
 62
     0
 92
       -2
340
14
 93
        0
 40
0.045
309
GRIDFORMAT_END
 95
        8
302
GRIDFORMAT
  1
GRIDFORMAT_BEGIN
 90
        0
 91
        1
 62
     0
 92
       -2
340
14
 93
        0
 40
0.045
309
GRIDFORMAT_END
 95
       16
302
GRIDFORMAT
  1
GRIDFORMAT_BEGIN
 90
        0
 91
        1
 62
     0
 92
       -2
340
14
 93
        0
 40
0.045
309
GRIDFORMAT_END
 95
       32
302
GRIDFORMAT
  1
GRIDFORMAT_BEGIN
 90
        0
 91
        1
 62
     0
 92
       -2
340
14
 93
        0
 40
0.045
309
GRIDFORMAT_END
309
TABLEFORMAT_END
  1
CELLSTYLE_BEGIN
 90
        1
 91
        1
300
_TITLE
309
CELLSTYLE_END
300
CELLSTYLE
  1
TABLEFORMAT_BEGIN
 90
        5
170
     1
 91
        0
 92
        0
 62
   257
 93
        1
300
CONTENTFORMAT
  1
CONTENTFORMAT_BEGIN
 90
        0
 91
        0
 92
        4
 93
        0
300

 40
0.0
140
1.0
 94
        5
 62
     0
340
11
144
0.18
309
CONTENTFORMAT_END
171
     1
301
MARGIN
  1
CELLMARGIN_BEGIN
 40
0.06
 40
0.06
 40
0.06
 40
0.06
 40
0.06
 40
0.06
309
CELLMARGIN_END
 94
        6
 95
        1
302
GRIDFORMAT
  1
GRIDFORMAT_BEGIN
 90
        0
 91
        1
 62
     0
 92
       -2
340
14
 93
        0
 40
0.045
309
GRIDFORMAT_END
 95
        2
302
GRIDFORMAT
  1
GRIDFORMAT_BEGIN
 90
        0
 91
        1
 62
     0
 92
       -2
340
14
 93
        0
 40
0.045
309
GRIDFORMAT_END
 95
        4
302
GRIDFORMAT
  1
GRIDFORMAT_BEGIN
 90
        0
 91
        1
 62
     0
 92
       -2
340
14
 93
        0
 40
0.045
309
GRIDFORMAT_END
 95
        8
302
GRIDFORMAT
  1
GRIDFORMAT_BEGIN
 90
        0
 91
        1
 62
     0
 92
       -2
340
14
 93
        0
 40
0.045
309
GRIDFORMAT_END
 95
       16
302
GRIDFORMAT
  1
GRIDFORMAT_BEGIN
 90
        0
 91
        1
 62
     0
 92
       -2
340
14
 93
        0
 40
0.045
309
GRIDFORMAT_END
 95
       32
302
GRIDFORMAT
  1
GRIDFORMAT_BEGIN
 90
        0
 91
        1
 62
     0
 92
       -2
340
14
 93
        0
 40
0.045
309
GRIDFORMAT_END
309
TABLEFORMAT_END
  1
CELLSTYLE_BEGIN
 90
        2
 91
        1
300
_HEADER
309
CELLSTYLE_END
300
CELLSTYLE
  1
TABLEFORMAT_BEGIN
 90
        5
170
     1
 91
        0
 92
        0
 62
   257
 93
        1
300
CONTENTFORMAT
  1
CONTENTFORMAT_BEGIN
 90
        0
 91
        0
 92
        4
 93
        0
300

 40
0.0
140
1.0
 94
        2
 62
     0
340
11
144
0.18
309
CONTENTFORMAT_END
171
     1
301
MARGIN
  1
CELLMARGIN_BEGIN
 40
0.06
 40
0.06
 40
0.06
 40
0.06
 40
0.06
 40
0.06
309
CELLMARGIN_END
 94
        6
 95
        1
302
GRIDFORMAT
  1
GRIDFORMAT_BEGIN
 90
        0
 91
        1
 62
     0
 92
       -2
340
14
 93
        0
 40
0.045
309
GRIDFORMAT_END
 95
        2
302
GRIDFORMAT
  1
GRIDFORMAT_BEGIN
 90
        0
 91
        1
 62
     0
 92
       -2
340
14
 93
        0
 40
0.045
309
GRIDFORMAT_END
 95
        4
302
GRIDFORMAT
  1
GRIDFORMAT_BEGIN
 90
        0
 91
        1
 62
     0
 92
       -2
340
14
 93
        0
 40
0.045
309
GRIDFORMAT_END
 95
        8
302
GRIDFORMAT
  1
GRIDFORMAT_BEGIN
 90
        0
 91
        1
 62
     0
 92
       -2
340
14
 93
        0
 40
0.045
309
GRIDFORMAT_END
 95
       16
302
GRIDFORMAT
  1
GRIDFORMAT_BEGIN
 90
        0
 91
        1
 62
     0
 92
       -2
340
14
 93
        0
 40
0.045
309
GRIDFORMAT_END
 95
       32
302
GRIDFORMAT
  1
GRIDFORMAT_BEGIN
 90
        0
 91
        1
 62
     0
 92
       -2
340
14
 93
        0
 40
0.045
309
GRIDFORMAT_END
309
TABLEFORMAT_END
  1
CELLSTYLE_BEGIN
 90
        3
 91
        2
300
_DATA
309
CELLSTYLE_END
  0
ENDSEC
  0
EOF