0
SECTION
  2
HEADER
  9
$ACADVER
  1
AC1027
  9
$ACADMAINTVER
 70
     8
  9
$DWGCODEPAGE
  3
ANSI_1252
  9
$REQUIREDVERSIONS
160
                 0
  9
$COMMENTS
  1
File was created by Cadenas
  9
$CUSTOMPROPERTYTAG
  1
NN
  9
$CUSTOMPROPERTY
  1
Imperial - IP Piloted Flange Labyrinth Seal
  9
$CUSTOMPROPERTYTAG
  1
NT
  9
$CUSTOMPROPERTY
  1
Imperial Piloted Flange Bearings
  9
$CUSTOMPROPERTYTAG
  1
NB
  9
$CUSTOMPROPERTY
  1
069895
  9
$CUSTOMPROPERTYTAG
  1
NBSYN
  9
$CUSTOMPROPERTY
  1
$PN.
  9
$CUSTOMPROPERTYTAG
  1
LINA
  9
$CUSTOMPROPERTY
  1
069895
  9
$CUSTOMPROPERTYTAG
  1
SS
  9
$CUSTOMPROPERTY
  1
3-15/16
  9
$CUSTOMPROPERTYTAG
  1
PN
  9
$CUSTOMPROPERTY
  1
069895
  9
$CUSTOMPROPERTYTAG
  1
DESCRIPTION
  9
$CUSTOMPROPERTY
  1
FC-IP-315L
  9
$CUSTOMPROPERTYTAG
  1
EF
  9
$CUSTOMPROPERTY
  1
Non-Expansion Type
  9
$CUSTOMPROPERTYTAG
  1
ST
  9
$CUSTOMPROPERTY
  1
Labyrinth Seal
  9
$CUSTOMPROPERTYTAG
  1
A
  9
$CUSTOMPROPERTY
  1
4-45/64
  9
$CUSTOMPROPERTYTAG
  1
B
  9
$CUSTOMPROPERTY
  1
10-7/8
  9
$CUSTOMPROPERTYTAG
  1
C
  9
$CUSTOMPROPERTY
  1
3-1/2
  9
$CUSTOMPROPERTYTAG
  1
D
  9
$CUSTOMPROPERTY
  1
6-5/8
  9
$CUSTOMPROPERTYTAG
  1
DD
  9
$CUSTOMPROPERTY
  1
9-3/8
  9
$CUSTOMPROPERTYTAG
  1
E
  9
$CUSTOMPROPERTY
  1
1-15/32
  9
$CUSTOMPROPERTYTAG
  1
F
  9
$CUSTOMPROPERTY
  1
3/4
  9
$CUSTOMPROPERTYTAG
  1
G
  9
$CUSTOMPROPERTY
  1
2-57/64
  9
$CUSTOMPROPERTYTAG
  1
H
  9
$CUSTOMPROPERTY
  1
1-1/8
  9
$CUSTOMPROPERTYTAG
  1
K
  9
$CUSTOMPROPERTY
  1
8.125
  9
$CUSTOMPROPERTYTAG
  1
L
  9
$CUSTOMPROPERTY
  1
5-9/16
  9
$CUSTOMPROPERTYTAG
  1
M
  9
$CUSTOMPROPERTY
  1
3/4-10
  9
$CUSTOMPROPERTYTAG
  1
N
  9
$CUSTOMPROPERTY
  1
4-25/32
  9
$CUSTOMPROPERTYTAG
  1
P
  9
$CUSTOMPROPERTY
  1
1-13/16
  9
$CUSTOMPROPERTYTAG
  1
Q
  9
$CUSTOMPROPERTY
  1
1-29/32
  9
$CUSTOMPROPERTYTAG
  1
X
  9
$CUSTOMPROPERTY
  1
5/16
  9
$CUSTOMPROPERTYTAG
  1
Y
  9
$CUSTOMPROPERTY
  1
0.025
  9
$CUSTOMPROPERTYTAG
  1
Z
  9
$CUSTOMPROPERTY
  1
4-1/2
  9
$CUSTOMPROPERTYTAG
  1
COMPANY
  9
$CUSTOMPROPERTY
  1
baldor
  9
$INSBASE
 10
0.0
 20
0.0
 30
0.0
  9
$EXTMIN
 10
1.000000000000000E+20
 20
1.000000000000000E+20
 30
1.000000000000000E+20
  9
$EXTMAX
 10
-1.000000000000000E+20
 20
-1.000000000000000E+20
 30
-1.000000000000000E+20
  9
$LIMMIN
 10
0.0
 20
0.0
  9
$LIMMAX
 10
12.0
 20
9.0
  9
$ORTHOMODE
 70
     0
  9
$REGENMODE
 70
     1
  9
$FILLMODE
 70
     1
  9
$QTEXTMODE
 70
     0
  9
$MIRRTEXT
 70
     1
  9
$LTSCALE
 40
1.0
  9
$ATTMODE
 70
     1
  9
$TEXTSIZE
 40
0.2
  9
$TRACEWID
 40
0.05
  9
$TEXTSTYLE
  7
Standard
  9
$CLAYER
  8
0
  9
$CELTYPE
  6
ByLayer
  9
$CECOLOR
 62
   256
  9
$CELTSCALE
 40
1.0
  9
$DISPSILH
 70
     0
  9
$DIMSCALE
 40
1.0
  9
$DIMASZ
 40
0.18
  9
$DIMEXO
 40
0.0625
  9
$DIMDLI
 40
0.38
  9
$DIMRND
 40
0.0
  9
$DIMDLE
 40
0.0
  9
$DIMEXE
 40
0.18
  9
$DIMTP
 40
0.0
  9
$DIMTM
 40
0.0
  9
$DIMTXT
 40
0.18
  9
$DIMCEN
 40
0.09
  9
$DIMTSZ
 40
0.0
  9
$DIMTOL
 70
     0
  9
$DIMLIM
 70
     0
  9
$DIMTIH
 70
     1
  9
$DIMTOH
 70
     1
  9
$DIMSE1
 70
     0
  9
$DIMSE2
 70
     0
  9
$DIMTAD
 70
     0
  9
$DIMZIN
 70
     0
  9
$DIMBLK
  1

  9
$DIMASO
 70
     1
  9
$DIMSHO
 70
     1
  9
$DIMPOST
  1

  9
$DIMAPOST
  1

  9
$DIMALT
 70
     0
  9
$DIMALTD
 70
     2
  9
$DIMALTF
 40
25.4
  9
$DIMLFAC
 40
1.0
  9
$DIMTOFL
 70
     0
  9
$DIMTVP
 40
0.0
  9
$DIMTIX
 70
     0
  9
$DIMSOXD
 70
     0
  9
$DIMSAH
 70
     0
  9
$DIMBLK1
  1

  9
$DIMBLK2
  1

  9
$DIMSTYLE
  2
Standard
  9
$DIMCLRD
 70
     0
  9
$DIMCLRE
 70
     0
  9
$DIMCLRT
 70
     0
  9
$DIMTFAC
 40
1.0
  9
$DIMGAP
 40
0.09
  9
$DIMJUST
 70
     0
  9
$DIMSD1
 70
     0
  9
$DIMSD2
 70
     0
  9
$DIMTOLJ
 70
     1
  9
$DIMTZIN
 70
     0
  9
$DIMALTZ
 70
     0
  9
$DIMALTTZ
 70
     0
  9
$DIMUPT
 70
     0
  9
$DIMDEC
 70
     4
  9
$DIMTDEC
 70
     4
  9
$DIMALTU
 70
     2
  9
$DIMALTTD
 70
     2
  9
$DIMTXSTY
  7
Standard
  9
$DIMAUNIT
 70
     0
  9
$DIMADEC
 70
     0
  9
$DIMALTRND
 40
0.0
  9
$DIMAZIN
 70
     0
  9
$DIMDSEP
 70
    46
  9
$DIMATFIT
 70
     3
  9
$DIMFRAC
 70
     0
  9
$DIMLDRBLK
  1

  9
$DIMLUNIT
 70
     2
  9
$DIMLWD
 70
    -2
  9
$DIMLWE
 70
    -2
  9
$DIMTMOVE
 70
     0
  9
$DIMFXL
 40
1.0
  9
$DIMFXLON
 70
     0
  9
$DIMJOGANG
 40
0.7853981633974483
  9
$DIMTFILL
 70
     0
  9
$DIMTFILLCLR
 70
     0
  9
$DIMARCSYM
 70
     0
  9
$DIMLTYPE
  6

  9
$DIMLTEX1
  6

  9
$DIMLTEX2
  6

  9
$DIMTXTDIRECTION
 70
     0
  9
$LUNITS
 70
     2
  9
$LUPREC
 70
     4
  9
$SKETCHINC
 40
0.1
  9
$FILLETRAD
 40
0.5
  9
$AUNITS
 70
     0
  9
$AUPREC
 70
     0
  9
$MENU
  1
.
  9
$ELEVATION
 40
0.0
  9
$PELEVATION
 40
0.0
  9
$THICKNESS
 40
0.0
  9
$LIMCHECK
 70
     0
  9
$CHAMFERA
 40
0.0
  9
$CHAMFERB
 40
0.0
  9
$CHAMFERC
 40
0.0
  9
$CHAMFERD
 40
0.0
  9
$SKPOLY
 70
     0
  9
$TDCREATE
 40
2458168.989932708
  9
$TDUCREATE
 40
2458168.948266041
  9
$TDUPDATE
 40
2458168.989933067
  9
$TDUUPDATE
 40
2458168.9482664
  9
$TDINDWG
 40
0.0000000116
  9
$TDUSRTIMER
 40
0.0000000116
  9
$USRTIMER
 70
     1
  9
$ANGBASE
 50
0.0
  9
$ANGDIR
 70
     0
  9
$PDMODE
 70
     0
  9
$PDSIZE
 40
0.0
  9
$PLINEWID
 40
0.0
  9
$SPLFRAME
 70
     0
  9
$SPLINETYPE
 70
     6
  9
$SPLINESEGS
 70
     8
  9
$HANDSEED
  5
267
  9
$SURFTAB1
 70
     6
  9
$SURFTAB2
 70
     6
  9
$SURFTYPE
 70
     6
  9
$SURFU
 70
     6
  9
$SURFV
 70
     6
  9
$UCSBASE
  2

  9
$UCSNAME
  2

  9
$UCSORG
 10
0.0
 20
0.0
 30
0.0
  9
$UCSXDIR
 10
1.0
 20
0.0
 30
0.0
  9
$UCSYDIR
 10
0.0
 20
1.0
 30
0.0
  9
$UCSORTHOREF
  2

  9
$UCSORTHOVIEW
 70
     0
  9
$UCSORGTOP
 10
0.0
 20
0.0
 30
0.0
  9
$UCSORGBOTTOM
 10
0.0
 20
0.0
 30
0.0
  9
$UCSORGLEFT
 10
0.0
 20
0.0
 30
0.0
  9
$UCSORGRIGHT
 10
0.0
 20
0.0
 30
0.0
  9
$UCSORGFRONT
 10
0.0
 20
0.0
 30
0.0
  9
$UCSORGBACK
 10
0.0
 20
0.0
 30
0.0
  9
$PUCSBASE
  2

  9
$PUCSNAME
  2

  9
$PUCSORG
 10
0.0
 20
0.0
 30
0.0
  9
$PUCSXDIR
 10
1.0
 20
0.0
 30
0.0
  9
$PUCSYDIR
 10
0.0
 20
1.0
 30
0.0
  9
$PUCSORTHOREF
  2

  9
$PUCSORTHOVIEW
 70
     0
  9
$PUCSORGTOP
 10
0.0
 20
0.0
 30
0.0
  9
$PUCSORGBOTTOM
 10
0.0
 20
0.0
 30
0.0
  9
$PUCSORGLEFT
 10
0.0
 20
0.0
 30
0.0
  9
$PUCSORGRIGHT
 10
0.0
 20
0.0
 30
0.0
  9
$PUCSORGFRONT
 10
0.0
 20
0.0
 30
0.0
  9
$PUCSORGBACK
 10
0.0
 20
0.0
 30
0.0
  9
$USERI1
 70
     0
  9
$USERI2
 70
     0
  9
$USERI3
 70
     0
  9
$USERI4
 70
     0
  9
$USERI5
 70
     0
  9
$USERR1
 40
0.0
  9
$USERR2
 40
0.0
  9
$USERR3
 40
0.0
  9
$USERR4
 40
0.0
  9
$USERR5
 40
0.0
  9
$WORLDVIEW
 70
     1
  9
$SHADEDGE
 70
     3
  9
$SHADEDIF
 70
    70
  9
$TILEMODE
 70
     1
  9
$MAXACTVP
 70
    64
  9
$PINSBASE
 10
0.0
 20
0.0
 30
0.0
  9
$PLIMCHECK
 70
     0
  9
$PEXTMIN
 10
1.000000000000000E+20
 20
1.000000000000000E+20
 30
1.000000000000000E+20
  9
$PEXTMAX
 10
-1.000000000000000E+20
 20
-1.000000000000000E+20
 30
-1.000000000000000E+20
  9
$PLIMMIN
 10
0.0
 20
0.0
  9
$PLIMMAX
 10
12.0
 20
9.0
  9
$UNITMODE
 70
     0
  9
$VISRETAIN
 70
     1
  9
$PLINEGEN
 70
     0
  9
$PSLTSCALE
 70
     1
  9
$TREEDEPTH
 70
  3020
  9
$CMLSTYLE
  2
Standard
  9
$CMLJUST
 70
     0
  9
$CMLSCALE
 40
1.0
  9
$PROXYGRAPHICS
 70
     1
  9
$MEASUREMENT
 70
     0
  9
$CELWEIGHT
370
    -1
  9
$ENDCAPS
280
     0
  9
$JOINSTYLE
280
     0
  9
$LWDISPLAY
290
     0
  9
$INSUNITS
 70
     1
  9
$HYPERLINKBASE
  1

  9
$STYLESHEET
  1

  9
$XEDIT
290
     1
  9
$CEPSNTYPE
380
     0
  9
$PSTYLEMODE
290
     1
  9
$FINGERPRINTGUID
  2
{37F43C67-0B3A-4F35-B13C-5A1E58F629F8}
  9
$VERSIONGUID
  2
{FAEB1C32-E019-11D5-929B-00C0DF256EC4}
  9
$EXTNAMES
290
     1
  9
$PSVPSCALE
 40
0.0
  9
$OLESTARTUP
290
     0
  9
$SORTENTS
280
   127
  9
$INDEXCTL
280
     0
  9
$HIDETEXT
280
     1
  9
$XCLIPFRAME
280
     2
  9
$HALOGAP
280
     0
  9
$OBSCOLOR
 70
   257
  9
$OBSLTYPE
280
     0
  9
$INTERSECTIONDISPLAY
280
     0
  9
$INTERSECTIONCOLOR
 70
   257
  9
$DIMASSOC
280
     2
  9
$PROJECTNAME
  1

  9
$CAMERADISPLAY
290
     0
  9
$LENSLENGTH
 40
50.0
  9
$CAMERAHEIGHT
 40
0.0
  9
$STEPSPERSEC
 40
2.0
  9
$STEPSIZE
 40
6.0
  9
$3DDWFPREC
 40
2.0
  9
$PSOLWIDTH
 40
0.25
  9
$PSOLHEIGHT
 40
4.0
  9
$LOFTANG1
 40
1.570796326794897
  9
$LOFTANG2
 40
1.570796326794897
  9
$LOFTMAG1
 40
0.0
  9
$LOFTMAG2
 40
0.0
  9
$LOFTPARAM
 70
     7
  9
$LOFTNORMALS
280
     1
  9
$LATITUDE
 40
37.795
  9
$LONGITUDE
 40
-122.394
  9
$NORTHDIRECTION
 40
0.0
  9
$TIMEZONE
 70
 -8000
  9
$LIGHTGLYPHDISPLAY
280
     1
  9
$TILEMODELIGHTSYNCH
280
     1
  9
$CMATERIAL
347
44
  9
$SOLIDHIST
280
     0
  9
$SHOWHIST
280
     1
  9
$DWFFRAME
280
     2
  9
$DGNFRAME
280
     2
  9
$REALWORLDSCALE
290
     1
  9
$INTERFERECOLOR
 62
   256
  9
$CSHADOW
280
     0
  9
$SHADOWPLANELOCATION
 40
0.0
  0
ENDSEC
  0
SECTION
  2
CLASSES
  0
CLASS
  1
ACDBDICTIONARYWDFLT
  2
AcDbDictionaryWithDefault
  3
ObjectDBX Classes
 90
        0
 91
        4
280
     0
281
     0
  0
CLASS
  1
VISUALSTYLE
  2
AcDbVisualStyle
  3
ObjectDBX Classes
 90
     4095
 91
        4
280
     0
281
     0
  0
CLASS
  1
MATERIAL
  2
AcDbMaterial
  3
ObjectDBX Classes
 90
     1153
 91
        4
280
     0
281
     0
  0
CLASS
  1
SCALE
  2
AcDbScale
  3
ObjectDBX Classes
 90
     1153
 91
        4
280
     0
281
     0
  0
CLASS
  1
TABLESTYLE
  2
AcDbTableStyle
  3
ObjectDBX Classes
 90
     4095
 91
        4
280
     0
281
     0
  0
CLASS
  1
MLEADERSTYLE
  2
AcDbMLeaderStyle
  3
ACDB_MLEADERSTYLE_CLASS
 90
     4095
 91
        4
280
     0
281
     0
  0
CLASS
  1
SUN
  2
AcDbSun
  3
SCENEOE
 90
     1153
 91
        4
280
     0
281
     0
  0
CLASS
  1
DICTIONARYVAR
  2
AcDbDictionaryVar
  3
ObjectDBX Classes
 90
        0
 91
        4
280
     0
281
     0
  0
CLASS
  1
CELLSTYLEMAP
  2
AcDbCellStyleMap
  3
ObjectDBX Classes
 90
     1152
 91
        4
280
     0
281
     0
  0
ENDSEC
  0
SECTION
  2
TABLES
  0
TABLE
  2
VPORT
  5
8
330
0
100
AcDbSymbolTable
 70
     1
  0
VPORT
  5
29
330
8
100
AcDbSymbolTableRecord
100
AcDbViewportTableRecord
  2
*Active
 70
     0
 10
0.0
 20
0.0
 11
1.0
 21
1.0
 12
0.0
 22
0.0
 13
0.0
 23
0.0
 14
0.5
 24
0.5
 15
0.5
 25
0.5
 16
0.0
 26
0.0
 36
1.0
 17
0.0
 27
-0.0000000000000009
 37
0.0
 40
11.0925
 41
1.0
 42
50.0
 43
0.0
 44
0.0
 50
0.0
 51
0.0
 71
     0
 72
   100
 73
     1
 74
     3
 75
     0
 76
     0
 77
     0
 78
     0
281
     0
 65
     1
110
0.0
120
0.0
130
0.0
111
1.0
121
0.0
131
0.0
112
0.0
122
1.0
132
0.0
 79
     0
146
0.0
348
2F
 60
     3
 61
     5
292
     1
282
     1
141
0.0
142
0.0
 63
   250
361
6D
  0
ENDTAB
  0
TABLE
  2
LTYPE
  5
5
330
0
100
AcDbSymbolTable
 70
     3
  0
LTYPE
  5
14
330
5
100
AcDbSymbolTableRecord
100
AcDbLinetypeTableRecord
  2
ByBlock
 70
     0
  3

 72
    65
 73
     0
 40
0.0
  0
LTYPE
  5
15
330
5
100
AcDbSymbolTableRecord
100
AcDbLinetypeTableRecord
  2
ByLayer
 70
     0
  3

 72
    65
 73
     0
 40
0.0
  0
LTYPE
  5
16
330
5
100
AcDbSymbolTableRecord
100
AcDbLinetypeTableRecord
  2
Continuous
 70
     0
  3
Solid line
 72
    65
 73
     0
 40
0.0
  0
LTYPE
  5
9C
330
5
100
AcDbSymbolTableRecord
100
AcDbLinetypeTableRecord
  2
Dashed
 70
     0
  3

 72
    65
 73
     2
 40
2.0
 49
1.0
 74
     0
 49
-1.0
 74
     0
  0
LTYPE
  5
FD
330
5
100
AcDbSymbolTableRecord
100
AcDbLinetypeTableRecord
  2
Center
 70
     0
  3

 72
    65
 73
     4
 40
1.5
 49
0.45
 74
     0
 49
-0.5
 74
     0
 49
0.05
 74
     0
 49
-0.5
 74
     0
  0
ENDTAB
  0
TABLE
  2
LAYER
  5
2
330
0
100
AcDbSymbolTable
 70
     7
  0
LAYER
  5
10
330
2
100
AcDbSymbolTableRecord
100
AcDbLayerTableRecord
  2
0
 70
     0
 62
     7
  6
Continuous
370
    -3
390
F
347
46
348
0
  0
LAYER
  5
72
330
2
100
AcDbSymbolTableRecord
100
AcDbLayerTableRecord
  2
AM_6
 70
     0
 62
    -2
  6
Continuous
370
    35
390
F
347
46
348
0
  0
LAYER
  5
9D
330
2
100
AcDbSymbolTableRecord
100
AcDbLayerTableRecord
  2
AM_9
 70
     0
 62
     6
  6
Dashed
370
    25
390
F
347
46
348
0
  0
LAYER
  5
C1
330
2
100
AcDbSymbolTableRecord
100
AcDbLayerTableRecord
  2
AM_4
 70
     0
 62
     7
  6
Continuous
370
    50
390
F
347
46
348
0
  0
LAYER
  5
FB
330
2
100
AcDbSymbolTableRecord
100
AcDbLayerTableRecord
  2
AM_5
 70
     0
 62
     3
  6
Continuous
370
    25
390
F
347
46
348
0
  0
LAYER
  5
FE
330
2
100
AcDbSymbolTableRecord
100
AcDbLayerTableRecord
  2
AM_7
 70
     0
 62
     7
  6
Center
370
    25
390
F
347
46
348
0
  0
LAYER
  5
24F
330
2
100
AcDbSymbolTableRecord
100
AcDbLayerTableRecord
  2
ConnectionPoints
 70
     0
 62
     7
  6
Continuous
370
    50
390
F
347
46
348
0
  0
ENDTAB
  0
TABLE
  2
STYLE
  5
3
330
0
100
AcDbSymbolTable
 70
     1
  0
STYLE
  5
11
330
3
100
AcDbSymbolTableRecord
100
AcDbTextStyleTableRecord
  2
Standard
 70
     0
 40
0.0
 41
1.0
 50
0.0
 71
     0
 42
0.2
  3
txt
  4

  0
ENDTAB
  0
TABLE
  2
VIEW
  5
6
330
0
100
AcDbSymbolTable
 70
     0
  0
ENDTAB
  0
TABLE
  2
UCS
  5
7
330
0
100
AcDbSymbolTable
 70
     0
  0
ENDTAB
  0
TABLE
  2
APPID
  5
9
330
0
100
AcDbSymbolTable
 70
     1
  0
APPID
  5
12
330
9
100
AcDbSymbolTableRecord
100
AcDbRegAppTableRecord
  2
ACAD
 70
     0
  0
ENDTAB
  0
TABLE
  2
DIMSTYLE
  5
A
330
0
100
AcDbSymbolTable
 70
     1
100
AcDbDimStyleTable
  0
DIMSTYLE
105
27
330
A
100
AcDbSymbolTableRecord
100
AcDbDimStyleTableRecord
  2
Standard
 70
     0
178
     0
340
11
  0
ENDTAB
  0
TABLE
  2
BLOCK_RECORD
  5
1
330
0
100
AcDbSymbolTable
 70
     8
  0
BLOCK_RECORD
  5
1F
330
1
100
AcDbSymbolTableRecord
100
AcDbBlockTableRecord
  2
*Model_Space
340
22
 70
     0
280
     1
281
     0
  0
BLOCK_RECORD
  5
1B
330
1
100
AcDbSymbolTableRecord
100
AcDbBlockTableRecord
  2
*Paper_Space
340
1E
 70
     0
280
     1
281
     0
  0
BLOCK_RECORD
  5
23
330
1
100
AcDbSymbolTableRecord
100
AcDbBlockTableRecord
  2
*Paper_Space0
340
26
 70
     0
280
     1
281
     0
  0
BLOCK_RECORD
  5
6E
330
1
100
AcDbSymbolTableRecord
100
AcDbBlockTableRecord
  2
1_069895_0
340
0
102
{BLKREFS
331
6F
102
}
 70
     0
280
     1
281
     0
  0
BLOCK_RECORD
  5
90
330
1
100
AcDbSymbolTableRecord
100
AcDbBlockTableRecord
  2
2_405015E_Inch_0_in_069895_0
340
0
102
{BLKREFS
331
91
102
}
 70
     0
280
     1
281
     0
  0
BLOCK_RECORD
  5
EB
330
1
100
AcDbSymbolTableRecord
100
AcDbBlockTableRecord
  2
3_ASME_B18_3_1_4_1_0_in_069895_0
340
0
102
{BLKREFS
331
EC
102
}
 70
     0
280
     1
281
     0
  0
BLOCK_RECORD
  5
10B
330
1
100
AcDbSymbolTableRecord
100
AcDbBlockTableRecord
  2
4_ASME_B18_3_1_4_2_0_in_069895_0
340
0
102
{BLKREFS
331
10C
102
}
 70
     0
280
     1
281
     0
  0
BLOCK_RECORD
  5
128
330
1
100
AcDbSymbolTableRecord
100
AcDbBlockTableRecord
  2
5_070906LW_0_in_069895_0
340
0
102
{BLKREFS
331
129
102
}
 70
     0
280
     1
281
     0
  0
BLOCK_RECORD
  5
173
330
1
100
AcDbSymbolTableRecord
100
AcDbBlockTableRecord
  2
6_070938I_0_in_069895_0
340
0
102
{BLKREFS
331
174
102
}
 70
     0
280
     1
281
     0
  0
BLOCK_RECORD
  5
1D0
330
1
100
AcDbSymbolTableRecord
100
AcDbBlockTableRecord
  2
7_069895H_0_in_069895_0
340
0
102
{BLKREFS
331
1D1
102
}
 70
     0
280
     1
281
     0
  0
ENDTAB
  0
ENDSEC
  0
SECTION
  2
BLOCKS
  0
BLOCK
  5
20
330
1F
100
AcDbEntity
  8
0
100
AcDbBlockBegin
  2
*Model_Space
 70
     0
 10
0.0
 20
0.0
 30
0.0
  3
*Model_Space
  1

  0
ENDBLK
  5
21
330
1F
100
AcDbEntity
  8
0
100
AcDbBlockEnd
  0
BLOCK
  5
1C
330
1B
100
AcDbEntity
 67
     1
  8
0
100
AcDbBlockBegin
  2
*Paper_Space
 70
     0
 10
0.0
 20
0.0
 30
0.0
  3
*Paper_Space
  1

  0
ENDBLK
  5
1D
330
1B
100
AcDbEntity
 67
     1
  8
0
100
AcDbBlockEnd
  0
BLOCK
  5
24
330
23
100
AcDbEntity
  8
0
100
AcDbBlockBegin
  2
*Paper_Space0
 70
     0
 10
0.0
 20
0.0
 30
0.0
  3
*Paper_Space0
  1

  0
ENDBLK
  5
25
330
23
100
AcDbEntity
  8
0
100
AcDbBlockEnd
  0
BLOCK
  5
70
330
6E
100
AcDbEntity
  8
0
100
AcDbBlockBegin
  2
1_069895_0
 70
     2
 10
0.0
 20
0.0
 30
0.0
  3
1_069895_0
  1

  0
ATTDEF
  5
73
330
6E
100
AcDbEntity
  8
AM_6
100
AcDbText
 10
10.4375
 20
5.437499999999998
 30
0.0
 40
0.5
  1
Imperial - IP Piloted Flange Labyrinth Seal
100
AcDbAttributeDefinition
  3

  2
NN
 70
     8
280
     0
  0
ATTDEF
  5
74
330
6E
100
AcDbEntity
  8
AM_6
100
AcDbText
 10
10.4375
 20
4.937499999999998
 30
0.0
 40
0.5
  1
Imperial Piloted Flange Bearings
100
AcDbAttributeDefinition
  3

  2
NT
 70
     8
280
     0
  0
ATTDEF
  5
75
330
6E
100
AcDbEntity
  8
AM_6
100
AcDbText
 10
10.4375
 20
4.437499999999998
 30
0.0
 40
0.5
  1
069895
100
AcDbAttributeDefinition
  3

  2
NB
 70
     8
280
     0
  0
ATTDEF
  5
76
330
6E
100
AcDbEntity
  8
AM_6
100
AcDbText
 10
10.4375
 20
3.937499999999998
 30
0.0
 40
0.5
  1
$PN.
100
AcDbAttributeDefinition
  3

  2
NBSYN
 70
     8
280
     0
  0
ATTDEF
  5
77
330
6E
100
AcDbEntity
  8
AM_6
100
AcDbText
 10
10.4375
 20
3.437499999999998
 30
0.0
 40
0.5
  1
069895
100
AcDbAttributeDefinition
  3

  2
LINA
 70
     8
280
     0
  0
ATTDEF
  5
78
330
6E
100
AcDbEntity
  8
AM_6
100
AcDbText
 10
10.4375
 20
2.937499999999998
 30
0.0
 40
0.5
  1
3-15/16
100
AcDbAttributeDefinition
  3

  2
SS
 70
     8
280
     0
  0
ATTDEF
  5
79
330
6E
100
AcDbEntity
  8
AM_6
100
AcDbText
 10
10.4375
 20
2.437499999999998
 30
0.0
 40
0.5
  1
069895
100
AcDbAttributeDefinition
  3

  2
PN
 70
     8
280
     0
  0
ATTDEF
  5
7A
330
6E
100
AcDbEntity
  8
AM_6
100
AcDbText
 10
10.4375
 20
1.937499999999998
 30
0.0
 40
0.5
  1
FC-IP-315L
100
AcDbAttributeDefinition
  3

  2
DESCRIPTION
 70
     8
280
     0
  0
ATTDEF
  5
7B
330
6E
100
AcDbEntity
  8
AM_6
100
AcDbText
 10
10.4375
 20
1.437499999999998
 30
0.0
 40
0.5
  1
Non-Expansion Type
100
AcDbAttributeDefinition
  3

  2
EF
 70
     8
280
     0
  0
ATTDEF
  5
7C
330
6E
100
AcDbEntity
  8
AM_6
100
AcDbText
 10
10.4375
 20
0.9374999999999982
 30
0.0
 40
0.5
  1
Labyrinth Seal
100
AcDbAttributeDefinition
  3

  2
ST
 70
     8
280
     0
  0
ATTDEF
  5
7D
330
6E
100
AcDbEntity
  8
AM_6
100
AcDbText
 10
10.4375
 20
0.4374999999999982
 30
0.0
 40
0.5
  1
4-45/64
100
AcDbAttributeDefinition
  3

  2
A
 70
     8
280
     0
  0
ATTDEF
  5
7E
330
6E
100
AcDbEntity
  8
AM_6
100
AcDbText
 10
10.4375
 20
-0.0625000000000018
 30
0.0
 40
0.5
  1
10-7/8
100
AcDbAttributeDefinition
  3

  2
B
 70
     8
280
     0
  0
ATTDEF
  5
7F
330
6E
100
AcDbEntity
  8
AM_6
100
AcDbText
 10
10.4375
 20
-0.5625000000000018
 30
0.0
 40
0.5
  1
3-1/2
100
AcDbAttributeDefinition
  3

  2
C
 70
     8
280
     0
  0
ATTDEF
  5
80
330
6E
100
AcDbEntity
  8
AM_6
100
AcDbText
 10
10.4375
 20
-1.062500000000002
 30
0.0
 40
0.5
  1
6-5/8
100
AcDbAttributeDefinition
  3

  2
D
 70
     8
280
     0
  0
ATTDEF
  5
81
330
6E
100
AcDbEntity
  8
AM_6
100
AcDbText
 10
10.4375
 20
-1.562500000000002
 30
0.0
 40
0.5
  1
9-3/8
100
AcDbAttributeDefinition
  3

  2
DD
 70
     8
280
     0
  0
ATTDEF
  5
82
330
6E
100
AcDbEntity
  8
AM_6
100
AcDbText
 10
10.4375
 20
-2.062500000000002
 30
0.0
 40
0.5
  1
1-15/32
100
AcDbAttributeDefinition
  3

  2
E
 70
     8
280
     0
  0
ATTDEF
  5
83
330
6E
100
AcDbEntity
  8
AM_6
100
AcDbText
 10
10.4375
 20
-2.562500000000002
 30
0.0
 40
0.5
  1
3/4
100
AcDbAttributeDefinition
  3

  2
F
 70
     8
280
     0
  0
ATTDEF
  5
84
330
6E
100
AcDbEntity
  8
AM_6
100
AcDbText
 10
10.4375
 20
-3.062500000000002
 30
0.0
 40
0.5
  1
2-57/64
100
AcDbAttributeDefinition
  3

  2
G
 70
     8
280
     0
  0
ATTDEF
  5
85
330
6E
100
AcDbEntity
  8
AM_6
100
AcDbText
 10
10.4375
 20
-3.562500000000002
 30
0.0
 40
0.5
  1
1-1/8
100
AcDbAttributeDefinition
  3

  2
H
 70
     8
280
     0
  0
ATTDEF
  5
86
330
6E
100
AcDbEntity
  8
AM_6
100
AcDbText
 10
10.4375
 20
-4.062500000000002
 30
0.0
 40
0.5
  1
8.125
100
AcDbAttributeDefinition
  3

  2
K
 70
     8
280
     0
  0
ATTDEF
  5
87
330
6E
100
AcDbEntity
  8
AM_6
100
AcDbText
 10
10.4375
 20
-4.562500000000002
 30
0.0
 40
0.5
  1
5-9/16
100
AcDbAttributeDefinition
  3

  2
L
 70
     8
280
     0
  0
ATTDEF
  5
88
330
6E
100
AcDbEntity
  8
AM_6
100
AcDbText
 10
10.4375
 20
-5.062500000000002
 30
0.0
 40
0.5
  1
3/4-10
100
AcDbAttributeDefinition
  3

  2
M
 70
     8
280
     0
  0
ATTDEF
  5
89
330
6E
100
AcDbEntity
  8
AM_6
100
AcDbText
 10
10.4375
 20
-5.562500000000002
 30
0.0
 40
0.5
  1
4-25/32
100
AcDbAttributeDefinition
  3

  2
N
 70
     8
280
     0
  0
ATTDEF
  5
8A
330
6E
100
AcDbEntity
  8
AM_6
100
AcDbText
 10
10.4375
 20
-6.062500000000002
 30
0.0
 40
0.5
  1
1-13/16
100
AcDbAttributeDefinition
  3

  2
P
 70
     8
280
     0
  0
ATTDEF
  5
8B
330
6E
100
AcDbEntity
  8
AM_6
100
AcDbText
 10
10.4375
 20
-6.562500000000002
 30
0.0
 40
0.5
  1
1-29/32
100
AcDbAttributeDefinition
  3

  2
Q
 70
     8
280
     0
  0
ATTDEF
  5
8C
330
6E
100
AcDbEntity
  8
AM_6
100
AcDbText
 10
10.4375
 20
-7.062500000000002
 30
0.0
 40
0.5
  1
5/16
100
AcDbAttributeDefinition
  3

  2
X
 70
     8
280
     0
  0
ATTDEF
  5
8D
330
6E
100
AcDbEntity
  8
AM_6
100
AcDbText
 10
10.4375
 20
-7.562500000000002
 30
0.0
 40
0.5
  1
0.025
100
AcDbAttributeDefinition
  3

  2
Y
 70
     8
280
     0
  0
ATTDEF
  5
8E
330
6E
100
AcDbEntity
  8
AM_6
100
AcDbText
 10
10.4375
 20
-8.062500000000002
 30
0.0
 40
0.5
  1
4-1/2
100
AcDbAttributeDefinition
  3

  2
Z
 70
     8
280
     0
  0
ATTDEF
  5
8F
330
6E
100
AcDbEntity
  8
AM_6
100
AcDbText
 10
10.4375
 20
-8.562500000000002
 30
0.0
 40
0.5
  1
baldor
100
AcDbAttributeDefinition
  3

  2
COMPANY
 70
     8
280
     0
  0
INSERT
  5
91
330
6E
100
AcDbEntity
  8
0
100
AcDbBlockReference
  2
2_405015E_Inch_0_in_069895_0
 10
0.0
 20
0.0
 30
0.0
  0
INSERT
  5
EC
330
6E
100
AcDbEntity
  8
0
100
AcDbBlockReference
  2
3_ASME_B18_3_1_4_1_0_in_069895_0
 10
0.0
 20
0.0
 30
0.0
  0
INSERT
  5
10C
330
6E
100
AcDbEntity
  8
0
100
AcDbBlockReference
  2
4_ASME_B18_3_1_4_2_0_in_069895_0
 10
0.0
 20
0.0
 30
0.0
  0
INSERT
  5
129
330
6E
100
AcDbEntity
  8
0
100
AcDbBlockReference
  2
5_070906LW_0_in_069895_0
 10
0.0
 20
0.0
 30
0.0
  0
INSERT
  5
174
330
6E
100
AcDbEntity
  8
0
100
AcDbBlockReference
  2
6_070938I_0_in_069895_0
 10
0.0
 20
0.0
 30
0.0
  0
INSERT
  5
1D1
330
6E
100
AcDbEntity
  8
0
100
AcDbBlockReference
  2
7_069895H_0_in_069895_0
 10
0.0
 20
0.0
 30
0.0
  0
ENDBLK
  5
71
330
6E
100
AcDbEntity
  8
0
100
AcDbBlockEnd
  0
BLOCK
  5
92
330
90
100
AcDbEntity
  8
0
100
AcDbBlockBegin
  2
2_405015E_Inch_0_in_069895_0
 70
     2
 10
0.0
 20
0.0
 30
0.0
  3
2_405015E_Inch_0_in_069895_0
  1

  0
ATTDEF
  5
94
330
90
100
AcDbEntity
  8
AM_6
100
AcDbText
 10
5.252590742770462
 20
4.9388607699531
 30
0.0
 40
0.5
  1
405015E -Inch
100
AcDbAttributeDefinition
  3

  2
NN
 70
     8
280
     0
  0
ATTDEF
  5
95
330
90
100
AcDbEntity
  8
AM_6
100
AcDbText
 10
5.252590742770462
 20
4.4388607699531
 30
0.0
 40
0.5
  1
Grease Fitting
100
AcDbAttributeDefinition
  3

  2
NT
 70
     8
280
     0
  0
ATTDEF
  5
96
330
90
100
AcDbEntity
  8
AM_6
100
AcDbText
 10
5.252590742770462
 20
3.9388607699531
 30
0.0
 40
0.5
  1
405015E-Inch
100
AcDbAttributeDefinition
  3

  2
NB
 70
     8
280
     0
  0
ATTDEF
  5
97
330
90
100
AcDbEntity
  8
AM_6
100
AcDbText
 10
5.252590742770462
 20
3.4388607699531
 30
0.0
 40
0.5
  1
$MN.-Inch
100
AcDbAttributeDefinition
  3

  2
NBSYN
 70
     8
280
     0
  0
ATTDEF
  5
98
330
90
100
AcDbEntity
  8
AM_6
100
AcDbText
 10
5.252590742770462
 20
2.9388607699531
 30
0.0
 40
0.5
  1
405015E
100
AcDbAttributeDefinition
  3

  2
LINA
 70
     8
280
     0
  0
ATTDEF
  5
99
330
90
100
AcDbEntity
  8
AM_6
100
AcDbText
 10
5.252590742770462
 20
2.4388607699531
 30
0.0
 40
0.5
  1
405015E
100
AcDbAttributeDefinition
  3

  2
MN
 70
     8
280
     0
  0
ATTDEF
  5
9A
330
90
100
AcDbEntity
  8
AM_6
100
AcDbText
 10
5.252590742770462
 20
1.9388607699531
 30
0.0
 40
0.5
  1
1/8 x 27PTF
100
AcDbAttributeDefinition
  3

  2
T
 70
     8
280
     0
  0
ATTDEF
  5
9B
330
90
100
AcDbEntity
  8
AM_6
100
AcDbText
 10
5.252590742770462
 20
1.4388607699531
 30
0.0
 40
0.5
  1
baldor
100
AcDbAttributeDefinition
  3

  2
COMPANY
 70
     8
280
     0
  0
ELLIPSE
  5
9E
330
90
100
AcDbEntity
  8
AM_9
100
AcDbEllipse
 10
0.0
 20
4.52993909847167
 30
0.0
 11
-0.161902872472269
 21
1.982738345459263E-17
 31
0.0
210
0.0
220
0.0
230
1.0
 40
0.8660254037844368
 41
0.0
 42
6.283185307179586
  0
LWPOLYLINE
  5
9F
330
90
100
AcDbEntity
  8
AM_9
100
AcDbPolyline
 90
        3
 70
     0
 43
0.0
 10
0.1262953713852306
 20
4.856415955397823
 10
0.1577272497321276
 20
4.805941600503981
 10
0.1894430570778459
 20
4.757160627010593
  0
LWPOLYLINE
  5
A0
330
90
100
AcDbEntity
  8
AM_9
100
AcDbPolyline
 90
        3
 70
     0
 43
0.0
 10
0.0
 20
4.851882155549516
 10
0.0631476856926153
 20
4.853078845942033
 10
0.1262953713852306
 20
4.856415955397823
  0
LWPOLYLINE
  5
A1
330
90
100
AcDbEntity
  8
AM_9
100
AcDbPolyline
 90
        3
 70
     0
 43
0.0
 10
-0.1894430570778459
 20
4.757160627010593
 10
-0.1578692142315383
 20
4.805718081672572
 10
-0.1262953713852306
 20
4.856415955397823
  0
LWPOLYLINE
  5
A2
330
90
100
AcDbEntity
  8
AM_9
100
AcDbPolyline
 90
        4
 70
     0
 43
0.0
 10
-0.1262953713852306
 20
4.856415955397823
 10
-0.0967996321117978
 20
4.854623361808438
 10
-0.0485424412477544
 20
4.852595069671052
 10
0.0
 20
4.851882155549516
  0
LINE
  5
A3
330
90
100
AcDbEntity
  8
AM_9
100
AcDbLine
 10
0.1262953713852306
 20
4.897348355701209
 30
0.0
 11
0.1262953713852306
 21
4.856415955397823
 31
0.0
  0
LINE
  5
A4
330
90
100
AcDbEntity
  8
AM_9
100
AcDbLine
 10
-0.1262953713852306
 20
4.897348355701209
 30
0.0
 11
-0.1262953713852306
 21
4.856415955397823
 31
0.0
  0
LWPOLYLINE
  5
A5
330
90
100
AcDbEntity
  8
AM_9
100
AcDbPolyline
 90
        3
 70
     0
 43
0.0
 10
0.0878491423263088
 20
4.899607152838185
 10
0.0634316146914367
 20
4.900674893074706
 10
0.0
 20
4.901882155549516
  0
LWPOLYLINE
  5
A6
330
90
100
AcDbEntity
  8
AM_9
100
AcDbPolyline
 90
        3
 70
     0
 43
0.0
 10
0.0
 20
4.901882155549516
 10
-0.0483998160558989
 20
4.901173375190947
 10
-0.0876643906215056
 20
4.899616368753375
  0
ELLIPSE
  5
A7
330
90
100
AcDbEntity
  8
AM_9
100
AcDbEllipse
 10
-0.0000000000000009
 20
4.662439098471671
 30
0.0
 11
0.2187499999999991
 21
0.0
 31
0.0
210
0.0
220
0.0
230
1.0
 40
0.8660254037844395
 41
2.617993877991499
 42
3.665191429188096
  0
LWPOLYLINE
  5
A8
330
90
100
AcDbEntity
  8
AM_9
100
AcDbPolyline
 90
        3
 70
     0
 43
0.0
 10
-0.2525907427704612
 20
4.666972898319977
 10
-0.2211588644235643
 20
4.710794178466825
 10
-0.1894430570778459
 20
4.757160627010593
  0
LWPOLYLINE
  5
A9
330
90
100
AcDbEntity
  8
AM_9
100
AcDbPolyline
 90
        3
 70
     0
 43
0.0
 10
0.1894430570778459
 20
4.757160627010593
 10
0.2210168999241536
 20
4.710996553133649
 10
0.2525907427704612
 20
4.666972898319977
  0
LINE
  5
AA
330
90
100
AcDbEntity
  8
AM_9
100
AcDbLine
 10
0.1983264404626879
 20
4.538985809097825
 30
0.0
 11
0.2054502516015135
 21
4.65279399630396
 31
0.0
  0
LINE
  5
AB
330
90
100
AcDbEntity
  8
AM_9
100
AcDbLine
 10
-0.2054502516015135
 20
4.65279399630396
 30
0.0
 11
-0.1983264404626879
 21
4.538985809097825
 31
0.0
  0
ELLIPSE
  5
AC
330
90
100
AcDbEntity
  8
AM_9
100
AcDbEllipse
 10
0.000000000000001
 20
4.662439098471671
 30
0.0
 11
0.2187500000000009
 21
0.0
 31
0.0
210
0.0
220
0.0
230
1.0
 40
0.8660254037844405
 41
3.665191429188091
 42
4.71238898038469
  0
ELLIPSE
  5
AD
330
90
100
AcDbEntity
  8
AM_9
100
AcDbEllipse
 10
-0.000000000000001
 20
4.662439098471672
 30
0.0
 11
0.2187500000000016
 21
3.259629011154199E-9
 31
0.0
210
0.0
220
0.0
230
1.0
 40
0.8660254037844417
 41
4.712388967479909
 42
8.901179169040109
  0
ELLIPSE
  5
AE
330
90
100
AcDbEntity
  8
AM_9
100
AcDbEllipse
 10
0.0000000000000017
 20
4.712439098471675
 30
0.0
 11
0.2187499999999914
 21
0.0
 31
0.0
210
0.0
220
0.0
230
1.0
 40
0.8660254037844497
 41
1.032970329614979
 42
1.570796326794897
  0
ELLIPSE
  5
AF
330
90
100
AcDbEntity
  8
AM_9
100
AcDbEllipse
 10
-0.0000000000000017
 20
4.712439098471675
 30
0.0
 11
0.2187499999999914
 21
0.0
 31
0.0
210
0.0
220
0.0
230
1.0
 40
0.8660254037844497
 41
1.570796326794897
 42
2.108622323974814
  0
ELLIPSE
  5
B0
330
90
100
AcDbEntity
  8
AM_9
100
AcDbEllipse
 10
0.0000000000000024
 20
4.712439098471664
 30
0.0
 11
0.2137500000000076
 21
0.0
 31
0.0
210
0.0
220
0.0
230
1.0
 40
0.8660254037844352
 41
1.602678738584967
 42
2.155305801354325
  0
ELLIPSE
  5
B1
330
90
100
AcDbEntity
  8
AM_9
100
AcDbEllipse
 10
0.0000000000000009
 20
4.712439098471673
 30
0.0
 11
0.213749999999997
 21
0.0
 31
0.0
210
0.0
220
0.0
230
1.0
 40
0.8660254037844324
 41
0.9862868522354535
 42
1.602678738584962
  0
ELLIPSE
  5
B2
330
90
100
AcDbEntity
  8
AM_9
100
AcDbEllipse
 10
0.0
 20
4.721598197742111
 30
0.0
 11
0.1725340532830161
 21
0.0
 31
0.0
210
0.0
220
0.0
230
1.0
 40
0.8660254037844367
 41
0.6732704101476212
 42
2.468322243442171
  0
ELLIPSE
  5
B3
330
90
100
AcDbEntity
  8
AM_9
100
AcDbEllipse
 10
0.0000000000000006
 20
4.748815659280956
 30
0.0
 11
0.1188200907348973
 21
1.770557325108309E-9
 31
0.0
210
0.0
220
0.0
230
1.0
 40
0.8660254037844343
 41
0.0521714252156427
 42
0.8365075143793007
  0
LINE
  5
B4
330
90
100
AcDbEntity
  8
AM_9
100
AcDbLine
 10
-0.0703562363973515
 20
4.83243909847167
 30
0.0
 11
-0.079616518023802
 21
4.825200003324818
 31
0.0
  0
LINE
  5
B5
330
90
100
AcDbEntity
  8
AM_9
100
AcDbLine
 10
0.079616518023802
 20
4.825200003324818
 30
0.0
 11
0.0703562363973515
 21
4.83243909847167
 31
0.0
  0
ELLIPSE
  5
B6
330
90
100
AcDbEntity
  8
AM_9
100
AcDbEllipse
 10
0.0
 20
4.76493909847167
 30
0.0
 11
0.1049999999999995
 21
1.564621925353997E-9
 31
0.0
210
0.0
220
0.0
230
1.0
 40
0.8660254037844447
 41
0.8365075143792886
 42
3.141592638688632
  0
ELLIPSE
  5
B7
330
90
100
AcDbEntity
  8
AM_9
100
AcDbEllipse
 10
0.0
 20
4.748815659280958
 30
0.0
 11
0.1188200907348949
 21
0.0
 31
0.0
210
0.0
220
0.0
230
1.0
 40
0.8660254037844445
 41
0.8365075292153845
 42
3.089421211179495
  0
ELLIPSE
  5
B8
330
90
100
AcDbEntity
  8
AM_9
100
AcDbEllipse
 10
0.0
 20
4.76493909847167
 30
0.0
 11
0.1050000000000001
 21
0.0
 31
0.0
210
0.0
220
0.0
230
1.0
 40
0.86602540378444
 41
5.858105981271804
 42
7.119692836394987
  0
LINE
  5
B9
330
90
100
AcDbEntity
  8
AM_9
100
AcDbLine
 10
0.105
 20
4.76493909847167
 30
0.0
 11
0.105
 21
4.77993909847167
 31
0.0
  0
LINE
  5
BA
330
90
100
AcDbEntity
  8
AM_9
100
AcDbLine
 10
-0.105
 20
4.77993909847167
 30
0.0
 11
-0.105
 21
4.76493909847167
 31
0.0
  0
ELLIPSE
  5
BB
330
90
100
AcDbEntity
  8
AM_9
100
AcDbEllipse
 10
0.0000000000000011
 20
4.77993909847167
 30
0.0
 11
0.1050000000000009
 21
1.564621925354018E-9
 31
0.0
210
0.0
220
0.0
230
1.0
 40
0.8660254037844328
 41
0.0000017304280906
 42
4.188790190806197
  0
ELLIPSE
  5
BC
330
90
100
AcDbEntity
  8
AM_9
100
AcDbEllipse
 10
0.0000000000000031
 20
4.764939098471665
 30
0.0
 11
0.1050000000000033
 21
0.0
 31
0.0
210
0.0
220
0.0
230
1.0
 40
0.8660254037844307
 41
3.141592653589793
 42
3.566671979497512
  0
ELLIPSE
  5
BD
330
90
100
AcDbEntity
  8
AM_9
100
AcDbEllipse
 10
-0.000000000000001
 20
4.77993909847167
 30
0.0
 11
0.1050000000000009
 21
0.0
 31
0.0
210
0.0
220
0.0
230
1.0
 40
0.8660254037844328
 41
5.235987755982999
 42
6.283185307179586
  0
ELLIPSE
  5
BE
330
90
100
AcDbEntity
  8
AM_9
100
AcDbEllipse
 10
0.0
 20
4.80993909847167
 30
0.0
 11
0.1349999999999995
 21
0.0
 31
0.0
210
0.0
220
0.0
230
1.0
 40
0.866025403784441
 41
0.7751090107151173
 42
2.366483642874676
  0
ELLIPSE
  5
BF
330
90
100
AcDbEntity
  8
AM_9
100
AcDbEllipse
 10
-0.0000000000000002
 20
4.548296475626143
 30
0.0
 11
0.1986176267812153
 21
0.0
 31
0.0
210
0.0
220
0.0
230
1.0
 40
0.8660254037844445
 41
0.0
 42
6.283185307179586
  0
ELLIPSE
  5
C0
330
90
100
AcDbEntity
  8
AM_9
100
AcDbEllipse
 10
0.0000000000000001
 20
4.66243909847167
 30
0.0
 11
0.2057518972230697
 21
0.0
 31
0.0
210
0.0
220
0.0
230
1.0
 40
0.866025403784437
 41
0.0
 42
6.283185307179586
  0
LWPOLYLINE
  5
C2
330
90
100
AcDbEntity
  8
AM_4
100
AcDbPolyline
 90
        3
 70
     0
 43
0.0
 10
0.1894430570778459
 20
4.807160627010592
 10
0.1578692142315383
 20
4.853324700887537
 10
0.1262953713852306
 20
4.897348355701209
  0
LINE
  5
C3
330
90
100
AcDbEntity
  8
AM_4
100
AcDbLine
 10
0.1262953713852306
 20
4.897348355701209
 30
0.0
 11
0.0878491423263088
 21
4.899607152838185
 31
0.0
  0
LWPOLYLINE
  5
C4
330
90
100
AcDbEntity
  8
AM_4
100
AcDbPolyline
 90
        3
 70
     0
 43
0.0
 10
-0.1262953713852306
 20
4.897348355701209
 10
-0.1577272497321276
 20
4.853527075554361
 10
-0.1894430570778459
 20
4.807160627010592
  0
LINE
  5
C5
330
90
100
AcDbEntity
  8
AM_4
100
AcDbLine
 10
-0.0876643906215056
 20
4.899616368753375
 30
0.0
 11
-0.1262953713852306
 21
4.897348355701209
 31
0.0
  0
LWPOLYLINE
  5
C6
330
90
100
AcDbEntity
  8
AM_4
100
AcDbPolyline
 90
        3
 70
     0
 43
0.0
 10
-0.1894430570778459
 20
4.807160627010592
 10
-0.2210168999241536
 20
4.758603172348614
 10
-0.2525907427704612
 20
4.707905298623363
  0
LWPOLYLINE
  5
C7
330
90
100
AcDbEntity
  8
AM_4
100
AcDbPolyline
 90
        3
 70
     0
 43
0.0
 10
0.2525907427704612
 20
4.707905298623363
 10
0.2211588644235643
 20
4.758379653517205
 10
0.1894430570778459
 20
4.807160627010592
  0
LINE
  5
C8
330
90
100
AcDbEntity
  8
AM_4
100
AcDbLine
 10
0.2525907427704612
 20
4.707905298623363
 30
0.0
 11
0.2525907427704612
 21
4.666972898319977
 31
0.0
  0
LWPOLYLINE
  5
C9
330
90
100
AcDbEntity
  8
AM_4
100
AcDbPolyline
 90
        3
 70
     0
 43
0.0
 10
0.1894430570778459
 20
4.617717569932747
 10
0.2210168999241535
 20
4.663881643809691
 10
0.2525907427704612
 20
4.707905298623363
  0
LWPOLYLINE
  5
CA
330
90
100
AcDbEntity
  8
AM_4
100
AcDbPolyline
 90
        3
 70
     0
 43
0.0
 10
0.1262953713852306
 20
4.518462241545516
 10
0.1577272497321276
 20
4.568936596439359
 10
0.1894430570778459
 20
4.617717569932747
  0
LWPOLYLINE
  5
CB
330
90
100
AcDbEntity
  8
AM_4
100
AcDbPolyline
 90
        3
 70
     0
 43
0.0
 10
0.1894430570778459
 20
4.567717569932747
 10
0.1578692142315383
 20
4.521553496055803
 10
0.1262953713852306
 20
4.477529841242131
  0
LWPOLYLINE
  5
CC
330
90
100
AcDbEntity
  8
AM_4
100
AcDbPolyline
 90
        3
 70
     0
 43
0.0
 10
0.2525907427704612
 20
4.666972898319977
 10
0.2211588644235643
 20
4.616498543426134
 10
0.1894430570778459
 20
4.567717569932747
  0
LINE
  5
CD
330
90
100
AcDbEntity
  8
AM_4
100
AcDbLine
 10
0.1262953713852306
 20
4.518462241545516
 30
0.0
 11
0.1262953713852306
 21
4.477529841242131
 31
0.0
  0
LWPOLYLINE
  5
CE
330
90
100
AcDbEntity
  8
AM_4
100
AcDbPolyline
 90
        3
 70
     0
 43
0.0
 10
0.0
 20
4.522996041393824
 10
0.0631476856926153
 20
4.521799351001307
 10
0.1262953713852306
 20
4.518462241545516
  0
LWPOLYLINE
  5
CF
330
90
100
AcDbEntity
  8
AM_4
100
AcDbPolyline
 90
        4
 70
     0
 43
0.0
 10
0.0
 20
4.472996041393824
 10
-0.0483998160558989
 20
4.473704821752392
 10
-0.0967996321117978
 20
4.475737247652746
 10
-0.1262953713852306
 20
4.477529841242131
  0
LWPOLYLINE
  5
D0
330
90
100
AcDbEntity
  8
AM_4
100
AcDbPolyline
 90
        3
 70
     0
 43
0.0
 10
0.1262953713852306
 20
4.477529841242131
 10
0.0634316146914367
 20
4.474203303868634
 10
0.0
 20
4.472996041393824
  0
LWPOLYLINE
  5
D1
330
90
100
AcDbEntity
  8
AM_4
100
AcDbPolyline
 90
        4
 70
     0
 43
0.0
 10
-0.1262953713852306
 20
4.518462241545516
 10
-0.0967996321117978
 20
4.520254835134902
 10
-0.0485424412477544
 20
4.522283127272288
 10
0.0
 20
4.522996041393824
  0
ELLIPSE
  5
D2
330
90
100
AcDbEntity
  8
AM_4
100
AcDbEllipse
 10
-0.0000000000000021
 20
4.712439098471668
 30
0.0
 11
0.2187499999999968
 21
0.0
 31
0.0
210
0.0
220
0.0
230
1.0
 40
0.8660254037844404
 41
3.665191429188086
 42
4.71238898038469
  0
ELLIPSE
  5
D3
330
90
100
AcDbEntity
  8
AM_4
100
AcDbEllipse
 10
0.0000000000000021
 20
4.712439098471668
 30
0.0
 11
0.2187499999999969
 21
0.0
 31
0.0
210
0.0
220
0.0
230
1.0
 40
0.86602540378444
 41
4.71238898038469
 42
5.759586531581293
  0
ELLIPSE
  5
D4
330
90
100
AcDbEntity
  8
AM_4
100
AcDbEllipse
 10
0.0000000000000011
 20
4.71243909847167
 30
0.0
 11
0.2187499999999989
 21
0.0
 31
0.0
210
0.0
220
0.0
230
1.0
 40
0.8660254037844402
 41
5.759586531581287
 42
6.806784082777884
  0
ELLIPSE
  5
D5
330
90
100
AcDbEntity
  8
AM_4
100
AcDbEllipse
 10
0.0000000000000024
 20
4.712439098471672
 30
0.0
 11
0.2187499999999968
 21
0.0
 31
0.0
210
0.0
220
0.0
230
1.0
 40
0.8660254037844365
 41
0.5235987755982912
 42
1.032970329614996
  0
ELLIPSE
  5
D6
330
90
100
AcDbEntity
  8
AM_4
100
AcDbEllipse
 10
-0.0000000000000025
 20
4.712439098471672
 30
0.0
 11
0.2187499999999967
 21
0.0
 31
0.0
210
0.0
220
0.0
230
1.0
 40
0.866025403784437
 41
2.108622323974797
 42
2.617993877991502
  0
ELLIPSE
  5
D7
330
90
100
AcDbEntity
  8
AM_4
100
AcDbEllipse
 10
-0.0000000000000011
 20
4.71243909847167
 30
0.0
 11
0.2187499999999989
 21
0.0
 31
0.0
210
0.0
220
0.0
230
1.0
 40
0.8660254037844405
 41
2.617993877991495
 42
3.665191429188092
  0
LINE
  5
D8
330
90
100
AcDbEntity
  8
AM_4
100
AcDbLine
 10
-0.1262953713852306
 20
4.518462241545516
 30
0.0
 11
-0.1262953713852306
 21
4.477529841242131
 31
0.0
  0
LWPOLYLINE
  5
D9
330
90
100
AcDbEntity
  8
AM_4
100
AcDbPolyline
 90
        3
 70
     0
 43
0.0
 10
-0.1894430570778459
 20
4.617717569932747
 10
-0.1578692142315383
 20
4.569160115270768
 10
-0.1262953713852306
 20
4.518462241545516
  0
LWPOLYLINE
  5
DA
330
90
100
AcDbEntity
  8
AM_4
100
AcDbPolyline
 90
        3
 70
     0
 43
0.0
 10
-0.2525907427704612
 20
4.707905298623363
 10
-0.2211588644235643
 20
4.664084018476514
 10
-0.1894430570778459
 20
4.617717569932747
  0
LINE
  5
DB
330
90
100
AcDbEntity
  8
AM_4
100
AcDbLine
 10
-0.2525907427704612
 20
4.707905298623363
 30
0.0
 11
-0.2525907427704612
 21
4.666972898319977
 31
0.0
  0
LWPOLYLINE
  5
DC
330
90
100
AcDbEntity
  8
AM_4
100
AcDbPolyline
 90
        3
 70
     0
 43
0.0
 10
-0.1894430570778459
 20
4.567717569932747
 10
-0.2210168999241536
 20
4.616275024594725
 10
-0.2525907427704612
 20
4.666972898319977
  0
LWPOLYLINE
  5
DD
330
90
100
AcDbEntity
  8
AM_4
100
AcDbPolyline
 90
        3
 70
     0
 43
0.0
 10
-0.1262953713852306
 20
4.477529841242131
 10
-0.1577272497321276
 20
4.521351121388979
 10
-0.1894430570778459
 20
4.567717569932747
  0
ELLIPSE
  5
DE
330
90
100
AcDbEntity
  8
AM_4
100
AcDbEllipse
 10
0.0000000000000024
 20
4.712439098471671
 30
0.0
 11
0.2137500000000027
 21
0.0
 31
0.0
210
0.0
220
0.0
230
1.0
 40
0.8660254037844344
 41
2.155305801354345
 42
2.74365648671573
  0
ELLIPSE
  5
DF
330
90
100
AcDbEntity
  8
AM_4
100
AcDbEllipse
 10
-0.0000000000000026
 20
4.71243909847167
 30
0.0
 11
0.2137500000000028
 21
0.0
 31
0.0
210
0.0
220
0.0
230
1.0
 40
0.8660254037844337
 41
2.743656486715717
 42
7.269472159415034
  0
ELLIPSE
  5
E0
330
90
100
AcDbEntity
  8
AM_4
100
AcDbEllipse
 10
0.0
 20
4.721598197742112
 30
0.0
 11
0.1725340532830158
 21
0.0
 31
0.0
210
0.0
220
0.0
230
1.0
 40
0.866025403784438
 41
2.468322243442178
 42
6.956455717327202
  0
ELLIPSE
  5
E1
330
90
100
AcDbEntity
  8
AM_4
100
AcDbEllipse
 10
0.0000000000000391
 20
4.748815659280806
 30
0.0
 11
0.1188200907348584
 21
0.0
 31
0.0
210
0.0
220
0.0
230
1.0
 40
0.8660254037844783
 41
3.089421211178034
 42
6.335356749591382
  0
ELLIPSE
  5
E2
330
90
100
AcDbEntity
  8
AM_4
100
AcDbEllipse
 10
0.0
 20
4.76493909847167
 30
0.0
 11
0.1050000000000003
 21
0.0
 31
0.0
210
0.0
220
0.0
230
1.0
 40
0.8660254037844383
 41
3.566671979497574
 42
5.858105981271804
  0
LINE
  5
E3
330
90
100
AcDbEntity
  8
AM_4
100
AcDbLine
 10
0.0525
 20
4.70118909847167
 30
0.0
 11
0.0675000000000001
 21
4.70868909847167
 31
0.0
  0
LINE
  5
E4
330
90
100
AcDbEntity
  8
AM_4
100
AcDbLine
 10
-0.0675000000000001
 20
4.70868909847167
 30
0.0
 11
-0.0525
 21
4.70118909847167
 31
0.0
  0
ELLIPSE
  5
E5
330
90
100
AcDbEntity
  8
AM_4
100
AcDbEllipse
 10
0.0
 20
4.809939098471673
 30
0.0
 11
0.1350000000000034
 21
0.0
 31
0.0
210
0.0
220
0.0
230
1.0
 40
0.8660254037844358
 41
2.366483642874687
 42
5.235987755982975
  0
ELLIPSE
  5
E6
330
90
100
AcDbEntity
  8
AM_4
100
AcDbEllipse
 10
-0.0000000000000026
 20
4.80993909847167
 30
0.0
 11
0.1350000000000026
 21
0.0
 31
0.0
210
0.0
220
0.0
230
1.0
 40
0.8660254037844342
 41
5.235987755983002
 42
7.058294317894694
  0
ELLIPSE
  5
E7
330
90
100
AcDbEntity
  8
AM_4
100
AcDbEllipse
 10
0.0
 20
4.77993909847167
 30
0.0
 11
0.105
 21
0.0
 31
0.0
210
0.0
220
0.0
230
1.0
 40
0.8660254037844325
 41
4.18879020478639
 42
5.23598775598299
  0
LINE
  5
E8
330
90
100
AcDbEntity
  8
AM_4
100
AcDbLine
 10
-0.0733474205218687
 20
4.912165946263777
 30
0.0
 11
-0.0964365416902991
 21
4.891754409203289
 31
0.0
  0
LINE
  5
E9
330
90
100
AcDbEntity
  8
AM_4
100
AcDbLine
 10
0.0964365416902991
 20
4.891754409203289
 30
0.0
 11
0.0733474205218687
 21
4.912165946263777
 31
0.0
  0
ELLIPSE
  5
EA
330
90
100
AcDbEntity
  8
AM_4
100
AcDbEllipse
 10
-0.0000000000000021
 20
4.84993909847167
 30
0.0
 11
0.1026779019331897
 21
0.0
 31
0.0
210
0.0
220
0.0
230
1.0
 40
0.8660254037844384
 41
0.0
 42
6.283185307179586
  0
ENDBLK
  5
93
330
90
100
AcDbEntity
  8
0
100
AcDbBlockEnd
  0
BLOCK
  5
ED
330
EB
100
AcDbEntity
  8
0
100
AcDbBlockBegin
  2
3_ASME_B18_3_1_4_1_0_in_069895_0
 70
     2
 10
0.0
 20
0.0
 30
0.0
  3
3_ASME_B18_3_1_4_1_0_in_069895_0
  1

  0
ATTDEF
  5
EF
330
EB
100
AcDbEntity
  8
AM_6
100
AcDbText
 10
5.229425
 20
-2.265874999999999
 30
0.0
 40
0.5
  1
ANSI/ASME B18.3-1998
100
AcDbAttributeDefinition
  3

  2
NN
 70
     8
280
     0
  0
ATTDEF
  5
F0
330
EB
100
AcDbEntity
  8
AM_6
100
AcDbText
 10
5.229425
 20
-2.765874999999999
 30
0.0
 40
0.5
  1
Socket Button Head Cap Screws
100
AcDbAttributeDefinition
  3

  2
NT
 70
     8
280
     0
  0
ATTDEF
  5
F1
330
EB
100
AcDbEntity
  8
AM_6
100
AcDbText
 10
5.229425
 20
-3.265874999999999
 30
0.0
 40
0.5
  1
ASME B18.3-1/4
100
AcDbAttributeDefinition
  3

  2
NB
 70
     8
280
     0
  0
ATTDEF
  5
F2
330
EB
100
AcDbEntity
  8
AM_6
100
AcDbText
 10
5.229425
 20
-3.765874999999999
 30
0.0
 40
0.5
  1
ASME B18.3-$NS.
100
AcDbAttributeDefinition
  3

  2
NBSYN
 70
     8
280
     0
  0
ATTDEF
  5
F3
330
EB
100
AcDbEntity
  8
AM_6
100
AcDbText
 10
5.229425
 20
-4.265874999999999
 30
0.0
 40
0.5
  1
ASME B18.3-1/4
100
AcDbAttributeDefinition
  3

  2
LINA
 70
     8
280
     0
  0
ATTDEF
  5
F4
330
EB
100
AcDbEntity
  8
AM_6
100
AcDbText
 10
5.229425
 20
-4.765874999999999
 30
0.0
 40
0.5
  1
1/4
100
AcDbAttributeDefinition
  3

  2
NS
 70
     8
280
     0
  0
ATTDEF
  5
F5
330
EB
100
AcDbEntity
  8
AM_6
100
AcDbText
 10
5.229425
 20
-5.265874999999999
 30
0.0
 40
0.5
  1
0.437
100
AcDbAttributeDefinition
  3

  2
A
 70
     8
280
     0
  0
ATTDEF
  5
F6
330
EB
100
AcDbEntity
  8
AM_6
100
AcDbText
 10
5.229425
 20
-5.765874999999999
 30
0.0
 40
0.5
  1
0.132
100
AcDbAttributeDefinition
  3

  2
H
 70
     8
280
     0
  0
ATTDEF
  5
F7
330
EB
100
AcDbEntity
  8
AM_6
100
AcDbText
 10
5.229425
 20
-6.265874999999999
 30
0.0
 40
0.5
  1
0.800
100
AcDbAttributeDefinition
  3

  2
L
 70
     8
280
     0
  0
ATTDEF
  5
F8
330
EB
100
AcDbEntity
  8
AM_6
100
AcDbText
 10
5.229425
 20
-6.765874999999999
 30
0.0
 40
0.5
  1
0.031
100
AcDbAttributeDefinition
  3

  2
S
 70
     8
280
     0
  0
ATTDEF
  5
F9
330
EB
100
AcDbEntity
  8
AM_6
100
AcDbText
 10
5.229425
 20
-7.265874999999999
 30
0.0
 40
0.5
  1
0.156250
100
AcDbAttributeDefinition
  3

  2
J
 70
     8
280
     0
  0
ATTDEF
  5
FA
330
EB
100
AcDbEntity
  8
AM_6
100
AcDbText
 10
5.229425
 20
-7.765874999999999
 30
0.0
 40
0.5
  1
baldor
100
AcDbAttributeDefinition
  3

  2
COMPANY
 70
     8
280
     0
  0
ARC
  5
FC
330
EB
100
AcDbEntity
  8
AM_5
100
AcDbCircle
 10
0.0000000000000004
 20
-2.484375
 30
0.0
 40
0.0952500000000001
100
AcDbArc
 50
75.00000000000001
 51
15.00000000000004
  0
LINE
  5
FF
330
EB
100
AcDbEntity
  8
AM_7
100
AcDbLine
 10
-0.2294250000000001
 20
-2.484375
 30
0.0
 11
0.2294250000000002
 21
-2.484375
 31
0.0
  0
LINE
  5
100
330
EB
100
AcDbEntity
  8
AM_4
100
AcDbLine
 10
0.0
 20
-2.394164020439121
 30
0.0
 11
0.078125
 21
-2.43926951021956
 31
0.0
  0
LINE
  5
101
330
EB
100
AcDbEntity
  8
AM_4
100
AcDbLine
 10
0.078125
 20
-2.43926951021956
 30
0.0
 11
0.078125
 21
-2.52948048978044
 31
0.0
  0
LINE
  5
102
330
EB
100
AcDbEntity
  8
AM_4
100
AcDbLine
 10
0.0
 20
-2.574585979560879
 30
0.0
 11
-0.078125
 21
-2.52948048978044
 31
0.0
  0
CIRCLE
  5
103
330
EB
100
AcDbEntity
  8
AM_4
100
AcDbCircle
 10
0.0
 20
-2.484375
 30
0.0
 40
0.1175
  0
LINE
  5
104
330
EB
100
AcDbEntity
  8
AM_4
100
AcDbLine
 10
-0.078125
 20
-2.52948048978044
 30
0.0
 11
-0.078125
 21
-2.43926951021956
 31
0.0
  0
LINE
  5
105
330
EB
100
AcDbEntity
  8
AM_4
100
AcDbLine
 10
-0.078125
 20
-2.43926951021956
 30
0.0
 11
0.0
 21
-2.394164020439121
 31
0.0
  0
LINE
  5
106
330
EB
100
AcDbEntity
  8
AM_4
100
AcDbLine
 10
0.078125
 20
-2.52948048978044
 30
0.0
 11
0.0
 21
-2.574585979560879
 31
0.0
  0
ARC
  5
107
330
EB
100
AcDbEntity
  8
AM_5
100
AcDbCircle
 10
-0.0000000000000007
 20
-2.484374999999999
 30
0.0
 40
0.1063999999999997
100
AcDbArc
 50
74.99999999999973
 51
14.9999999999996
  0
ARC
  5
108
330
EB
100
AcDbEntity
  8
AM_5
100
AcDbCircle
 10
-0.0000000000000001
 20
-2.484374999999999
 30
0.0
 40
0.1063999999999997
100
AcDbArc
 50
14.99999999999967
 51
195.0000000000004
  0
ARC
  5
109
330
EB
100
AcDbEntity
  8
AM_5
100
AcDbCircle
 10
0.0
 20
-2.484375
 30
0.0
 40
0.09525
100
AcDbArc
 50
345.0
 51
285.0
  0
CIRCLE
  5
10A
330
EB
100
AcDbEntity
  8
AM_4
100
AcDbCircle
 10
0.0
 20
-2.484375
 30
0.0
 40
0.2185000000000001
  0
ENDBLK
  5
EE
330
EB
100
AcDbEntity
  8
0
100
AcDbBlockEnd
  0
BLOCK
  5
10D
330
10B
100
AcDbEntity
  8
0
100
AcDbBlockBegin
  2
4_ASME_B18_3_1_4_2_0_in_069895_0
 70
     2
 10
0.0
 20
0.0
 30
0.0
  3
4_ASME_B18_3_1_4_2_0_in_069895_0
  1

  0
ATTDEF
  5
10F
330
10B
100
AcDbEntity
  8
AM_6
100
AcDbText
 10
5.229425
 20
2.702874999999999
 30
0.0
 40
0.5
  1
ANSI/ASME B18.3-1998
100
AcDbAttributeDefinition
  3

  2
NN
 70
     8
280
     0
  0
ATTDEF
  5
110
330
10B
100
AcDbEntity
  8
AM_6
100
AcDbText
 10
5.229425
 20
2.202874999999999
 30
0.0
 40
0.5
  1
Socket Button Head Cap Screws
100
AcDbAttributeDefinition
  3

  2
NT
 70
     8
280
     0
  0
ATTDEF
  5
111
330
10B
100
AcDbEntity
  8
AM_6
100
AcDbText
 10
5.229425
 20
1.702874999999999
 30
0.0
 40
0.5
  1
ASME B18.3-1/4
100
AcDbAttributeDefinition
  3

  2
NB
 70
     8
280
     0
  0
ATTDEF
  5
112
330
10B
100
AcDbEntity
  8
AM_6
100
AcDbText
 10
5.229425
 20
1.202874999999999
 30
0.0
 40
0.5
  1
ASME B18.3-$NS.
100
AcDbAttributeDefinition
  3

  2
NBSYN
 70
     8
280
     0
  0
ATTDEF
  5
113
330
10B
100
AcDbEntity
  8
AM_6
100
AcDbText
 10
5.229425
 20
0.7028749999999993
 30
0.0
 40
0.5
  1
ASME B18.3-1/4
100
AcDbAttributeDefinition
  3

  2
LINA
 70
     8
280
     0
  0
ATTDEF
  5
114
330
10B
100
AcDbEntity
  8
AM_6
100
AcDbText
 10
5.229425
 20
0.2028749999999993
 30
0.0
 40
0.5
  1
1/4
100
AcDbAttributeDefinition
  3

  2
NS
 70
     8
280
     0
  0
ATTDEF
  5
115
330
10B
100
AcDbEntity
  8
AM_6
100
AcDbText
 10
5.229425
 20
-0.2971250000000007
 30
0.0
 40
0.5
  1
0.437
100
AcDbAttributeDefinition
  3

  2
A
 70
     8
280
     0
  0
ATTDEF
  5
116
330
10B
100
AcDbEntity
  8
AM_6
100
AcDbText
 10
5.229425
 20
-0.7971250000000007
 30
0.0
 40
0.5
  1
0.132
100
AcDbAttributeDefinition
  3

  2
H
 70
     8
280
     0
  0
ATTDEF
  5
117
330
10B
100
AcDbEntity
  8
AM_6
100
AcDbText
 10
5.229425
 20
-1.297125000000001
 30
0.0
 40
0.5
  1
0.800
100
AcDbAttributeDefinition
  3

  2
L
 70
     8
280
     0
  0
ATTDEF
  5
118
330
10B
100
AcDbEntity
  8
AM_6
100
AcDbText
 10
5.229425
 20
-1.797125000000001
 30
0.0
 40
0.5
  1
0.031
100
AcDbAttributeDefinition
  3

  2
S
 70
     8
280
     0
  0
ATTDEF
  5
119
330
10B
100
AcDbEntity
  8
AM_6
100
AcDbText
 10
5.229425
 20
-2.297125000000001
 30
0.0
 40
0.5
  1
0.156250
100
AcDbAttributeDefinition
  3

  2
J
 70
     8
280
     0
  0
ATTDEF
  5
11A
330
10B
100
AcDbEntity
  8
AM_6
100
AcDbText
 10
5.229425
 20
-2.797125000000001
 30
0.0
 40
0.5
  1
baldor
100
AcDbAttributeDefinition
  3

  2
COMPANY
 70
     8
280
     0
  0
ARC
  5
11B
330
10B
100
AcDbEntity
  8
AM_5
100
AcDbCircle
 10
-0.0000000000000001
 20
2.484375
 30
0.0
 40
0.0952500000000001
100
AcDbArc
 50
75.00000000000001
 51
15.00000000000004
  0
LINE
  5
11C
330
10B
100
AcDbEntity
  8
AM_7
100
AcDbLine
 10
-0.2294249999999997
 20
2.484375
 30
0.0
 11
0.2294249999999997
 21
2.484375
 31
0.0
  0
LINE
  5
11D
330
10B
100
AcDbEntity
  8
AM_4
100
AcDbLine
 10
0.0
 20
2.574585979560879
 30
0.0
 11
0.078125
 21
2.52948048978044
 31
0.0
  0
LINE
  5
11E
330
10B
100
AcDbEntity
  8
AM_4
100
AcDbLine
 10
0.078125
 20
2.52948048978044
 30
0.0
 11
0.078125
 21
2.43926951021956
 31
0.0
  0
CIRCLE
  5
11F
330
10B
100
AcDbEntity
  8
AM_4
100
AcDbCircle
 10
0.0
 20
2.484375
 30
0.0
 40
0.1175
  0
LINE
  5
120
330
10B
100
AcDbEntity
  8
AM_4
100
AcDbLine
 10
-0.078125
 20
2.43926951021956
 30
0.0
 11
-0.078125
 21
2.52948048978044
 31
0.0
  0
LINE
  5
121
330
10B
100
AcDbEntity
  8
AM_4
100
AcDbLine
 10
-0.078125
 20
2.52948048978044
 30
0.0
 11
0.0
 21
2.574585979560879
 31
0.0
  0
LINE
  5
122
330
10B
100
AcDbEntity
  8
AM_4
100
AcDbLine
 10
0.078125
 20
2.43926951021956
 30
0.0
 11
0.0
 21
2.394164020439121
 31
0.0
  0
LINE
  5
123
330
10B
100
AcDbEntity
  8
AM_4
100
AcDbLine
 10
0.0
 20
2.394164020439121
 30
0.0
 11
-0.078125
 21
2.43926951021956
 31
0.0
  0
ARC
  5
124
330
10B
100
AcDbEntity
  8
AM_5
100
AcDbCircle
 10
0.0000000000000004
 20
2.484375
 30
0.0
 40
0.1064
100
AcDbArc
 50
75.0000000000002
 51
15.00000000000021
  0
ARC
  5
125
330
10B
100
AcDbEntity
  8
AM_5
100
AcDbCircle
 10
-0.0000000000000002
 20
2.484375
 30
0.0
 40
0.1064000000000001
100
AcDbArc
 50
15.00000000000017
 51
194.9999999999997
  0
ARC
  5
126
330
10B
100
AcDbEntity
  8
AM_5
100
AcDbCircle
 10
0.0
 20
2.484375
 30
0.0
 40
0.09525
100
AcDbArc
 50
345.0
 51
285.0
  0
CIRCLE
  5
127
330
10B
100
AcDbEntity
  8
AM_4
100
AcDbCircle
 10
0.0
 20
2.484375
 30
0.0
 40
0.2184999999999997
  0
ENDBLK
  5
10E
330
10B
100
AcDbEntity
  8
0
100
AcDbBlockEnd
  0
BLOCK
  5
12A
330
128
100
AcDbEntity
  8
0
100
AcDbBlockBegin
  2
5_070906LW_0_in_069895_0
 70
     2
 10
0.0
 20
0.0
 30
0.0
  3
5_070906LW_0_in_069895_0
  1

  0
ATTDEF
  5
12C
330
128
100
AcDbEntity
  8
AM_6
100
AcDbText
 10
7.78125
 20
2.78125
 30
0.0
 40
0.5
  1
Imperial Insert Lockwasher -Inch
100
AcDbAttributeDefinition
  3

  2
NN
 70
     8
280
     0
  0
ATTDEF
  5
12D
330
128
100
AcDbEntity
  8
AM_6
100
AcDbText
 10
7.78125
 20
2.28125
 30
0.0
 40
0.5
  1
Imperial Bearings
100
AcDbAttributeDefinition
  3

  2
NT
 70
     8
280
     0
  0
ATTDEF
  5
12E
330
128
100
AcDbEntity
  8
AM_6
100
AcDbText
 10
7.78125
 20
1.78125
 30
0.0
 40
0.5
  1
070906LW
100
AcDbAttributeDefinition
  3

  2
NB
 70
     8
280
     0
  0
ATTDEF
  5
12F
330
128
100
AcDbEntity
  8
AM_6
100
AcDbText
 10
7.78125
 20
1.28125
 30
0.0
 40
0.5
  1
$PN.LW
100
AcDbAttributeDefinition
  3

  2
NBSYN
 70
     8
280
     0
  0
ATTDEF
  5
130
330
128
100
AcDbEntity
  8
AM_6
100
AcDbText
 10
7.78125
 20
0.7812499999999996
 30
0.0
 40
0.5
  1
070906
100
AcDbAttributeDefinition
  3

  2
LINA
 70
     8
280
     0
  0
ATTDEF
  5
131
330
128
100
AcDbEntity
  8
AM_6
100
AcDbText
 10
7.78125
 20
0.2812499999999996
 30
0.0
 40
0.5
  1
3-15/16
100
AcDbAttributeDefinition
  3

  2
SS
 70
     8
280
     0
  0
ATTDEF
  5
132
330
128
100
AcDbEntity
  8
AM_6
100
AcDbText
 10
7.78125
 20
-0.2187500000000004
 30
0.0
 40
0.5
  1
3.937500
100
AcDbAttributeDefinition
  3

  2
SS1
 70
     8
280
     0
  0
ATTDEF
  5
133
330
128
100
AcDbEntity
  8
AM_6
100
AcDbText
 10
7.78125
 20
-0.7187500000000004
 30
0.0
 40
0.5
  1
070906
100
AcDbAttributeDefinition
  3

  2
PN
 70
     8
280
     0
  0
ATTDEF
  5
134
330
128
100
AcDbEntity
  8
AM_6
100
AcDbText
 10
7.78125
 20
-1.21875
 30
0.0
 40
0.5
  1
INS-IP-315R
100
AcDbAttributeDefinition
  3

  2
DESCRIPTION
 70
     8
280
     0
  0
ATTDEF
  5
135
330
128
100
AcDbEntity
  8
AM_6
100
AcDbText
 10
7.78125
 20
-1.71875
 30
0.0
 40
0.5
  1
7.0866
100
AcDbAttributeDefinition
  3

  2
A
 70
     8
280
     0
  0
ATTDEF
  5
136
330
128
100
AcDbEntity
  8
AM_6
100
AcDbText
 10
7.78125
 20
-2.21875
 30
0.0
 40
0.5
  1
1-7/8
100
AcDbAttributeDefinition
  3

  2
B
 70
     8
280
     0
  0
ATTDEF
  5
137
330
128
100
AcDbEntity
  8
AM_6
100
AcDbText
 10
7.78125
 20
-2.71875
 30
0.0
 40
0.5
  1
4-45/64
100
AcDbAttributeDefinition
  3

  2
C
 70
     8
280
     0
  0
ATTDEF
  5
138
330
128
100
AcDbEntity
  8
AM_6
100
AcDbText
 10
7.78125
 20
-3.21875
 30
0.0
 40
0.5
  1
1.646
100
AcDbAttributeDefinition
  3

  2
D
 70
     8
280
     0
  0
ATTDEF
  5
139
330
128
100
AcDbEntity
  8
AM_6
100
AcDbText
 10
7.78125
 20
-3.71875
 30
0.0
 40
0.5
  1
5-9/16
100
AcDbAttributeDefinition
  3

  2
E
 70
     8
280
     0
  0
ATTDEF
  5
13A
330
128
100
AcDbEntity
  8
AM_6
100
AcDbText
 10
7.78125
 20
-4.21875
 30
0.0
 40
0.5
  1
0.2500
100
AcDbAttributeDefinition
  3

  2
NDM
 70
     8
280
     0
  0
ATTDEF
  5
13B
330
128
100
AcDbEntity
  8
AM_6
100
AcDbText
 10
7.78125
 20
-4.71875
 30
0.0
 40
0.5
  1
0.1960
100
AcDbAttributeDefinition
  3

  2
KDM
 70
     8
280
     0
  0
ATTDEF
  5
13C
330
128
100
AcDbEntity
  8
AM_6
100
AcDbText
 10
7.78125
 20
-5.21875
 30
0.0
 40
0.5
  1
4.83
100
AcDbAttributeDefinition
  3

  2
AL
 70
     8
280
     0
  0
ATTDEF
  5
13D
330
128
100
AcDbEntity
  8
AM_6
100
AcDbText
 10
7.78125
 20
-5.71875
 30
0.0
 40
0.5
  1
0.50
100
AcDbAttributeDefinition
  3

  2
BL
 70
     8
280
     0
  0
ATTDEF
  5
13E
330
128
100
AcDbEntity
  8
AM_6
100
AcDbText
 10
7.78125
 20
-6.21875
 30
0.0
 40
0.5
  1
0.07
100
AcDbAttributeDefinition
  3

  2
CL
 70
     8
280
     0
  0
ATTDEF
  5
13F
330
128
100
AcDbEntity
  8
AM_6
100
AcDbText
 10
7.78125
 20
-6.71875
 30
0.0
 40
0.5
  1
0.50
100
AcDbAttributeDefinition
  3

  2
DL
 70
     8
280
     0
  0
ATTDEF
  5
140
330
128
100
AcDbEntity
  8
AM_6
100
AcDbText
 10
7.78125
 20
-7.21875
 30
0.0
 40
0.5
  1
baldor
100
AcDbAttributeDefinition
  3

  2
COMPANY
 70
     8
280
     0
  0
ARC
  5
141
330
128
100
AcDbEntity
  8
AM_9
100
AcDbCircle
 10
0.0000000000000476
 20
-0.0000000000001099
 30
0.0
 40
2.072368421052752
100
AcDbArc
 50
109.041965092541
 51
115.9580349074592
  0
LINE
  5
142
330
128
100
AcDbEntity
  8
AM_9
100
AcDbLine
 10
-0.1250000000000004
 20
2.305162137738387
 30
0.0
 11
-0.1250000000000004
 21
2.484375
 31
0.0
  0
LINE
  5
143
330
128
100
AcDbEntity
  8
AM_9
100
AcDbLine
 10
0.1249999999999998
 20
2.484375
 30
0.0
 11
0.1249999999999999
 21
2.305162137738387
 31
0.0
  0
LINE
  5
144
330
128
100
AcDbEntity
  8
AM_9
100
AcDbLine
 10
0.1250000000000013
 20
-2.305162137738388
 30
0.0
 11
0.1250000000000018
 21
-2.484375
 31
0.0
  0
LINE
  5
145
330
128
100
AcDbEntity
  8
AM_9
100
AcDbLine
 10
-0.1249999999999987
 20
-2.484375
 30
0.0
 11
-0.1249999999999989
 21
-2.305162137738386
 31
0.0
  0
LINE
  5
146
330
128
100
AcDbEntity
  8
AM_7
100
AcDbLine
 10
2.484414593002004
 20
-0.1312500065839433
 30
0.0
 11
2.484414593002004
 21
0.1312500065839452
 31
0.0
  0
LINE
  5
147
330
128
100
AcDbEntity
  8
AM_7
100
AcDbLine
 10
1.62549639940659
 20
-1.756746405990532
 30
0.0
 11
1.887996412574478
 21
-1.756746405990532
 31
0.0
  0
LINE
  5
148
330
128
100
AcDbEntity
  8
AM_7
100
AcDbLine
 10
1.756746405990534
 20
-1.887996412574477
 30
0.0
 11
1.756746405990534
 21
-1.625496399406588
 31
0.0
  0
LINE
  5
149
330
128
100
AcDbEntity
  8
AM_7
100
AcDbLine
 10
1.625496399406589
 20
1.756746405990534
 30
0.0
 11
1.887996412574477
 21
1.756746405990534
 31
0.0
  0
LINE
  5
14A
330
128
100
AcDbEntity
  8
AM_7
100
AcDbLine
 10
1.756746405990533
 20
1.62549639940659
 30
0.0
 11
1.756746405990533
 21
1.887996412574478
 31
0.0
  0
LINE
  5
14B
330
128
100
AcDbEntity
  8
AM_7
100
AcDbLine
 10
-2.484414593002004
 20
-0.1312500065839462
 30
0.0
 11
-2.484414593002004
 21
0.1312500065839413
 31
0.0
  0
LINE
  5
14C
330
128
100
AcDbEntity
  8
AM_7
100
AcDbLine
 10
-1.887996412574477
 20
1.756746405990533
 30
0.0
 11
-1.625496399406589
 21
1.756746405990533
 31
0.0
  0
LINE
  5
14D
330
128
100
AcDbEntity
  8
AM_7
100
AcDbLine
 10
-1.756746405990533
 20
1.625496399406589
 30
0.0
 11
-1.756746405990533
 21
1.887996412574477
 31
0.0
  0
LINE
  5
14E
330
128
100
AcDbEntity
  8
AM_7
100
AcDbLine
 10
-1.887996412574476
 20
-1.756746405990534
 30
0.0
 11
-1.625496399406588
 21
-1.756746405990534
 31
0.0
  0
LINE
  5
14F
330
128
100
AcDbEntity
  8
AM_7
100
AcDbLine
 10
-1.756746405990532
 20
-1.887996412574479
 30
0.0
 11
-1.756746405990532
 21
-1.62549639940659
 31
0.0
  0
ARC
  5
150
330
128
100
AcDbEntity
  8
AM_4
100
AcDbCircle
 10
-0.0000000000000024
 20
-0.0000000000000064
 30
0.0
 40
2.128378378378384
100
AcDbArc
 50
48.36692767250268
 51
86.63307232749732
  0
LINE
  5
151
330
128
100
AcDbEntity
  8
AM_4
100
AcDbLine
 10
-0.1250000000000012
 20
2.124704572769723
 30
0.0
 11
-0.1250000000000004
 21
2.305162137738387
 31
0.0
  0
LINE
  5
152
330
128
100
AcDbEntity
  8
AM_4
100
AcDbLine
 10
0.1249999999999999
 20
2.305162137738387
 30
0.0
 11
0.1249999999999999
 21
2.124704572769724
 31
0.0
  0
ARC
  5
153
330
128
100
AcDbEntity
  8
AM_4
100
AcDbCircle
 10
0.0000000000000151
 20
0.0000000000000066
 30
0.0
 40
2.128378378378394
100
AcDbArc
 50
183.3669276725026
 51
221.6330723274972
  0
LINE
  5
154
330
128
100
AcDbEntity
  8
AM_4
100
AcDbLine
 10
-1.845106757158647
 20
-1.668330061862012
 30
0.0
 11
-1.590781359071856
 21
-1.41400466377522
 31
0.0
  0
ARC
  5
155
330
128
100
AcDbEntity
  8
AM_4
100
AcDbCircle
 10
-1.756746405990532
 20
-1.756746405990534
 30
0.0
 40
0.1250000062704228
100
AcDbArc
 50
134.9818519053027
 51
315.0181480946977
  0
LINE
  5
156
330
128
100
AcDbEntity
  8
AM_4
100
AcDbLine
 10
-1.414004663775219
 20
-1.590781359071857
 30
0.0
 11
-1.668330061862009
 21
-1.845106757158648
 31
0.0
  0
ARC
  5
157
330
128
100
AcDbEntity
  8
AM_4
100
AcDbCircle
 10
-2.484414593002004
 20
-0.0000000000000022
 30
0.0
 40
0.1250000062704226
100
AcDbArc
 50
89.98185190530242
 51
270.0181480946978
  0
LINE
  5
158
330
128
100
AcDbEntity
  8
AM_4
100
AcDbLine
 10
-2.124704572769724
 20
-0.1250000000000014
 30
0.0
 11
-2.484375
 21
-0.1250000000000019
 31
0.0
  0
LINE
  5
159
330
128
100
AcDbEntity
  8
AM_4
100
AcDbLine
 10
0.1250000000000002
 20
-2.124704572769724
 30
0.0
 11
0.1250000000000013
 21
-2.305162137738388
 31
0.0
  0
ARC
  5
15A
330
128
100
AcDbEntity
  8
AM_4
100
AcDbCircle
 10
-0.0000000000000015
 20
0.000000000000004
 30
0.0
 40
2.128378378378382
100
AcDbArc
 50
273.3669276725027
 51
311.6330723274973
  0
LINE
  5
15B
330
128
100
AcDbEntity
  8
AM_4
100
AcDbLine
 10
1.66833006186203
 20
-1.845106757158665
 30
0.0
 11
1.41400466377522
 21
-1.590781359071856
 31
0.0
  0
ARC
  5
15C
330
128
100
AcDbEntity
  8
AM_4
100
AcDbCircle
 10
1.756746405990534
 20
-1.756746405990532
 30
0.0
 40
0.125000006270423
100
AcDbArc
 50
224.9818519053144
 51
45.01814809469759
  0
LINE
  5
15D
330
128
100
AcDbEntity
  8
AM_4
100
AcDbLine
 10
1.590781359071857
 20
-1.414004663775218
 30
0.0
 11
1.845106757158648
 21
-1.66833006186201
 31
0.0
  0
ARC
  5
15E
330
128
100
AcDbEntity
  8
AM_4
100
AcDbCircle
 10
-0.0000000000000038
 20
0.0000000000000027
 30
0.0
 40
2.128378378378382
100
AcDbArc
 50
318.3669276725027
 51
356.6330723274973
  0
LINE
  5
15F
330
128
100
AcDbEntity
  8
AM_4
100
AcDbLine
 10
2.484375
 20
-0.1249999999999989
 30
0.0
 11
2.124704572769724
 21
-0.1249999999999996
 31
0.0
  0
ARC
  5
160
330
128
100
AcDbEntity
  8
AM_4
100
AcDbCircle
 10
2.484414593002004
 20
0.0000000000000008
 30
0.0
 40
0.1250000062704228
100
AcDbArc
 50
269.9818519053026
 51
90.01814809469778
  0
LINE
  5
161
330
128
100
AcDbEntity
  8
AM_4
100
AcDbLine
 10
2.124704572769724
 20
0.1250000000000009
 30
0.0
 11
2.484375
 21
0.1250000000000009
 31
0.0
  0
ARC
  5
162
330
128
100
AcDbEntity
  8
AM_4
100
AcDbCircle
 10
-0.0000000000000098
 20
-0.0000000000000034
 30
0.0
 40
2.128378378378388
100
AcDbArc
 50
3.366927672502718
 51
41.63307232749729
  0
LINE
  5
163
330
128
100
AcDbEntity
  8
AM_4
100
AcDbLine
 10
1.845106757158647
 20
1.668330061862011
 30
0.0
 11
1.590781359071856
 21
1.41400466377522
 31
0.0
  0
ARC
  5
164
330
128
100
AcDbEntity
  8
AM_4
100
AcDbCircle
 10
1.756746405990533
 20
1.756746405990534
 30
0.0
 40
0.125000006270423
100
AcDbArc
 50
314.9818519053023
 51
135.0181480946977
  0
LINE
  5
165
330
128
100
AcDbEntity
  8
AM_4
100
AcDbLine
 10
-0.1249999999999989
 20
-2.305162137738386
 30
0.0
 11
-0.1249999999999992
 21
-2.124704572769724
 31
0.0
  0
LINE
  5
166
330
128
100
AcDbEntity
  8
AM_4
100
AcDbLine
 10
-0.6761321485743733
 20
1.958968144263806
 30
0.0
 11
-0.6976042971054086
 21
2.010806496460722
 31
0.0
  0
ARC
  5
167
330
128
100
AcDbEntity
  8
AM_4
100
AcDbCircle
 10
0.0000000000000614
 20
-0.0000000000001452
 30
0.0
 40
1.968750000000157
100
AcDbArc
 50
108.8597241243851
 51
116.140275875615
  0
LINE
  5
168
330
128
100
AcDbEntity
  8
AM_4
100
AcDbLine
 10
-0.9285741802332311
 20
1.915135638369449
 30
0.0
 11
-0.907102031702195
 21
1.863297286172533
 31
0.0
  0
LINE
  5
169
330
128
100
AcDbEntity
  8
AM_4
100
AcDbLine
 10
1.41400466377522
 20
1.590781359071856
 30
0.0
 11
1.66833006186201
 21
1.845106757158648
 31
0.0
  0
ARC
  5
16A
330
128
100
AcDbEntity
  8
AM_4
100
AcDbCircle
 10
-0.0000000000000009
 20
-0.0000000000000027
 30
0.0
 40
2.128378378378376
100
AcDbArc
 50
228.3669276725026
 51
266.6330723274974
  0
LINE
  5
16B
330
128
100
AcDbEntity
  8
AM_4
100
AcDbLine
 10
-2.484375
 20
0.1249999999999973
 30
0.0
 11
-2.124704572769724
 21
0.1249999999999989
 31
0.0
  0
ARC
  5
16C
330
128
100
AcDbEntity
  8
AM_4
100
AcDbCircle
 10
-0.0000000000000067
 20
0.000000000000002
 30
0.0
 40
2.128378378378371
100
AcDbArc
 50
138.3669276725026
 51
176.6330723274975
  0
LINE
  5
16D
330
128
100
AcDbEntity
  8
AM_4
100
AcDbLine
 10
-1.590781359071856
 20
1.414004663775219
 30
0.0
 11
-1.845106757158647
 21
1.66833006186201
 31
0.0
  0
ARC
  5
16E
330
128
100
AcDbEntity
  8
AM_4
100
AcDbCircle
 10
-1.756746405990533
 20
1.756746405990533
 30
0.0
 40
0.125000006270423
100
AcDbArc
 50
44.9818519052944
 51
225.0181480946977
  0
LINE
  5
16F
330
128
100
AcDbEntity
  8
AM_4
100
AcDbLine
 10
-1.668330061861998
 20
1.845106757158635
 30
0.0
 11
-1.41400466377522
 21
1.590781359071856
 31
0.0
  0
ARC
  5
170
330
128
100
AcDbEntity
  8
AM_4
100
AcDbCircle
 10
0.0000000000000353
 20
-0.0000000000000524
 30
0.0
 40
2.128378378378441
100
AcDbArc
 50
115.8669276725029
 51
131.6330723274972
  0
ARC
  5
171
330
128
100
AcDbEntity
  8
AM_4
100
AcDbCircle
 10
0.0000000000000144
 20
-0.0000000000000848
 30
0.0
 40
2.128378378378462
100
AcDbArc
 50
93.36692767250292
 51
109.133072327497
  0
CIRCLE
  5
172
330
128
100
AcDbEntity
  8
AM_4
100
AcDbCircle
 10
0.0
 20
0.0
 30
0.0
 40
2.78125
  0
ENDBLK
  5
12B
330
128
100
AcDbEntity
  8
0
100
AcDbBlockEnd
  0
BLOCK
  5
175
330
173
100
AcDbEntity
  8
0
100
AcDbBlockBegin
  2
6_070938I_0_in_069895_0
 70
     2
 10
0.0
 20
0.0
 30
0.0
  3
6_070938I_0_in_069895_0
  1

  0
ATTDEF
  5
177
330
173
100
AcDbEntity
  8
AM_6
100
AcDbText
 10
8.493300000000001
 20
3.493300000000001
 30
0.0
 40
0.5
  1
Imperial Insert -Inch
100
AcDbAttributeDefinition
  3

  2
NN
 70
     8
280
     0
  0
ATTDEF
  5
178
330
173
100
AcDbEntity
  8
AM_6
100
AcDbText
 10
8.493300000000001
 20
2.993300000000001
 30
0.0
 40
0.5
  1
Imperial Bearings
100
AcDbAttributeDefinition
  3

  2
NT
 70
     8
280
     0
  0
ATTDEF
  5
179
330
173
100
AcDbEntity
  8
AM_6
100
AcDbText
 10
8.493300000000001
 20
2.493300000000001
 30
0.0
 40
0.5
  1
070938I
100
AcDbAttributeDefinition
  3

  2
NB
 70
     8
280
     0
  0
ATTDEF
  5
17A
330
173
100
AcDbEntity
  8
AM_6
100
AcDbText
 10
8.493300000000001
 20
1.993300000000001
 30
0.0
 40
0.5
  1
$PN.I
100
AcDbAttributeDefinition
  3

  2
NBSYN
 70
     8
280
     0
  0
ATTDEF
  5
17B
330
173
100
AcDbEntity
  8
AM_6
100
AcDbText
 10
8.493300000000001
 20
1.493300000000001
 30
0.0
 40
0.5
  1
070938
100
AcDbAttributeDefinition
  3

  2
LINA
 70
     8
280
     0
  0
ATTDEF
  5
17C
330
173
100
AcDbEntity
  8
AM_6
100
AcDbText
 10
8.493300000000001
 20
0.9933000000000005
 30
0.0
 40
0.5
  1
3-15/16
100
AcDbAttributeDefinition
  3

  2
SS
 70
     8
280
     0
  0
ATTDEF
  5
17D
330
173
100
AcDbEntity
  8
AM_6
100
AcDbText
 10
8.493300000000001
 20
0.4933000000000005
 30
0.0
 40
0.5
  1
3.937500
100
AcDbAttributeDefinition
  3

  2
SS1
 70
     8
280
     0
  0
ATTDEF
  5
17E
330
173
100
AcDbEntity
  8
AM_6
100
AcDbText
 10
8.493300000000001
 20
-0.0066999999999995
 30
0.0
 40
0.5
  1
070938
100
AcDbAttributeDefinition
  3

  2
PN
 70
     8
280
     0
  0
ATTDEF
  5
17F
330
173
100
AcDbEntity
  8
AM_6
100
AcDbText
 10
8.493300000000001
 20
-0.5066999999999995
 30
0.0
 40
0.5
  1
INS-IP-315L
100
AcDbAttributeDefinition
  3

  2
DESCRIPTION
 70
     8
280
     0
  0
ATTDEF
  5
180
330
173
100
AcDbEntity
  8
AM_6
100
AcDbText
 10
8.493300000000001
 20
-1.006699999999999
 30
0.0
 40
0.5
  1
Labyrinth Seal
100
AcDbAttributeDefinition
  3

  2
ST
 70
     8
280
     0
  0
ATTDEF
  5
181
330
173
100
AcDbEntity
  8
AM_6
100
AcDbText
 10
8.493300000000001
 20
-1.506699999999999
 30
0.0
 40
0.5
  1
7.0866
100
AcDbAttributeDefinition
  3

  2
A
 70
     8
280
     0
  0
ATTDEF
  5
182
330
173
100
AcDbEntity
  8
AM_6
100
AcDbText
 10
8.493300000000001
 20
-2.006699999999999
 30
0.0
 40
0.5
  1
1-7/8
100
AcDbAttributeDefinition
  3

  2
B
 70
     8
280
     0
  0
ATTDEF
  5
183
330
173
100
AcDbEntity
  8
AM_6
100
AcDbText
 10
8.493300000000001
 20
-2.506699999999999
 30
0.0
 40
0.5
  1
4-45/64
100
AcDbAttributeDefinition
  3

  2
C
 70
     8
280
     0
  0
ATTDEF
  5
184
330
173
100
AcDbEntity
  8
AM_6
100
AcDbText
 10
8.493300000000001
 20
-3.006699999999999
 30
0.0
 40
0.5
  1
1.646
100
AcDbAttributeDefinition
  3

  2
D
 70
     8
280
     0
  0
ATTDEF
  5
185
330
173
100
AcDbEntity
  8
AM_6
100
AcDbText
 10
8.493300000000001
 20
-3.506699999999999
 30
0.0
 40
0.5
  1
5-9/16
100
AcDbAttributeDefinition
  3

  2
E
 70
     8
280
     0
  0
ATTDEF
  5
186
330
173
100
AcDbEntity
  8
AM_6
100
AcDbText
 10
8.493300000000001
 20
-4.006699999999999
 30
0.0
 40
0.5
  1
0.2500
100
AcDbAttributeDefinition
  3

  2
NDM
 70
     8
280
     0
  0
ATTDEF
  5
187
330
173
100
AcDbEntity
  8
AM_6
100
AcDbText
 10
8.493300000000001
 20
-4.506699999999999
 30
0.0
 40
0.5
  1
0.132
100
AcDbAttributeDefinition
  3

  2
H
 70
     8
280
     0
  0
ATTDEF
  5
188
330
173
100
AcDbEntity
  8
AM_6
100
AcDbText
 10
8.493300000000001
 20
-5.006699999999999
 30
0.0
 40
0.5
  1
0.1960
100
AcDbAttributeDefinition
  3

  2
KDM
 70
     8
280
     0
  0
ATTDEF
  5
189
330
173
100
AcDbEntity
  8
AM_6
100
AcDbText
 10
8.493300000000001
 20
-5.506699999999999
 30
0.0
 40
0.5
  1
4.83
100
AcDbAttributeDefinition
  3

  2
AL
 70
     8
280
     0
  0
ATTDEF
  5
18A
330
173
100
AcDbEntity
  8
AM_6
100
AcDbText
 10
8.493300000000001
 20
-6.006699999999999
 30
0.0
 40
0.5
  1
0.50
100
AcDbAttributeDefinition
  3

  2
BL
 70
     8
280
     0
  0
ATTDEF
  5
18B
330
173
100
AcDbEntity
  8
AM_6
100
AcDbText
 10
8.493300000000001
 20
-6.506699999999999
 30
0.0
 40
0.5
  1
0.07
100
AcDbAttributeDefinition
  3

  2
CL
 70
     8
280
     0
  0
ATTDEF
  5
18C
330
173
100
AcDbEntity
  8
AM_6
100
AcDbText
 10
8.493300000000001
 20
-7.006699999999999
 30
0.0
 40
0.5
  1
0.50
100
AcDbAttributeDefinition
  3

  2
DL
 70
     8
280
     0
  0
ATTDEF
  5
18D
330
173
100
AcDbEntity
  8
AM_6
100
AcDbText
 10
8.493300000000001
 20
-7.506699999999999
 30
0.0
 40
0.5
  1
0.8000
100
AcDbAttributeDefinition
  3

  2
LL
 70
     8
280
     0
  0
ATTDEF
  5
18E
330
173
100
AcDbEntity
  8
AM_6
100
AcDbText
 10
8.493300000000001
 20
-8.006699999999999
 30
0.0
 40
0.5
  1
0.025
100
AcDbAttributeDefinition
  3

  2
Y
 70
     8
280
     0
  0
ATTDEF
  5
18F
330
173
100
AcDbEntity
  8
AM_6
100
AcDbText
 10
8.493300000000001
 20
-8.506699999999999
 30
0.0
 40
0.5
  1
0.025000
100
AcDbAttributeDefinition
  3

  2
Y1
 70
     8
280
     0
  0
ATTDEF
  5
190
330
173
100
AcDbEntity
  8
AM_6
100
AcDbText
 10
8.493300000000001
 20
-9.006699999999999
 30
0.0
 40
0.5
  1
4-1/2
100
AcDbAttributeDefinition
  3

  2
Z
 70
     8
280
     0
  0
ATTDEF
  5
191
330
173
100
AcDbEntity
  8
AM_6
100
AcDbText
 10
8.493300000000001
 20
-9.506699999999999
 30
0.0
 40
0.5
  1
4.500000
100
AcDbAttributeDefinition
  3

  2
Z1
 70
     8
280
     0
  0
ATTDEF
  5
192
330
173
100
AcDbEntity
  8
AM_6
100
AcDbText
 10
8.493300000000001
 20
-10.0067
 30
0.0
 40
0.5
  1
baldor
100
AcDbAttributeDefinition
  3

  2
COMPANY
 70
     8
280
     0
  0
CIRCLE
  5
193
330
173
100
AcDbEntity
  8
AM_9
100
AcDbCircle
 10
0.0
 20
0.0
 30
0.0
 40
2.25
  0
CIRCLE
  5
194
330
173
100
AcDbEntity
  8
AM_9
100
AcDbCircle
 10
0.0
 20
0.0
 30
0.0
 40
2.442307692307692
  0
CIRCLE
  5
195
330
173
100
AcDbEntity
  8
AM_9
100
AcDbCircle
 10
0.0
 20
0.0
 30
0.0
 40
3.069058622134929
  0
CIRCLE
  5
196
330
173
100
AcDbEntity
  8
AM_9
100
AcDbCircle
 10
0.0
 20
0.0
 30
0.0
 40
2.5
  0
CIRCLE
  5
197
330
173
100
AcDbEntity
  8
AM_9
100
AcDbCircle
 10
0.0
 20
0.0
 30
0.0
 40
3.155661162513372
  0
CIRCLE
  5
198
330
173
100
AcDbEntity
  8
AM_9
100
AcDbCircle
 10
0.0
 20
0.0
 30
0.0
 40
3.3433
  0
CIRCLE
  5
199
330
173
100
AcDbEntity
  8
AM_9
100
AcDbCircle
 10
0.0
 20
0.0
 30
0.0
 40
3.44955
  0
LINE
  5
19A
330
173
100
AcDbEntity
  8
AM_9
100
AcDbLine
 10
1.884439571862149
 20
-1.530886181268876
 30
0.0
 11
2.136652684401853
 21
-1.783099293808579
 31
0.0
  0
LINE
  5
19B
330
173
100
AcDbEntity
  8
AM_9
100
AcDbLine
 10
2.136652684401853
 20
1.783099293808579
 30
0.0
 11
1.884439571862149
 21
1.530886181268875
 31
0.0
  0
LINE
  5
19C
330
173
100
AcDbEntity
  8
AM_9
100
AcDbLine
 10
1.783099293808579
 20
-2.136652684401853
 30
0.0
 11
1.530886181268875
 21
-1.884439571862149
 31
0.0
  0
LINE
  5
19D
330
173
100
AcDbEntity
  8
AM_9
100
AcDbLine
 10
-1.530886181268876
 20
-1.884439571862149
 30
0.0
 11
-1.783099293808579
 21
-2.136652684401852
 31
0.0
  0
LINE
  5
19E
330
173
100
AcDbEntity
  8
AM_9
100
AcDbLine
 10
-1.884439571862149
 20
1.530886181268876
 30
0.0
 11
-2.136652684401852
 21
1.783099293808579
 31
0.0
  0
LINE
  5
19F
330
173
100
AcDbEntity
  8
AM_9
100
AcDbLine
 10
-2.136652684401853
 20
-1.783099293808579
 30
0.0
 11
-1.884439571862149
 21
-1.530886181268875
 31
0.0
  0
CIRCLE
  5
1A0
330
173
100
AcDbEntity
  8
AM_9
100
AcDbCircle
 10
0.0
 20
2.484375
 30
0.0
 40
0.09795
  0
CIRCLE
  5
1A1
330
173
100
AcDbEntity
  8
AM_9
100
AcDbCircle
 10
0.0
 20
-2.484375
 30
0.0
 40
0.09795
  0
LINE
  5
1A2
330
173
100
AcDbEntity
  8
AM_9
100
AcDbLine
 10
1.530886181268876
 20
1.884439571862148
 30
0.0
 11
1.78309929380858
 21
2.136652684401852
 31
0.0
  0
LINE
  5
1A3
330
173
100
AcDbEntity
  8
AM_9
100
AcDbLine
 10
-1.783099293808579
 20
2.136652684401853
 30
0.0
 11
-1.530886181268875
 21
1.884439571862149
 31
0.0
  0
LINE
  5
1A4
330
173
100
AcDbEntity
  8
AM_9
100
AcDbLine
 10
-1.796051224213831
 20
1.619274528917194
 30
0.0
 11
-1.884439571862149
 21
1.530886181268876
 31
0.0
  0
LINE
  5
1A5
330
173
100
AcDbEntity
  8
AM_9
100
AcDbLine
 10
-1.530886181268875
 20
1.884439571862149
 30
0.0
 11
-1.619274528917194
 21
1.79605122421383
 31
0.0
  0
ARC
  5
1A6
330
173
100
AcDbEntity
  8
AM_9
100
AcDbCircle
 10
-0.0000000000000004
 20
0.0000000000000006
 30
0.0
 40
2.732965561259649
100
AcDbArc
 50
140.2485100253665
 51
219.7514899746335
  0
LINE
  5
1A7
330
173
100
AcDbEntity
  8
AM_9
100
AcDbLine
 10
-1.619274528917193
 20
-1.796051224213832
 30
0.0
 11
-1.530886181268876
 21
-1.884439571862149
 31
0.0
  0
LINE
  5
1A8
330
173
100
AcDbEntity
  8
AM_9
100
AcDbLine
 10
-1.884439571862149
 20
-1.530886181268875
 30
0.0
 11
-1.79605122421383
 21
-1.619274528917195
 31
0.0
  0
ARC
  5
1A9
330
173
100
AcDbEntity
  8
AM_9
100
AcDbCircle
 10
-0.0000000000000006
 20
-0.0000000000000004
 30
0.0
 40
2.732965561259649
100
AcDbArc
 50
230.2485100253665
 51
309.7514899746336
  0
LINE
  5
1AA
330
173
100
AcDbEntity
  8
AM_9
100
AcDbLine
 10
1.796051224213832
 20
-1.619274528917193
 30
0.0
 11
1.884439571862149
 21
-1.530886181268876
 31
0.0
  0
LINE
  5
1AB
330
173
100
AcDbEntity
  8
AM_9
100
AcDbLine
 10
1.530886181268875
 20
-1.884439571862149
 30
0.0
 11
1.619274528917195
 21
-1.79605122421383
 31
0.0
  0
ARC
  5
1AC
330
173
100
AcDbEntity
  8
AM_9
100
AcDbCircle
 10
0.0000000000000004
 20
-0.0000000000000007
 30
0.0
 40
2.732965561259649
100
AcDbArc
 50
320.2485100253664
 51
39.75148997463354
  0
LINE
  5
1AD
330
173
100
AcDbEntity
  8
AM_9
100
AcDbLine
 10
1.619274528917194
 20
1.796051224213831
 30
0.0
 11
1.530886181268876
 21
1.884439571862148
 31
0.0
  0
LINE
  5
1AE
330
173
100
AcDbEntity
  8
AM_9
100
AcDbLine
 10
1.884439571862149
 20
1.530886181268875
 30
0.0
 11
1.79605122421383
 21
1.619274528917194
 31
0.0
  0
ARC
  5
1AF
330
173
100
AcDbEntity
  8
AM_9
100
AcDbCircle
 10
-0.0000000000000255
 20
0.0000000000000713
 30
0.0
 40
2.077836411609423
100
AcDbArc
 50
109.0510762061716
 51
115.9489237938286
  0
ARC
  5
1B0
330
173
100
AcDbEntity
  8
AM_9
100
AcDbCircle
 10
0.0000000000000002
 20
-0.0000000000000009
 30
0.0
 40
2.73296556125965
100
AcDbArc
 50
50.24851002536647
 51
129.7514899746335
  0
ARC
  5
1B1
330
173
100
AcDbEntity
  8
AM_5
100
AcDbCircle
 10
0.0000000000000004
 20
2.484375
 30
0.0
 40
0.1250000000000001
100
AcDbArc
 50
75.0000000000001
 51
14.99999999999994
  0
CIRCLE
  5
1B2
330
173
100
AcDbEntity
  8
AM_4
100
AcDbCircle
 10
0.0
 20
0.0
 30
0.0
 40
3.493300000000001
  0
LINE
  5
1B3
330
173
100
AcDbEntity
  8
AM_4
100
AcDbLine
 10
-1.794299129942516
 20
2.147852520535789
 30
0.0
 11
-1.783099293808579
 21
2.136652684401853
 31
0.0
  0
LINE
  5
1B4
330
173
100
AcDbEntity
  8
AM_4
100
AcDbLine
 10
1.794299129942516
 20
-2.147852520535789
 30
0.0
 11
1.783099293808579
 21
-2.136652684401853
 31
0.0
  0
LINE
  5
1B5
330
173
100
AcDbEntity
  8
AM_4
100
AcDbLine
 10
1.78309929380858
 20
2.136652684401852
 30
0.0
 11
1.794299129942517
 21
2.147852520535789
 31
0.0
  0
LINE
  5
1B6
330
173
100
AcDbEntity
  8
AM_4
100
AcDbLine
 10
-2.136652684401852
 20
1.783099293808579
 30
0.0
 11
-2.147852520535789
 21
1.794299129942517
 31
0.0
  0
LINE
  5
1B7
330
173
100
AcDbEntity
  8
AM_4
100
AcDbLine
 10
2.136652684401853
 20
-1.783099293808579
 30
0.0
 11
2.147852520535789
 21
-1.794299129942517
 31
0.0
  0
LINE
  5
1B8
330
173
100
AcDbEntity
  8
AM_4
100
AcDbLine
 10
-2.14785252053579
 20
-1.794299129942516
 30
0.0
 11
-2.136652684401853
 21
-1.783099293808579
 31
0.0
  0
LINE
  5
1B9
330
173
100
AcDbEntity
  8
AM_4
100
AcDbLine
 10
2.14785252053579
 20
1.794299129942516
 30
0.0
 11
2.136652684401853
 21
1.783099293808579
 31
0.0
  0
LINE
  5
1BA
330
173
100
AcDbEntity
  8
AM_4
100
AcDbLine
 10
-1.783099293808579
 20
-2.136652684401852
 30
0.0
 11
-1.794299129942517
 21
-2.147852520535789
 31
0.0
  0
CIRCLE
  5
1BB
330
173
100
AcDbEntity
  8
AM_4
100
AcDbCircle
 10
0.0
 20
0.0
 30
0.0
 40
2.843244551072289
  0
ARC
  5
1BC
330
173
100
AcDbEntity
  8
AM_4
100
AcDbCircle
 10
0.0000000000000522
 20
-0.0000000000000462
 30
0.0
 40
2.798710384745807
100
AcDbArc
 50
309.8751171869936
 51
320.1248828130062
  0
ARC
  5
1BD
330
173
100
AcDbEntity
  8
AM_4
100
AcDbCircle
 10
0.0000000000000395
 20
0.0000000000000362
 30
0.0
 40
2.79871038474593
100
AcDbArc
 50
219.8751171869939
 51
230.124882813006
  0
ARC
  5
1BE
330
173
100
AcDbEntity
  8
AM_4
100
AcDbCircle
 10
-0.0000000000000113
 20
0.000000000000004
 30
0.0
 40
2.798710384745866
100
AcDbArc
 50
129.8751171869937
 51
140.1248828130061
  0
ARC
  5
1BF
330
173
100
AcDbEntity
  8
AM_4
100
AcDbCircle
 10
-0.0000000000000751
 20
-0.0000000000000737
 30
0.0
 40
2.798710384745982
100
AcDbArc
 50
39.87511718699401
 51
50.12488281300591
  0
ARC
  5
1C0
330
173
100
AcDbEntity
  8
AM_4
100
AcDbCircle
 10
-0.0000000000000009
 20
0.0
 30
0.0
 40
2.782935102610606
100
AcDbArc
 50
320.1540119949408
 51
39.84598800505921
  0
ARC
  5
1C1
330
173
100
AcDbEntity
  8
AM_4
100
AcDbCircle
 10
0.0000000000000001
 20
-0.0000000000000004
 30
0.0
 40
2.782935102610604
100
AcDbArc
 50
230.1540119949408
 51
309.8459880050592
  0
ARC
  5
1C2
330
173
100
AcDbEntity
  8
AM_4
100
AcDbCircle
 10
0.0
 20
0.0
 30
0.0
 40
2.782935102610605
100
AcDbArc
 50
140.1540119949408
 51
219.8459880050592
  0
LINE
  5
1C3
330
173
100
AcDbEntity
  8
AM_4
100
AcDbLine
 10
-1.619274528917194
 20
1.79605122421383
 30
0.0
 11
-1.796051224213831
 21
1.619274528917194
 31
0.0
  0
LINE
  5
1C4
330
173
100
AcDbEntity
  8
AM_4
100
AcDbLine
 10
-1.79605122421383
 20
-1.619274528917195
 30
0.0
 11
-1.619274528917193
 21
-1.796051224213832
 31
0.0
  0
LINE
  5
1C5
330
173
100
AcDbEntity
  8
AM_4
100
AcDbLine
 10
1.619274528917195
 20
-1.79605122421383
 30
0.0
 11
1.796051224213832
 21
-1.619274528917193
 31
0.0
  0
LINE
  5
1C6
330
173
100
AcDbEntity
  8
AM_4
100
AcDbLine
 10
1.79605122421383
 20
1.619274528917194
 30
0.0
 11
1.619274528917194
 21
1.796051224213831
 31
0.0
  0
ARC
  5
1C7
330
173
100
AcDbEntity
  8
AM_4
100
AcDbCircle
 10
0.0000000000000002
 20
-0.0000000000000009
 30
0.0
 40
2.782935102610606
100
AcDbArc
 50
50.15401199494077
 51
129.8459880050592
  0
LINE
  5
1C8
330
173
100
AcDbEntity
  8
AM_4
100
AcDbLine
 10
-0.9071020317021946
 20
1.863297286172533
 30
0.0
 11
-0.8673728304450147
 21
1.767382509675199
 31
0.0
  0
LINE
  5
1C9
330
173
100
AcDbEntity
  8
AM_4
100
AcDbLine
 10
-0.6364029473171927
 20
1.863053367766471
 30
0.0
 11
-0.6761321485743731
 21
1.958968144263806
 31
0.0
  0
ARC
  5
1CA
330
173
100
AcDbEntity
  8
AM_4
100
AcDbCircle
 10
-0.0000000000000012
 20
-0.0000000000000003
 30
0.0
 40
1.96875
100
AcDbArc
 50
116.1402758756152
 51
108.8597241243847
  0
ARC
  5
1CB
330
173
100
AcDbEntity
  8
AM_4
100
AcDbCircle
 10
0.0000000000000034
 20
0.0000000000000014
 30
0.0
 40
2.072368421052632
100
AcDbArc
 50
115.9580349074594
 51
109.0419650925408
  0
ARC
  5
1CC
330
173
100
AcDbEntity
  8
AM_5
100
AcDbCircle
 10
0.0000000000000003
 20
2.484375
 30
0.0
 40
0.1250000000000001
100
AcDbArc
 50
165.0000000000003
 51
105.0000000000002
  0
ARC
  5
1CD
330
173
100
AcDbEntity
  8
AM_5
100
AcDbCircle
 10
0.0000000000000003
 20
-2.484375
 30
0.0
 40
0.1250000000000001
100
AcDbArc
 50
165.0000000000003
 51
105.0000000000002
  0
ARC
  5
1CE
330
173
100
AcDbEntity
  8
AM_5
100
AcDbCircle
 10
0.0000000000000002
 20
2.484375
 30
0.0
 40
0.1250000000000002
100
AcDbArc
 50
105.0000000000001
 51
15.0
  0
ARC
  5
1CF
330
173
100
AcDbEntity
  8
AM_5
100
AcDbCircle
 10
0.0000000000000002
 20
-2.484375
 30
0.0
 40
0.1250000000000002
100
AcDbArc
 50
105.0000000000001
 51
15.0
  0
ENDBLK
  5
176
330
173
100
AcDbEntity
  8
0
100
AcDbBlockEnd
  0
BLOCK
  5
1D2
330
1D0
100
AcDbEntity
  8
0
100
AcDbBlockBegin
  2
7_069895H_0_in_069895_0
 70
     2
 10
0.0
 20
0.0
 30
0.0
  3
7_069895H_0_in_069895_0
  1

  0
ATTDEF
  5
1D4
330
1D0
100
AcDbEntity
  8
AM_6
100
AcDbText
 10
10.4375
 20
5.437499999999998
 30
0.0
 40
0.5
  1
FC-IP -(Labyrinth Seal)-Housing -Inch
100
AcDbAttributeDefinition
  3

  2
NN
 70
     8
280
     0
  0
ATTDEF
  5
1D5
330
1D0
100
AcDbEntity
  8
AM_6
100
AcDbText
 10
10.4375
 20
4.937499999999998
 30
0.0
 40
0.5
  1
Imperial Piloted Flange Bearings
100
AcDbAttributeDefinition
  3

  2
NT
 70
     8
280
     0
  0
ATTDEF
  5
1D6
330
1D0
100
AcDbEntity
  8
AM_6
100
AcDbText
 10
10.4375
 20
4.437499999999998
 30
0.0
 40
0.5
  1
069895H
100
AcDbAttributeDefinition
  3

  2
NB
 70
     8
280
     0
  0
ATTDEF
  5
1D7
330
1D0
100
AcDbEntity
  8
AM_6
100
AcDbText
 10
10.4375
 20
3.937499999999998
 30
0.0
 40
0.5
  1
$PN.H
100
AcDbAttributeDefinition
  3

  2
NBSYN
 70
     8
280
     0
  0
ATTDEF
  5
1D8
330
1D0
100
AcDbEntity
  8
AM_6
100
AcDbText
 10
10.4375
 20
3.437499999999998
 30
0.0
 40
0.5
  1
069895
100
AcDbAttributeDefinition
  3

  2
LINA
 70
     8
280
     0
  0
ATTDEF
  5
1D9
330
1D0
100
AcDbEntity
  8
AM_6
100
AcDbText
 10
10.4375
 20
2.937499999999998
 30
0.0
 40
0.5
  1
3-15/16
100
AcDbAttributeDefinition
  3

  2
SS
 70
     8
280
     0
  0
ATTDEF
  5
1DA
330
1D0
100
AcDbEntity
  8
AM_6
100
AcDbText
 10
10.4375
 20
2.437499999999998
 30
0.0
 40
0.5
  1
069895
100
AcDbAttributeDefinition
  3

  2
PN
 70
     8
280
     0
  0
ATTDEF
  5
1DB
330
1D0
100
AcDbEntity
  8
AM_6
100
AcDbText
 10
10.4375
 20
1.937499999999998
 30
0.0
 40
0.5
  1
FC-IP-315L
100
AcDbAttributeDefinition
  3

  2
DESCRIPTION
 70
     8
280
     0
  0
ATTDEF
  5
1DC
330
1D0
100
AcDbEntity
  8
AM_6
100
AcDbText
 10
10.4375
 20
1.437499999999998
 30
0.0
 40
0.5
  1
Non-Expansion Type
100
AcDbAttributeDefinition
  3

  2
EF
 70
     8
280
     0
  0
ATTDEF
  5
1DD
330
1D0
100
AcDbEntity
  8
AM_6
100
AcDbText
 10
10.4375
 20
0.9374999999999982
 30
0.0
 40
0.5
  1
Labyrinth Seal
100
AcDbAttributeDefinition
  3

  2
ST
 70
     8
280
     0
  0
ATTDEF
  5
1DE
330
1D0
100
AcDbEntity
  8
AM_6
100
AcDbText
 10
10.4375
 20
0.4374999999999982
 30
0.0
 40
0.5
  1
4-45/64
100
AcDbAttributeDefinition
  3

  2
A
 70
     8
280
     0
  0
ATTDEF
  5
1DF
330
1D0
100
AcDbEntity
  8
AM_6
100
AcDbText
 10
10.4375
 20
-0.0625000000000018
 30
0.0
 40
0.5
  1
10-7/8
100
AcDbAttributeDefinition
  3

  2
B
 70
     8
280
     0
  0
ATTDEF
  5
1E0
330
1D0
100
AcDbEntity
  8
AM_6
100
AcDbText
 10
10.4375
 20
-0.5625000000000018
 30
0.0
 40
0.5
  1
3-1/2
100
AcDbAttributeDefinition
  3

  2
C
 70
     8
280
     0
  0
ATTDEF
  5
1E1
330
1D0
100
AcDbEntity
  8
AM_6
100
AcDbText
 10
10.4375
 20
-1.062500000000002
 30
0.0
 40
0.5
  1
6-5/8
100
AcDbAttributeDefinition
  3

  2
D
 70
     8
280
     0
  0
ATTDEF
  5
1E2
330
1D0
100
AcDbEntity
  8
AM_6
100
AcDbText
 10
10.4375
 20
-1.562500000000002
 30
0.0
 40
0.5
  1
9-3/8
100
AcDbAttributeDefinition
  3

  2
DD
 70
     8
280
     0
  0
ATTDEF
  5
1E3
330
1D0
100
AcDbEntity
  8
AM_6
100
AcDbText
 10
10.4375
 20
-2.062500000000002
 30
0.0
 40
0.5
  1
1-15/32
100
AcDbAttributeDefinition
  3

  2
E
 70
     8
280
     0
  0
ATTDEF
  5
1E4
330
1D0
100
AcDbEntity
  8
AM_6
100
AcDbText
 10
10.4375
 20
-2.562500000000002
 30
0.0
 40
0.5
  1
3/4
100
AcDbAttributeDefinition
  3

  2
F
 70
     8
280
     0
  0
ATTDEF
  5
1E5
330
1D0
100
AcDbEntity
  8
AM_6
100
AcDbText
 10
10.4375
 20
-3.062500000000002
 30
0.0
 40
0.5
  1
2-57/64
100
AcDbAttributeDefinition
  3

  2
G
 70
     8
280
     0
  0
ATTDEF
  5
1E6
330
1D0
100
AcDbEntity
  8
AM_6
100
AcDbText
 10
10.4375
 20
-3.562500000000002
 30
0.0
 40
0.5
  1
1-1/8
100
AcDbAttributeDefinition
  3

  2
H
 70
     8
280
     0
  0
ATTDEF
  5
1E7
330
1D0
100
AcDbEntity
  8
AM_6
100
AcDbText
 10
10.4375
 20
-4.062500000000002
 30
0.0
 40
0.5
  1
8.125
100
AcDbAttributeDefinition
  3

  2
K
 70
     8
280
     0
  0
ATTDEF
  5
1E8
330
1D0
100
AcDbEntity
  8
AM_6
100
AcDbText
 10
10.4375
 20
-4.562500000000002
 30
0.0
 40
0.5
  1
5-9/16
100
AcDbAttributeDefinition
  3

  2
L
 70
     8
280
     0
  0
ATTDEF
  5
1E9
330
1D0
100
AcDbEntity
  8
AM_6
100
AcDbText
 10
10.4375
 20
-5.062500000000002
 30
0.0
 40
0.5
  1
3/4-10
100
AcDbAttributeDefinition
  3

  2
M
 70
     8
280
     0
  0
ATTDEF
  5
1EA
330
1D0
100
AcDbEntity
  8
AM_6
100
AcDbText
 10
10.4375
 20
-5.562500000000002
 30
0.0
 40
0.5
  1
4-25/32
100
AcDbAttributeDefinition
  3

  2
N
 70
     8
280
     0
  0
ATTDEF
  5
1EB
330
1D0
100
AcDbEntity
  8
AM_6
100
AcDbText
 10
10.4375
 20
-6.062500000000002
 30
0.0
 40
0.5
  1
1-13/16
100
AcDbAttributeDefinition
  3

  2
P
 70
     8
280
     0
  0
ATTDEF
  5
1EC
330
1D0
100
AcDbEntity
  8
AM_6
100
AcDbText
 10
10.4375
 20
-6.562500000000002
 30
0.0
 40
0.5
  1
1-29/32
100
AcDbAttributeDefinition
  3

  2
Q
 70
     8
280
     0
  0
ATTDEF
  5
1ED
330
1D0
100
AcDbEntity
  8
AM_6
100
AcDbText
 10
10.4375
 20
-7.062500000000002
 30
0.0
 40
0.5
  1
5/16
100
AcDbAttributeDefinition
  3

  2
X
 70
     8
280
     0
  0
ATTDEF
  5
1EE
330
1D0
100
AcDbEntity
  8
AM_6
100
AcDbText
 10
10.4375
 20
-7.562500000000002
 30
0.0
 40
0.5
  1
0.025
100
AcDbAttributeDefinition
  3

  2
Y
 70
     8
280
     0
  0
ATTDEF
  5
1EF
330
1D0
100
AcDbEntity
  8
AM_6
100
AcDbText
 10
10.4375
 20
-8.062500000000002
 30
0.0
 40
0.5
  1
4-1/2
100
AcDbAttributeDefinition
  3

  2
Z
 70
     8
280
     0
  0
ATTDEF
  5
1F0
330
1D0
100
AcDbEntity
  8
AM_6
100
AcDbText
 10
10.4375
 20
-8.562500000000002
 30
0.0
 40
0.5
  1
baldor
100
AcDbAttributeDefinition
  3

  2
COMPANY
 70
     8
280
     0
  0
CIRCLE
  5
1F1
330
1D0
100
AcDbEntity
  8
AM_9
100
AcDbCircle
 10
0.0
 20
0.0
 30
0.0
 40
3.745129795229184
  0
CIRCLE
  5
1F2
330
1D0
100
AcDbEntity
  8
AM_9
100
AcDbCircle
 10
0.0
 20
0.0
 30
0.0
 40
3.857561263268832
  0
CIRCLE
  5
1F3
330
1D0
100
AcDbEntity
  8
AM_9
100
AcDbCircle
 10
0.0
 20
0.0
 30
0.0
 40
3.865256138173767
  0
CIRCLE
  5
1F4
330
1D0
100
AcDbEntity
  8
AM_9
100
AcDbCircle
 10
0.0
 20
0.0
 30
0.0
 40
3.977687606213415
  0
ARC
  5
1F5
330
1D0
100
AcDbEntity
  8
AM_9
100
AcDbCircle
 10
0.0000000000000249
 20
-0.0000000000000275
 30
0.0
 40
4.062499999999964
100
AcDbArc
 50
305.8701871424153
 51
324.1298130433415
  0
ARC
  5
1F6
330
1D0
100
AcDbEntity
  8
AM_9
100
AcDbCircle
 10
0.0000000000000075
 20
0.0000000000000049
 30
0.0
 40
4.062499999999991
100
AcDbArc
 50
35.87018714241526
 51
54.12981304334148
  0
ARC
  5
1F7
330
1D0
100
AcDbEntity
  8
AM_9
100
AcDbCircle
 10
0.0000000000000287
 20
-0.0000000000004734
 30
0.0
 40
4.062500000000473
100
AcDbArc
 50
82.93028595769786
 51
97.06971404230295
  0
ARC
  5
1F8
330
1D0
100
AcDbEntity
  8
AM_9
100
AcDbCircle
 10
0.0000000000000036
 20
0.0000000000000002
 30
0.0
 40
4.062500000000002
100
AcDbArc
 50
125.8701871424153
 51
234.1298130433414
  0
ARC
  5
1F9
330
1D0
100
AcDbEntity
  8
AM_5
100
AcDbCircle
 10
4.687500000000001
 20
-0.0000000000000009
 30
0.0
 40
0.3750000000000005
100
AcDbArc
 50
75.00000000000023
 51
15.00000000000014
  0
ARC
  5
1FA
330
1D0
100
AcDbEntity
  8
AM_5
100
AcDbCircle
 10
-4.687500000000002
 20
0.0000000000000022
 30
0.0
 40
0.3749999999999996
100
AcDbArc
 50
74.9999999999999
 51
14.99999999999982
  0
LINE
  5
1FB
330
1D0
100
AcDbEntity
  8
AM_7
100
AcDbLine
 10
-4.176571986524086
 20
0.0
 30
0.0
 11
4.176571986524086
 21
0.0
 31
0.0
  0
LINE
  5
1FC
330
1D0
100
AcDbEntity
  8
AM_7
100
AcDbLine
 10
0.0
 20
-4.176571986524086
 30
0.0
 11
0.0
 21
4.176571986524086
 31
0.0
  0
LINE
  5
1FD
330
1D0
100
AcDbEntity
  8
AM_7
100
AcDbLine
 10
4.29375
 20
0.0
 30
0.0
 11
5.08125
 21
0.0
 31
0.0
  0
LINE
  5
1FE
330
1D0
100
AcDbEntity
  8
AM_7
100
AcDbLine
 10
4.6875
 20
-0.3937499999999997
 30
0.0
 11
4.6875
 21
0.3937499999999997
 31
0.0
  0
LINE
  5
1FF
330
1D0
100
AcDbEntity
  8
AM_7
100
AcDbLine
 10
-5.081250000000001
 20
0.0
 30
0.0
 11
-4.293749999999999
 21
0.0
 31
0.0
  0
LINE
  5
200
330
1D0
100
AcDbEntity
  8
AM_7
100
AcDbLine
 10
-4.6875
 20
-0.3937500000000003
 30
0.0
 11
-4.6875
 21
0.3937500000000003
 31
0.0
  0
LINE
  5
201
330
1D0
100
AcDbEntity
  8
AM_7
100
AcDbLine
 10
2.920813036811941
 20
-3.314563036811941
 30
0.0
 11
3.708313036811941
 21
-3.314563036811941
 31
0.0
  0
LINE
  5
202
330
1D0
100
AcDbEntity
  8
AM_7
100
AcDbLine
 10
3.314563036811941
 20
-3.708313036811941
 30
0.0
 11
3.314563036811941
 21
-2.920813036811941
 31
0.0
  0
LINE
  5
203
330
1D0
100
AcDbEntity
  8
AM_7
100
AcDbLine
 10
2.920813036811941
 20
3.314563036811941
 30
0.0
 11
3.708313036811941
 21
3.314563036811941
 31
0.0
  0
LINE
  5
204
330
1D0
100
AcDbEntity
  8
AM_7
100
AcDbLine
 10
3.314563036811941
 20
2.920813036811941
 30
0.0
 11
3.314563036811941
 21
3.708313036811941
 31
0.0
  0
LINE
  5
205
330
1D0
100
AcDbEntity
  8
AM_7
100
AcDbLine
 10
-3.708313036811941
 20
-3.314563036811941
 30
0.0
 11
-2.920813036811941
 21
-3.314563036811941
 31
0.0
  0
LINE
  5
206
330
1D0
100
AcDbEntity
  8
AM_7
100
AcDbLine
 10
-3.314563036811941
 20
-3.708313036811941
 30
0.0
 11
-3.314563036811941
 21
-2.920813036811941
 31
0.0
  0
LINE
  5
207
330
1D0
100
AcDbEntity
  8
AM_7
100
AcDbLine
 10
-3.708313036811941
 20
3.314563036811941
 30
0.0
 11
-2.920813036811941
 21
3.314563036811941
 31
0.0
  0
LINE
  5
208
330
1D0
100
AcDbEntity
  8
AM_7
100
AcDbLine
 10
-3.314563036811941
 20
2.920813036811941
 30
0.0
 11
-3.314563036811941
 21
3.708313036811941
 31
0.0
  0
CIRCLE
  5
209
330
1D0
100
AcDbEntity
  8
AM_4
100
AcDbCircle
 10
-4.6875
 20
0.0
 30
0.0
 40
0.3581000000000008
  0
CIRCLE
  5
20A
330
1D0
100
AcDbEntity
  8
AM_4
100
AcDbCircle
 10
4.6875
 20
0.0
 30
0.0
 40
0.3581000000000002
  0
CIRCLE
  5
20B
330
1D0
100
AcDbEntity
  8
AM_4
100
AcDbCircle
 10
3.314563036811941
 20
-3.314563036811941
 30
0.0
 40
0.3749999999999999
  0
LINE
  5
20C
330
1D0
100
AcDbEntity
  8
AM_4
100
AcDbLine
 10
4.293554740467312
 20
-2.953881659930193
 30
0.0
 11
3.653726289499356
 21
-2.040111933023409
 31
0.0
  0
ARC
  5
20D
330
1D0
100
AcDbEntity
  8
AM_4
100
AcDbCircle
 10
3.838035499464376
 20
-1.911057234844424
 30
0.0
 40
0.224999999999997
100
AcDbArc
 50
153.530097959434
 51
215.0000000000003
  0
ARC
  5
20E
330
1D0
100
AcDbEntity
  8
AM_4
100
AcDbCircle
 10
1.911057234844422
 20
-3.83803549946438
 30
0.0
 40
0.2250000000000002
100
AcDbArc
 50
55.00000000000006
 51
116.4699020405654
  0
LINE
  5
20F
330
1D0
100
AcDbEntity
  8
AM_4
100
AcDbLine
 10
2.040111933023407
 20
-3.653726289499357
 30
0.0
 11
2.953881659930188
 21
-4.293554740467314
 31
0.0
  0
ARC
  5
210
330
1D0
100
AcDbEntity
  8
AM_4
100
AcDbCircle
 10
3.168972823561831
 20
-3.986372723858941
 30
0.0
 40
0.3750000000000013
100
AcDbArc
 50
235.0
 51
284.5958211913778
  0
ARC
  5
211
330
1D0
100
AcDbEntity
  8
AM_4
100
AcDbCircle
 10
3.986372723858942
 20
-3.168972823561834
 30
0.0
 40
0.3749999999999976
100
AcDbArc
 50
345.4041788086226
 51
35.00000000000012
  0
CIRCLE
  5
212
330
1D0
100
AcDbEntity
  8
AM_4
100
AcDbCircle
 10
3.314563036811941
 20
3.314563036811941
 30
0.0
 40
0.3749999999999999
  0
LINE
  5
213
330
1D0
100
AcDbEntity
  8
AM_4
100
AcDbLine
 10
2.953881659930191
 20
4.293554740467313
 30
0.0
 11
2.040111933023408
 21
3.653726289499356
 31
0.0
  0
ARC
  5
214
330
1D0
100
AcDbEntity
  8
AM_4
100
AcDbCircle
 10
1.911057234844424
 20
3.838035499464375
 30
0.0
 40
0.2249999999999962
100
AcDbArc
 50
243.5300979594338
 51
305.0000000000005
  0
ARC
  5
215
330
1D0
100
AcDbEntity
  8
AM_4
100
AcDbCircle
 10
3.838035499464378
 20
1.911057234844422
 30
0.0
 40
0.2249999999999988
100
AcDbArc
 50
144.9999999999998
 51
206.4699020405662
  0
LINE
  5
216
330
1D0
100
AcDbEntity
  8
AM_4
100
AcDbLine
 10
3.653726289499356
 20
2.040111933023408
 30
0.0
 11
4.293554740467314
 21
2.953881659930189
 31
0.0
  0
ARC
  5
217
330
1D0
100
AcDbEntity
  8
AM_4
100
AcDbCircle
 10
3.986372723858944
 20
3.168972823561831
 30
0.0
 40
0.3749999999999982
100
AcDbArc
 50
324.9999999999997
 51
14.59582119137746
  0
ARC
  5
218
330
1D0
100
AcDbEntity
  8
AM_4
100
AcDbCircle
 10
3.168972823561834
 20
3.986372723858939
 30
0.0
 40
0.3750000000000016
100
AcDbArc
 50
75.40417880862272
 51
124.9999999999998
  0
CIRCLE
  5
219
330
1D0
100
AcDbEntity
  8
AM_4
100
AcDbCircle
 10
-3.314563036811941
 20
-3.314563036811941
 30
0.0
 40
0.3749999999999999
  0
LINE
  5
21A
330
1D0
100
AcDbEntity
  8
AM_4
100
AcDbLine
 10
-2.953881659930192
 20
-4.293554740467314
 30
0.0
 11
-2.040111933023409
 21
-3.653726289499356
 31
0.0
  0
ARC
  5
21B
330
1D0
100
AcDbEntity
  8
AM_4
100
AcDbCircle
 10
-1.911057234844424
 20
-3.838035499464376
 30
0.0
 40
0.2249999999999975
100
AcDbArc
 50
63.53009795943397
 51
125.0000000000003
  0
ARC
  5
21C
330
1D0
100
AcDbEntity
  8
AM_4
100
AcDbCircle
 10
-3.838035499464385
 20
-1.91105723484442
 30
0.0
 40
0.2250000000000052
100
AcDbArc
 50
325.0000000000004
 51
26.4699020405644
  0
LINE
  5
21D
330
1D0
100
AcDbEntity
  8
AM_4
100
AcDbLine
 10
-3.653726289499357
 20
-2.040111933023407
 30
0.0
 11
-4.293554740467314
 21
-2.953881659930188
 31
0.0
  0
ARC
  5
21E
330
1D0
100
AcDbEntity
  8
AM_4
100
AcDbCircle
 10
-3.986372723858948
 20
-3.168972823561829
 30
0.0
 40
0.3749999999999942
100
AcDbArc
 50
144.9999999999997
 51
194.5958211913783
  0
ARC
  5
21F
330
1D0
100
AcDbEntity
  8
AM_4
100
AcDbCircle
 10
-3.168972823561834
 20
-3.986372723858937
 30
0.0
 40
0.3750000000000035
100
AcDbArc
 50
255.4041788086224
 51
304.9999999999994
  0
CIRCLE
  5
220
330
1D0
100
AcDbEntity
  8
AM_4
100
AcDbCircle
 10
-3.314563036811941
 20
3.314563036811941
 30
0.0
 40
0.3749999999999999
  0
LINE
  5
221
330
1D0
100
AcDbEntity
  8
AM_4
100
AcDbLine
 10
-4.293554740467313
 20
2.953881659930193
 30
0.0
 11
-3.653726289499356
 21
2.040111933023409
 31
0.0
  0
ARC
  5
222
330
1D0
100
AcDbEntity
  8
AM_4
100
AcDbCircle
 10
-3.838035499464376
 20
1.911057234844424
 30
0.0
 40
0.2249999999999971
100
AcDbArc
 50
333.5300979594339
 51
35.00000000000038
  0
ARC
  5
223
330
1D0
100
AcDbEntity
  8
AM_4
100
AcDbCircle
 10
-1.911057234844422
 20
3.838035499464379
 30
0.0
 40
0.2249999999999992
100
AcDbArc
 50
234.9999999999999
 51
296.4699020405659
  0
LINE
  5
224
330
1D0
100
AcDbEntity
  8
AM_4
100
AcDbLine
 10
-2.040111933023407
 20
3.653726289499357
 30
0.0
 11
-2.953881659930189
 21
4.293554740467314
 31
0.0
  0
ARC
  5
225
330
1D0
100
AcDbEntity
  8
AM_4
100
AcDbCircle
 10
-3.168972823561831
 20
3.986372723858945
 30
0.0
 40
0.3749999999999975
100
AcDbArc
 50
54.99999999999977
 51
104.5958211913778
  0
ARC
  5
226
330
1D0
100
AcDbEntity
  8
AM_4
100
AcDbCircle
 10
-3.986372723858944
 20
3.168972823561833
 30
0.0
 40
0.374999999999996
100
AcDbArc
 50
165.4041788086222
 51
215.0
  0
LINE
  5
227
330
1D0
100
AcDbEntity
  8
AM_4
100
AcDbLine
 10
0.5
 20
5.26237819694334
 30
0.0
 11
0.5
 21
3.968331202285849
 31
0.0
  0
LINE
  5
228
330
1D0
100
AcDbEntity
  8
AM_4
100
AcDbLine
 10
-0.5
 20
5.26237819694334
 30
0.0
 11
-0.5
 21
3.968331202285849
 31
0.0
  0
LINE
  5
229
330
1D0
100
AcDbEntity
  8
AM_4
100
AcDbLine
 10
0.5
 20
5.26237819694334
 30
0.0
 11
-0.5
 21
5.26237819694334
 31
0.0
  0
LINE
  5
22A
330
1D0
100
AcDbEntity
  8
AM_4
100
AcDbLine
 10
0.5
 20
4.0625
 30
0.0
 11
-0.5
 21
4.0625
 31
0.0
  0
LINE
  5
22B
330
1D0
100
AcDbEntity
  8
AM_4
100
AcDbLine
 10
-3.182489720748598
 20
-2.453203178442746
 30
0.0
 11
-3.13361434551757
 21
-2.465890789059096
 31
0.0
  0
LWPOLYLINE
  5
22C
330
1D0
100
AcDbEntity
  8
AM_4
100
AcDbPolyline
 90
        3
 70
     0
 43
0.0
 10
-3.133614345517572
 20
2.465890789059095
 10
-3.139660488037989
 20
2.464174039260048
 10
-3.182489719035309
 20
2.453203178840445
  0
LWPOLYLINE
  5
22D
330
1D0
100
AcDbEntity
  8
AM_4
100
AcDbPolyline
 90
        5
 70
     0
 43
0.0
 10
-3.182489720748598
 20
-2.453203178442746
 10
-3.231250466401438
 20
-2.43440864203568
 10
-3.283572043860517
 20
-2.39126588060647
 10
-3.291755371547785
 20
-2.380808306661695
 10
-3.292033222492786
 20
-2.380425069604958
  0
LWPOLYLINE
  5
22E
330
1D0
100
AcDbEntity
  8
AM_4
100
AcDbPolyline
 90
        5
 70
     0
 43
0.0
 10
-3.292033230210278
 20
2.380425058931971
 10
-3.291755371547799
 20
2.380808306661675
 10
-3.244837859676317
 20
2.426073965450469
 10
-3.193429381641564
 20
2.450313308724571
 10
-3.182489719035309
 20
2.453203178840445
  0
ARC
  5
22F
330
1D0
100
AcDbEntity
  8
AM_4
100
AcDbCircle
 10
0.0000000000000049
 20
-0.0000000000000004
 30
0.0
 40
4.062500000000004
100
AcDbArc
 50
144.1298130433415
 51
215.8701871424152
  0
LWPOLYLINE
  5
230
330
1D0
100
AcDbEntity
  8
AM_4
100
AcDbPolyline
 90
        3
 70
     0
 43
0.0
 10
3.133614345517572
 20
-2.465890789059095
 10
3.139660488037998
 20
-2.464174039260046
 10
3.182489719035309
 20
-2.453203178840445
  0
LINE
  5
231
330
1D0
100
AcDbEntity
  8
AM_4
100
AcDbLine
 10
3.182489720748598
 20
2.453203178442746
 30
0.0
 11
3.13361434551757
 21
2.465890789059096
 31
0.0
  0
LWPOLYLINE
  5
232
330
1D0
100
AcDbEntity
  8
AM_4
100
AcDbPolyline
 90
        5
 70
     0
 43
0.0
 10
3.182489720748598
 20
2.453203178442746
 10
3.231250466401438
 20
2.43440864203568
 10
3.283572043860517
 20
2.39126588060647
 10
3.291755371547785
 20
2.380808306661695
 10
3.292033222492786
 20
2.380425069604958
  0
LWPOLYLINE
  5
233
330
1D0
100
AcDbEntity
  8
AM_4
100
AcDbPolyline
 90
        5
 70
     0
 43
0.0
 10
3.292033230210278
 20
-2.380425058931971
 10
3.291755371547799
 20
-2.380808306661675
 10
3.244837859676317
 20
-2.426073965450469
 10
3.193429381641564
 20
-2.450313308724571
 10
3.182489719035309
 20
-2.453203178840445
  0
ARC
  5
234
330
1D0
100
AcDbEntity
  8
AM_4
100
AcDbCircle
 10
0.0
 20
0.0000000000000004
 30
0.0
 40
4.0625
100
AcDbArc
 50
324.1298130433414
 51
35.87018714241525
  0
ARC
  5
235
330
1D0
100
AcDbEntity
  8
AM_4
100
AcDbCircle
 10
3.402951384460264
 20
-3.402951384460263
 30
0.0
 40
0.9750000000000046
100
AcDbArc
 50
106.03610951131
 51
163.9638904886899
  0
ARC
  5
236
330
1D0
100
AcDbEntity
  8
AM_4
100
AcDbCircle
 10
-3.402951384460261
 20
-3.402951384460262
 30
0.0
 40
0.9750000000000016
100
AcDbArc
 50
16.03610951130988
 51
73.96389048869011
  0
ARC
  5
237
330
1D0
100
AcDbEntity
  8
AM_4
100
AcDbCircle
 10
3.402951384460259
 20
3.40295138446026
 30
0.0
 40
0.9749999999999993
100
AcDbArc
 50
196.0361095113098
 51
253.9638904886902
  0
ARC
  5
238
330
1D0
100
AcDbEntity
  8
AM_4
100
AcDbCircle
 10
-3.402951384460262
 20
3.402951384460261
 30
0.0
 40
0.9750000000000016
100
AcDbArc
 50
286.0361095113099
 51
343.9638904886901
  0
ARC
  5
239
330
1D0
100
AcDbEntity
  8
AM_4
100
AcDbCircle
 10
0.000000000000004
 20
0.0000000000000002
 30
0.0
 40
3.987500000000004
100
AcDbArc
 50
141.8002319804613
 51
218.1997680195387
  0
ARC
  5
23A
330
1D0
100
AcDbEntity
  8
AM_4
100
AcDbCircle
 10
-0.0000000000000036
 20
-0.0000000000000002
 30
0.0
 40
3.987500000000004
100
AcDbArc
 50
321.8002319804613
 51
38.19976801953872
  0
CIRCLE
  5
23B
330
1D0
100
AcDbEntity
  8
AM_4
100
AcDbCircle
 10
0.0
 20
0.0
 30
0.0
 40
3.5433
  0
LINE
  5
23C
330
1D0
100
AcDbEntity
  8
AM_4
100
AcDbLine
 10
2.453203178442746
 20
-3.182489720748598
 30
0.0
 11
2.465890789059096
 21
-3.13361434551757
 31
0.0
  0
LWPOLYLINE
  5
23D
330
1D0
100
AcDbEntity
  8
AM_4
100
AcDbPolyline
 90
        3
 70
     0
 43
0.0
 10
-2.465890789059095
 20
-3.133614345517572
 10
-2.464174039260047
 20
-3.139660488037993
 10
-2.453203178840445
 20
-3.182489719035309
  0
LWPOLYLINE
  5
23E
330
1D0
100
AcDbEntity
  8
AM_4
100
AcDbPolyline
 90
        5
 70
     0
 43
0.0
 10
2.453203178442746
 20
-3.182489720748598
 10
2.43440864203568
 20
-3.231250466401438
 10
2.39126588060647
 20
-3.283572043860517
 10
2.380808306661695
 20
-3.291755371547785
 10
2.380425069604958
 20
-3.292033222492786
  0
LWPOLYLINE
  5
23F
330
1D0
100
AcDbEntity
  8
AM_4
100
AcDbPolyline
 90
        5
 70
     0
 43
0.0
 10
-2.380425058931971
 20
-3.292033230210278
 10
-2.380808306661675
 20
-3.291755371547799
 10
-2.426073965450469
 20
-3.244837859676317
 10
-2.450313308724571
 20
-3.193429381641564
 10
-2.453203178840445
 20
-3.182489719035309
  0
ARC
  5
240
330
1D0
100
AcDbEntity
  8
AM_4
100
AcDbCircle
 10
-0.0000000000000004
 20
0.0000000000000031
 30
0.0
 40
3.987500000000003
100
AcDbArc
 50
231.8002319804613
 51
308.1997680195387
  0
ARC
  5
241
330
1D0
100
AcDbEntity
  8
AM_4
100
AcDbCircle
 10
0.0000000000000002
 20
-0.0000000000000004
 30
0.0
 40
4.0625
100
AcDbArc
 50
234.1298130433414
 51
305.8701871424153
  0
LINE
  5
242
330
1D0
100
AcDbEntity
  8
AM_4
100
AcDbLine
 10
-2.453203178442746
 20
3.182489720748598
 30
0.0
 11
-2.465890789059096
 21
3.13361434551757
 31
0.0
  0
ARC
  5
243
330
1D0
100
AcDbEntity
  8
AM_4
100
AcDbCircle
 10
0.0000000000000002
 20
-0.0000000000000036
 30
0.0
 40
3.987500000000004
100
AcDbArc
 50
51.80023198046131
 51
128.1997680195388
  0
LWPOLYLINE
  5
244
330
1D0
100
AcDbEntity
  8
AM_4
100
AcDbPolyline
 90
        3
 70
     0
 43
0.0
 10
2.465890789059095
 20
3.133614345517572
 10
2.464174039260047
 20
3.139660488037993
 10
2.453203178840445
 20
3.182489719035309
  0
LWPOLYLINE
  5
245
330
1D0
100
AcDbEntity
  8
AM_4
100
AcDbPolyline
 90
        5
 70
     0
 43
0.0
 10
2.380425058931971
 20
3.292033230210278
 10
2.380808306661675
 20
3.291755371547799
 10
2.426073965450469
 20
3.244837859676317
 10
2.450313308724571
 20
3.193429381641564
 10
2.453203178840445
 20
3.182489719035309
  0
ARC
  5
246
330
1D0
100
AcDbEntity
  8
AM_4
100
AcDbCircle
 10
-0.0000000000000613
 20
-0.000000000000115
 30
0.0
 40
4.062500000000129
100
AcDbArc
 50
54.12981304334168
 51
82.930285957696
  0
ARC
  5
247
330
1D0
100
AcDbEntity
  8
AM_4
100
AcDbCircle
 10
0.0000000000000001
 20
0.0000000000000391
 30
0.0
 40
3.999706555615692
100
AcDbArc
 50
82.81871461572838
 51
97.18128538427163
  0
ARC
  5
248
330
1D0
100
AcDbEntity
  8
AM_4
100
AcDbCircle
 10
0.0000000000000072
 20
-0.0000000000000182
 30
0.0
 40
4.06250000000002
100
AcDbArc
 50
97.06971404230345
 51
125.8701871424152
  0
LWPOLYLINE
  5
249
330
1D0
100
AcDbEntity
  8
AM_4
100
AcDbPolyline
 90
        5
 70
     0
 43
0.0
 10
-2.453203178442746
 20
3.182489720748598
 10
-2.43440864203568
 20
3.231250466401438
 10
-2.39126588060647
 20
3.283572043860517
 10
-2.380808306661695
 20
3.291755371547785
 10
-2.380425069604957
 20
3.292033222492786
  0
ARC
  5
24A
330
1D0
100
AcDbEntity
  8
AM_5
100
AcDbCircle
 10
4.6875
 20
0.0
 30
0.0
 40
0.3750000000000001
100
AcDbArc
 50
165.0
 51
105.0
  0
ARC
  5
24B
330
1D0
100
AcDbEntity
  8
AM_5
100
AcDbCircle
 10
-4.6875
 20
0.0
 30
0.0
 40
0.3750000000000001
100
AcDbArc
 50
165.0
 51
105.0
  0
ARC
  5
24C
330
1D0
100
AcDbEntity
  8
AM_5
100
AcDbCircle
 10
4.6875
 20
-0.0000000000000004
 30
0.0
 40
0.3750000000000003
100
AcDbArc
 50
104.9999999999999
 51
15.00000000000007
  0
ARC
  5
24D
330
1D0
100
AcDbEntity
  8
AM_5
100
AcDbCircle
 10
-4.687500000000001
 20
0.0000000000000004
 30
0.0
 40
0.3749999999999993
100
AcDbArc
 50
104.9999999999998
 51
195.0
  0
CIRCLE
  5
24E
330
1D0
100
AcDbEntity
  8
AM_4
100
AcDbCircle
 10
-0.0000000000000009
 20
-0.0000000000000004
 30
0.0
 40
5.437499999999999
  0
ENDBLK
  5
1D3
330
1D0
100
AcDbEntity
  8
0
100
AcDbBlockEnd
  0
ENDSEC
  0
SECTION
  2
ENTITIES
  0
INSERT
  5
6F
330
1F
100
AcDbEntity
  8
0
100
AcDbBlockReference
  2
1_069895_0
 10
0.0
 20
0.0
 30
0.0
  0
POINT
  5
250
330
1F
100
AcDbEntity
  8
ConnectionPoints
100
AcDbPoint
 10
0.0
 20
-2.484375
 30
2.600666666666667
  0
POINT
  5
251
330
1F
100
AcDbEntity
  8
ConnectionPoints
100
AcDbPoint
 10
0.0
 20
2.484375
 30
2.600666666666667
  0
POINT
  5
252
330
1F
100
AcDbEntity
  8
ConnectionPoints
100
AcDbPoint
 10
0.0
 20
0.0
 30
2.530666666666667
  0
POINT
  5
253
330
1F
100
AcDbEntity
  8
ConnectionPoints
100
AcDbPoint
 10
0.0
 20
0.0
 30
2.875
  0
POINT
  5
254
330
1F
100
AcDbEntity
  8
ConnectionPoints
100
AcDbPoint
 10
0.0
 20
0.0
 30
2.729666666666667
  0
POINT
  5
255
330
1F
100
AcDbEntity
  8
ConnectionPoints
100
AcDbPoint
 10
0.0
 20
2.484375
 30
2.530666666666667
  0
POINT
  5
256
330
1F
100
AcDbEntity
  8
ConnectionPoints
100
AcDbPoint
 10
0.0
 20
2.484375
 30
2.743
  0
POINT
  5
257
330
1F
100
AcDbEntity
  8
ConnectionPoints
100
AcDbPoint
 10
0.0
 20
-2.484375
 30
2.530666666666667
  0
POINT
  5
258
330
1F
100
AcDbEntity
  8
ConnectionPoints
100
AcDbPoint
 10
0.0
 20
-2.484375
 30
2.743
  0
POINT
  5
259
330
1F
100
AcDbEntity
  8
ConnectionPoints
100
AcDbPoint
 10
0.0
 20
0.0
 30
2.530666666666667
  0
POINT
  5
25A
330
1F
100
AcDbEntity
  8
ConnectionPoints
100
AcDbPoint
 10
0.0
 20
4.66243909847167
 30
1.246375
  0
POINT
  5
25B
330
1F
100
AcDbEntity
  8
ConnectionPoints
100
AcDbPoint
 10
0.0
 20
4.620535714285714
 30
1.270567930139718
  0
POINT
  5
25C
330
1F
100
AcDbEntity
  8
ConnectionPoints
100
AcDbPoint
 10
0.0
 20
0.0
 30
2.5625
  0
POINT
  5
25D
330
1F
100
AcDbEntity
  8
ConnectionPoints
100
AcDbPoint
 10
0.0
 20
0.0
 30
2.875
  0
ENDSEC
  0
SECTION
  2
OBJECTS
  0
DICTIONARY
  5
C
330
0
100
AcDbDictionary
281
     1
  3
ACAD_DETAILVIEWSTYLE
350
265
  3
ACAD_GROUP
350
D
  3
ACAD_LAYOUT
350
1A
  3
ACAD_MATERIAL
350
43
  3
ACAD_MLEADERSTYLE
350
6B
  3
ACAD_MLINESTYLE
350
17
  3
ACAD_PLOTSETTINGS
350
19
  3
ACAD_PLOTSTYLENAME
350
E
  3
ACAD_SCALELIST
350
47
  3
ACAD_SECTIONVIEWSTYLE
350
266
  3
ACAD_TABLESTYLE
350
69
  3
ACAD_VISUALSTYLE
350
2A
  3
ACDB_RECOMPOSE_DATA
350
262
  3
AcDbVariableDictionary
350
25E
  0
SUN
  5
6D
330
29
100
AcDbSun
 90
        1
290
     0
 63
     7
421
 16777215
 40
1.0
291
     1
 91
  2455826
 92
 54000000
292
     0
 70
     2
 71
   256
280
     1
  0
DICTIONARY
  5
265
102
{ACAD_REACTORS
330
C
102
}
330
C
100
AcDbDictionary
281
     1
  0
DICTIONARY
  5
D
102
{ACAD_REACTORS
330
C
102
}
330
C
100
AcDbDictionary
281
     1
  0
DICTIONARY
  5
1A
102
{ACAD_REACTORS
330
C
102
}
330
C
100
AcDbDictionary
281
     1
  3
Layout1
350
1E
  3
Layout2
350
26
  3
Model
350
22
  0
DICTIONARY
  5
43
102
{ACAD_REACTORS
330
C
102
}
330
C
100
AcDbDictionary
281
     1
  3
ByBlock
350
45
  3
ByLayer
350
44
  3
Global
350
46
  0
DICTIONARY
  5
6B
102
{ACAD_REACTORS
330
C
102
}
330
C
100
AcDbDictionary
281
     1
  3
Standard
350
6C
  0
DICTIONARY
  5
17
102
{ACAD_REACTORS
330
C
102
}
330
C
100
AcDbDictionary
281
     1
  3
Standard
350
18
  0
DICTIONARY
  5
19
102
{ACAD_REACTORS
330
C
102
}
330
C
100
AcDbDictionary
281
     1
  0
ACDBDICTIONARYWDFLT
  5
E
102
{ACAD_REACTORS
330
C
102
}
330
C
100
AcDbDictionary
281
     1
  3
Normal
350
F
100
AcDbDictionaryWithDefault
340
F
  0
DICTIONARY
  5
47
102
{ACAD_REACTORS
330
C
102
}
330
C
100
AcDbDictionary
281
     1
  3
A0
350
48
  3
A1
350
49
  3
A2
350
4A
  3
A3
350
4B
  3
A4
350
4C
  3
A5
350
4D
  3
A6
350
4E
  3
A7
350
4F
  3
A8
350
50
  3
A9
350
51
  3
B0
350
52
  3
B1
350
53
  3
B2
350
54
  3
B3
350
55
  3
B4
350
56
  3
B5
350
57
  3
B6
350
58
  3
B7
350
59
  3
B8
350
5A
  3
B9
350
5B
  3
C0
350
5C
  3
C1
350
5D
  3
C2
350
5E
  3
C3
350
5F
  3
C4
350
60
  3
C5
350
61
  3
C6
350
62
  3
C7
350
63
  3
C8
350
64
  3
C9
350
65
  3
D0
350
66
  3
D1
350
67
  3
D2
350
68
  0
DICTIONARY
  5
266
102
{ACAD_REACTORS
330
C
102
}
330
C
100
AcDbDictionary
281
     1
  0
DICTIONARY
  5
69
102
{ACAD_REACTORS
330
C
102
}
330
C
100
AcDbDictionary
281
     1
  3
Standard
350
6A
  0
DICTIONARY
  5
2A
102
{ACAD_REACTORS
330
C
102
}
330
C
100
AcDbDictionary
281
     1
  3
2dWireframe
350
2F
  3
Basic
350
32
  3
Brighten
350
36
  3
ColorChange
350
3A
  3
Conceptual
350
34
  3
Dim
350
35
  3
EdgeColorOff
350
3D
  3
Facepattern
350
39
  3
Flat
350
2B
  3
FlatWithEdges
350
2C
  3
Gouraud
350
2D
  3
GouraudWithEdges
350
2E
  3
Hidden
350
31
  3
JitterOff
350
3B
  3
Linepattern
350
38
  3
OverhangOff
350
3C
  3
Realistic
350
33
  3
Shaded
350
42
  3
Shaded with edges
350
41
  3
Shades of Gray
350
3E
  3
Sketchy
350
3F
  3
Thicken
350
37
  3
Wireframe
350
30
  3
X-Ray
350
40
  0
XRECORD
  5
262
102
{ACAD_REACTORS
330
C
102
}
330
C
100
AcDbXrecord
280
     1
 90
        1
330
6A
  0
DICTIONARY
  5
25E
102
{ACAD_REACTORS
330
C
102
}
330
C
100
AcDbDictionary
281
     1
  3
CANNOSCALE
350
25F
  3
CMLEADERSTYLE
350
264
  3
CTABLESTYLE
350
263
  0
LAYOUT
  5
1E
102
{ACAD_REACTORS
330
1A
102
}
330
1A
100
AcDbPlotSettings
  1

  2
none_device
  4

  6

 40
0.0
 41
0.0
 42
0.0
 43
0.0
 44
0.0
 45
0.0
 46
0.0
 47
0.0
 48
0.0
 49
0.0
140
0.0
141
0.0
142
1.0
143
1.0
 70
   688
 72
     0
 73
     0
 74
     5
  7

 75
    16
 76
     0
 77
     2
 78
   300
147
1.0
148
0.0
149
0.0
100
AcDbLayout
  1
Layout1
 70
     1
 71
     1
 10
0.0
 20
0.0
 11
12.0
 21
9.0
 12
0.0
 22
0.0
 32
0.0
 14
1.000000000000000E+20
 24
1.000000000000000E+20
 34
1.000000000000000E+20
 15
-1.000000000000000E+20
 25
-1.000000000000000E+20
 35
-1.000000000000000E+20
146
0.0
 13
0.0
 23
0.0
 33
0.0
 16
1.0
 26
0.0
 36
0.0
 17
0.0
 27
1.0
 37
0.0
 76
     0
330
1B
  0
LAYOUT
  5
26
102
{ACAD_REACTORS
330
1A
102
}
330
1A
100
AcDbPlotSettings
  1

  2
none_device
  4

  6

 40
0.0
 41
0.0
 42
0.0
 43
0.0
 44
0.0
 45
0.0
 46
0.0
 47
0.0
 48
0.0
 49
0.0
140
0.0
141
0.0
142
1.0
143
1.0
 70
   688
 72
     0
 73
     0
 74
     5
  7

 75
    16
 76
     0
 77
     2
 78
   300
147
1.0
148
0.0
149
0.0
100
AcDbLayout
  1
Layout2
 70
     1
 71
     2
 10
0.0
 20
0.0
 11
0.0
 21
0.0
 12
0.0
 22
0.0
 32
0.0
 14
0.0
 24
0.0
 34
0.0
 15
0.0
 25
0.0
 35
0.0
146
0.0
 13
0.0
 23
0.0
 33
0.0
 16
1.0
 26
0.0
 36
0.0
 17
0.0
 27
1.0
 37
0.0
 76
     0
330
23
  0
LAYOUT
  5
22
102
{ACAD_REACTORS
330
1A
102
}
330
1A
100
AcDbPlotSettings
  1

  2
none_device
  4
Letter_(8.50_x_11.00_Inches)
  6

 40
6.35
 41
6.35
 42
6.35000508
 43
6.35000508
 44
215.9
 45
279.4
 46
0.0
 47
0.0
 48
0.0
 49
0.0
140
0.0
141
0.0
142
1.0
143
1.0
 70
  1712
 72
     0
 73
     0
 74
     0
  7

 75
     0
 76
     0
 77
     2
 78
   300
147
1.0
148
0.0
149
0.0
100
AcDbLayout
  1
Model
 70
     1
 71
     0
 10
0.0
 20
0.0
 11
12.0
 21
9.0
 12
0.0
 22
0.0
 32
0.0
 14
1.000000000000000E+20
 24
1.000000000000000E+20
 34
1.000000000000000E+20
 15
-1.000000000000000E+20
 25
-1.000000000000000E+20
 35
-1.000000000000000E+20
146
0.0
 13
0.0
 23
0.0
 33
0.0
 16
1.0
 26
0.0
 36
0.0
 17
0.0
 27
1.0
 37
0.0
 76
     0
330
1F
331
29
  0
MATERIAL
  5
45
102
{ACAD_REACTORS
330
43
102
}
330
43
100
AcDbMaterial
  1
ByBlock
 72
     1
 94
      127
  0
MATERIAL
  5
44
102
{ACAD_REACTORS
330
43
102
}
330
43
100
AcDbMaterial
  1
ByLayer
 72
     1
 94
      127
  0
MATERIAL
  5
46
102
{ACAD_REACTORS
330
43
102
}
330
43
100
AcDbMaterial
  1
Global
 72
     1
 94
      127
  0
MLEADERSTYLE
  5
6C
102
{ACAD_REACTORS
330
6B
102
}
330
6B
100
AcDbMLeaderStyle
179
     2
170
     2
171
     1
172
     0
 90
        2
 40
0.0
 41
0.0
173
     1
 91
-1056964608
340
14
 92
       -2
290
     1
 42
0.09
291
     1
 43
0.36
  3
Standard
341
0
 44
0.18
300

342
11
174
     1
178
     6
175
     1
176
     0
 93
-1056964608
 45
0.18
292
     0
297
     0
 46
0.18
343
0
 94
-1056964608
 47
1.0
 49
1.0
140
1.0
293
     1
141
0.0
294
     1
177
     0
142
1.0
295
     0
296
     0
143
0.125
271
     0
272
     9
273
     9
298
     0
  0
MLINESTYLE
  5
18
102
{ACAD_REACTORS
330
17
102
}
330
17
100
AcDbMlineStyle
  2
Standard
 70
     0
  3

 62
   256
 51
90.0
 52
90.0
 71
     2
 49
0.5
 62
   256
  6
BYLAYER
 49
-0.5
 62
   256
  6
BYLAYER
  0
ACDBPLACEHOLDER
  5
F
102
{ACAD_REACTORS
330
E
102
}
330
E
  0
SCALE
  5
48
102
{ACAD_REACTORS
330
47
102
}
330
47
100
AcDbScale
 70
     0
300
1:1
140
1.0
141
1.0
290
     1
  0
SCALE
  5
49
102
{ACAD_REACTORS
330
47
102
}
330
47
100
AcDbScale
 70
     0
300
1:2
140
1.0
141
2.0
290
     0
  0
SCALE
  5
4A
102
{ACAD_REACTORS
330
47
102
}
330
47
100
AcDbScale
 70
     0
300
1:4
140
1.0
141
4.0
290
     0
  0
SCALE
  5
4B
102
{ACAD_REACTORS
330
47
102
}
330
47
100
AcDbScale
 70
     0
300
1:5
140
1.0
141
5.0
290
     0
  0
SCALE
  5
4C
102
{ACAD_REACTORS
330
47
102
}
330
47
100
AcDbScale
 70
     0
300
1:8
140
1.0
141
8.0
290
     0
  0
SCALE
  5
4D
102
{ACAD_REACTORS
330
47
102
}
330
47
100
AcDbScale
 70
     0
300
1:10
140
1.0
141
10.0
290
     0
  0
SCALE
  5
4E
102
{ACAD_REACTORS
330
47
102
}
330
47
100
AcDbScale
 70
     0
300
1:16
140
1.0
141
16.0
290
     0
  0
SCALE
  5
4F
102
{ACAD_REACTORS
330
47
102
}
330
47
100
AcDbScale
 70
     0
300
1:20
140
1.0
141
20.0
290
     0
  0
SCALE
  5
50
102
{ACAD_REACTORS
330
47
102
}
330
47
100
AcDbScale
 70
     0
300
1:30
140
1.0
141
30.0
290
     0
  0
SCALE
  5
51
102
{ACAD_REACTORS
330
47
102
}
330
47
100
AcDbScale
 70
     0
300
1:40
140
1.0
141
40.0
290
     0
  0
SCALE
  5
52
102
{ACAD_REACTORS
330
47
102
}
330
47
100
AcDbScale
 70
     0
300
1:50
140
1.0
141
50.0
290
     0
  0
SCALE
  5
53
102
{ACAD_REACTORS
330
47
102
}
330
47
100
AcDbScale
 70
     0
300
1:100
140
1.0
141
100.0
290
     0
  0
SCALE
  5
54
102
{ACAD_REACTORS
330
47
102
}
330
47
100
AcDbScale
 70
     0
300
2:1
140
2.0
141
1.0
290
     0
  0
SCALE
  5
55
102
{ACAD_REACTORS
330
47
102
}
330
47
100
AcDbScale
 70
     0
300
4:1
140
4.0
141
1.0
290
     0
  0
SCALE
  5
56
102
{ACAD_REACTORS
330
47
102
}
330
47
100
AcDbScale
 70
     0
300
8:1
140
8.0
141
1.0
290
     0
  0
SCALE
  5
57
102
{ACAD_REACTORS
330
47
102
}
330
47
100
AcDbScale
 70
     0
300
10:1
140
10.0
141
1.0
290
     0
  0
SCALE
  5
58
102
{ACAD_REACTORS
330
47
102
}
330
47
100
AcDbScale
 70
     0
300
100:1
140
100.0
141
1.0
290
     0
  0
SCALE
  5
59
102
{ACAD_REACTORS
330
47
102
}
330
47
100
AcDbScale
 70
     0
300
1/128" = 1'-0"
140
0.0078125
141
12.0
290
     0
  0
SCALE
  5
5A
102
{ACAD_REACTORS
330
47
102
}
330
47
100
AcDbScale
 70
     0
300
1/64" = 1'-0"
140
0.015625
141
12.0
290
     0
  0
SCALE
  5
5B
102
{ACAD_REACTORS
330
47
102
}
330
47
100
AcDbScale
 70
     0
300
1/32" = 1'-0"
140
0.03125
141
12.0
290
     0
  0
SCALE
  5
5C
102
{ACAD_REACTORS
330
47
102
}
330
47
100
AcDbScale
 70
     0
300
1/16" = 1'-0"
140
0.0625
141
12.0
290
     0
  0
SCALE
  5
5D
102
{ACAD_REACTORS
330
47
102
}
330
47
100
AcDbScale
 70
     0
300
3/32" = 1'-0"
140
0.09375
141
12.0
290
     0
  0
SCALE
  5
5E
102
{ACAD_REACTORS
330
47
102
}
330
47
100
AcDbScale
 70
     0
300
1/8" = 1'-0"
140
0.125
141
12.0
290
     0
  0
SCALE
  5
5F
102
{ACAD_REACTORS
330
47
102
}
330
47
100
AcDbScale
 70
     0
300
3/16" = 1'-0"
140
0.1875
141
12.0
290
     0
  0
SCALE
  5
60
102
{ACAD_REACTORS
330
47
102
}
330
47
100
AcDbScale
 70
     0
300
1/4" = 1'-0"
140
0.25
141
12.0
290
     0
  0
SCALE
  5
61
102
{ACAD_REACTORS
330
47
102
}
330
47
100
AcDbScale
 70
     0
300
3/8" = 1'-0"
140
0.375
141
12.0
290
     0
  0
SCALE
  5
62
102
{ACAD_REACTORS
330
47
102
}
330
47
100
AcDbScale
 70
     0
300
1/2" = 1'-0"
140
0.5
141
12.0
290
     0
  0
SCALE
  5
63
102
{ACAD_REACTORS
330
47
102
}
330
47
100
AcDbScale
 70
     0
300
3/4" = 1'-0"
140
0.75
141
12.0
290
     0
  0
SCALE
  5
64
102
{ACAD_REACTORS
330
47
102
}
330
47
100
AcDbScale
 70
     0
300
1" = 1'-0"
140
1.0
141
12.0
290
     0
  0
SCALE
  5
65
102
{ACAD_REACTORS
330
47
102
}
330
47
100
AcDbScale
 70
     0
300
1-1/2" = 1'-0"
140
1.5
141
12.0
290
     0
  0
SCALE
  5
66
102
{ACAD_REACTORS
330
47
102
}
330
47
100
AcDbScale
 70
     0
300
3" = 1'-0"
140
3.0
141
12.0
290
     0
  0
SCALE
  5
67
102
{ACAD_REACTORS
330
47
102
}
330
47
100
AcDbScale
 70
     0
300
6" = 1'-0"
140
6.0
141
12.0
290
     0
  0
SCALE
  5
68
102
{ACAD_REACTORS
330
47
102
}
330
47
100
AcDbScale
 70
     0
300
1'-0" = 1'-0"
140
12.0
141
12.0
290
     0
  0
TABLESTYLE
  5
6A
102
{ACAD_REACTORS
330
69
102
}
102
{ACAD_XDICTIONARY
360
260
102
}
330
69
100
AcDbTableStyle
  3
Standard
 70
     0
 71
     0
 40
0.06
 41
0.06
280
     0
281
     0
  7
Standard
140
0.18
170
     2
 62
     0
 63
   257
283
     0
 90
        4
 91
        0
  1

274
    -2
284
     1
 64
     0
275
    -2
285
     1
 65
     0
276
    -2
286
     1
 66
     0
277
    -2
287
     1
 67
     0
278
    -2
288
     1
 68
     0
279
    -2
289
     1
 69
     0
  7
Standard
140
0.25
170
     5
 62
     0
 63
   257
283
     0
 90
        4
 91
        0
  1

274
    -2
284
     1
 64
     0
275
    -2
285
     1
 65
     0
276
    -2
286
     1
 66
     0
277
    -2
287
     1
 67
     0
278
    -2
288
     1
 68
     0
279
    -2
289
     1
 69
     0
  7
Standard
140
0.18
170
     5
 62
     0
 63
   257
283
     0
 90
        4
 91
        0
  1

274
    -2
284
     1
 64
     0
275
    -2
285
     1
 65
     0
276
    -2
286
     1
 66
     0
277
    -2
287
     1
 67
     0
278
    -2
288
     1
 68
     0
279
    -2
289
     1
 69
     0
  0
VISUALSTYLE
  5
2F
102
{ACAD_REACTORS
330
2A
102
}
330
2A
100
AcDbVisualStyle
  2
2dWireframe
 70
     4
177
     3
291
     0
 70
    58
 90
        0
176
     1
 90
        2
176
     1
 90
        0
176
     1
 90
        0
176
     1
 40
0.6
176
     1
 40
30.0
176
     1
 62
     7
420
 16777215
176
     1
 90
        1
176
     1
 90
        4
176
     1
 62
     7
176
     1
 62
   257
176
     1
 90
        1
176
     1
 90
        1
176
     1
 40
1.0
176
     1
 90
        0
176
     1
 62
   257
176
     1
 40
1.0
176
     1
 90
        1
176
     1
 90
        6
176
     1
 90
        2
176
     1
 62
     7
176
     1
 90
        5
176
     1
 90
        0
176
     1
 90
        0
176
     1
290
     0
176
     1
 90
        1
176
     1
 40
0.0
176
     1
 90
        0
176
     1
290
     1
176
     1
290
     1
176
     1
290
     0
176
     1
290
     0
176
     1
290
     0
176
     1
290
     0
176
     1
290
     0
176
     1
290
     0
176
     1
290
     0
176
     1
 90
       50
176
     1
 40
0.0
176
     1
 40
1.0
176
     1
 90
        0
176
     1
 62
    18
420
        0
176
     1
 90
       50
176
     1
 90
        3
176
     1
 62
     5
420
      255
176
     1
290
     0
176
     1
 90
       50
176
     1
 90
       50
176
     1
 90
       50
176
     1
290
     0
176
     1
 90
       50
176
     1
 62
   256
176
     0
 40
1.0
176
     0
 90
        2
176
     1
  1
strokes_ogs.tif
176
     1
290
     0
176
     1
 40
1.0
176
     1
 40
1.0
176
     1
  0
VISUALSTYLE
  5
32
102
{ACAD_REACTORS
330
2A
102
}
330
2A
100
AcDbVisualStyle
  2
Basic
 70
     7
177
     3
291
     1
 70
    58
 90
        1
176
     1
 90
        0
176
     1
 90
        1
176
     1
 90
        0
176
     1
 40
0.6
176
     1
 40
30.0
176
     1
 62
     7
420
 16777215
176
     1
 90
        0
176
     1
 90
        4
176
     1
 62
     7
176
     1
 62
   257
176
     1
 90
        1
176
     1
 90
        1
176
     1
 40
1.0
176
     1
 90
        8
176
     1
 62
     7
176
     1
 40
1.0
176
     1
 90
        1
176
     1
 90
        6
176
     1
 90
        2
176
     1
 62
     7
176
     1
 90
        5
176
     1
 90
        0
176
     1
 90
        0
176
     1
290
     0
176
     1
 90
        1
176
     1
 40
0.0
176
     1
 90
        0
176
     1
290
     0
176
     1
290
     1
176
     1
290
     1
176
     1
290
     0
176
     1
290
     0
176
     1
290
     0
176
     1
290
     0
176
     1
290
     0
176
     1
290
     0
176
     1
 90
       50
176
     1
 40
0.0
176
     1
 40
1.0
176
     1
 90
        0
176
     1
 62
    18
420
        0
176
     1
 90
       50
176
     1
 90
        3
176
     1
 62
     5
420
      255
176
     1
290
     0
176
     1
 90
       50
176
     1
 90
       50
176
     1
 90
       50
176
     1
290
     0
176
     1
 90
       50
176
     1
 62
   256
176
     0
 40
1.0
176
     0
 90
        2
176
     1
  1
strokes_ogs.tif
176
     1
290
     0
176
     1
 40
1.0
176
     1
 40
1.0
176
     1
  0
VISUALSTYLE
  5
36
102
{ACAD_REACTORS
330
2A
102
}
330
2A
100
AcDbVisualStyle
  2
Brighten
 70
    12
177
     3
291
     1
 70
    58
 90
        2
176
     1
 90
        2
176
     1
 90
        0
176
     1
 90
        0
176
     1
 40
0.6
176
     1
 40
30.0
176
     1
 62
     7
420
 16777215
176
     1
 90
        1
176
     1
 90
        4
176
     1
 62
     7
176
     1
 62
   257
176
     1
 90
        1
176
     1
 90
        1
176
     1
 40
1.0
176
     1
 90
        8
176
     1
 62
     7
176
     1
 40
1.0
176
     1
 90
        1
176
     1
 90
        6
176
     1
 90
        2
176
     1
 62
     7
176
     1
 90
        5
176
     1
 90
        0
176
     1
 90
        0
176
     1
290
     0
176
     1
 90
        1
176
     1
 40
50.0
176
     1
 90
        0
176
     1
290
     0
176
     1
290
     1
176
     1
290
     1
176
     1
290
     0
176
     1
290
     0
176
     1
290
     0
176
     1
290
     0
176
     1
290
     0
176
     1
290
     0
176
     1
 90
       50
176
     1
 40
0.0
176
     1
 40
1.0
176
     1
 90
        0
176
     1
 62
    18
420
        0
176
     1
 90
       50
176
     1
 90
        3
176
     1
 62
     5
420
      255
176
     1
290
     0
176
     1
 90
       50
176
     1
 90
       50
176
     1
 90
       50
176
     1
290
     0
176
     1
 90
       50
176
     1
 62
   256
176
     0
 40
1.0
176
     0
 90
        2
176
     1
  1
strokes_ogs.tif
176
     1
290
     0
176
     1
 40
1.0
176
     1
 40
1.0
176
     1
  0
VISUALSTYLE
  5
3A
102
{ACAD_REACTORS
330
2A
102
}
330
2A
100
AcDbVisualStyle
  2
ColorChange
 70
    16
177
     3
291
     1
 70
    58
 90
        2
176
     1
 90
        2
176
     1
 90
        3
176
     1
 90
        0
176
     1
 40
0.6
176
     1
 40
30.0
176
     1
 62
     8
420
  8421504
176
     1
 90
        1
176
     1
 90
        4
176
     1
 62
     7
176
     1
 62
   257
176
     1
 90
        1
176
     1
 90
        1
176
     1
 40
1.0
176
     1
 90
        8
176
     1
 62
     8
420
  8421504
176
     1
 40
1.0
176
     1
 90
        1
176
     1
 90
        6
176
     1
 90
        2
176
     1
 62
     7
176
     1
 90
        5
176
     1
 90
        0
176
     1
 90
        0
176
     1
290
     0
176
     1
 90
        1
176
     1
 40
0.0
176
     1
 90
        0
176
     1
290
     0
176
     1
290
     1
176
     1
290
     1
176
     1
290
     0
176
     1
290
     0
176
     1
290
     0
176
     1
290
     0
176
     1
290
     0
176
     1
290
     0
176
     1
 90
       50
176
     1
 40
0.0
176
     1
 40
1.0
176
     1
 90
        0
176
     1
 62
    18
420
        0
176
     1
 90
       50
176
     1
 90
        3
176
     1
 62
     5
420
      255
176
     1
290
     0
176
     1
 90
       50
176
     1
 90
       50
176
     1
 90
       50
176
     1
290
     0
176
     1
 90
       50
176
     1
 62
   256
176
     0
 40
1.0
176
     0
 90
        2
176
     1
  1
strokes_ogs.tif
176
     1
290
     0
176
     1
 40
1.0
176
     1
 40
1.0
176
     1
  0
VISUALSTYLE
  5
34
102
{ACAD_REACTORS
330
2A
102
}
330
2A
100
AcDbVisualStyle
  2
Conceptual
 70
     9
177
     3
291
     0
 70
    58
 90
        3
176
     1
 90
        2
176
     1
 90
        0
176
     1
 90
        0
176
     1
 40
0.6
176
     1
 40
30.0
176
     1
 62
     7
420
 16777215
176
     1
 90
        2
176
     1
 90
        2
176
     1
 62
     7
176
     1
 62
   257
176
     1
 90
        1
176
     1
 90
        1
176
     1
 40
179.0
176
     1
 90
        8
176
     1
 62
     7
176
     1
 40
1.0
176
     1
 90
        1
176
     1
 90
        6
176
     1
 90
        2
176
     1
 62
     7
176
     1
 90
        3
176
     1
 90
        0
176
     1
 90
        0
176
     1
290
     0
176
     1
 90
        1
176
     1
 40
0.0
176
     1
 90
        0
176
     1
290
     0
176
     1
290
     1
176
     1
290
     1
176
     1
290
     0
176
     1
290
     0
176
     1
290
     0
176
     1
290
     0
176
     1
290
     0
176
     1
290
     0
176
     1
 90
       50
176
     1
 40
0.0
176
     1
 40
1.0
176
     1
 90
        0
176
     1
 62
    18
420
        0
176
     1
 90
       50
176
     1
 90
        3
176
     1
 62
     5
420
      255
176
     1
290
     0
176
     1
 90
       50
176
     1
 90
       50
176
     1
 90
       50
176
     1
290
     0
176
     1
 90
       50
176
     1
 62
   256
176
     0
 40
1.0
176
     0
 90
        2
176
     1
  1
strokes_ogs.tif
176
     1
290
     0
176
     1
 40
1.0
176
     1
 40
1.0
176
     1
  0
VISUALSTYLE
  5
35
102
{ACAD_REACTORS
330
2A
102
}
330
2A
100
AcDbVisualStyle
  2
Dim
 70
    11
177
     3
291
     1
 70
    58
 90
        2
176
     1
 90
        2
176
     1
 90
        0
176
     1
 90
        0
176
     1
 40
0.6
176
     1
 40
30.0
176
     1
 62
     7
420
 16777215
176
     1
 90
        1
176
     1
 90
        4
176
     1
 62
     7
176
     1
 62
   257
176
     1
 90
        1
176
     1
 90
        1
176
     1
 40
1.0
176
     1
 90
        8
176
     1
 62
     7
176
     1
 40
1.0
176
     1
 90
        1
176
     1
 90
        6
176
     1
 90
        2
176
     1
 62
     7
176
     1
 90
        5
176
     1
 90
        0
176
     1
 90
        0
176
     1
290
     0
176
     1
 90
        1
176
     1
 40
-50.0
176
     1
 90
        0
176
     1
290
     0
176
     1
290
     1
176
     1
290
     1
176
     1
290
     0
176
     1
290
     0
176
     1
290
     0
176
     1
290
     0
176
     1
290
     0
176
     1
290
     0
176
     1
 90
       50
176
     1
 40
0.0
176
     1
 40
1.0
176
     1
 90
        0
176
     1
 62
    18
420
        0
176
     1
 90
       50
176
     1
 90
        3
176
     1
 62
     5
420
      255
176
     1
290
     0
176
     1
 90
       50
176
     1
 90
       50
176
     1
 90
       50
176
     1
290
     0
176
     1
 90
       50
176
     1
 62
   256
176
     0
 40
1.0
176
     0
 90
        2
176
     1
  1
strokes_ogs.tif
176
     1
290
     0
176
     1
 40
1.0
176
     1
 40
1.0
176
     1
  0
VISUALSTYLE
  5
3D
102
{ACAD_REACTORS
330
2A
102
}
330
2A
100
AcDbVisualStyle
  2
EdgeColorOff
 70
    22
177
     3
291
     1
 70
    58
 90
        2
176
     0
 90
        2
176
     0
 90
        0
176
     0
 90
        0
176
     0
 40
0.6
176
     0
 40
30.0
176
     0
 62
     7
420
 16777215
176
     0
 90
        1
176
     0
 90
        4
176
     0
 62
     7
176
     0
 62
   257
176
     0
 90
        1
176
     0
 90
        1
176
     0
 40
1.0
176
     0
 90
        8
176
     2
 62
     7
176
     0
 40
1.0
176
     0
 90
        1
176
     0
 90
        6
176
     0
 90
        2
176
     0
 62
     7
176
     0
 90
        5
176
     0
 90
        0
176
     0
 90
        0
176
     0
290
     0
176
     0
 90
        1
176
     0
 40
0.0
176
     0
 90
        0
176
     0
290
     0
176
     0
290
     1
176
     0
290
     1
176
     0
290
     0
176
     0
290
     0
176
     0
290
     0
176
     0
290
     0
176
     0
290
     0
176
     0
290
     0
176
     0
 90
       50
176
     0
 40
0.0
176
     0
 40
1.0
176
     0
 90
        0
176
     0
 62
    18
420
        0
176
     0
 90
       50
176
     0
 90
        3
176
     0
 62
     5
420
      255
176
     0
290
     0
176
     0
 90
       50
176
     0
 90
       50
176
     0
 90
       50
176
     0
290
     0
176
     0
 90
       50
176
     0
 62
   256
176
     0
 40
1.0
176
     0
 90
        2
176
     0
  1
strokes_ogs.tif
176
     0
290
     0
176
     0
 40
1.0
176
     0
 40
1.0
176
     0
  0
VISUALSTYLE
  5
39
102
{ACAD_REACTORS
330
2A
102
}
330
2A
100
AcDbVisualStyle
  2
Facepattern
 70
    15
177
     3
291
     1
 70
    58
 90
        2
176
     1
 90
        2
176
     1
 90
        0
176
     1
 90
        0
176
     1
 40
0.6
176
     1
 40
30.0
176
     1
 62
     7
420
 16777215
176
     1
 90
        1
176
     1
 90
        4
176
     1
 62
     7
176
     1
 62
   257
176
     1
 90
        1
176
     1
 90
        1
176
     1
 40
1.0
176
     1
 90
        8
176
     1
 62
     7
176
     1
 40
1.0
176
     1
 90
        1
176
     1
 90
        6
176
     1
 90
        2
176
     1
 62
     7
176
     1
 90
        5
176
     1
 90
        0
176
     1
 90
        0
176
     1
290
     0
176
     1
 90
        1
176
     1
 40
0.0
176
     1
 90
        0
176
     1
290
     0
176
     1
290
     1
176
     1
290
     1
176
     1
290
     0
176
     1
290
     0
176
     1
290
     0
176
     1
290
     0
176
     1
290
     0
176
     1
290
     0
176
     1
 90
       50
176
     1
 40
0.0
176
     1
 40
1.0
176
     1
 90
        0
176
     1
 62
    18
420
        0
176
     1
 90
       50
176
     1
 90
        3
176
     1
 62
     5
420
      255
176
     1
290
     0
176
     1
 90
       50
176
     1
 90
       50
176
     1
 90
       50
176
     1
290
     0
176
     1
 90
       50
176
     1
 62
   256
176
     0
 40
1.0
176
     0
 90
        2
176
     1
  1
strokes_ogs.tif
176
     1
290
     0
176
     1
 40
1.0
176
     1
 40
1.0
176
     1
  0
VISUALSTYLE
  5
2B
102
{ACAD_REACTORS
330
2A
102
}
330
2A
100
AcDbVisualStyle
  2
Flat
 70
     0
177
     3
291
     1
 70
    58
 90
        2
176
     1
 90
        1
176
     1
 90
        1
176
     1
 90
        2
176
     1
 40
0.6
176
     1
 40
30.0
176
     1
 62
     7
420
 16777215
176
     1
 90
        0
176
     1
 90
        0
176
     1
 62
     7
176
     1
 62
   257
176
     1
 90
        1
176
     1
 90
        1
176
     1
 40
1.0
176
     1
 90
        8
176
     1
 62
     7
176
     1
 40
1.0
176
     1
 90
        1
176
     1
 90
        6
176
     1
 90
        2
176
     1
 62
     7
176
     1
 90
        5
176
     1
 90
        0
176
     1
 90
        0
176
     1
290
     0
176
     1
 90
       13
176
     1
 40
0.0
176
     1
 90
        0
176
     1
290
     0
176
     1
290
     1
176
     1
290
     1
176
     1
290
     0
176
     1
290
     0
176
     1
290
     0
176
     1
290
     0
176
     1
290
     0
176
     1
290
     0
176
     1
 90
       50
176
     1
 40
0.0
176
     1
 40
1.0
176
     1
 90
        0
176
     1
 62
    18
420
        0
176
     1
 90
       50
176
     1
 90
        3
176
     1
 62
     5
420
      255
176
     1
290
     0
176
     1
 90
       50
176
     1
 90
       50
176
     1
 90
       50
176
     1
290
     0
176
     1
 90
       50
176
     1
 62
   256
176
     0
 40
1.0
176
     0
 90
        2
176
     1
  1
strokes_ogs.tif
176
     1
290
     0
176
     1
 40
1.0
176
     1
 40
1.0
176
     1
  0
VISUALSTYLE
  5
2C
102
{ACAD_REACTORS
330
2A
102
}
330
2A
100
AcDbVisualStyle
  2
FlatWithEdges
 70
     1
177
     3
291
     1
 70
    58
 90
        2
176
     1
 90
        1
176
     1
 90
        1
176
     1
 90
        2
176
     1
 40
0.6
176
     1
 40
30.0
176
     1
 62
     7
420
 16777215
176
     1
 90
        1
176
     1
 90
        0
176
     1
 62
     7
176
     1
 62
   257
176
     1
 90
        1
176
     1
 90
        1
176
     1
 40
1.0
176
     1
 90
        0
176
     1
 62
   257
176
     1
 40
1.0
176
     1
 90
        1
176
     1
 90
        6
176
     1
 90
        2
176
     1
 62
     7
176
     1
 90
        5
176
     1
 90
        0
176
     1
 90
        0
176
     1
290
     0
176
     1
 90
       13
176
     1
 40
0.0
176
     1
 90
        0
176
     1
290
     0
176
     1
290
     1
176
     1
290
     1
176
     1
290
     0
176
     1
290
     0
176
     1
290
     0
176
     1
290
     0
176
     1
290
     0
176
     1
290
     0
176
     1
 90
       50
176
     1
 40
0.0
176
     1
 40
1.0
176
     1
 90
        0
176
     1
 62
    18
420
        0
176
     1
 90
       50
176
     1
 90
        3
176
     1
 62
     5
420
      255
176
     1
290
     0
176
     1
 90
       50
176
     1
 90
       50
176
     1
 90
       50
176
     1
290
     0
176
     1
 90
       50
176
     1
 62
   256
176
     0
 40
1.0
176
     0
 90
        2
176
     1
  1
strokes_ogs.tif
176
     1
290
     0
176
     1
 40
1.0
176
     1
 40
1.0
176
     1
  0
VISUALSTYLE
  5
2D
102
{ACAD_REACTORS
330
2A
102
}
330
2A
100
AcDbVisualStyle
  2
Gouraud
 70
     2
177
     3
291
     1
 70
    58
 90
        2
176
     1
 90
        2
176
     1
 90
        1
176
     1
 90
        2
176
     1
 40
0.6
176
     1
 40
30.0
176
     1
 62
     7
420
 16777215
176
     1
 90
        0
176
     1
 90
        0
176
     1
 62
     7
176
     1
 62
   257
176
     1
 90
        1
176
     1
 90
        1
176
     1
 40
1.0
176
     1
 90
        0
176
     1
 62
     7
176
     1
 40
1.0
176
     1
 90
        1
176
     1
 90
        6
176
     1
 90
        2
176
     1
 62
     7
176
     1
 90
        5
176
     1
 90
        0
176
     1
 90
        0
176
     1
290
     0
176
     1
 90
       13
176
     1
 40
0.0
176
     1
 90
        0
176
     1
290
     0
176
     1
290
     1
176
     1
290
     1
176
     1
290
     0
176
     1
290
     0
176
     1
290
     0
176
     1
290
     0
176
     1
290
     0
176
     1
290
     0
176
     1
 90
       50
176
     1
 40
0.0
176
     1
 40
1.0
176
     1
 90
        0
176
     1
 62
    18
420
        0
176
     1
 90
       50
176
     1
 90
        3
176
     1
 62
     5
420
      255
176
     1
290
     0
176
     1
 90
       50
176
     1
 90
       50
176
     1
 90
       50
176
     1
290
     0
176
     1
 90
       50
176
     1
 62
   256
176
     0
 40
1.0
176
     0
 90
        2
176
     1
  1
strokes_ogs.tif
176
     1
290
     0
176
     1
 40
1.0
176
     1
 40
1.0
176
     1
  0
VISUALSTYLE
  5
2E
102
{ACAD_REACTORS
330
2A
102
}
330
2A
100
AcDbVisualStyle
  2
GouraudWithEdges
 70
     3
177
     3
291
     1
 70
    58
 90
        2
176
     1
 90
        2
176
     1
 90
        1
176
     1
 90
        2
176
     1
 40
0.6
176
     1
 40
30.0
176
     1
 62
     7
420
 16777215
176
     1
 90
        1
176
     1
 90
        0
176
     1
 62
     7
176
     1
 62
   257
176
     1
 90
        1
176
     1
 90
        1
176
     1
 40
1.0
176
     1
 90
        0
176
     1
 62
   257
176
     1
 40
1.0
176
     1
 90
        1
176
     1
 90
        6
176
     1
 90
        2
176
     1
 62
     7
176
     1
 90
        5
176
     1
 90
        0
176
     1
 90
        0
176
     1
290
     0
176
     1
 90
       13
176
     1
 40
0.0
176
     1
 90
        0
176
     1
290
     0
176
     1
290
     1
176
     1
290
     1
176
     1
290
     0
176
     1
290
     0
176
     1
290
     0
176
     1
290
     0
176
     1
290
     0
176
     1
290
     0
176
     1
 90
       50
176
     1
 40
0.0
176
     1
 40
1.0
176
     1
 90
        0
176
     1
 62
    18
420
        0
176
     1
 90
       50
176
     1
 90
        3
176
     1
 62
     5
420
      255
176
     1
290
     0
176
     1
 90
       50
176
     1
 90
       50
176
     1
 90
       50
176
     1
290
     0
176
     1
 90
       50
176
     1
 62
   256
176
     0
 40
1.0
176
     0
 90
        2
176
     1
  1
strokes_ogs.tif
176
     1
290
     0
176
     1
 40
1.0
176
     1
 40
1.0
176
     1
  0
VISUALSTYLE
  5
31
102
{ACAD_REACTORS
330
2A
102
}
330
2A
100
AcDbVisualStyle
  2
Hidden
 70
     6
177
     3
291
     0
 70
    58
 90
        1
176
     1
 90
        2
176
     1
 90
        2
176
     1
 90
        0
176
     1
 40
0.6
176
     1
 40
30.0
176
     1
 62
     7
420
 16777215
176
     1
 90
        2
176
     1
 90
        2
176
     1
 62
     7
176
     1
 62
   257
176
     1
 90
        2
176
     1
 90
        1
176
     1
 40
40.0
176
     1
 90
        0
176
     1
 62
   257
176
     1
 40
1.0
176
     1
 90
        1
176
     1
 90
        6
176
     1
 90
        2
176
     1
 62
     7
176
     1
 90
        3
176
     1
 90
        0
176
     1
 90
        0
176
     1
290
     0
176
     1
 90
        1
176
     1
 40
0.0
176
     1
 90
        0
176
     1
290
     0
176
     1
290
     1
176
     1
290
     1
176
     1
290
     0
176
     1
290
     0
176
     1
290
     0
176
     1
290
     0
176
     1
290
     0
176
     1
290
     0
176
     1
 90
       50
176
     1
 40
0.0
176
     1
 40
1.0
176
     1
 90
        0
176
     1
 62
    18
420
        0
176
     1
 90
       50
176
     1
 90
        3
176
     1
 62
     5
420
      255
176
     1
290
     0
176
     1
 90
       50
176
     1
 90
       50
176
     1
 90
       50
176
     1
290
     0
176
     1
 90
       50
176
     1
 62
   256
176
     0
 40
1.0
176
     0
 90
        2
176
     1
  1
strokes_ogs.tif
176
     1
290
     0
176
     1
 40
1.0
176
     1
 40
1.0
176
     1
  0
VISUALSTYLE
  5
3B
102
{ACAD_REACTORS
330
2A
102
}
330
2A
100
AcDbVisualStyle
  2
JitterOff
 70
    20
177
     3
291
     1
 70
    58
 90
        2
176
     0
 90
        2
176
     0
 90
        0
176
     0
 90
        0
176
     0
 40
0.6
176
     0
 40
30.0
176
     0
 62
     7
420
 16777215
176
     0
 90
        1
176
     0
 90
        4
176
     0
 62
     7
176
     0
 62
   257
176
     0
 90
        1
176
     0
 90
        1
176
     0
 40
1.0
176
     0
 90
       10
176
     2
 62
     7
176
     0
 40
1.0
176
     0
 90
        1
176
     0
 90
        6
176
     0
 90
        2
176
     0
 62
     7
176
     0
 90
        5
176
     0
 90
        0
176
     0
 90
        0
176
     0
290
     0
176
     0
 90
        1
176
     0
 40
0.0
176
     0
 90
        0
176
     0
290
     0
176
     0
290
     1
176
     0
290
     1
176
     0
290
     0
176
     0
290
     0
176
     0
290
     0
176
     0
290
     0
176
     0
290
     0
176
     0
290
     0
176
     0
 90
       50
176
     0
 40
0.0
176
     0
 40
1.0
176
     0
 90
        0
176
     0
 62
    18
420
        0
176
     0
 90
       50
176
     0
 90
        3
176
     0
 62
     5
420
      255
176
     0
290
     0
176
     0
 90
       50
176
     0
 90
       50
176
     0
 90
       50
176
     0
290
     0
176
     0
 90
       50
176
     0
 62
   256
176
     0
 40
1.0
176
     0
 90
        2
176
     0
  1
strokes_ogs.tif
176
     0
290
     0
176
     0
 40
1.0
176
     0
 40
1.0
176
     0
  0
VISUALSTYLE
  5
38
102
{ACAD_REACTORS
330
2A
102
}
330
2A
100
AcDbVisualStyle
  2
Linepattern
 70
    14
177
     3
291
     1
 70
    58
 90
        2
176
     1
 90
        2
176
     1
 90
        0
176
     1
 90
        0
176
     1
 40
0.6
176
     1
 40
30.0
176
     1
 62
     7
420
 16777215
176
     1
 90
        1
176
     1
 90
        4
176
     1
 62
     7
176
     1
 62
   257
176
     1
 90
        7
176
     1
 90
        7
176
     1
 40
1.0
176
     1
 90
        8
176
     1
 62
     7
176
     1
 40
1.0
176
     1
 90
        1
176
     1
 90
        6
176
     1
 90
        2
176
     1
 62
     7
176
     1
 90
        5
176
     1
 90
        0
176
     1
 90
        0
176
     1
290
     0
176
     1
 90
        1
176
     1
 40
0.0
176
     1
 90
        0
176
     1
290
     0
176
     1
290
     1
176
     1
290
     1
176
     1
290
     0
176
     1
290
     0
176
     1
290
     0
176
     1
290
     0
176
     1
290
     0
176
     1
290
     0
176
     1
 90
       50
176
     1
 40
0.0
176
     1
 40
1.0
176
     1
 90
        0
176
     1
 62
    18
420
        0
176
     1
 90
       50
176
     1
 90
        3
176
     1
 62
     5
420
      255
176
     1
290
     0
176
     1
 90
       50
176
     1
 90
       50
176
     1
 90
       50
176
     1
290
     0
176
     1
 90
       50
176
     1
 62
   256
176
     0
 40
1.0
176
     0
 90
        2
176
     1
  1
strokes_ogs.tif
176
     1
290
     0
176
     1
 40
1.0
176
     1
 40
1.0
176
     1
  0
VISUALSTYLE
  5
3C
102
{ACAD_REACTORS
330
2A
102
}
330
2A
100
AcDbVisualStyle
  2
OverhangOff
 70
    21
177
     3
291
     1
 70
    58
 90
        2
176
     0
 90
        2
176
     0
 90
        0
176
     0
 90
        0
176
     0
 40
0.6
176
     0
 40
30.0
176
     0
 62
     7
420
 16777215
176
     0
 90
        1
176
     0
 90
        4
176
     0
 62
     7
176
     0
 62
   257
176
     0
 90
        1
176
     0
 90
        1
176
     0
 40
1.0
176
     0
 90
        9
176
     2
 62
     7
176
     0
 40
1.0
176
     0
 90
        1
176
     0
 90
        6
176
     0
 90
        2
176
     0
 62
     7
176
     0
 90
        5
176
     0
 90
        0
176
     0
 90
        0
176
     0
290
     0
176
     0
 90
        1
176
     0
 40
0.0
176
     0
 90
        0
176
     0
290
     0
176
     0
290
     1
176
     0
290
     1
176
     0
290
     0
176
     0
290
     0
176
     0
290
     0
176
     0
290
     0
176
     0
290
     0
176
     0
290
     0
176
     0
 90
       50
176
     0
 40
0.0
176
     0
 40
1.0
176
     0
 90
        0
176
     0
 62
    18
420
        0
176
     0
 90
       50
176
     0
 90
        3
176
     0
 62
     5
420
      255
176
     0
290
     0
176
     0
 90
       50
176
     0
 90
       50
176
     0
 90
       50
176
     0
290
     0
176
     0
 90
       50
176
     0
 62
   256
176
     0
 40
1.0
176
     0
 90
        2
176
     0
  1
strokes_ogs.tif
176
     0
290
     0
176
     0
 40
1.0
176
     0
 40
1.0
176
     0
  0
VISUALSTYLE
  5
33
102
{ACAD_REACTORS
330
2A
102
}
330
2A
100
AcDbVisualStyle
  2
Realistic
 70
     8
177
     3
291
     0
 70
    58
 90
        2
176
     1
 90
        3
176
     1
 90
        0
176
     1
 90
        2
176
     1
 40
0.6
176
     1
 40
30.0
176
     1
 62
     7
420
 16777215
176
     1
 90
        0
176
     1
 90
        0
176
     1
 62
     7
176
     1
 62
   257
176
     1
 90
        1
176
     1
 90
        1
176
     1
 40
1.0
176
     1
 90
        8
176
     1
 62
   257
176
     1
 40
1.0
176
     1
 90
        1
176
     1
 90
        6
176
     1
 90
        2
176
     1
 62
     7
176
     1
 90
        3
176
     1
 90
        0
176
     1
 90
        0
176
     1
290
     0
176
     1
 90
       13
176
     1
 40
0.0
176
     1
 90
        0
176
     1
290
     0
176
     1
290
     1
176
     1
290
     1
176
     1
290
     0
176
     1
290
     0
176
     1
290
     0
176
     1
290
     0
176
     1
290
     0
176
     1
290
     0
176
     1
 90
       50
176
     1
 40
0.0
176
     1
 40
1.0
176
     1
 90
        0
176
     1
 62
    18
420
        0
176
     1
 90
       50
176
     1
 90
        3
176
     1
 62
     5
420
      255
176
     1
290
     0
176
     1
 90
       50
176
     1
 90
       50
176
     1
 90
       50
176
     1
290
     0
176
     1
 90
       50
176
     1
 62
   256
176
     0
 40
1.0
176
     0
 90
        2
176
     1
  1
strokes_ogs.tif
176
     1
290
     0
176
     1
 40
1.0
176
     1
 40
1.0
176
     1
  0
VISUALSTYLE
  5
42
102
{ACAD_REACTORS
330
2A
102
}
330
2A
100
AcDbVisualStyle
  2
Shaded
 70
    27
177
     3
291
     0
 70
    58
 90
        2
176
     1
 90
        2
176
     1
 90
        1
176
     1
 90
        2
176
     1
 40
0.6
176
     1
 40
30.0
176
     1
 62
     7
420
 16777215
176
     1
 90
        0
176
     1
 90
        4
176
     1
 62
     7
176
     1
 62
   257
176
     1
 90
        1
176
     1
 90
        1
176
     1
 40
1.0
176
     1
 90
        8
176
     1
 62
   257
176
     1
 40
1.0
176
     1
 90
        1
176
     1
 90
        6
176
     1
 90
        2
176
     1
 62
     8
420
  7895160
176
     1
 90
        3
176
     1
 90
        0
176
     1
 90
        0
176
     1
290
     0
176
     1
 90
        5
176
     1
 40
0.0
176
     1
 90
        0
176
     1
290
     0
176
     1
290
     1
176
     1
290
     1
176
     1
290
     0
176
     1
290
     0
176
     1
290
     0
176
     1
290
     0
176
     1
290
     0
176
     1
290
     0
176
     1
 90
       50
176
     1
 40
0.0
176
     1
 40
1.0
176
     1
 90
        0
176
     1
 62
    18
420
        0
176
     1
 90
       50
176
     1
 90
        3
176
     1
 62
     5
420
      255
176
     1
290
     0
176
     1
 90
       50
176
     1
 90
       50
176
     1
 90
       50
176
     1
290
     0
176
     1
 90
       50
176
     1
 62
   256
176
     0
 40
1.0
176
     0
 90
        2
176
     1
  1
strokes_ogs.tif
176
     1
290
     0
176
     1
 40
1.0
176
     1
 40
1.0
176
     1
  0
VISUALSTYLE
  5
41
102
{ACAD_REACTORS
330
2A
102
}
330
2A
100
AcDbVisualStyle
  2
Shaded with edges
 70
    26
177
     3
291
     0
 70
    58
 90
        2
176
     1
 90
        2
176
     1
 90
        1
176
     1
 90
        2
176
     1
 40
0.6
176
     1
 40
30.0
176
     1
 62
     7
420
 16777215
176
     1
 90
        1
176
     1
 90
       10
176
     1
 62
     7
176
     1
 62
   257
176
     1
 90
        2
176
     1
 90
        1
176
     1
 40
1.0
176
     1
 90
        8
176
     1
 62
   257
176
     1
 40
1.0
176
     1
 90
        1
176
     1
 90
        6
176
     1
 90
        2
176
     1
 62
     7
176
     1
 90
        3
176
     1
 90
        0
176
     1
 90
        0
176
     1
290
     0
176
     1
 90
        5
176
     1
 40
0.0
176
     1
 90
        0
176
     1
290
     0
176
     1
290
     1
176
     1
290
     1
176
     1
290
     0
176
     1
290
     0
176
     1
290
     0
176
     1
290
     0
176
     1
290
     0
176
     1
290
     0
176
     1
 90
       50
176
     1
 40
0.0
176
     1
 40
1.0
176
     1
 90
        0
176
     1
 62
    18
420
        0
176
     1
 90
       50
176
     1
 90
        3
176
     1
 62
     5
420
      255
176
     1
290
     0
176
     1
 90
       50
176
     1
 90
       50
176
     1
 90
       50
176
     1
290
     0
176
     1
 90
       50
176
     1
 62
   256
176
     0
 40
1.0
176
     0
 90
        2
176
     1
  1
strokes_ogs.tif
176
     1
290
     0
176
     1
 40
1.0
176
     1
 40
1.0
176
     1
  0
VISUALSTYLE
  5
3E
102
{ACAD_REACTORS
330
2A
102
}
330
2A
100
AcDbVisualStyle
  2
Shades of Gray
 70
    23
177
     3
291
     0
 70
    58
 90
        2
176
     1
 90
        2
176
     1
 90
        3
176
     1
 90
        0
176
     1
 40
0.6
176
     1
 40
30.0
176
     1
 62
     7
420
 16777215
176
     1
 90
        2
176
     1
 90
        2
176
     1
 62
     7
176
     1
 62
     7
176
     1
 90
        1
176
     1
 90
        1
176
     1
 40
40.0
176
     1
 90
        8
176
     1
 62
     7
176
     1
 40
1.0
176
     1
 90
        1
176
     1
 90
        6
176
     1
 90
        2
176
     1
 62
     7
176
     1
 90
        3
176
     1
 90
        0
176
     1
 90
        0
176
     1
290
     0
176
     1
 90
        1
176
     1
 40
0.0
176
     1
 90
        0
176
     1
290
     0
176
     1
290
     1
176
     1
290
     1
176
     1
290
     0
176
     1
290
     0
176
     1
290
     0
176
     1
290
     0
176
     1
290
     0
176
     1
290
     0
176
     1
 90
       50
176
     1
 40
0.0
176
     1
 40
1.0
176
     1
 90
        0
176
     1
 62
    18
420
        0
176
     1
 90
       50
176
     1
 90
        3
176
     1
 62
     5
420
      255
176
     1
290
     0
176
     1
 90
       50
176
     1
 90
       50
176
     1
 90
       50
176
     1
290
     0
176
     1
 90
       50
176
     1
 62
   256
176
     0
 40
1.0
176
     0
 90
        2
176
     1
  1
strokes_ogs.tif
176
     1
290
     0
176
     1
 40
1.0
176
     1
 40
1.0
176
     1
  0
VISUALSTYLE
  5
3F
102
{ACAD_REACTORS
330
2A
102
}
330
2A
100
AcDbVisualStyle
  2
Sketchy
 70
    24
177
     3
291
     0
 70
    58
 90
        1
176
     1
 90
        2
176
     1
 90
        2
176
     1
 90
        0
176
     1
 40
0.6
176
     1
 40
30.0
176
     1
 62
     7
420
 16777215
176
     1
 90
        2
176
     1
 90
        2
176
     1
 62
     7
176
     1
 62
     7
176
     1
 90
        1
176
     1
 90
        1
176
     1
 40
40.0
176
     1
 90
       11
176
     1
 62
     7
176
     1
 40
1.0
176
     1
 90
        1
176
     1
 90
        6
176
     1
 90
        2
176
     1
 62
     7
176
     1
 90
        6
176
     1
 90
        0
176
     1
 90
        0
176
     1
290
     0
176
     1
 90
        1
176
     1
 40
0.0
176
     1
 90
        0
176
     1
290
     0
176
     1
290
     1
176
     1
290
     1
176
     1
290
     0
176
     1
290
     0
176
     1
290
     0
176
     1
290
     0
176
     1
290
     0
176
     1
290
     0
176
     1
 90
       50
176
     1
 40
0.0
176
     1
 40
1.0
176
     1
 90
        0
176
     1
 62
    18
420
        0
176
     1
 90
       50
176
     1
 90
        3
176
     1
 62
     5
420
      255
176
     1
290
     0
176
     1
 90
       50
176
     1
 90
       50
176
     1
 90
       50
176
     1
290
     0
176
     1
 90
       50
176
     1
 62
   256
176
     0
 40
1.0
176
     0
 90
        2
176
     1
  1
strokes_ogs.tif
176
     1
290
     0
176
     1
 40
1.0
176
     1
 40
1.0
176
     1
  0
VISUALSTYLE
  5
37
102
{ACAD_REACTORS
330
2A
102
}
330
2A
100
AcDbVisualStyle
  2
Thicken
 70
    13
177
     3
291
     1
 70
    58
 90
        2
176
     1
 90
        2
176
     1
 90
        0
176
     1
 90
        0
176
     1
 40
0.6
176
     1
 40
30.0
176
     1
 62
     7
420
 16777215
176
     1
 90
        1
176
     1
 90
        4
176
     1
 62
     7
176
     1
 62
   257
176
     1
 90
        1
176
     1
 90
        1
176
     1
 40
1.0
176
     1
 90
       12
176
     1
 62
     7
176
     1
 40
1.0
176
     1
 90
        1
176
     1
 90
        6
176
     1
 90
        2
176
     1
 62
     7
176
     1
 90
        5
176
     1
 90
        0
176
     1
 90
        0
176
     1
290
     0
176
     1
 90
        1
176
     1
 40
0.0
176
     1
 90
        0
176
     1
290
     0
176
     1
290
     1
176
     1
290
     1
176
     1
290
     0
176
     1
290
     0
176
     1
290
     0
176
     1
290
     0
176
     1
290
     0
176
     1
290
     0
176
     1
 90
       50
176
     1
 40
0.0
176
     1
 40
1.0
176
     1
 90
        0
176
     1
 62
    18
420
        0
176
     1
 90
       50
176
     1
 90
        3
176
     1
 62
     5
420
      255
176
     1
290
     0
176
     1
 90
       50
176
     1
 90
       50
176
     1
 90
       50
176
     1
290
     0
176
     1
 90
       50
176
     1
 62
   256
176
     0
 40
1.0
176
     0
 90
        2
176
     1
  1
strokes_ogs.tif
176
     1
290
     0
176
     1
 40
1.0
176
     1
 40
1.0
176
     1
  0
VISUALSTYLE
  5
30
102
{ACAD_REACTORS
330
2A
102
}
330
2A
100
AcDbVisualStyle
  2
Wireframe
 70
     5
177
     3
291
     0
 70
    58
 90
        0
176
     1
 90
        2
176
     1
 90
        0
176
     1
 90
        0
176
     1
 40
0.6
176
     1
 40
30.0
176
     1
 62
     7
420
 16777215
176
     1
 90
        1
176
     1
 90
        4
176
     1
 62
     7
176
     1
 62
   257
176
     1
 90
        1
176
     1
 90
        1
176
     1
 40
1.0
176
     1
 90
        0
176
     1
 62
   257
176
     1
 40
1.0
176
     1
 90
        1
176
     1
 90
        6
176
     1
 90
        2
176
     1
 62
     7
176
     1
 90
        3
176
     1
 90
        0
176
     1
 90
        0
176
     1
290
     0
176
     1
 90
        1
176
     1
 40
0.0
176
     1
 90
        0
176
     1
290
     0
176
     1
290
     1
176
     1
290
     1
176
     1
290
     0
176
     1
290
     0
176
     1
290
     0
176
     1
290
     0
176
     1
290
     0
176
     1
290
     0
176
     1
 90
       50
176
     1
 40
0.0
176
     1
 40
1.0
176
     1
 90
        0
176
     1
 62
    18
420
        0
176
     1
 90
       50
176
     1
 90
        3
176
     1
 62
     5
420
      255
176
     1
290
     0
176
     1
 90
       50
176
     1
 90
       50
176
     1
 90
       50
176
     1
290
     0
176
     1
 90
       50
176
     1
 62
   256
176
     0
 40
1.0
176
     0
 90
        2
176
     1
  1
strokes_ogs.tif
176
     1
290
     0
176
     1
 40
1.0
176
     1
 40
1.0
176
     1
  0
VISUALSTYLE
  5
40
102
{ACAD_REACTORS
330
2A
102
}
330
2A
100
AcDbVisualStyle
  2
X-Ray
 70
    25
177
     3
291
     0
 70
    58
 90
        2
176
     1
 90
        2
176
     1
 90
        1
176
     1
 90
        1
176
     1
 40
0.5
176
     1
 40
30.0
176
     1
 62
     7
420
 16777215
176
     1
 90
        1
176
     1
 90
        0
176
     1
 62
     7
176
     1
 62
   257
176
     1
 90
        1
176
     1
 90
        1
176
     1
 40
1.0
176
     1
 90
        8
176
     1
 62
     7
176
     1
 40
1.0
176
     1
 90
        1
176
     1
 90
        6
176
     1
 90
        2
176
     1
 62
     7
176
     1
 90
        3
176
     1
 90
        0
176
     1
 90
        0
176
     1
290
     0
176
     1
 90
       13
176
     1
 40
0.0
176
     1
 90
        0
176
     1
290
     0
176
     1
290
     1
176
     1
290
     1
176
     1
290
     0
176
     1
290
     0
176
     1
290
     0
176
     1
290
     0
176
     1
290
     0
176
     1
290
     0
176
     1
 90
       50
176
     1
 40
0.0
176
     1
 40
1.0
176
     1
 90
        0
176
     1
 62
    18
420
        0
176
     1
 90
       50
176
     1
 90
        3
176
     1
 62
     5
420
      255
176
     1
290
     0
176
     1
 90
       50
176
     1
 90
       50
176
     1
 90
       50
176
     1
290
     0
176
     1
 90
       50
176
     1
 62
   256
176
     0
 40
1.0
176
     0
 90
        2
176
     1
  1
strokes_ogs.tif
176
     1
290
     0
176
     1
 40
1.0
176
     1
 40
1.0
176
     1
  0
DICTIONARYVAR
  5
25F
102
{ACAD_REACTORS
330
25E
102
}
330
25E
100
DictionaryVariables
280
     0
  1
1:1
  0
DICTIONARYVAR
  5
264
102
{ACAD_REACTORS
330
25E
102
}
330
25E
100
DictionaryVariables
280
     0
  1
Standard
  0
DICTIONARYVAR
  5
263
102
{ACAD_REACTORS
330
25E
102
}
330
25E
100
DictionaryVariables
280
     0
  1
Standard
  0
DICTIONARY
  5
260
330
6A
100
AcDbDictionary
280
     1
281
     1
  3
ACAD_ROUNDTRIP_2008_TABLESTYLE_CELLSTYLEMAP
360
261
  0
CELLSTYLEMAP
  5
261
102
{ACAD_REACTORS
330
260
102
}
330
260
100
AcDbCellStyleMap
 90
        3
300
CELLSTYLE
  1
TABLEFORMAT_BEGIN
 90
        5
170
     1
 91
        0
 92
    32768
 62
   257
 93
        1
300
CONTENTFORMAT
  1
CONTENTFORMAT_BEGIN
 90
        0
 91
        0
 92
        4
 93
        0
300

 40
0.0
140
1.0
 94
        5
 62
     0
340
11
144
0.25
309
CONTENTFORMAT_END
171
     1
301
MARGIN
  1
CELLMARGIN_BEGIN
 40
0.06
 40
0.06
 40
0.06
 40
0.06
 40
0.06
 40
0.06
309
CELLMARGIN_END
 94
        6
 95
        1
302
GRIDFORMAT
  1
GRIDFORMAT_BEGIN
 90
        0
 91
        1
 62
     0
 92
       -2
340
14
 93
        0
 40
0.045
309
GRIDFORMAT_END
 95
        2
302
GRIDFORMAT
  1
GRIDFORMAT_BEGIN
 90
        0
 91
        1
 62
     0
 92
       -2
340
14
 93
        0
 40
0.045
309
GRIDFORMAT_END
 95
        4
302
GRIDFORMAT
  1
GRIDFORMAT_BEGIN
 90
        0
 91
        1
 62
     0
 92
       -2
340
14
 93
        0
 40
0.045
309
GRIDFORMAT_END
 95
        8
302
GRIDFORMAT
  1
GRIDFORMAT_BEGIN
 90
        0
 91
        1
 62
     0
 92
       -2
340
14
 93
        0
 40
0.045
309
GRIDFORMAT_END
 95
       16
302
GRIDFORMAT
  1
GRIDFORMAT_BEGIN
 90
        0
 91
        1
 62
     0
 92
       -2
340
14
 93
        0
 40
0.045
309
GRIDFORMAT_END
 95
       32
302
GRIDFORMAT
  1
GRIDFORMAT_BEGIN
 90
        0
 91
        1
 62
     0
 92
       -2
340
14
 93
        0
 40
0.045
309
GRIDFORMAT_END
309
TABLEFORMAT_END
  1
CELLSTYLE_BEGIN
 90
        1
 91
        1
300
_TITLE
309
CELLSTYLE_END
300
CELLSTYLE
  1
TABLEFORMAT_BEGIN
 90
        5
170
     1
 91
        0
 92
        0
 62
   257
 93
        1
300
CONTENTFORMAT
  1
CONTENTFORMAT_BEGIN
 90
        0
 91
        0
 92
        4
 93
        0
300

 40
0.0
140
1.0
 94
        5
 62
     0
340
11
144
0.18
309
CONTENTFORMAT_END
171
     1
301
MARGIN
  1
CELLMARGIN_BEGIN
 40
0.06
 40
0.06
 40
0.06
 40
0.06
 40
0.06
 40
0.06
309
CELLMARGIN_END
 94
        6
 95
        1
302
GRIDFORMAT
  1
GRIDFORMAT_BEGIN
 90
        0
 91
        1
 62
     0
 92
       -2
340
14
 93
        0
 40
0.045
309
GRIDFORMAT_END
 95
        2
302
GRIDFORMAT
  1
GRIDFORMAT_BEGIN
 90
        0
 91
        1
 62
     0
 92
       -2
340
14
 93
        0
 40
0.045
309
GRIDFORMAT_END
 95
        4
302
GRIDFORMAT
  1
GRIDFORMAT_BEGIN
 90
        0
 91
        1
 62
     0
 92
       -2
340
14
 93
        0
 40
0.045
309
GRIDFORMAT_END
 95
        8
302
GRIDFORMAT
  1
GRIDFORMAT_BEGIN
 90
        0
 91
        1
 62
     0
 92
       -2
340
14
 93
        0
 40
0.045
309
GRIDFORMAT_END
 95
       16
302
GRIDFORMAT
  1
GRIDFORMAT_BEGIN
 90
        0
 91
        1
 62
     0
 92
       -2
340
14
 93
        0
 40
0.045
309
GRIDFORMAT_END
 95
       32
302
GRIDFORMAT
  1
GRIDFORMAT_BEGIN
 90
        0
 91
        1
 62
     0
 92
       -2
340
14
 93
        0
 40
0.045
309
GRIDFORMAT_END
309
TABLEFORMAT_END
  1
CELLSTYLE_BEGIN
 90
        2
 91
        1
300
_HEADER
309
CELLSTYLE_END
300
CELLSTYLE
  1
TABLEFORMAT_BEGIN
 90
        5
170
     1
 91
        0
 92
        0
 62
   257
 93
        1
300
CONTENTFORMAT
  1
CONTENTFORMAT_BEGIN
 90
        0
 91
        0
 92
        4
 93
        0
300

 40
0.0
140
1.0
 94
        2
 62
     0
340
11
144
0.18
309
CONTENTFORMAT_END
171
     1
301
MARGIN
  1
CELLMARGIN_BEGIN
 40
0.06
 40
0.06
 40
0.06
 40
0.06
 40
0.06
 40
0.06
309
CELLMARGIN_END
 94
        6
 95
        1
302
GRIDFORMAT
  1
GRIDFORMAT_BEGIN
 90
        0
 91
        1
 62
     0
 92
       -2
340
14
 93
        0
 40
0.045
309
GRIDFORMAT_END
 95
        2
302
GRIDFORMAT
  1
GRIDFORMAT_BEGIN
 90
        0
 91
        1
 62
     0
 92
       -2
340
14
 93
        0
 40
0.045
309
GRIDFORMAT_END
 95
        4
302
GRIDFORMAT
  1
GRIDFORMAT_BEGIN
 90
        0
 91
        1
 62
     0
 92
       -2
340
14
 93
        0
 40
0.045
309
GRIDFORMAT_END
 95
        8
302
GRIDFORMAT
  1
GRIDFORMAT_BEGIN
 90
        0
 91
        1
 62
     0
 92
       -2
340
14
 93
        0
 40
0.045
309
GRIDFORMAT_END
 95
       16
302
GRIDFORMAT
  1
GRIDFORMAT_BEGIN
 90
        0
 91
        1
 62
     0
 92
       -2
340
14
 93
        0
 40
0.045
309
GRIDFORMAT_END
 95
       32
302
GRIDFORMAT
  1
GRIDFORMAT_BEGIN
 90
        0
 91
        1
 62
     0
 92
       -2
340
14
 93
        0
 40
0.045
309
GRIDFORMAT_END
309
TABLEFORMAT_END
  1
CELLSTYLE_BEGIN
 90
        3
 91
        2
300
_DATA
309
CELLSTYLE_END
  0
ENDSEC
  0
EOF