0
SECTION
  2
HEADER
  9
$ACADVER
  1
AC1027
  9
$ACADMAINTVER
 70
     8
  9
$DWGCODEPAGE
  3
ANSI_1252
  9
$REQUIREDVERSIONS
160
                 0
  9
$COMMENTS
  1
File was created by Cadenas
  9
$CUSTOMPROPERTYTAG
  1
NN
  9
$CUSTOMPROPERTY
  1
Imperial - IP Piloted Flange Labyrinth Seal
  9
$CUSTOMPROPERTYTAG
  1
NT
  9
$CUSTOMPROPERTY
  1
Imperial Piloted Flange Bearings
  9
$CUSTOMPROPERTYTAG
  1
NB
  9
$CUSTOMPROPERTY
  1
069892
  9
$CUSTOMPROPERTYTAG
  1
NBSYN
  9
$CUSTOMPROPERTY
  1
$PN.
  9
$CUSTOMPROPERTYTAG
  1
LINA
  9
$CUSTOMPROPERTY
  1
069892
  9
$CUSTOMPROPERTYTAG
  1
SS
  9
$CUSTOMPROPERTY
  1
3-7/16
  9
$CUSTOMPROPERTYTAG
  1
PN
  9
$CUSTOMPROPERTY
  1
069892
  9
$CUSTOMPROPERTYTAG
  1
DESCRIPTION
  9
$CUSTOMPROPERTY
  1
FC-IP-307L
  9
$CUSTOMPROPERTYTAG
  1
EF
  9
$CUSTOMPROPERTY
  1
Non-Expansion Type
  9
$CUSTOMPROPERTYTAG
  1
ST
  9
$CUSTOMPROPERTY
  1
Labyrinth Seal
  9
$CUSTOMPROPERTYTAG
  1
A
  9
$CUSTOMPROPERTY
  1
4-11/64
  9
$CUSTOMPROPERTYTAG
  1
B
  9
$CUSTOMPROPERTY
  1
10-1/4
  9
$CUSTOMPROPERTYTAG
  1
C
  9
$CUSTOMPROPERTY
  1
3
  9
$CUSTOMPROPERTYTAG
  1
D
  9
$CUSTOMPROPERTY
  1
6-3/32
  9
$CUSTOMPROPERTYTAG
  1
DD
  9
$CUSTOMPROPERTY
  1
8-5/8
  9
$CUSTOMPROPERTYTAG
  1
E
  9
$CUSTOMPROPERTY
  1
1-17/64
  9
$CUSTOMPROPERTYTAG
  1
F
  9
$CUSTOMPROPERTY
  1
3/4
  9
$CUSTOMPROPERTYTAG
  1
G
  9
$CUSTOMPROPERTY
  1
2-17/32
  9
$CUSTOMPROPERTYTAG
  1
H
  9
$CUSTOMPROPERTY
  1
15/16
  9
$CUSTOMPROPERTYTAG
  1
K
  9
$CUSTOMPROPERTY
  1
7.375
  9
$CUSTOMPROPERTYTAG
  1
L
  9
$CUSTOMPROPERTY
  1
5
  9
$CUSTOMPROPERTYTAG
  1
M
  9
$CUSTOMPROPERTY
  1
3/4-10
  9
$CUSTOMPROPERTYTAG
  1
N
  9
$CUSTOMPROPERTY
  1
4-1/16
  9
$CUSTOMPROPERTYTAG
  1
P
  9
$CUSTOMPROPERTY
  1
1-41/64
  9
$CUSTOMPROPERTYTAG
  1
Q
  9
$CUSTOMPROPERTY
  1
1-33/64
  9
$CUSTOMPROPERTYTAG
  1
X
  9
$CUSTOMPROPERTY
  1
1/4
  9
$CUSTOMPROPERTYTAG
  1
Y
  9
$CUSTOMPROPERTY
  1
0.025
  9
$CUSTOMPROPERTYTAG
  1
Z
  9
$CUSTOMPROPERTY
  1
4-3/64
  9
$CUSTOMPROPERTYTAG
  1
COMPANY
  9
$CUSTOMPROPERTY
  1
baldor
  9
$INSBASE
 10
0.0
 20
0.0
 30
0.0
  9
$EXTMIN
 10
1.000000000000000E+20
 20
1.000000000000000E+20
 30
1.000000000000000E+20
  9
$EXTMAX
 10
-1.000000000000000E+20
 20
-1.000000000000000E+20
 30
-1.000000000000000E+20
  9
$LIMMIN
 10
0.0
 20
0.0
  9
$LIMMAX
 10
12.0
 20
9.0
  9
$ORTHOMODE
 70
     0
  9
$REGENMODE
 70
     1
  9
$FILLMODE
 70
     1
  9
$QTEXTMODE
 70
     0
  9
$MIRRTEXT
 70
     1
  9
$LTSCALE
 40
1.0
  9
$ATTMODE
 70
     1
  9
$TEXTSIZE
 40
0.2
  9
$TRACEWID
 40
0.05
  9
$TEXTSTYLE
  7
Standard
  9
$CLAYER
  8
0
  9
$CELTYPE
  6
ByLayer
  9
$CECOLOR
 62
   256
  9
$CELTSCALE
 40
1.0
  9
$DISPSILH
 70
     0
  9
$DIMSCALE
 40
1.0
  9
$DIMASZ
 40
0.18
  9
$DIMEXO
 40
0.0625
  9
$DIMDLI
 40
0.38
  9
$DIMRND
 40
0.0
  9
$DIMDLE
 40
0.0
  9
$DIMEXE
 40
0.18
  9
$DIMTP
 40
0.0
  9
$DIMTM
 40
0.0
  9
$DIMTXT
 40
0.18
  9
$DIMCEN
 40
0.09
  9
$DIMTSZ
 40
0.0
  9
$DIMTOL
 70
     0
  9
$DIMLIM
 70
     0
  9
$DIMTIH
 70
     1
  9
$DIMTOH
 70
     1
  9
$DIMSE1
 70
     0
  9
$DIMSE2
 70
     0
  9
$DIMTAD
 70
     0
  9
$DIMZIN
 70
     0
  9
$DIMBLK
  1

  9
$DIMASO
 70
     1
  9
$DIMSHO
 70
     1
  9
$DIMPOST
  1

  9
$DIMAPOST
  1

  9
$DIMALT
 70
     0
  9
$DIMALTD
 70
     2
  9
$DIMALTF
 40
25.4
  9
$DIMLFAC
 40
1.0
  9
$DIMTOFL
 70
     0
  9
$DIMTVP
 40
0.0
  9
$DIMTIX
 70
     0
  9
$DIMSOXD
 70
     0
  9
$DIMSAH
 70
     0
  9
$DIMBLK1
  1

  9
$DIMBLK2
  1

  9
$DIMSTYLE
  2
Standard
  9
$DIMCLRD
 70
     0
  9
$DIMCLRE
 70
     0
  9
$DIMCLRT
 70
     0
  9
$DIMTFAC
 40
1.0
  9
$DIMGAP
 40
0.09
  9
$DIMJUST
 70
     0
  9
$DIMSD1
 70
     0
  9
$DIMSD2
 70
     0
  9
$DIMTOLJ
 70
     1
  9
$DIMTZIN
 70
     0
  9
$DIMALTZ
 70
     0
  9
$DIMALTTZ
 70
     0
  9
$DIMUPT
 70
     0
  9
$DIMDEC
 70
     4
  9
$DIMTDEC
 70
     4
  9
$DIMALTU
 70
     2
  9
$DIMALTTD
 70
     2
  9
$DIMTXSTY
  7
Standard
  9
$DIMAUNIT
 70
     0
  9
$DIMADEC
 70
     0
  9
$DIMALTRND
 40
0.0
  9
$DIMAZIN
 70
     0
  9
$DIMDSEP
 70
    46
  9
$DIMATFIT
 70
     3
  9
$DIMFRAC
 70
     0
  9
$DIMLDRBLK
  1

  9
$DIMLUNIT
 70
     2
  9
$DIMLWD
 70
    -2
  9
$DIMLWE
 70
    -2
  9
$DIMTMOVE
 70
     0
  9
$DIMFXL
 40
1.0
  9
$DIMFXLON
 70
     0
  9
$DIMJOGANG
 40
0.7853981633974483
  9
$DIMTFILL
 70
     0
  9
$DIMTFILLCLR
 70
     0
  9
$DIMARCSYM
 70
     0
  9
$DIMLTYPE
  6

  9
$DIMLTEX1
  6

  9
$DIMLTEX2
  6

  9
$DIMTXTDIRECTION
 70
     0
  9
$LUNITS
 70
     2
  9
$LUPREC
 70
     4
  9
$SKETCHINC
 40
0.1
  9
$FILLETRAD
 40
0.5
  9
$AUNITS
 70
     0
  9
$AUPREC
 70
     0
  9
$MENU
  1
.
  9
$ELEVATION
 40
0.0
  9
$PELEVATION
 40
0.0
  9
$THICKNESS
 40
0.0
  9
$LIMCHECK
 70
     0
  9
$CHAMFERA
 40
0.0
  9
$CHAMFERB
 40
0.0
  9
$CHAMFERC
 40
0.0
  9
$CHAMFERD
 40
0.0
  9
$SKPOLY
 70
     0
  9
$TDCREATE
 40
2458168.990011204
  9
$TDUCREATE
 40
2458168.948344537
  9
$TDUPDATE
 40
2458168.990011204
  9
$TDUUPDATE
 40
2458168.948344537
  9
$TDINDWG
 40
0.0000000116
  9
$TDUSRTIMER
 40
0.0000000116
  9
$USRTIMER
 70
     1
  9
$ANGBASE
 50
0.0
  9
$ANGDIR
 70
     0
  9
$PDMODE
 70
     0
  9
$PDSIZE
 40
0.0
  9
$PLINEWID
 40
0.0
  9
$SPLFRAME
 70
     0
  9
$SPLINETYPE
 70
     6
  9
$SPLINESEGS
 70
     8
  9
$HANDSEED
  5
266
  9
$SURFTAB1
 70
     6
  9
$SURFTAB2
 70
     6
  9
$SURFTYPE
 70
     6
  9
$SURFU
 70
     6
  9
$SURFV
 70
     6
  9
$UCSBASE
  2

  9
$UCSNAME
  2

  9
$UCSORG
 10
0.0
 20
0.0
 30
0.0
  9
$UCSXDIR
 10
1.0
 20
0.0
 30
0.0
  9
$UCSYDIR
 10
0.0
 20
1.0
 30
0.0
  9
$UCSORTHOREF
  2

  9
$UCSORTHOVIEW
 70
     0
  9
$UCSORGTOP
 10
0.0
 20
0.0
 30
0.0
  9
$UCSORGBOTTOM
 10
0.0
 20
0.0
 30
0.0
  9
$UCSORGLEFT
 10
0.0
 20
0.0
 30
0.0
  9
$UCSORGRIGHT
 10
0.0
 20
0.0
 30
0.0
  9
$UCSORGFRONT
 10
0.0
 20
0.0
 30
0.0
  9
$UCSORGBACK
 10
0.0
 20
0.0
 30
0.0
  9
$PUCSBASE
  2

  9
$PUCSNAME
  2

  9
$PUCSORG
 10
0.0
 20
0.0
 30
0.0
  9
$PUCSXDIR
 10
1.0
 20
0.0
 30
0.0
  9
$PUCSYDIR
 10
0.0
 20
1.0
 30
0.0
  9
$PUCSORTHOREF
  2

  9
$PUCSORTHOVIEW
 70
     0
  9
$PUCSORGTOP
 10
0.0
 20
0.0
 30
0.0
  9
$PUCSORGBOTTOM
 10
0.0
 20
0.0
 30
0.0
  9
$PUCSORGLEFT
 10
0.0
 20
0.0
 30
0.0
  9
$PUCSORGRIGHT
 10
0.0
 20
0.0
 30
0.0
  9
$PUCSORGFRONT
 10
0.0
 20
0.0
 30
0.0
  9
$PUCSORGBACK
 10
0.0
 20
0.0
 30
0.0
  9
$USERI1
 70
     0
  9
$USERI2
 70
     0
  9
$USERI3
 70
     0
  9
$USERI4
 70
     0
  9
$USERI5
 70
     0
  9
$USERR1
 40
0.0
  9
$USERR2
 40
0.0
  9
$USERR3
 40
0.0
  9
$USERR4
 40
0.0
  9
$USERR5
 40
0.0
  9
$WORLDVIEW
 70
     1
  9
$SHADEDGE
 70
     3
  9
$SHADEDIF
 70
    70
  9
$TILEMODE
 70
     1
  9
$MAXACTVP
 70
    64
  9
$PINSBASE
 10
0.0
 20
0.0
 30
0.0
  9
$PLIMCHECK
 70
     0
  9
$PEXTMIN
 10
1.000000000000000E+20
 20
1.000000000000000E+20
 30
1.000000000000000E+20
  9
$PEXTMAX
 10
-1.000000000000000E+20
 20
-1.000000000000000E+20
 30
-1.000000000000000E+20
  9
$PLIMMIN
 10
0.0
 20
0.0
  9
$PLIMMAX
 10
12.0
 20
9.0
  9
$UNITMODE
 70
     0
  9
$VISRETAIN
 70
     1
  9
$PLINEGEN
 70
     0
  9
$PSLTSCALE
 70
     1
  9
$TREEDEPTH
 70
  3020
  9
$CMLSTYLE
  2
Standard
  9
$CMLJUST
 70
     0
  9
$CMLSCALE
 40
1.0
  9
$PROXYGRAPHICS
 70
     1
  9
$MEASUREMENT
 70
     0
  9
$CELWEIGHT
370
    -1
  9
$ENDCAPS
280
     0
  9
$JOINSTYLE
280
     0
  9
$LWDISPLAY
290
     0
  9
$INSUNITS
 70
     1
  9
$HYPERLINKBASE
  1

  9
$STYLESHEET
  1

  9
$XEDIT
290
     1
  9
$CEPSNTYPE
380
     0
  9
$PSTYLEMODE
290
     1
  9
$FINGERPRINTGUID
  2
{1CA33B30-290F-40E8-8A48-C733C7D0A980}
  9
$VERSIONGUID
  2
{FAEB1C32-E019-11D5-929B-00C0DF256EC4}
  9
$EXTNAMES
290
     1
  9
$PSVPSCALE
 40
0.0
  9
$OLESTARTUP
290
     0
  9
$SORTENTS
280
   127
  9
$INDEXCTL
280
     0
  9
$HIDETEXT
280
     1
  9
$XCLIPFRAME
280
     2
  9
$HALOGAP
280
     0
  9
$OBSCOLOR
 70
   257
  9
$OBSLTYPE
280
     0
  9
$INTERSECTIONDISPLAY
280
     0
  9
$INTERSECTIONCOLOR
 70
   257
  9
$DIMASSOC
280
     2
  9
$PROJECTNAME
  1

  9
$CAMERADISPLAY
290
     0
  9
$LENSLENGTH
 40
50.0
  9
$CAMERAHEIGHT
 40
0.0
  9
$STEPSPERSEC
 40
2.0
  9
$STEPSIZE
 40
6.0
  9
$3DDWFPREC
 40
2.0
  9
$PSOLWIDTH
 40
0.25
  9
$PSOLHEIGHT
 40
4.0
  9
$LOFTANG1
 40
1.570796326794897
  9
$LOFTANG2
 40
1.570796326794897
  9
$LOFTMAG1
 40
0.0
  9
$LOFTMAG2
 40
0.0
  9
$LOFTPARAM
 70
     7
  9
$LOFTNORMALS
280
     1
  9
$LATITUDE
 40
37.795
  9
$LONGITUDE
 40
-122.394
  9
$NORTHDIRECTION
 40
0.0
  9
$TIMEZONE
 70
 -8000
  9
$LIGHTGLYPHDISPLAY
280
     1
  9
$TILEMODELIGHTSYNCH
280
     1
  9
$CMATERIAL
347
44
  9
$SOLIDHIST
280
     0
  9
$SHOWHIST
280
     1
  9
$DWFFRAME
280
     2
  9
$DGNFRAME
280
     2
  9
$REALWORLDSCALE
290
     1
  9
$INTERFERECOLOR
 62
   256
  9
$CSHADOW
280
     0
  9
$SHADOWPLANELOCATION
 40
0.0
  0
ENDSEC
  0
SECTION
  2
CLASSES
  0
CLASS
  1
ACDBDICTIONARYWDFLT
  2
AcDbDictionaryWithDefault
  3
ObjectDBX Classes
 90
        0
 91
        4
280
     0
281
     0
  0
CLASS
  1
VISUALSTYLE
  2
AcDbVisualStyle
  3
ObjectDBX Classes
 90
     4095
 91
        4
280
     0
281
     0
  0
CLASS
  1
MATERIAL
  2
AcDbMaterial
  3
ObjectDBX Classes
 90
     1153
 91
        4
280
     0
281
     0
  0
CLASS
  1
SCALE
  2
AcDbScale
  3
ObjectDBX Classes
 90
     1153
 91
        4
280
     0
281
     0
  0
CLASS
  1
TABLESTYLE
  2
AcDbTableStyle
  3
ObjectDBX Classes
 90
     4095
 91
        4
280
     0
281
     0
  0
CLASS
  1
MLEADERSTYLE
  2
AcDbMLeaderStyle
  3
ACDB_MLEADERSTYLE_CLASS
 90
     4095
 91
        4
280
     0
281
     0
  0
CLASS
  1
SUN
  2
AcDbSun
  3
SCENEOE
 90
     1153
 91
        4
280
     0
281
     0
  0
CLASS
  1
DICTIONARYVAR
  2
AcDbDictionaryVar
  3
ObjectDBX Classes
 90
        0
 91
        4
280
     0
281
     0
  0
CLASS
  1
CELLSTYLEMAP
  2
AcDbCellStyleMap
  3
ObjectDBX Classes
 90
     1152
 91
        4
280
     0
281
     0
  0
ENDSEC
  0
SECTION
  2
TABLES
  0
TABLE
  2
VPORT
  5
8
330
0
100
AcDbSymbolTable
 70
     1
  0
VPORT
  5
29
330
8
100
AcDbSymbolTableRecord
100
AcDbViewportTableRecord
  2
*Active
 70
     0
 10
0.0
 20
0.0
 11
1.0
 21
1.0
 12
-0.3780468750000008
 22
0.0
 13
0.0
 23
0.0
 14
0.5
 24
0.5
 15
0.5
 25
0.5
 16
0.0
 26
0.0
 36
1.0
 17
0.0
 27
0.0
 37
0.0
 40
10.455
 41
0.4641310975609756
 42
50.0
 43
0.0
 44
0.0
 50
0.0
 51
0.0
 71
     0
 72
   100
 73
     1
 74
     3
 75
     0
 76
     0
 77
     0
 78
     0
281
     0
 65
     1
110
0.0
120
0.0
130
0.0
111
1.0
121
0.0
131
0.0
112
0.0
122
1.0
132
0.0
 79
     0
146
0.0
348
2F
 60
     3
 61
     5
292
     1
282
     1
141
0.0
142
0.0
 63
   250
361
6D
  0
ENDTAB
  0
TABLE
  2
LTYPE
  5
5
330
0
100
AcDbSymbolTable
 70
     3
  0
LTYPE
  5
14
330
5
100
AcDbSymbolTableRecord
100
AcDbLinetypeTableRecord
  2
ByBlock
 70
     0
  3

 72
    65
 73
     0
 40
0.0
  0
LTYPE
  5
15
330
5
100
AcDbSymbolTableRecord
100
AcDbLinetypeTableRecord
  2
ByLayer
 70
     0
  3

 72
    65
 73
     0
 40
0.0
  0
LTYPE
  5
16
330
5
100
AcDbSymbolTableRecord
100
AcDbLinetypeTableRecord
  2
Continuous
 70
     0
  3
Solid line
 72
    65
 73
     0
 40
0.0
  0
LTYPE
  5
9C
330
5
100
AcDbSymbolTableRecord
100
AcDbLinetypeTableRecord
  2
Dashed
 70
     0
  3

 72
    65
 73
     2
 40
2.0
 49
1.0
 74
     0
 49
-1.0
 74
     0
  0
LTYPE
  5
AA
330
5
100
AcDbSymbolTableRecord
100
AcDbLinetypeTableRecord
  2
Center
 70
     0
  3

 72
    65
 73
     4
 40
1.5
 49
0.45
 74
     0
 49
-0.5
 74
     0
 49
0.05
 74
     0
 49
-0.5
 74
     0
  0
ENDTAB
  0
TABLE
  2
LAYER
  5
2
330
0
100
AcDbSymbolTable
 70
     7
  0
LAYER
  5
10
330
2
100
AcDbSymbolTableRecord
100
AcDbLayerTableRecord
  2
0
 70
     0
 62
     7
  6
Continuous
370
    -3
390
F
347
46
348
0
  0
LAYER
  5
72
330
2
100
AcDbSymbolTableRecord
100
AcDbLayerTableRecord
  2
AM_6
 70
     0
 62
    -2
  6
Continuous
370
    35
390
F
347
46
348
0
  0
LAYER
  5
9D
330
2
100
AcDbSymbolTableRecord
100
AcDbLayerTableRecord
  2
AM_9
 70
     0
 62
     6
  6
Dashed
370
    25
390
F
347
46
348
0
  0
LAYER
  5
A4
330
2
100
AcDbSymbolTableRecord
100
AcDbLayerTableRecord
  2
AM_5
 70
     0
 62
     3
  6
Continuous
370
    25
390
F
347
46
348
0
  0
LAYER
  5
AB
330
2
100
AcDbSymbolTableRecord
100
AcDbLayerTableRecord
  2
AM_7
 70
     0
 62
     7
  6
Center
370
    25
390
F
347
46
348
0
  0
LAYER
  5
AD
330
2
100
AcDbSymbolTableRecord
100
AcDbLayerTableRecord
  2
AM_4
 70
     0
 62
     7
  6
Continuous
370
    50
390
F
347
46
348
0
  0
LAYER
  5
24E
330
2
100
AcDbSymbolTableRecord
100
AcDbLayerTableRecord
  2
ConnectionPoints
 70
     0
 62
     7
  6
Continuous
370
    50
390
F
347
46
348
0
  0
ENDTAB
  0
TABLE
  2
STYLE
  5
3
330
0
100
AcDbSymbolTable
 70
     1
  0
STYLE
  5
11
330
3
100
AcDbSymbolTableRecord
100
AcDbTextStyleTableRecord
  2
Standard
 70
     0
 40
0.0
 41
1.0
 50
0.0
 71
     0
 42
0.2
  3
txt
  4

  0
ENDTAB
  0
TABLE
  2
VIEW
  5
6
330
0
100
AcDbSymbolTable
 70
     0
  0
ENDTAB
  0
TABLE
  2
UCS
  5
7
330
0
100
AcDbSymbolTable
 70
     0
  0
ENDTAB
  0
TABLE
  2
APPID
  5
9
330
0
100
AcDbSymbolTable
 70
     1
  0
APPID
  5
12
330
9
100
AcDbSymbolTableRecord
100
AcDbRegAppTableRecord
  2
ACAD
 70
     0
  0
ENDTAB
  0
TABLE
  2
DIMSTYLE
  5
A
330
0
100
AcDbSymbolTable
 70
     1
100
AcDbDimStyleTable
  0
DIMSTYLE
105
27
330
A
100
AcDbSymbolTableRecord
100
AcDbDimStyleTableRecord
  2
Standard
 70
     0
178
     0
340
11
  0
ENDTAB
  0
TABLE
  2
BLOCK_RECORD
  5
1
330
0
100
AcDbSymbolTable
 70
     8
  0
BLOCK_RECORD
  5
1F
330
1
100
AcDbSymbolTableRecord
100
AcDbBlockTableRecord
  2
*Model_Space
340
22
 70
     0
280
     1
281
     0
  0
BLOCK_RECORD
  5
1B
330
1
100
AcDbSymbolTableRecord
100
AcDbBlockTableRecord
  2
*Paper_Space
340
1E
 70
     0
280
     1
281
     0
  0
BLOCK_RECORD
  5
23
330
1
100
AcDbSymbolTableRecord
100
AcDbBlockTableRecord
  2
*Paper_Space0
340
26
 70
     0
280
     1
281
     0
  0
BLOCK_RECORD
  5
6E
330
1
100
AcDbSymbolTableRecord
100
AcDbBlockTableRecord
  2
1_069892_2
340
0
102
{BLKREFS
331
6F
102
}
 70
     0
280
     1
281
     0
  0
BLOCK_RECORD
  5
90
330
1
100
AcDbSymbolTableRecord
100
AcDbBlockTableRecord
  2
2_405015E_Inch_0_in_069892_2
340
0
102
{BLKREFS
331
91
102
}
 70
     0
280
     1
281
     0
  0
BLOCK_RECORD
  5
CC
330
1
100
AcDbSymbolTableRecord
100
AcDbBlockTableRecord
  2
3_ASME_B18_3_1_4_1_0_in_069892_2
340
0
102
{BLKREFS
331
CD
102
}
 70
     0
280
     1
281
     0
  0
BLOCK_RECORD
  5
F0
330
1
100
AcDbSymbolTableRecord
100
AcDbBlockTableRecord
  2
4_ASME_B18_3_1_4_2_0_in_069892_2
340
0
102
{BLKREFS
331
F1
102
}
 70
     0
280
     1
281
     0
  0
BLOCK_RECORD
  5
114
330
1
100
AcDbSymbolTableRecord
100
AcDbBlockTableRecord
  2
5_070903LW_0_in_069892_2
340
0
102
{BLKREFS
331
115
102
}
 70
     0
280
     1
281
     0
  0
BLOCK_RECORD
  5
14A
330
1
100
AcDbSymbolTableRecord
100
AcDbBlockTableRecord
  2
6_070935I_0_in_069892_2
340
0
102
{BLKREFS
331
14B
102
}
 70
     0
280
     1
281
     0
  0
BLOCK_RECORD
  5
1D3
330
1
100
AcDbSymbolTableRecord
100
AcDbBlockTableRecord
  2
7_069892H_0_in_069892_2
340
0
102
{BLKREFS
331
1D4
102
}
 70
     0
280
     1
281
     0
  0
ENDTAB
  0
ENDSEC
  0
SECTION
  2
BLOCKS
  0
BLOCK
  5
20
330
1F
100
AcDbEntity
  8
0
100
AcDbBlockBegin
  2
*Model_Space
 70
     0
 10
0.0
 20
0.0
 30
0.0
  3
*Model_Space
  1

  0
ENDBLK
  5
21
330
1F
100
AcDbEntity
  8
0
100
AcDbBlockEnd
  0
BLOCK
  5
1C
330
1B
100
AcDbEntity
 67
     1
  8
0
100
AcDbBlockBegin
  2
*Paper_Space
 70
     0
 10
0.0
 20
0.0
 30
0.0
  3
*Paper_Space
  1

  0
ENDBLK
  5
1D
330
1B
100
AcDbEntity
 67
     1
  8
0
100
AcDbBlockEnd
  0
BLOCK
  5
24
330
23
100
AcDbEntity
  8
0
100
AcDbBlockBegin
  2
*Paper_Space0
 70
     0
 10
0.0
 20
0.0
 30
0.0
  3
*Paper_Space0
  1

  0
ENDBLK
  5
25
330
23
100
AcDbEntity
  8
0
100
AcDbBlockEnd
  0
BLOCK
  5
70
330
6E
100
AcDbEntity
  8
0
100
AcDbBlockBegin
  2
1_069892_2
 70
     2
 10
0.0
 20
0.0
 30
0.0
  3
1_069892_2
  1

  0
ATTDEF
  5
73
330
6E
100
AcDbEntity
  8
AM_6
100
AcDbText
 10
7.000624999999999
 20
5.125
 30
0.0
 40
0.5
  1
Imperial - IP Piloted Flange Labyrinth Seal
100
AcDbAttributeDefinition
  3

  2
NN
 70
     8
280
     0
  0
ATTDEF
  5
74
330
6E
100
AcDbEntity
  8
AM_6
100
AcDbText
 10
7.000624999999999
 20
4.625
 30
0.0
 40
0.5
  1
Imperial Piloted Flange Bearings
100
AcDbAttributeDefinition
  3

  2
NT
 70
     8
280
     0
  0
ATTDEF
  5
75
330
6E
100
AcDbEntity
  8
AM_6
100
AcDbText
 10
7.000624999999999
 20
4.125
 30
0.0
 40
0.5
  1
069892
100
AcDbAttributeDefinition
  3

  2
NB
 70
     8
280
     0
  0
ATTDEF
  5
76
330
6E
100
AcDbEntity
  8
AM_6
100
AcDbText
 10
7.000624999999999
 20
3.625
 30
0.0
 40
0.5
  1
$PN.
100
AcDbAttributeDefinition
  3

  2
NBSYN
 70
     8
280
     0
  0
ATTDEF
  5
77
330
6E
100
AcDbEntity
  8
AM_6
100
AcDbText
 10
7.000624999999999
 20
3.125
 30
0.0
 40
0.5
  1
069892
100
AcDbAttributeDefinition
  3

  2
LINA
 70
     8
280
     0
  0
ATTDEF
  5
78
330
6E
100
AcDbEntity
  8
AM_6
100
AcDbText
 10
7.000624999999999
 20
2.625
 30
0.0
 40
0.5
  1
3-7/16
100
AcDbAttributeDefinition
  3

  2
SS
 70
     8
280
     0
  0
ATTDEF
  5
79
330
6E
100
AcDbEntity
  8
AM_6
100
AcDbText
 10
7.000624999999999
 20
2.125
 30
0.0
 40
0.5
  1
069892
100
AcDbAttributeDefinition
  3

  2
PN
 70
     8
280
     0
  0
ATTDEF
  5
7A
330
6E
100
AcDbEntity
  8
AM_6
100
AcDbText
 10
7.000624999999999
 20
1.625
 30
0.0
 40
0.5
  1
FC-IP-307L
100
AcDbAttributeDefinition
  3

  2
DESCRIPTION
 70
     8
280
     0
  0
ATTDEF
  5
7B
330
6E
100
AcDbEntity
  8
AM_6
100
AcDbText
 10
7.000624999999999
 20
1.125
 30
0.0
 40
0.5
  1
Non-Expansion Type
100
AcDbAttributeDefinition
  3

  2
EF
 70
     8
280
     0
  0
ATTDEF
  5
7C
330
6E
100
AcDbEntity
  8
AM_6
100
AcDbText
 10
7.000624999999999
 20
0.625
 30
0.0
 40
0.5
  1
Labyrinth Seal
100
AcDbAttributeDefinition
  3

  2
ST
 70
     8
280
     0
  0
ATTDEF
  5
7D
330
6E
100
AcDbEntity
  8
AM_6
100
AcDbText
 10
7.000624999999999
 20
0.125
 30
0.0
 40
0.5
  1
4-11/64
100
AcDbAttributeDefinition
  3

  2
A
 70
     8
280
     0
  0
ATTDEF
  5
7E
330
6E
100
AcDbEntity
  8
AM_6
100
AcDbText
 10
7.000624999999999
 20
-0.375
 30
0.0
 40
0.5
  1
10-1/4
100
AcDbAttributeDefinition
  3

  2
B
 70
     8
280
     0
  0
ATTDEF
  5
7F
330
6E
100
AcDbEntity
  8
AM_6
100
AcDbText
 10
7.000624999999999
 20
-0.875
 30
0.0
 40
0.5
  1
3
100
AcDbAttributeDefinition
  3

  2
C
 70
     8
280
     0
  0
ATTDEF
  5
80
330
6E
100
AcDbEntity
  8
AM_6
100
AcDbText
 10
7.000624999999999
 20
-1.375
 30
0.0
 40
0.5
  1
6-3/32
100
AcDbAttributeDefinition
  3

  2
D
 70
     8
280
     0
  0
ATTDEF
  5
81
330
6E
100
AcDbEntity
  8
AM_6
100
AcDbText
 10
7.000624999999999
 20
-1.875
 30
0.0
 40
0.5
  1
8-5/8
100
AcDbAttributeDefinition
  3

  2
DD
 70
     8
280
     0
  0
ATTDEF
  5
82
330
6E
100
AcDbEntity
  8
AM_6
100
AcDbText
 10
7.000624999999999
 20
-2.375
 30
0.0
 40
0.5
  1
1-17/64
100
AcDbAttributeDefinition
  3

  2
E
 70
     8
280
     0
  0
ATTDEF
  5
83
330
6E
100
AcDbEntity
  8
AM_6
100
AcDbText
 10
7.000624999999999
 20
-2.875
 30
0.0
 40
0.5
  1
3/4
100
AcDbAttributeDefinition
  3

  2
F
 70
     8
280
     0
  0
ATTDEF
  5
84
330
6E
100
AcDbEntity
  8
AM_6
100
AcDbText
 10
7.000624999999999
 20
-3.375
 30
0.0
 40
0.5
  1
2-17/32
100
AcDbAttributeDefinition
  3

  2
G
 70
     8
280
     0
  0
ATTDEF
  5
85
330
6E
100
AcDbEntity
  8
AM_6
100
AcDbText
 10
7.000624999999999
 20
-3.875
 30
0.0
 40
0.5
  1
15/16
100
AcDbAttributeDefinition
  3

  2
H
 70
     8
280
     0
  0
ATTDEF
  5
86
330
6E
100
AcDbEntity
  8
AM_6
100
AcDbText
 10
7.000624999999999
 20
-4.375
 30
0.0
 40
0.5
  1
7.375
100
AcDbAttributeDefinition
  3

  2
K
 70
     8
280
     0
  0
ATTDEF
  5
87
330
6E
100
AcDbEntity
  8
AM_6
100
AcDbText
 10
7.000624999999999
 20
-4.875
 30
0.0
 40
0.5
  1
5
100
AcDbAttributeDefinition
  3

  2
L
 70
     8
280
     0
  0
ATTDEF
  5
88
330
6E
100
AcDbEntity
  8
AM_6
100
AcDbText
 10
7.000624999999999
 20
-5.375
 30
0.0
 40
0.5
  1
3/4-10
100
AcDbAttributeDefinition
  3

  2
M
 70
     8
280
     0
  0
ATTDEF
  5
89
330
6E
100
AcDbEntity
  8
AM_6
100
AcDbText
 10
7.000624999999999
 20
-5.875
 30
0.0
 40
0.5
  1
4-1/16
100
AcDbAttributeDefinition
  3

  2
N
 70
     8
280
     0
  0
ATTDEF
  5
8A
330
6E
100
AcDbEntity
  8
AM_6
100
AcDbText
 10
7.000624999999999
 20
-6.375
 30
0.0
 40
0.5
  1
1-41/64
100
AcDbAttributeDefinition
  3

  2
P
 70
     8
280
     0
  0
ATTDEF
  5
8B
330
6E
100
AcDbEntity
  8
AM_6
100
AcDbText
 10
7.000624999999999
 20
-6.875
 30
0.0
 40
0.5
  1
1-33/64
100
AcDbAttributeDefinition
  3

  2
Q
 70
     8
280
     0
  0
ATTDEF
  5
8C
330
6E
100
AcDbEntity
  8
AM_6
100
AcDbText
 10
7.000624999999999
 20
-7.375
 30
0.0
 40
0.5
  1
1/4
100
AcDbAttributeDefinition
  3

  2
X
 70
     8
280
     0
  0
ATTDEF
  5
8D
330
6E
100
AcDbEntity
  8
AM_6
100
AcDbText
 10
7.000624999999999
 20
-7.875
 30
0.0
 40
0.5
  1
0.025
100
AcDbAttributeDefinition
  3

  2
Y
 70
     8
280
     0
  0
ATTDEF
  5
8E
330
6E
100
AcDbEntity
  8
AM_6
100
AcDbText
 10
7.000624999999999
 20
-8.375
 30
0.0
 40
0.5
  1
4-3/64
100
AcDbAttributeDefinition
  3

  2
Z
 70
     8
280
     0
  0
ATTDEF
  5
8F
330
6E
100
AcDbEntity
  8
AM_6
100
AcDbText
 10
7.000624999999999
 20
-8.875
 30
0.0
 40
0.5
  1
baldor
100
AcDbAttributeDefinition
  3

  2
COMPANY
 70
     8
280
     0
  0
INSERT
  5
91
330
6E
100
AcDbEntity
  8
0
100
AcDbBlockReference
  2
2_405015E_Inch_0_in_069892_2
 10
0.0
 20
0.0
 30
0.0
  0
INSERT
  5
CD
330
6E
100
AcDbEntity
  8
0
100
AcDbBlockReference
  2
3_ASME_B18_3_1_4_1_0_in_069892_2
 10
0.0
 20
0.0
 30
0.0
  0
INSERT
  5
F1
330
6E
100
AcDbEntity
  8
0
100
AcDbBlockReference
  2
4_ASME_B18_3_1_4_2_0_in_069892_2
 10
0.0
 20
0.0
 30
0.0
  0
INSERT
  5
115
330
6E
100
AcDbEntity
  8
0
100
AcDbBlockReference
  2
5_070903LW_0_in_069892_2
 10
0.0
 20
0.0
 30
0.0
  0
INSERT
  5
14B
330
6E
100
AcDbEntity
  8
0
100
AcDbBlockReference
  2
6_070935I_0_in_069892_2
 10
0.0
 20
0.0
 30
0.0
  0
INSERT
  5
1D4
330
6E
100
AcDbEntity
  8
0
100
AcDbBlockReference
  2
7_069892H_0_in_069892_2
 10
0.0
 20
0.0
 30
0.0
  0
ENDBLK
  5
71
330
6E
100
AcDbEntity
  8
0
100
AcDbBlockEnd
  0
BLOCK
  5
92
330
90
100
AcDbEntity
  8
0
100
AcDbBlockBegin
  2
2_405015E_Inch_0_in_069892_2
 70
     2
 10
0.0
 20
0.0
 30
0.0
  3
2_405015E_Inch_0_in_069892_2
  1

  0
ATTDEF
  5
94
330
90
100
AcDbEntity
  8
AM_6
100
AcDbText
 10
4.19376066823901
 20
4.59904305198184
 30
0.0
 40
0.5
  1
405015E -Inch
100
AcDbAttributeDefinition
  3

  2
NN
 70
     8
280
     0
  0
ATTDEF
  5
95
330
90
100
AcDbEntity
  8
AM_6
100
AcDbText
 10
4.19376066823901
 20
4.09904305198184
 30
0.0
 40
0.5
  1
Grease Fitting
100
AcDbAttributeDefinition
  3

  2
NT
 70
     8
280
     0
  0
ATTDEF
  5
96
330
90
100
AcDbEntity
  8
AM_6
100
AcDbText
 10
4.19376066823901
 20
3.59904305198184
 30
0.0
 40
0.5
  1
405015E-Inch
100
AcDbAttributeDefinition
  3

  2
NB
 70
     8
280
     0
  0
ATTDEF
  5
97
330
90
100
AcDbEntity
  8
AM_6
100
AcDbText
 10
4.19376066823901
 20
3.09904305198184
 30
0.0
 40
0.5
  1
$MN.-Inch
100
AcDbAttributeDefinition
  3

  2
NBSYN
 70
     8
280
     0
  0
ATTDEF
  5
98
330
90
100
AcDbEntity
  8
AM_6
100
AcDbText
 10
4.19376066823901
 20
2.59904305198184
 30
0.0
 40
0.5
  1
405015E
100
AcDbAttributeDefinition
  3

  2
LINA
 70
     8
280
     0
  0
ATTDEF
  5
99
330
90
100
AcDbEntity
  8
AM_6
100
AcDbText
 10
4.19376066823901
 20
2.09904305198184
 30
0.0
 40
0.5
  1
405015E
100
AcDbAttributeDefinition
  3

  2
MN
 70
     8
280
     0
  0
ATTDEF
  5
9A
330
90
100
AcDbEntity
  8
AM_6
100
AcDbText
 10
4.19376066823901
 20
1.59904305198184
 30
0.0
 40
0.5
  1
1/8 x 27PTF
100
AcDbAttributeDefinition
  3

  2
T
 70
     8
280
     0
  0
ATTDEF
  5
9B
330
90
100
AcDbEntity
  8
AM_6
100
AcDbText
 10
4.19376066823901
 20
1.09904305198184
 30
0.0
 40
0.5
  1
baldor
100
AcDbAttributeDefinition
  3

  2
COMPANY
 70
     8
280
     0
  0
LINE
  5
9E
330
90
100
AcDbEntity
  8
AM_9
100
AcDbLine
 10
-0.8062393317609895
 20
4.33033338100707
 30
0.0
 11
-0.8196778645317682
 21
4.380486668086795
 31
0.0
  0
LINE
  5
9F
330
90
100
AcDbEntity
  8
AM_9
100
AcDbLine
 10
-1.018295491312984
 20
4.036470847222977
 30
0.0
 11
-0.9681422042332586
 21
4.049909379993755
 31
0.0
  0
LINE
  5
A0
330
90
100
AcDbEntity
  8
AM_9
100
AcDbLine
 10
-0.9681422042332586
 20
4.049909379993755
 30
0.0
 11
-0.8062393317609895
 21
4.33033338100707
 31
0.0
  0
LINE
  5
A1
330
90
100
AcDbEntity
  8
AM_9
100
AcDbLine
 10
-1.018295491312984
 20
4.036470847222977
 30
0.0
 11
-0.8196778645317682
 21
4.380486668086795
 31
0.0
  0
LINE
  5
A2
330
90
100
AcDbEntity
  8
AM_9
100
AcDbLine
 10
-0.8196778645317682
 20
4.380486668086795
 30
0.0
 11
-1.013811551388466
 21
4.500807750372435
 31
0.0
  0
LINE
  5
A3
330
90
100
AcDbEntity
  8
AM_9
100
AcDbLine
 10
-1.219563448611535
 20
4.144435010628389
 30
0.0
 11
-1.018295491312984
 21
4.036470847222977
 31
0.0
  0
LINE
  5
A5
330
90
100
AcDbEntity
  8
AM_5
100
AcDbLine
 10
-1.144357903870092
 20
4.144435010628389
 30
0.0
 11
-0.9681422042332594
 21
4.049909379993755
 31
0.0
  0
LINE
  5
A6
330
90
100
AcDbEntity
  8
AM_5
100
AcDbLine
 10
-1.219563448611534
 20
4.144435010628388
 30
0.0
 11
-1.144357903870092
 21
4.144435010628389
 31
0.0
  0
LINE
  5
A7
330
90
100
AcDbEntity
  8
AM_5
100
AcDbLine
 10
-0.9584250985681395
 20
4.466480076205183
 30
0.0
 11
-1.162141584319696
 21
4.113632772544105
 31
0.0
  0
LINE
  5
A8
330
90
100
AcDbEntity
  8
AM_5
100
AcDbLine
 10
-0.9762087790177438
 20
4.435677838120899
 30
0.0
 11
-0.8062393317609898
 21
4.330333381007069
 31
0.0
  0
LINE
  5
A9
330
90
100
AcDbEntity
  8
AM_5
100
AcDbLine
 10
-1.013811551388465
 20
4.500807750372435
 30
0.0
 11
-0.9762087790177438
 21
4.435677838120899
 31
0.0
  0
LINE
  5
AC
330
90
100
AcDbEntity
  8
AM_7
100
AcDbLine
 10
-1.469159839340267
 20
4.526121380500412
 30
0.0
 11
-0.859477955076022
 21
4.174121380500412
 31
0.0
  0
LINE
  5
AE
330
90
100
AcDbEntity
  8
AM_4
100
AcDbLine
 10
-1.24172270777581
 20
4.516054047897779
 30
0.0
 11
-1.267703469889343
 21
4.531054047897778
 31
0.0
  0
LINE
  5
AF
330
90
100
AcDbEntity
  8
AM_4
100
AcDbLine
 10
-1.372703469889343
 20
4.349188713103047
 30
0.0
 11
-1.34672270777581
 21
4.334188713103046
 31
0.0
  0
LINE
  5
B0
330
90
100
AcDbEntity
  8
AM_4
100
AcDbLine
 10
-1.34672270777581
 20
4.334188713103046
 30
0.0
 11
-1.24172270777581
 21
4.516054047897779
 31
0.0
  0
LINE
  5
B1
330
90
100
AcDbEntity
  8
AM_4
100
AcDbLine
 10
-1.34672270777581
 20
4.334188713103046
 30
0.0
 11
-1.325706137272195
 21
4.306096724253305
 31
0.0
  0
LINE
  5
B2
330
90
100
AcDbEntity
  8
AM_4
100
AcDbLine
 10
-1.206886046537298
 20
4.511899158366091
 30
0.0
 11
-1.24172270777581
 21
4.516054047897779
 31
0.0
  0
LINE
  5
B3
330
90
100
AcDbEntity
  8
AM_4
100
AcDbLine
 10
-1.372703469889343
 20
4.349188713103047
 30
0.0
 11
-1.267703469889343
 21
4.531054047897778
 31
0.0
  0
LINE
  5
B4
330
90
100
AcDbEntity
  8
AM_4
100
AcDbLine
 10
-1.267703469889343
 20
4.531054047897778
 30
0.0
 11
-1.30466499411641
 21
4.587034810011311
 31
0.0
  0
LINE
  5
B5
330
90
100
AcDbEntity
  8
AM_4
100
AcDbLine
 10
-1.43966499411641
 20
4.353207950989513
 30
0.0
 11
-1.372703469889343
 21
4.349188713103047
 31
0.0
  0
LINE
  5
B6
330
90
100
AcDbEntity
  8
AM_4
100
AcDbLine
 10
-1.492785977385758
 20
4.421199709018985
 30
0.0
 11
-1.390108075452571
 21
4.59904305198184
 31
0.0
  0
LINE
  5
B7
330
90
100
AcDbEntity
  8
AM_4
100
AcDbLine
 10
-1.43966499411641
 20
4.353207950989513
 30
0.0
 11
-1.30466499411641
 21
4.587034810011311
 31
0.0
  0
LINE
  5
B8
330
90
100
AcDbEntity
  8
AM_4
100
AcDbLine
 10
-1.492785977385758
 20
4.421199709018985
 30
0.0
 11
-1.43966499411641
 21
4.353207950989513
 31
0.0
  0
LINE
  5
B9
330
90
100
AcDbEntity
  8
AM_4
100
AcDbLine
 10
-1.30466499411641
 20
4.587034810011311
 30
0.0
 11
-1.390108075452571
 21
4.59904305198184
 31
0.0
  0
LINE
  5
BA
330
90
100
AcDbEntity
  8
AM_4
100
AcDbLine
 10
-1.325706137272195
 20
4.306096724253305
 30
0.0
 11
-1.206886046537298
 21
4.511899158366091
 31
0.0
  0
LINE
  5
BB
330
90
100
AcDbEntity
  8
AM_4
100
AcDbLine
 10
-1.325706137272195
 20
4.306096724253305
 30
0.0
 11
-1.305421092307923
 21
4.232361606609865
 31
0.0
  0
LINE
  5
BC
330
90
100
AcDbEntity
  8
AM_4
100
AcDbLine
 10
-1.132887039024907
 20
4.531199352931843
 30
0.0
 11
-1.206886046537298
 21
4.511899158366091
 31
0.0
  0
LINE
  5
BD
330
90
100
AcDbEntity
  8
AM_4
100
AcDbLine
 10
-1.312665040378444
 20
4.183178323422567
 30
0.0
 11
-1.093915040378444
 21
4.562064437578258
 31
0.0
  0
LINE
  5
BE
330
90
100
AcDbEntity
  8
AM_4
100
AcDbLine
 10
-1.0073125
 20
4.512064437578259
 30
0.0
 11
-1.093915040378444
 21
4.562064437578258
 31
0.0
  0
LINE
  5
BF
330
90
100
AcDbEntity
  8
AM_4
100
AcDbLine
 10
-1.312665040378444
 20
4.183178323422567
 30
0.0
 11
-1.2260625
 21
4.133178323422566
 31
0.0
  0
LINE
  5
C0
330
90
100
AcDbEntity
  8
AM_4
100
AcDbLine
 10
-1.305421092307923
 20
4.232361606609865
 30
0.0
 11
-1.132887039024907
 21
4.531199352931843
 31
0.0
  0
LINE
  5
C1
330
90
100
AcDbEntity
  8
AM_4
100
AcDbLine
 10
-1.305421092307923
 20
4.232361606609865
 30
0.0
 11
-1.310165040378444
 21
4.187508450441489
 31
0.0
  0
LINE
  5
C2
330
90
100
AcDbEntity
  8
AM_4
100
AcDbLine
 10
-1.096415040378444
 20
4.557734310559336
 30
0.0
 11
-1.132887039024907
 21
4.531199352931843
 31
0.0
  0
LWPOLYLINE
  5
C3
330
90
100
AcDbEntity
  8
AM_4
100
AcDbPolyline
 90
        3
 70
     0
 43
0.0
 10
-1.304812268689828
 20
4.17864452357426
 10
-1.283353195296927
 20
4.229118878468102
 10
-1.257977540378444
 20
4.277899851961489
  0
LWPOLYLINE
  5
C4
330
90
100
AcDbEntity
  8
AM_4
100
AcDbPolyline
 90
        3
 70
     0
 43
0.0
 10
-1.171375
 20
4.22789985196149
 10
-1.20079147856077
 20
4.181735778084546
 10
-1.233915271688616
 20
4.137712123270874
  0
LWPOLYLINE
  5
C5
330
90
100
AcDbEntity
  8
AM_4
100
AcDbPolyline
 90
        3
 70
     0
 43
0.0
 10
-1.148602540378444
 20
4.467342909039336
 10
-1.119186061817675
 20
4.513506982916279
 10
-1.086062268689828
 20
4.557530637729951
  0
LINE
  5
C6
330
90
100
AcDbEntity
  8
AM_4
100
AcDbLine
 10
-1.195437268689828
 20
4.368087580652105
 30
0.0
 11
-1.124540271688616
 21
4.327155180348719
 31
0.0
  0
LWPOLYLINE
  5
C7
330
90
100
AcDbEntity
  8
AM_4
100
AcDbPolyline
 90
        3
 70
     0
 43
0.0
 10
-1.015165271688616
 20
4.516598237426566
 10
-1.036624345081517
 20
4.466123882532723
 10
-1.062
 20
4.417342909039336
  0
LWPOLYLINE
  5
C8
330
90
100
AcDbEntity
  8
AM_4
100
AcDbPolyline
 90
        3
 70
     0
 43
0.0
 10
-1.062
 20
4.417342909039336
 10
-1.09141647856077
 20
4.371178835162391
 10
-1.124540271688616
 20
4.327155180348719
  0
LWPOLYLINE
  5
C9
330
90
100
AcDbEntity
  8
AM_4
100
AcDbPolyline
 90
        3
 70
     0
 43
0.0
 10
-1.124540271688616
 20
4.327155180348719
 10
-1.145999345081517
 20
4.276680825454877
 10
-1.171375
 20
4.22789985196149
  0
LWPOLYLINE
  5
CA
330
90
100
AcDbEntity
  8
AM_4
100
AcDbPolyline
 90
        3
 70
     0
 43
0.0
 10
-1.257977540378444
 20
4.277899851961489
 10
-1.228561061817675
 20
4.324063925838433
 10
-1.195437268689828
 20
4.368087580652105
  0
LWPOLYLINE
  5
CB
330
90
100
AcDbEntity
  8
AM_4
100
AcDbPolyline
 90
        3
 70
     0
 43
0.0
 10
-1.195437268689828
 20
4.368087580652105
 10
-1.173978195296927
 20
4.418561935545948
 10
-1.148602540378444
 20
4.467342909039336
  0
ENDBLK
  5
93
330
90
100
AcDbEntity
  8
0
100
AcDbBlockEnd
  0
BLOCK
  5
CE
330
CC
100
AcDbEntity
  8
0
100
AcDbBlockBegin
  2
3_ASME_B18_3_1_4_1_0_in_069892_2
 70
     2
 10
0.0
 20
0.0
 30
0.0
  3
3_ASME_B18_3_1_4_1_0_in_069892_2
  1

  0
ATTDEF
  5
D0
330
CC
100
AcDbEntity
  8
AM_6
100
AcDbText
 10
3.500291666666667
 20
-1.986361111111111
 30
0.0
 40
0.5
  1
ANSI/ASME B18.3-1998
100
AcDbAttributeDefinition
  3

  2
NN
 70
     8
280
     0
  0
ATTDEF
  5
D1
330
CC
100
AcDbEntity
  8
AM_6
100
AcDbText
 10
3.500291666666667
 20
-2.486361111111111
 30
0.0
 40
0.5
  1
Socket Button Head Cap Screws
100
AcDbAttributeDefinition
  3

  2
NT
 70
     8
280
     0
  0
ATTDEF
  5
D2
330
CC
100
AcDbEntity
  8
AM_6
100
AcDbText
 10
3.500291666666667
 20
-2.986361111111111
 30
0.0
 40
0.5
  1
ASME B18.3-1/4
100
AcDbAttributeDefinition
  3

  2
NB
 70
     8
280
     0
  0
ATTDEF
  5
D3
330
CC
100
AcDbEntity
  8
AM_6
100
AcDbText
 10
3.500291666666667
 20
-3.486361111111111
 30
0.0
 40
0.5
  1
ASME B18.3-$NS.
100
AcDbAttributeDefinition
  3

  2
NBSYN
 70
     8
280
     0
  0
ATTDEF
  5
D4
330
CC
100
AcDbEntity
  8
AM_6
100
AcDbText
 10
3.500291666666667
 20
-3.986361111111111
 30
0.0
 40
0.5
  1
ASME B18.3-1/4
100
AcDbAttributeDefinition
  3

  2
LINA
 70
     8
280
     0
  0
ATTDEF
  5
D5
330
CC
100
AcDbEntity
  8
AM_6
100
AcDbText
 10
3.500291666666667
 20
-4.486361111111111
 30
0.0
 40
0.5
  1
1/4
100
AcDbAttributeDefinition
  3

  2
NS
 70
     8
280
     0
  0
ATTDEF
  5
D6
330
CC
100
AcDbEntity
  8
AM_6
100
AcDbText
 10
3.500291666666667
 20
-4.986361111111111
 30
0.0
 40
0.5
  1
0.437
100
AcDbAttributeDefinition
  3

  2
A
 70
     8
280
     0
  0
ATTDEF
  5
D7
330
CC
100
AcDbEntity
  8
AM_6
100
AcDbText
 10
3.500291666666667
 20
-5.486361111111111
 30
0.0
 40
0.5
  1
0.132
100
AcDbAttributeDefinition
  3

  2
H
 70
     8
280
     0
  0
ATTDEF
  5
D8
330
CC
100
AcDbEntity
  8
AM_6
100
AcDbText
 10
3.500291666666667
 20
-5.986361111111111
 30
0.0
 40
0.5
  1
0.800
100
AcDbAttributeDefinition
  3

  2
L
 70
     8
280
     0
  0
ATTDEF
  5
D9
330
CC
100
AcDbEntity
  8
AM_6
100
AcDbText
 10
3.500291666666667
 20
-6.486361111111111
 30
0.0
 40
0.5
  1
0.031
100
AcDbAttributeDefinition
  3

  2
S
 70
     8
280
     0
  0
ATTDEF
  5
DA
330
CC
100
AcDbEntity
  8
AM_6
100
AcDbText
 10
3.500291666666667
 20
-6.986361111111111
 30
0.0
 40
0.5
  1
0.156250
100
AcDbAttributeDefinition
  3

  2
J
 70
     8
280
     0
  0
ATTDEF
  5
DB
330
CC
100
AcDbEntity
  8
AM_6
100
AcDbText
 10
3.500291666666667
 20
-7.486361111111111
 30
0.0
 40
0.5
  1
baldor
100
AcDbAttributeDefinition
  3

  2
COMPANY
 70
     8
280
     0
  0
LINE
  5
DC
330
CC
100
AcDbEntity
  8
AM_9
100
AcDbLine
 10
-2.361708333333333
 20
-2.29507209067199
 30
0.0
 11
-2.431708333333333
 21
-2.29507209067199
 31
0.0
  0
LINE
  5
DD
330
CC
100
AcDbEntity
  8
AM_9
100
AcDbLine
 10
-2.361708333333333
 20
-2.114650131550232
 30
0.0
 11
-2.431708333333333
 21
-2.114650131550232
 31
0.0
  0
LINE
  5
DE
330
CC
100
AcDbEntity
  8
AM_9
100
AcDbLine
 10
-2.361708333333333
 20
-2.114650131550232
 30
0.0
 11
-2.361708333333333
 21
-2.29507209067199
 31
0.0
  0
LINE
  5
DF
330
CC
100
AcDbEntity
  8
AM_9
100
AcDbLine
 10
-2.361708333333333
 20
-2.159755621330671
 30
0.0
 11
-2.431708333333333
 21
-2.159755621330671
 31
0.0
  0
LINE
  5
E0
330
CC
100
AcDbEntity
  8
AM_9
100
AcDbLine
 10
-2.361708333333333
 20
-2.249966600891551
 30
0.0
 11
-2.431708333333333
 21
-2.249966600891551
 31
0.0
  0
LINE
  5
E1
330
CC
100
AcDbEntity
  8
AM_9
100
AcDbLine
 10
-1.499708333333333
 20
-2.098461111111111
 30
0.0
 11
-1.499708333333333
 21
-2.311261111111111
 31
0.0
  0
LINE
  5
E2
330
CC
100
AcDbEntity
  8
AM_9
100
AcDbLine
 10
-1.499708333333333
 20
-2.098461111111111
 30
0.0
 11
-1.518308333333333
 21
-2.079861111111111
 31
0.0
  0
LINE
  5
E3
330
CC
100
AcDbEntity
  8
AM_9
100
AcDbLine
 10
-1.518308333333333
 20
-2.329861111111111
 30
0.0
 11
-1.499708333333333
 21
-2.311261111111111
 31
0.0
  0
LINE
  5
E4
330
CC
100
AcDbEntity
  8
AM_9
100
AcDbLine
 10
-1.518308333333333
 20
-2.079861111111111
 30
0.0
 11
-1.518308333333333
 21
-2.329861111111111
 31
0.0
  0
LINE
  5
E5
330
CC
100
AcDbEntity
  8
AM_9
100
AcDbLine
 10
-2.299708333333333
 20
-2.329861111111111
 30
0.0
 11
-1.518308333333333
 21
-2.329861111111111
 31
0.0
  0
LINE
  5
E6
330
CC
100
AcDbEntity
  8
AM_9
100
AcDbLine
 10
-1.518308333333333
 20
-2.079861111111111
 30
0.0
 11
-2.299708333333333
 21
-2.079861111111111
 31
0.0
  0
LINE
  5
E7
330
CC
100
AcDbEntity
  8
AM_5
100
AcDbLine
 10
-2.219708333333333
 20
-2.311261111111111
 30
0.0
 11
-2.251924478354114
 21
-2.329861111111111
 31
0.0
  0
LINE
  5
E8
330
CC
100
AcDbEntity
  8
AM_5
100
AcDbLine
 10
-2.219708333333333
 20
-2.079861137833718
 30
0.0
 11
-2.219708333333333
 21
-2.329861283277009
 31
0.0
  0
LINE
  5
E9
330
CC
100
AcDbEntity
  8
AM_5
100
AcDbLine
 10
-2.219708333333333
 20
-2.098461111111111
 30
0.0
 11
-2.251924478354114
 21
-2.079861111111111
 31
0.0
  0
LINE
  5
EA
330
CC
100
AcDbEntity
  8
AM_4
100
AcDbLine
 10
-2.431708333333333
 20
-2.087361111111111
 30
0.0
 11
-2.431708333333333
 21
-2.322361111111111
 31
0.0
  0
ARC
  5
EB
330
CC
100
AcDbEntity
  8
AM_4
100
AcDbCircle
 10
-2.330708333333333
 20
-2.322361111111111
 30
0.0
 40
0.101
100
AcDbArc
 50
180.0
 51
270.0
  0
ARC
  5
EC
330
CC
100
AcDbEntity
  8
AM_4
100
AcDbCircle
 10
-2.330708333333333
 20
-2.087361111111111
 30
0.0
 40
0.1009999999999998
100
AcDbArc
 50
90.0
 51
180.0
  0
LINE
  5
ED
330
CC
100
AcDbEntity
  8
AM_4
100
AcDbLine
 10
-2.330708333333333
 20
-1.986361111111111
 30
0.0
 11
-2.330708333333333
 21
-2.423361111111111
 31
0.0
  0
LINE
  5
EE
330
CC
100
AcDbEntity
  8
AM_4
100
AcDbLine
 10
-2.330708333333333
 20
-2.423361111111111
 30
0.0
 11
-2.299708333333333
 21
-2.423361111111111
 31
0.0
  0
LINE
  5
EF
330
CC
100
AcDbEntity
  8
AM_4
100
AcDbLine
 10
-2.299708333333333
 20
-1.986361111111111
 30
0.0
 11
-2.330708333333333
 21
-1.986361111111111
 31
0.0
  0
ENDBLK
  5
CF
330
CC
100
AcDbEntity
  8
0
100
AcDbBlockEnd
  0
BLOCK
  5
F2
330
F0
100
AcDbEntity
  8
0
100
AcDbBlockBegin
  2
4_ASME_B18_3_1_4_2_0_in_069892_2
 70
     2
 10
0.0
 20
0.0
 30
0.0
  3
4_ASME_B18_3_1_4_2_0_in_069892_2
  1

  0
ATTDEF
  5
F4
330
F0
100
AcDbEntity
  8
AM_6
100
AcDbText
 10
3.500291666666667
 20
2.423361111111111
 30
0.0
 40
0.5
  1
ANSI/ASME B18.3-1998
100
AcDbAttributeDefinition
  3

  2
NN
 70
     8
280
     0
  0
ATTDEF
  5
F5
330
F0
100
AcDbEntity
  8
AM_6
100
AcDbText
 10
3.500291666666667
 20
1.923361111111111
 30
0.0
 40
0.5
  1
Socket Button Head Cap Screws
100
AcDbAttributeDefinition
  3

  2
NT
 70
     8
280
     0
  0
ATTDEF
  5
F6
330
F0
100
AcDbEntity
  8
AM_6
100
AcDbText
 10
3.500291666666667
 20
1.423361111111111
 30
0.0
 40
0.5
  1
ASME B18.3-1/4
100
AcDbAttributeDefinition
  3

  2
NB
 70
     8
280
     0
  0
ATTDEF
  5
F7
330
F0
100
AcDbEntity
  8
AM_6
100
AcDbText
 10
3.500291666666667
 20
0.9233611111111113
 30
0.0
 40
0.5
  1
ASME B18.3-$NS.
100
AcDbAttributeDefinition
  3

  2
NBSYN
 70
     8
280
     0
  0
ATTDEF
  5
F8
330
F0
100
AcDbEntity
  8
AM_6
100
AcDbText
 10
3.500291666666667
 20
0.4233611111111113
 30
0.0
 40
0.5
  1
ASME B18.3-1/4
100
AcDbAttributeDefinition
  3

  2
LINA
 70
     8
280
     0
  0
ATTDEF
  5
F9
330
F0
100
AcDbEntity
  8
AM_6
100
AcDbText
 10
3.500291666666667
 20
-0.0766388888888887
 30
0.0
 40
0.5
  1
1/4
100
AcDbAttributeDefinition
  3

  2
NS
 70
     8
280
     0
  0
ATTDEF
  5
FA
330
F0
100
AcDbEntity
  8
AM_6
100
AcDbText
 10
3.500291666666667
 20
-0.5766388888888887
 30
0.0
 40
0.5
  1
0.437
100
AcDbAttributeDefinition
  3

  2
A
 70
     8
280
     0
  0
ATTDEF
  5
FB
330
F0
100
AcDbEntity
  8
AM_6
100
AcDbText
 10
3.500291666666667
 20
-1.076638888888889
 30
0.0
 40
0.5
  1
0.132
100
AcDbAttributeDefinition
  3

  2
H
 70
     8
280
     0
  0
ATTDEF
  5
FC
330
F0
100
AcDbEntity
  8
AM_6
100
AcDbText
 10
3.500291666666667
 20
-1.576638888888889
 30
0.0
 40
0.5
  1
0.800
100
AcDbAttributeDefinition
  3

  2
L
 70
     8
280
     0
  0
ATTDEF
  5
FD
330
F0
100
AcDbEntity
  8
AM_6
100
AcDbText
 10
3.500291666666667
 20
-2.076638888888889
 30
0.0
 40
0.5
  1
0.031
100
AcDbAttributeDefinition
  3

  2
S
 70
     8
280
     0
  0
ATTDEF
  5
FE
330
F0
100
AcDbEntity
  8
AM_6
100
AcDbText
 10
3.500291666666667
 20
-2.576638888888889
 30
0.0
 40
0.5
  1
0.156250
100
AcDbAttributeDefinition
  3

  2
J
 70
     8
280
     0
  0
ATTDEF
  5
FF
330
F0
100
AcDbEntity
  8
AM_6
100
AcDbText
 10
3.500291666666667
 20
-3.076638888888889
 30
0.0
 40
0.5
  1
baldor
100
AcDbAttributeDefinition
  3

  2
COMPANY
 70
     8
280
     0
  0
LINE
  5
100
330
F0
100
AcDbEntity
  8
AM_9
100
AcDbLine
 10
-2.361708333333333
 20
2.29507209067199
 30
0.0
 11
-2.431708333333333
 21
2.29507209067199
 31
0.0
  0
LINE
  5
101
330
F0
100
AcDbEntity
  8
AM_9
100
AcDbLine
 10
-2.361708333333333
 20
2.114650131550232
 30
0.0
 11
-2.431708333333333
 21
2.114650131550232
 31
0.0
  0
LINE
  5
102
330
F0
100
AcDbEntity
  8
AM_9
100
AcDbLine
 10
-2.361708333333333
 20
2.249966600891551
 30
0.0
 11
-2.431708333333333
 21
2.249966600891551
 31
0.0
  0
LINE
  5
103
330
F0
100
AcDbEntity
  8
AM_9
100
AcDbLine
 10
-2.361708333333333
 20
2.29507209067199
 30
0.0
 11
-2.361708333333333
 21
2.114650131550232
 31
0.0
  0
LINE
  5
104
330
F0
100
AcDbEntity
  8
AM_9
100
AcDbLine
 10
-2.361708333333333
 20
2.159755621330671
 30
0.0
 11
-2.431708333333333
 21
2.159755621330671
 31
0.0
  0
LINE
  5
105
330
F0
100
AcDbEntity
  8
AM_9
100
AcDbLine
 10
-1.499708333333333
 20
2.311261111111111
 30
0.0
 11
-1.499708333333333
 21
2.098461111111111
 31
0.0
  0
LINE
  5
106
330
F0
100
AcDbEntity
  8
AM_9
100
AcDbLine
 10
-1.499708333333333
 20
2.311261111111111
 30
0.0
 11
-1.518308333333333
 21
2.329861111111111
 31
0.0
  0
LINE
  5
107
330
F0
100
AcDbEntity
  8
AM_9
100
AcDbLine
 10
-1.518308333333333
 20
2.079861111111111
 30
0.0
 11
-1.499708333333333
 21
2.098461111111111
 31
0.0
  0
LINE
  5
108
330
F0
100
AcDbEntity
  8
AM_9
100
AcDbLine
 10
-1.518308333333333
 20
2.329861111111111
 30
0.0
 11
-1.518308333333333
 21
2.079861111111111
 31
0.0
  0
LINE
  5
109
330
F0
100
AcDbEntity
  8
AM_9
100
AcDbLine
 10
-2.299708333333333
 20
2.079861111111111
 30
0.0
 11
-1.518308333333333
 21
2.079861111111111
 31
0.0
  0
LINE
  5
10A
330
F0
100
AcDbEntity
  8
AM_9
100
AcDbLine
 10
-1.518308333333333
 20
2.329861111111111
 30
0.0
 11
-2.299708333333333
 21
2.329861111111111
 31
0.0
  0
LINE
  5
10B
330
F0
100
AcDbEntity
  8
AM_5
100
AcDbLine
 10
-2.219708333333333
 20
2.098461111111111
 30
0.0
 11
-2.251924478354114
 21
2.079861111111111
 31
0.0
  0
LINE
  5
10C
330
F0
100
AcDbEntity
  8
AM_5
100
AcDbLine
 10
-2.219708333333333
 20
2.329861283277008
 30
0.0
 11
-2.219708333333333
 21
2.079861137833718
 31
0.0
  0
LINE
  5
10D
330
F0
100
AcDbEntity
  8
AM_5
100
AcDbLine
 10
-2.219708333333333
 20
2.311261111111111
 30
0.0
 11
-2.251924478354114
 21
2.329861111111111
 31
0.0
  0
LINE
  5
10E
330
F0
100
AcDbEntity
  8
AM_4
100
AcDbLine
 10
-2.431708333333333
 20
2.322361111111111
 30
0.0
 11
-2.431708333333333
 21
2.087361111111111
 31
0.0
  0
ARC
  5
10F
330
F0
100
AcDbEntity
  8
AM_4
100
AcDbCircle
 10
-2.330708333333333
 20
2.087361111111111
 30
0.0
 40
0.1009999999999995
100
AcDbArc
 50
180.0
 51
270.0
  0
ARC
  5
110
330
F0
100
AcDbEntity
  8
AM_4
100
AcDbCircle
 10
-2.330708333333332
 20
2.322361111111111
 30
0.0
 40
0.1010000000000004
100
AcDbArc
 50
90.0
 51
180.0
  0
LINE
  5
111
330
F0
100
AcDbEntity
  8
AM_4
100
AcDbLine
 10
-2.330708333333333
 20
2.423361111111111
 30
0.0
 11
-2.330708333333333
 21
1.986361111111111
 31
0.0
  0
LINE
  5
112
330
F0
100
AcDbEntity
  8
AM_4
100
AcDbLine
 10
-2.330708333333333
 20
1.986361111111111
 30
0.0
 11
-2.299708333333333
 21
1.986361111111111
 31
0.0
  0
LINE
  5
113
330
F0
100
AcDbEntity
  8
AM_4
100
AcDbLine
 10
-2.299708333333333
 20
2.423361111111111
 30
0.0
 11
-2.330708333333333
 21
2.423361111111111
 31
0.0
  0
ENDBLK
  5
F3
330
F0
100
AcDbEntity
  8
0
100
AcDbBlockEnd
  0
BLOCK
  5
116
330
114
100
AcDbEntity
  8
0
100
AcDbBlockBegin
  2
5_070903LW_0_in_069892_2
 70
     2
 10
0.0
 20
0.0
 30
0.0
  3
5_070903LW_0_in_069892_2
  1

  0
ATTDEF
  5
118
330
114
100
AcDbEntity
  8
AM_6
100
AcDbText
 10
3.140291666666667
 20
2.5
 30
0.0
 40
0.5
  1
Imperial Insert Lockwasher -Inch
100
AcDbAttributeDefinition
  3

  2
NN
 70
     8
280
     0
  0
ATTDEF
  5
119
330
114
100
AcDbEntity
  8
AM_6
100
AcDbText
 10
3.140291666666667
 20
2.0
 30
0.0
 40
0.5
  1
Imperial Bearings
100
AcDbAttributeDefinition
  3

  2
NT
 70
     8
280
     0
  0
ATTDEF
  5
11A
330
114
100
AcDbEntity
  8
AM_6
100
AcDbText
 10
3.140291666666667
 20
1.5
 30
0.0
 40
0.5
  1
070903LW
100
AcDbAttributeDefinition
  3

  2
NB
 70
     8
280
     0
  0
ATTDEF
  5
11B
330
114
100
AcDbEntity
  8
AM_6
100
AcDbText
 10
3.140291666666667
 20
1.0
 30
0.0
 40
0.5
  1
$PN.LW
100
AcDbAttributeDefinition
  3

  2
NBSYN
 70
     8
280
     0
  0
ATTDEF
  5
11C
330
114
100
AcDbEntity
  8
AM_6
100
AcDbText
 10
3.140291666666667
 20
0.5
 30
0.0
 40
0.5
  1
070903
100
AcDbAttributeDefinition
  3

  2
LINA
 70
     8
280
     0
  0
ATTDEF
  5
11D
330
114
100
AcDbEntity
  8
AM_6
100
AcDbText
 10
3.140291666666667
 20
0.0
 30
0.0
 40
0.5
  1
3-7/16
100
AcDbAttributeDefinition
  3

  2
SS
 70
     8
280
     0
  0
ATTDEF
  5
11E
330
114
100
AcDbEntity
  8
AM_6
100
AcDbText
 10
3.140291666666667
 20
-0.5
 30
0.0
 40
0.5
  1
3.437500
100
AcDbAttributeDefinition
  3

  2
SS1
 70
     8
280
     0
  0
ATTDEF
  5
11F
330
114
100
AcDbEntity
  8
AM_6
100
AcDbText
 10
3.140291666666667
 20
-1.0
 30
0.0
 40
0.5
  1
070903
100
AcDbAttributeDefinition
  3

  2
PN
 70
     8
280
     0
  0
ATTDEF
  5
120
330
114
100
AcDbEntity
  8
AM_6
100
AcDbText
 10
3.140291666666667
 20
-1.5
 30
0.0
 40
0.5
  1
INS-IP-307R
100
AcDbAttributeDefinition
  3

  2
DESCRIPTION
 70
     8
280
     0
  0
ATTDEF
  5
121
330
114
100
AcDbEntity
  8
AM_6
100
AcDbText
 10
3.140291666666667
 20
-2.0
 30
0.0
 40
0.5
  1
6.2992
100
AcDbAttributeDefinition
  3

  2
A
 70
     8
280
     0
  0
ATTDEF
  5
122
330
114
100
AcDbEntity
  8
AM_6
100
AcDbText
 10
3.140291666666667
 20
-2.5
 30
0.0
 40
0.5
  1
1-5/8
100
AcDbAttributeDefinition
  3

  2
B
 70
     8
280
     0
  0
ATTDEF
  5
123
330
114
100
AcDbEntity
  8
AM_6
100
AcDbText
 10
3.140291666666667
 20
-3.0
 30
0.0
 40
0.5
  1
4-11/64
100
AcDbAttributeDefinition
  3

  2
C
 70
     8
280
     0
  0
ATTDEF
  5
124
330
114
100
AcDbEntity
  8
AM_6
100
AcDbText
 10
3.140291666666667
 20
-3.5
 30
0.0
 40
0.5
  1
1.483
100
AcDbAttributeDefinition
  3

  2
D
 70
     8
280
     0
  0
ATTDEF
  5
125
330
114
100
AcDbEntity
  8
AM_6
100
AcDbText
 10
3.140291666666667
 20
-4.0
 30
0.0
 40
0.5
  1
5
100
AcDbAttributeDefinition
  3

  2
E
 70
     8
280
     0
  0
ATTDEF
  5
126
330
114
100
AcDbEntity
  8
AM_6
100
AcDbText
 10
3.140291666666667
 20
-4.5
 30
0.0
 40
0.5
  1
0.2500
100
AcDbAttributeDefinition
  3

  2
NDM
 70
     8
280
     0
  0
ATTDEF
  5
127
330
114
100
AcDbEntity
  8
AM_6
100
AcDbText
 10
3.140291666666667
 20
-5.0
 30
0.0
 40
0.5
  1
0.1960
100
AcDbAttributeDefinition
  3

  2
KDM
 70
     8
280
     0
  0
ATTDEF
  5
128
330
114
100
AcDbEntity
  8
AM_6
100
AcDbText
 10
3.140291666666667
 20
-5.5
 30
0.0
 40
0.5
  1
4.28
100
AcDbAttributeDefinition
  3

  2
AL
 70
     8
280
     0
  0
ATTDEF
  5
129
330
114
100
AcDbEntity
  8
AM_6
100
AcDbText
 10
3.140291666666667
 20
-6.0
 30
0.0
 40
0.5
  1
0.50
100
AcDbAttributeDefinition
  3

  2
BL
 70
     8
280
     0
  0
ATTDEF
  5
12A
330
114
100
AcDbEntity
  8
AM_6
100
AcDbText
 10
3.140291666666667
 20
-6.5
 30
0.0
 40
0.5
  1
0.07
100
AcDbAttributeDefinition
  3

  2
CL
 70
     8
280
     0
  0
ATTDEF
  5
12B
330
114
100
AcDbEntity
  8
AM_6
100
AcDbText
 10
3.140291666666667
 20
-7.0
 30
0.0
 40
0.5
  1
0.44
100
AcDbAttributeDefinition
  3

  2
DL
 70
     8
280
     0
  0
ATTDEF
  5
12C
330
114
100
AcDbEntity
  8
AM_6
100
AcDbText
 10
3.140291666666667
 20
-7.5
 30
0.0
 40
0.5
  1
baldor
100
AcDbAttributeDefinition
  3

  2
COMPANY
 70
     8
280
     0
  0
LINE
  5
12D
330
114
100
AcDbEntity
  8
AM_9
100
AcDbLine
 10
-2.229708333333333
 20
1.664943722831429
 30
0.0
 11
-2.299708333333333
 21
1.664943722831429
 31
0.0
  0
LINE
  5
12E
330
114
100
AcDbEntity
  8
AM_9
100
AcDbLine
 10
-1.859708333333333
 20
1.619662894025522
 30
0.0
 11
-2.229708333333333
 21
1.619662894025522
 31
0.0
  0
LINE
  5
12F
330
114
100
AcDbEntity
  8
AM_9
100
AcDbLine
 10
-1.859708333333333
 20
1.535877497308361
 30
0.0
 11
-2.299708333333333
 21
1.535877497308361
 31
0.0
  0
LINE
  5
130
330
114
100
AcDbEntity
  8
AM_9
100
AcDbLine
 10
-2.229708333333333
 20
1.715333752116794
 30
0.0
 11
-1.859708333333333
 21
1.715333752116794
 31
0.0
  0
LINE
  5
131
330
114
100
AcDbEntity
  8
AM_9
100
AcDbLine
 10
-1.859708333333333
 20
1.631548355399634
 30
0.0
 11
-2.299708333333333
 21
1.631548355399634
 31
0.0
  0
LINE
  5
132
330
114
100
AcDbEntity
  8
AM_9
100
AcDbLine
 10
-1.859708333333333
 20
1.535877497308361
 30
0.0
 11
-1.859708333333333
 21
1.715333752116794
 31
0.0
  0
LINE
  5
133
330
114
100
AcDbEntity
  8
AM_9
100
AcDbLine
 10
-2.229708333333333
 20
1.760614580922702
 30
0.0
 11
-2.299708333333333
 21
1.760614580922702
 31
0.0
  0
LINE
  5
134
330
114
100
AcDbEntity
  8
AM_9
100
AcDbLine
 10
-2.229708333333333
 20
2.204861111111111
 30
0.0
 11
-2.299708333333333
 21
2.204861111111111
 31
0.0
  0
LINE
  5
135
330
114
100
AcDbEntity
  8
AM_9
100
AcDbLine
 10
-2.229708333333333
 20
2.329911401963232
 30
0.0
 11
-2.299708333333333
 21
2.329911401963232
 31
0.0
  0
LINE
  5
136
330
114
100
AcDbEntity
  8
AM_9
100
AcDbLine
 10
-2.229708333333333
 20
-2.204861111111111
 30
0.0
 11
-2.299708333333333
 21
-2.204861111111111
 31
0.0
  0
LINE
  5
137
330
114
100
AcDbEntity
  8
AM_9
100
AcDbLine
 10
-2.299708333333333
 20
-2.329911401963231
 30
0.0
 11
-2.229708333333333
 21
-2.329911401963231
 31
0.0
  0
LINE
  5
138
330
114
100
AcDbEntity
  8
AM_9
100
AcDbLine
 10
-2.229708333333333
 20
1.853898794815157
 30
0.0
 11
-2.299708333333333
 21
1.853898794815157
 31
0.0
  0
LINE
  5
139
330
114
100
AcDbEntity
  8
AM_9
100
AcDbLine
 10
-2.229708333333333
 20
-1.853898794815158
 30
0.0
 11
-2.299708333333333
 21
-1.853898794815158
 31
0.0
  0
LINE
  5
13A
330
114
100
AcDbEntity
  8
AM_9
100
AcDbLine
 10
-2.229708333333333
 20
1.399292757095684
 30
0.0
 11
-2.299708333333333
 21
1.399292757095685
 31
0.0
  0
LINE
  5
13B
330
114
100
AcDbEntity
  8
AM_9
100
AcDbLine
 10
-2.229708333333333
 20
-1.399292757095683
 30
0.0
 11
-2.299708333333333
 21
-1.399292757095683
 31
0.0
  0
LINE
  5
13C
330
114
100
AcDbEntity
  8
AM_9
100
AcDbLine
 10
-2.229708333333333
 20
1.222516061799047
 30
0.0
 11
-2.299708333333333
 21
1.222516061799047
 31
0.0
  0
LINE
  5
13D
330
114
100
AcDbEntity
  8
AM_9
100
AcDbLine
 10
-2.229708333333333
 20
-1.222516061799047
 30
0.0
 11
-2.299708333333333
 21
-1.222516061799047
 31
0.0
  0
LINE
  5
13E
330
114
100
AcDbEntity
  8
AM_9
100
AcDbLine
 10
-2.229708333333333
 20
1.647460590889491
 30
0.0
 11
-2.299708333333333
 21
1.647460590889491
 31
0.0
  0
LINE
  5
13F
330
114
100
AcDbEntity
  8
AM_9
100
AcDbLine
 10
-2.229708333333333
 20
1.470683895592854
 30
0.0
 11
-2.299708333333333
 21
1.470683895592854
 31
0.0
  0
LINE
  5
140
330
114
100
AcDbEntity
  8
AM_9
100
AcDbLine
 10
-2.229708333333333
 20
1.684107807205654
 30
0.0
 11
-2.299708333333333
 21
1.684107807205654
 31
0.0
  0
LINE
  5
141
330
114
100
AcDbEntity
  8
AM_9
100
AcDbLine
 10
-2.229708333333333
 20
-1.470683895592853
 30
0.0
 11
-2.299708333333333
 21
-1.470683895592853
 31
0.0
  0
LINE
  5
142
330
114
100
AcDbEntity
  8
AM_9
100
AcDbLine
 10
-2.229708333333333
 20
-1.647460590889495
 30
0.0
 11
-2.299708333333333
 21
-1.647460590889495
 31
0.0
  0
LINE
  5
143
330
114
100
AcDbEntity
  8
AM_9
100
AcDbLine
 10
-2.299708333333333
 20
-1.684107807205653
 30
0.0
 11
-2.229708333333333
 21
-1.684107807205653
 31
0.0
  0
LINE
  5
144
330
114
100
AcDbEntity
  8
AM_9
100
AcDbLine
 10
-2.229708333333333
 20
0.1250000000000009
 30
0.0
 11
-2.299708333333333
 21
0.1250000000000009
 31
0.0
  0
LINE
  5
145
330
114
100
AcDbEntity
  8
AM_9
100
AcDbLine
 10
-2.229708333333333
 20
-0.1249999999999993
 30
0.0
 11
-2.299708333333333
 21
-0.1249999999999993
 31
0.0
  0
LINE
  5
146
330
114
100
AcDbEntity
  8
AM_4
100
AcDbLine
 10
-2.229708333333333
 20
2.5
 30
0.0
 11
-2.299708333333333
 21
2.5
 31
0.0
  0
LINE
  5
147
330
114
100
AcDbEntity
  8
AM_4
100
AcDbLine
 10
-2.299708333333333
 20
-2.5
 30
0.0
 11
-2.229708333333333
 21
-2.5
 31
0.0
  0
LINE
  5
148
330
114
100
AcDbEntity
  8
AM_4
100
AcDbLine
 10
-2.299708333333333
 20
2.5
 30
0.0
 11
-2.299708333333333
 21
-2.5
 31
0.0
  0
LINE
  5
149
330
114
100
AcDbEntity
  8
AM_4
100
AcDbLine
 10
-2.229708333333333
 20
2.5
 30
0.0
 11
-2.229708333333333
 21
-2.5
 31
0.0
  0
ENDBLK
  5
117
330
114
100
AcDbEntity
  8
0
100
AcDbBlockEnd
  0
BLOCK
  5
14C
330
14A
100
AcDbEntity
  8
0
100
AcDbBlockBegin
  2
6_070935I_0_in_069892_2
 70
     2
 10
0.0
 20
0.0
 30
0.0
  3
6_070935I_0_in_069892_2
  1

  0
ATTDEF
  5
14E
330
14A
100
AcDbEntity
  8
AM_6
100
AcDbText
 10
6.65
 20
3.1496
 30
0.0
 40
0.5
  1
Imperial Insert -Inch
100
AcDbAttributeDefinition
  3

  2
NN
 70
     8
280
     0
  0
ATTDEF
  5
14F
330
14A
100
AcDbEntity
  8
AM_6
100
AcDbText
 10
6.65
 20
2.6496
 30
0.0
 40
0.5
  1
Imperial Bearings
100
AcDbAttributeDefinition
  3

  2
NT
 70
     8
280
     0
  0
ATTDEF
  5
150
330
14A
100
AcDbEntity
  8
AM_6
100
AcDbText
 10
6.65
 20
2.1496
 30
0.0
 40
0.5
  1
070935I
100
AcDbAttributeDefinition
  3

  2
NB
 70
     8
280
     0
  0
ATTDEF
  5
151
330
14A
100
AcDbEntity
  8
AM_6
100
AcDbText
 10
6.65
 20
1.6496
 30
0.0
 40
0.5
  1
$PN.I
100
AcDbAttributeDefinition
  3

  2
NBSYN
 70
     8
280
     0
  0
ATTDEF
  5
152
330
14A
100
AcDbEntity
  8
AM_6
100
AcDbText
 10
6.65
 20
1.1496
 30
0.0
 40
0.5
  1
070935
100
AcDbAttributeDefinition
  3

  2
LINA
 70
     8
280
     0
  0
ATTDEF
  5
153
330
14A
100
AcDbEntity
  8
AM_6
100
AcDbText
 10
6.65
 20
0.6495999999999995
 30
0.0
 40
0.5
  1
3-7/16
100
AcDbAttributeDefinition
  3

  2
SS
 70
     8
280
     0
  0
ATTDEF
  5
154
330
14A
100
AcDbEntity
  8
AM_6
100
AcDbText
 10
6.65
 20
0.1495999999999995
 30
0.0
 40
0.5
  1
3.437500
100
AcDbAttributeDefinition
  3

  2
SS1
 70
     8
280
     0
  0
ATTDEF
  5
155
330
14A
100
AcDbEntity
  8
AM_6
100
AcDbText
 10
6.65
 20
-0.3504000000000005
 30
0.0
 40
0.5
  1
070935
100
AcDbAttributeDefinition
  3

  2
PN
 70
     8
280
     0
  0
ATTDEF
  5
156
330
14A
100
AcDbEntity
  8
AM_6
100
AcDbText
 10
6.65
 20
-0.8504000000000005
 30
0.0
 40
0.5
  1
INS-IP-307L
100
AcDbAttributeDefinition
  3

  2
DESCRIPTION
 70
     8
280
     0
  0
ATTDEF
  5
157
330
14A
100
AcDbEntity
  8
AM_6
100
AcDbText
 10
6.65
 20
-1.3504
 30
0.0
 40
0.5
  1
Labyrinth Seal
100
AcDbAttributeDefinition
  3

  2
ST
 70
     8
280
     0
  0
ATTDEF
  5
158
330
14A
100
AcDbEntity
  8
AM_6
100
AcDbText
 10
6.65
 20
-1.8504
 30
0.0
 40
0.5
  1
6.2992
100
AcDbAttributeDefinition
  3

  2
A
 70
     8
280
     0
  0
ATTDEF
  5
159
330
14A
100
AcDbEntity
  8
AM_6
100
AcDbText
 10
6.65
 20
-2.3504
 30
0.0
 40
0.5
  1
1-5/8
100
AcDbAttributeDefinition
  3

  2
B
 70
     8
280
     0
  0
ATTDEF
  5
15A
330
14A
100
AcDbEntity
  8
AM_6
100
AcDbText
 10
6.65
 20
-2.8504
 30
0.0
 40
0.5
  1
4-11/64
100
AcDbAttributeDefinition
  3

  2
C
 70
     8
280
     0
  0
ATTDEF
  5
15B
330
14A
100
AcDbEntity
  8
AM_6
100
AcDbText
 10
6.65
 20
-3.3504
 30
0.0
 40
0.5
  1
1.483
100
AcDbAttributeDefinition
  3

  2
D
 70
     8
280
     0
  0
ATTDEF
  5
15C
330
14A
100
AcDbEntity
  8
AM_6
100
AcDbText
 10
6.65
 20
-3.8504
 30
0.0
 40
0.5
  1
5
100
AcDbAttributeDefinition
  3

  2
E
 70
     8
280
     0
  0
ATTDEF
  5
15D
330
14A
100
AcDbEntity
  8
AM_6
100
AcDbText
 10
6.65
 20
-4.3504
 30
0.0
 40
0.5
  1
0.2500
100
AcDbAttributeDefinition
  3

  2
NDM
 70
     8
280
     0
  0
ATTDEF
  5
15E
330
14A
100
AcDbEntity
  8
AM_6
100
AcDbText
 10
6.65
 20
-4.8504
 30
0.0
 40
0.5
  1
0.132
100
AcDbAttributeDefinition
  3

  2
H
 70
     8
280
     0
  0
ATTDEF
  5
15F
330
14A
100
AcDbEntity
  8
AM_6
100
AcDbText
 10
6.65
 20
-5.3504
 30
0.0
 40
0.5
  1
0.1960
100
AcDbAttributeDefinition
  3

  2
KDM
 70
     8
280
     0
  0
ATTDEF
  5
160
330
14A
100
AcDbEntity
  8
AM_6
100
AcDbText
 10
6.65
 20
-5.8504
 30
0.0
 40
0.5
  1
4.28
100
AcDbAttributeDefinition
  3

  2
AL
 70
     8
280
     0
  0
ATTDEF
  5
161
330
14A
100
AcDbEntity
  8
AM_6
100
AcDbText
 10
6.65
 20
-6.3504
 30
0.0
 40
0.5
  1
0.50
100
AcDbAttributeDefinition
  3

  2
BL
 70
     8
280
     0
  0
ATTDEF
  5
162
330
14A
100
AcDbEntity
  8
AM_6
100
AcDbText
 10
6.65
 20
-6.8504
 30
0.0
 40
0.5
  1
0.07
100
AcDbAttributeDefinition
  3

  2
CL
 70
     8
280
     0
  0
ATTDEF
  5
163
330
14A
100
AcDbEntity
  8
AM_6
100
AcDbText
 10
6.65
 20
-7.3504
 30
0.0
 40
0.5
  1
0.44
100
AcDbAttributeDefinition
  3

  2
DL
 70
     8
280
     0
  0
ATTDEF
  5
164
330
14A
100
AcDbEntity
  8
AM_6
100
AcDbText
 10
6.65
 20
-7.8504
 30
0.0
 40
0.5
  1
0.8000
100
AcDbAttributeDefinition
  3

  2
LL
 70
     8
280
     0
  0
ATTDEF
  5
165
330
14A
100
AcDbEntity
  8
AM_6
100
AcDbText
 10
6.65
 20
-8.3504
 30
0.0
 40
0.5
  1
0.025
100
AcDbAttributeDefinition
  3

  2
Y
 70
     8
280
     0
  0
ATTDEF
  5
166
330
14A
100
AcDbEntity
  8
AM_6
100
AcDbText
 10
6.65
 20
-8.8504
 30
0.0
 40
0.5
  1
0.025000
100
AcDbAttributeDefinition
  3

  2
Y1
 70
     8
280
     0
  0
ATTDEF
  5
167
330
14A
100
AcDbEntity
  8
AM_6
100
AcDbText
 10
6.65
 20
-9.3504
 30
0.0
 40
0.5
  1
4-3/64
100
AcDbAttributeDefinition
  3

  2
Z
 70
     8
280
     0
  0
ATTDEF
  5
168
330
14A
100
AcDbEntity
  8
AM_6
100
AcDbText
 10
6.65
 20
-9.8504
 30
0.0
 40
0.5
  1
4.046875
100
AcDbAttributeDefinition
  3

  2
Z1
 70
     8
280
     0
  0
ATTDEF
  5
169
330
14A
100
AcDbEntity
  8
AM_6
100
AcDbText
 10
6.65
 20
-10.3504
 30
0.0
 40
0.5
  1
baldor
100
AcDbAttributeDefinition
  3

  2
COMPANY
 70
     8
280
     0
  0
LINE
  5
16A
330
14A
100
AcDbEntity
  8
AM_9
100
AcDbLine
 10
0.9545
 20
1.719754559032353
 30
0.0
 11
-2.229708333333333
 21
1.719754559032353
 31
0.0
  0
LINE
  5
16B
330
14A
100
AcDbEntity
  8
AM_9
100
AcDbLine
 10
0.9545
 20
1.624083700941081
 30
0.0
 11
-2.229708333333333
 21
1.624083700941081
 31
0.0
  0
LINE
  5
16C
330
14A
100
AcDbEntity
  8
AM_9
100
AcDbLine
 10
-1.389708333333333
 20
2.204861111111111
 30
0.0
 11
-1.435383168449615
 21
2.302811111111111
 31
0.0
  0
LINE
  5
16D
330
14A
100
AcDbEntity
  8
AM_9
100
AcDbLine
 10
-1.435383168449615
 20
2.106911111111111
 30
0.0
 11
-1.389708333333333
 21
2.204861111111111
 31
0.0
  0
LINE
  5
16E
330
14A
100
AcDbEntity
  8
AM_9
100
AcDbLine
 10
-1.389708333333336
 20
-2.204861111111111
 30
0.0
 11
-1.435383168449614
 21
-2.106911111111111
 31
0.0
  0
LINE
  5
16F
330
14A
100
AcDbEntity
  8
AM_9
100
AcDbLine
 10
-1.435383168449614
 20
-2.302811111111111
 30
0.0
 11
-1.389708333333336
 21
-2.204861111111111
 31
0.0
  0
LINE
  5
170
330
14A
100
AcDbEntity
  8
AM_9
100
AcDbLine
 10
-2.202658333333336
 20
-2.302811111111111
 30
0.0
 11
-1.435383168449614
 21
-2.302811111111111
 31
0.0
  0
LINE
  5
171
330
14A
100
AcDbEntity
  8
AM_9
100
AcDbLine
 10
-1.435383168449614
 20
-2.106911111111111
 30
0.0
 11
-2.202658333333336
 21
-2.106911111111111
 31
0.0
  0
LINE
  5
172
330
14A
100
AcDbEntity
  8
AM_9
100
AcDbLine
 10
-1.435383168449614
 20
-2.106911111111111
 30
0.0
 11
-1.435383168449614
 21
-2.302811111111111
 31
0.0
  0
LINE
  5
173
330
14A
100
AcDbEntity
  8
AM_9
100
AcDbLine
 10
-1.435383168449615
 20
2.106911111111111
 30
0.0
 11
-1.435383168449615
 21
2.302811111111111
 31
0.0
  0
LINE
  5
174
330
14A
100
AcDbEntity
  8
AM_9
100
AcDbLine
 10
-1.435383168449615
 20
2.302811111111111
 30
0.0
 11
-2.202658333333333
 21
2.302811111111111
 31
0.0
  0
LINE
  5
175
330
14A
100
AcDbEntity
  8
AM_9
100
AcDbLine
 10
-2.202658333333333
 20
2.106911111111111
 30
0.0
 11
-1.435383168449615
 21
2.106911111111111
 31
0.0
  0
LINE
  5
176
330
14A
100
AcDbEntity
  8
AM_9
100
AcDbLine
 10
-2.202658333333333
 20
2.106911111111111
 30
0.0
 11
-2.202658333333333
 21
2.302811111111111
 31
0.0
  0
LINE
  5
177
330
14A
100
AcDbEntity
  8
AM_9
100
AcDbLine
 10
-2.202658333333333
 20
2.302811111111111
 30
0.0
 11
-2.229708333333333
 21
2.329861111111111
 31
0.0
  0
LINE
  5
178
330
14A
100
AcDbEntity
  8
AM_9
100
AcDbLine
 10
-2.229708333333333
 20
2.079861111111111
 30
0.0
 11
-2.202658333333333
 21
2.106911111111111
 31
0.0
  0
LINE
  5
179
330
14A
100
AcDbEntity
  8
AM_9
100
AcDbLine
 10
-2.202658333333336
 20
-2.106911111111111
 30
0.0
 11
-2.229708333333313
 21
-2.079861111111111
 31
0.0
  0
LINE
  5
17A
330
14A
100
AcDbEntity
  8
AM_9
100
AcDbLine
 10
-2.229708333333313
 20
-2.329861111111111
 30
0.0
 11
-2.202658333333336
 21
-2.302811111111111
 31
0.0
  0
LINE
  5
17B
330
14A
100
AcDbEntity
  8
AM_9
100
AcDbLine
 10
-2.202658333333336
 20
-2.106911111111111
 30
0.0
 11
-2.202658333333336
 21
-2.302811111111111
 31
0.0
  0
LINE
  5
17C
330
14A
100
AcDbEntity
  8
AM_9
100
AcDbLine
 10
-1.789708333333333
 20
-1.336431816442575
 30
0.0
 11
-2.229708333333333
 21
-1.336431816442575
 31
0.0
  0
LINE
  5
17D
330
14A
100
AcDbEntity
  8
AM_9
100
AcDbLine
 10
-1.789708333333333
 20
1.336431816442574
 30
0.0
 11
-2.229708333333333
 21
1.336431816442574
 31
0.0
  0
LINE
  5
17E
330
14A
100
AcDbEntity
  8
AM_9
100
AcDbLine
 10
0.9545
 20
1.631548355399634
 30
0.0
 11
-2.546875
 21
1.631548355399634
 31
0.0
  0
LINE
  5
17F
330
14A
100
AcDbEntity
  8
AM_9
100
AcDbLine
 10
-2.546875
 20
1.535877497308362
 30
0.0
 11
0.9545
 21
1.535877497308361
 31
0.0
  0
LINE
  5
180
330
14A
100
AcDbEntity
  8
AM_9
100
AcDbLine
 10
0.9545
 20
1.71875
 30
0.0
 11
-2.546875
 21
1.71875
 31
0.0
  0
LINE
  5
181
330
14A
100
AcDbEntity
  8
AM_9
100
AcDbLine
 10
-2.546875
 20
-1.71875
 30
0.0
 11
0.9545
 21
-1.71875
 31
0.0
  0
LINE
  5
182
330
14A
100
AcDbEntity
  8
AM_9
100
AcDbLine
 10
1.625
 20
1.80921052631579
 30
0.0
 11
0.9545
 21
1.80921052631579
 31
0.0
  0
LINE
  5
183
330
14A
100
AcDbEntity
  8
AM_9
100
AcDbLine
 10
0.9545
 20
-1.80921052631579
 30
0.0
 11
1.625
 21
-1.80921052631579
 31
0.0
  0
LINE
  5
184
330
14A
100
AcDbEntity
  8
AM_9
100
AcDbLine
 10
-2.546875
 20
1.715333752116795
 30
0.0
 11
-2.229708333333333
 21
1.715333752116795
 31
0.0
  0
LINE
  5
185
330
14A
100
AcDbEntity
  8
AM_9
100
AcDbLine
 10
-2.229708333333333
 20
1.619662894025522
 30
0.0
 11
-2.546875
 21
1.619662894025522
 31
0.0
  0
LINE
  5
186
330
14A
100
AcDbEntity
  8
AM_9
100
AcDbLine
 10
-2.229708333333333
 20
1.80921052631579
 30
0.0
 11
-2.299708333333333
 21
1.80921052631579
 31
0.0
  0
LINE
  5
187
330
14A
100
AcDbEntity
  8
AM_9
100
AcDbLine
 10
-2.299708333333333
 20
-1.80921052631579
 30
0.0
 11
-2.229708333333333
 21
-1.80921052631579
 31
0.0
  0
LINE
  5
188
330
14A
100
AcDbEntity
  8
AM_9
100
AcDbLine
 10
-1.789708333333333
 20
-1.336431816442575
 30
0.0
 11
-1.789708333333333
 21
-1.593048406283363
 31
0.0
  0
LINE
  5
189
330
14A
100
AcDbEntity
  8
AM_9
100
AcDbLine
 10
-1.789708333333333
 20
1.593048406283362
 30
0.0
 11
-1.789708333333333
 21
1.336431816442574
 31
0.0
  0
LINE
  5
18A
330
14A
100
AcDbEntity
  8
AM_9
100
AcDbLine
 10
1.625
 20
-2.0234375
 30
0.0
 11
1.625
 21
2.0234375
 31
0.0
  0
LINE
  5
18B
330
14A
100
AcDbEntity
  8
AM_9
100
AcDbLine
 10
1.649999999999999
 20
2.0234375
 30
0.0
 11
1.625
 21
2.0234375
 31
0.0
  0
LINE
  5
18C
330
14A
100
AcDbEntity
  8
AM_9
100
AcDbLine
 10
1.625
 20
-2.0234375
 30
0.0
 11
1.649999999999999
 21
-2.0234375
 31
0.0
  0
LINE
  5
18D
330
14A
100
AcDbEntity
  8
AM_9
100
AcDbLine
 10
1.515625
 20
2.248263888888889
 30
0.0
 11
1.279499999999999
 21
2.248263888888889
 31
0.0
  0
LINE
  5
18E
330
14A
100
AcDbEntity
  8
AM_9
100
AcDbLine
 10
1.279499999999999
 20
-2.248263888888889
 30
0.0
 11
1.515625
 21
-2.248263888888889
 31
0.0
  0
LINE
  5
18F
330
14A
100
AcDbEntity
  8
AM_9
100
AcDbLine
 10
-1.484375
 20
-2.52602761352785
 30
0.0
 11
-0.6705
 21
-2.554448754797947
 31
0.0
  0
LINE
  5
190
330
14A
100
AcDbEntity
  8
AM_9
100
AcDbLine
 10
-0.6705
 20
2.554448754797947
 30
0.0
 11
-1.484375
 21
2.52602761352785
 31
0.0
  0
LINE
  5
191
330
14A
100
AcDbEntity
  8
AM_9
100
AcDbLine
 10
1.2795
 20
-2.704226135594409
 30
0.0
 11
1.2795
 21
2.704226135594409
 31
0.0
  0
ARC
  5
192
330
14A
100
AcDbEntity
  8
AM_9
100
AcDbCircle
 10
1.179500000000001
 20
2.704226135594409
 30
0.0
 40
0.0999999999999992
100
AcDbArc
 50
0.0
 51
60.00000000000052
  0
ARC
  5
193
330
14A
100
AcDbEntity
  8
AM_9
100
AcDbCircle
 10
1.179499999999998
 20
-2.704226135594407
 30
0.0
 40
0.1000000000000024
100
AcDbArc
 50
300.0000000000004
 51
0.0
  0
LINE
  5
194
330
14A
100
AcDbEntity
  8
AM_9
100
AcDbLine
 10
1.2295
 20
-2.790828675972853
 30
0.0
 11
1.2295
 21
2.790828675972853
 31
0.0
  0
LINE
  5
195
330
14A
100
AcDbEntity
  8
AM_9
100
AcDbLine
 10
1.2295
 20
2.790828675972853
 30
0.0
 11
0.9545
 21
2.9496
 31
0.0
  0
LINE
  5
196
330
14A
100
AcDbEntity
  8
AM_9
100
AcDbLine
 10
0.9545
 20
-2.9496
 30
0.0
 11
1.2295
 21
-2.790828675972853
 31
0.0
  0
LINE
  5
197
330
14A
100
AcDbEntity
  8
AM_9
100
AcDbLine
 10
0.1889097093716568
 20
3.06835
 30
0.0
 11
0.095090290628343
 21
3.06835
 31
0.0
  0
LINE
  5
198
330
14A
100
AcDbEntity
  8
AM_9
100
AcDbLine
 10
0.095090290628343
 20
-3.06835
 30
0.0
 11
0.1889097093716568
 21
-3.06835
 31
0.0
  0
LINE
  5
199
330
14A
100
AcDbEntity
  8
AM_9
100
AcDbLine
 10
0.9044999999999997
 20
3.1496
 30
0.0
 11
0.2358194187433143
 21
3.1496
 31
0.0
  0
LINE
  5
19A
330
14A
100
AcDbEntity
  8
AM_9
100
AcDbLine
 10
0.2358194187433143
 20
-3.1496
 30
0.0
 11
0.9044999999999997
 21
-3.1496
 31
0.0
  0
LINE
  5
19B
330
14A
100
AcDbEntity
  8
AM_9
100
AcDbLine
 10
0.048180581256686
 20
3.1496
 30
0.0
 11
-0.6205000000000005
 21
3.1496
 31
0.0
  0
LINE
  5
19C
330
14A
100
AcDbEntity
  8
AM_9
100
AcDbLine
 10
-0.6205000000000005
 20
-3.1496
 30
0.0
 11
0.048180581256686
 21
-3.1496
 31
0.0
  0
LINE
  5
19D
330
14A
100
AcDbEntity
  8
AM_9
100
AcDbLine
 10
0.9545
 20
-3.0996
 30
0.0
 11
0.9545
 21
3.0996
 31
0.0
  0
LINE
  5
19E
330
14A
100
AcDbEntity
  8
AM_9
100
AcDbLine
 10
0.9044999999999997
 20
-3.1496
 30
0.0
 11
0.9044999999999997
 21
3.1496
 31
0.0
  0
ARC
  5
19F
330
14A
100
AcDbEntity
  8
AM_9
100
AcDbCircle
 10
0.9045000000000009
 20
3.0996
 30
0.0
 40
0.0499999999999992
100
AcDbArc
 50
0.0
 51
90.0
  0
ARC
  5
1A0
330
14A
100
AcDbEntity
  8
AM_9
100
AcDbCircle
 10
0.9045000000000009
 20
-3.0996
 30
0.0
 40
0.0499999999999994
100
AcDbArc
 50
270.0
 51
0.0
  0
LINE
  5
1A1
330
14A
100
AcDbEntity
  8
AM_9
100
AcDbLine
 10
0.2358194187433143
 20
-3.1496
 30
0.0
 11
0.2358194187433143
 21
3.1496
 31
0.0
  0
LINE
  5
1A2
330
14A
100
AcDbEntity
  8
AM_9
100
AcDbLine
 10
0.1889097093716568
 20
-3.06835
 30
0.0
 11
0.1889097093716568
 21
3.06835
 31
0.0
  0
LINE
  5
1A3
330
14A
100
AcDbEntity
  8
AM_9
100
AcDbLine
 10
0.1889097093716568
 20
-3.06835
 30
0.0
 11
0.2358194187433143
 21
-3.1496
 31
0.0
  0
LINE
  5
1A4
330
14A
100
AcDbEntity
  8
AM_9
100
AcDbLine
 10
0.2358194187433143
 20
3.1496
 30
0.0
 11
0.1889097093716568
 21
3.06835
 31
0.0
  0
LINE
  5
1A5
330
14A
100
AcDbEntity
  8
AM_9
100
AcDbLine
 10
0.095090290628343
 20
-3.06835
 30
0.0
 11
0.095090290628343
 21
3.06835
 31
0.0
  0
LINE
  5
1A6
330
14A
100
AcDbEntity
  8
AM_9
100
AcDbLine
 10
0.048180581256686
 20
-3.1496
 30
0.0
 11
0.048180581256686
 21
3.1496
 31
0.0
  0
LINE
  5
1A7
330
14A
100
AcDbEntity
  8
AM_9
100
AcDbLine
 10
0.095090290628343
 20
3.06835
 30
0.0
 11
0.048180581256686
 21
3.1496
 31
0.0
  0
LINE
  5
1A8
330
14A
100
AcDbEntity
  8
AM_9
100
AcDbLine
 10
0.048180581256686
 20
-3.1496
 30
0.0
 11
0.095090290628343
 21
-3.06835
 31
0.0
  0
LINE
  5
1A9
330
14A
100
AcDbEntity
  8
AM_9
100
AcDbLine
 10
-0.6205000000000005
 20
-3.1496
 30
0.0
 11
-0.6205000000000005
 21
3.1496
 31
0.0
  0
LINE
  5
1AA
330
14A
100
AcDbEntity
  8
AM_9
100
AcDbLine
 10
-0.6705000000000003
 20
-3.0996
 30
0.0
 11
-0.6705000000000003
 21
3.0996
 31
0.0
  0
ARC
  5
1AB
330
14A
100
AcDbEntity
  8
AM_9
100
AcDbCircle
 10
-0.6205000000000007
 20
3.0996
 30
0.0
 40
0.0499999999999998
100
AcDbArc
 50
90.0
 51
180.0
  0
ARC
  5
1AC
330
14A
100
AcDbEntity
  8
AM_9
100
AcDbCircle
 10
-0.6205000000000007
 20
-3.0996
 30
0.0
 40
0.0499999999999996
100
AcDbArc
 50
180.0
 51
270.0
  0
LINE
  5
1AD
330
14A
100
AcDbEntity
  8
AM_5
100
AcDbLine
 10
-1.469708333333333
 20
2.302811111111111
 30
0.0
 11
-1.469708333333333
 21
2.329861111111111
 31
0.0
  0
LINE
  5
1AE
330
14A
100
AcDbEntity
  8
AM_5
100
AcDbLine
 10
-1.469708333333333
 20
2.329861111111111
 30
0.0
 11
-1.454091008551754
 21
2.302811111111111
 31
0.0
  0
LINE
  5
1AF
330
14A
100
AcDbEntity
  8
AM_5
100
AcDbLine
 10
-1.469708333333333
 20
2.106911111111111
 30
0.0
 11
-1.469708333333333
 21
2.079861111111111
 31
0.0
  0
LINE
  5
1B0
330
14A
100
AcDbEntity
  8
AM_5
100
AcDbLine
 10
-1.469708333333333
 20
2.079861111111111
 30
0.0
 11
-1.454091008551754
 21
2.106911111111111
 31
0.0
  0
LINE
  5
1B1
330
14A
100
AcDbEntity
  8
AM_5
100
AcDbLine
 10
-1.469708333333346
 20
-2.302811111111111
 30
0.0
 11
-1.469708333333346
 21
-2.329861111111111
 31
0.0
  0
LINE
  5
1B2
330
14A
100
AcDbEntity
  8
AM_5
100
AcDbLine
 10
-1.469708333333346
 20
-2.329861111111111
 30
0.0
 11
-1.454091008551766
 21
-2.302811111111111
 31
0.0
  0
LINE
  5
1B3
330
14A
100
AcDbEntity
  8
AM_5
100
AcDbLine
 10
-1.469708333333346
 20
-2.106911111111111
 30
0.0
 11
-1.469708333333346
 21
-2.079861111111111
 31
0.0
  0
LINE
  5
1B4
330
14A
100
AcDbEntity
  8
AM_5
100
AcDbLine
 10
-1.469708333333346
 20
-2.079861111111111
 30
0.0
 11
-1.454091008551766
 21
-2.106911111111111
 31
0.0
  0
LINE
  5
1B5
330
14A
100
AcDbEntity
  8
AM_7
100
AcDbLine
 10
-1.347708333333333
 20
2.204861111111111
 30
0.0
 11
-2.478308333333334
 21
2.204861111111111
 31
0.0
  0
LINE
  5
1B6
330
14A
100
AcDbEntity
  8
AM_7
100
AcDbLine
 10
-1.347708333333337
 20
-2.204861111111111
 30
0.0
 11
-2.478308333333334
 21
-2.204861111111111
 31
0.0
  0
ARC
  5
1B7
330
14A
100
AcDbEntity
  8
AM_4
100
AcDbCircle
 10
-2.179708333333332
 20
-2.451715561259644
 30
0.0
 40
0.0500000000000016
100
AcDbArc
 50
180.0
 51
267.9999999999981
  0
ARC
  5
1B8
330
14A
100
AcDbEntity
  8
AM_4
100
AcDbCircle
 10
-2.179708333333332
 20
2.451715561259644
 30
0.0
 40
0.0500000000000017
100
AcDbArc
 50
92.00000000000198
 51
180.0
  0
LWPOLYLINE
  5
1B9
330
14A
100
AcDbEntity
  8
AM_4
100
AcDbPolyline
 90
        6
 70
     0
 43
0.0
 10
-2.181453308168459
 20
-1.936880151435481
 10
-2.197829277847101
 20
-1.934486066876636
 10
-2.212169505113438
 20
-1.928394861241001
 10
-2.222892061431032
 20
-1.919278208205406
 10
-2.228797213756794
 20
-1.908118701042667
 10
-2.229708333333333
 20
-1.901364935040069
  0
LWPOLYLINE
  5
1BA
330
14A
100
AcDbEntity
  8
AM_4
100
AcDbPolyline
 90
        6
 70
     0
 43
0.0
 10
-2.229708333333333
 20
1.901364935040069
 10
-2.229168244766159
 20
1.906574535217858
 10
-2.223908839127761
 20
1.917978192677443
 10
-2.21361070264424
 20
1.927485891094621
 10
-2.199486909572901
 20
1.934003513616657
 10
-2.181453308168459
 20
1.936880151435481
  0
LINE
  5
1BB
330
14A
100
AcDbEntity
  8
AM_4
100
AcDbLine
 10
-1.789708333333333
 20
-1.689985207035849
 30
0.0
 11
-2.229708333333333
 21
-1.689985207035849
 31
0.0
  0
LINE
  5
1BC
330
14A
100
AcDbEntity
  8
AM_4
100
AcDbLine
 10
-1.789708333333333
 20
1.689985207035848
 30
0.0
 11
-2.229708333333333
 21
1.689985207035848
 31
0.0
  0
LINE
  5
1BD
330
14A
100
AcDbEntity
  8
AM_4
100
AcDbLine
 10
-2.299708333333333
 20
1.80921052631579
 30
0.0
 11
-2.546875
 21
1.80921052631579
 31
0.0
  0
LINE
  5
1BE
330
14A
100
AcDbEntity
  8
AM_4
100
AcDbLine
 10
-2.546875
 20
-1.80921052631579
 30
0.0
 11
-2.299708333333333
 21
-1.80921052631579
 31
0.0
  0
LINE
  5
1BF
330
14A
100
AcDbEntity
  8
AM_4
100
AcDbLine
 10
-2.546875
 20
-1.80921052631579
 30
0.0
 11
-2.546875
 21
1.80921052631579
 31
0.0
  0
LINE
  5
1C0
330
14A
100
AcDbEntity
  8
AM_4
100
AcDbLine
 10
1.598116987179484
 20
2.248263888888889
 30
0.0
 11
1.515625
 21
2.248263888888889
 31
0.0
  0
LINE
  5
1C1
330
14A
100
AcDbEntity
  8
AM_4
100
AcDbLine
 10
1.515625
 20
-2.248263888888889
 30
0.0
 11
1.598116987179484
 21
-2.248263888888889
 31
0.0
  0
LINE
  5
1C2
330
14A
100
AcDbEntity
  8
AM_4
100
AcDbLine
 10
1.65
 20
-2.196380876068376
 30
0.0
 11
1.65
 21
2.196380876068376
 31
0.0
  0
LINE
  5
1C3
330
14A
100
AcDbEntity
  8
AM_4
100
AcDbLine
 10
1.598116987179484
 20
-2.248263888888889
 30
0.0
 11
1.598116987179484
 21
2.248263888888889
 31
0.0
  0
ARC
  5
1C4
330
14A
100
AcDbEntity
  8
AM_4
100
AcDbCircle
 10
1.598116987179486
 20
2.196380876068375
 30
0.0
 40
0.0518830128205139
100
AcDbArc
 50
0.0
 51
90.0
  0
ARC
  5
1C5
330
14A
100
AcDbEntity
  8
AM_4
100
AcDbCircle
 10
1.598116987179486
 20
-2.196380876068375
 30
0.0
 40
0.0518830128205137
100
AcDbArc
 50
270.0
 51
0.0
  0
LWPOLYLINE
  5
1C6
330
14A
100
AcDbEntity
  8
AM_4
100
AcDbPolyline
 90
        6
 70
     0
 43
0.0
 10
-2.181453308168459
 20
1.583326760842206
 10
-2.197829277847101
 20
1.58093267628336
 10
-2.212169505113438
 20
1.574841470647725
 10
-2.222892061431032
 20
1.565724817612131
 10
-2.228797213756794
 20
1.554565310449392
 10
-2.229708333333333
 20
1.547811544446794
  0
LWPOLYLINE
  5
1C7
330
14A
100
AcDbEntity
  8
AM_4
100
AcDbPolyline
 90
        6
 70
     0
 43
0.0
 10
-2.229708333333333
 20
-1.547811544446795
 10
-2.22916824476616
 20
-1.553021144624584
 10
-2.223908839127761
 20
-1.564424802084168
 10
-2.213610702644241
 20
-1.573932500501347
 10
-2.199486909572902
 20
-1.580450123023383
 10
-2.181453308168459
 20
-1.583326760842207
  0
LINE
  5
1C8
330
14A
100
AcDbEntity
  8
AM_4
100
AcDbLine
 10
-2.181453308168459
 20
-1.583326760842207
 30
0.0
 11
-2.181453308168459
 21
1.583326760842206
 31
0.0
  0
LINE
  5
1C9
330
14A
100
AcDbEntity
  8
AM_4
100
AcDbLine
 10
-2.181453308168459
 20
-1.583326760842207
 30
0.0
 11
-1.789708333333333
 21
-1.593048406283363
 31
0.0
  0
LINE
  5
1CA
330
14A
100
AcDbEntity
  8
AM_4
100
AcDbLine
 10
-1.789708333333333
 20
-1.593048406283363
 30
0.0
 11
-1.789708333333333
 21
-1.946601796876637
 31
0.0
  0
LINE
  5
1CB
330
14A
100
AcDbEntity
  8
AM_4
100
AcDbLine
 10
-1.789708333333333
 20
-1.946601796876637
 30
0.0
 11
-2.181453308168459
 21
-1.936880151435481
 31
0.0
  0
LINE
  5
1CC
330
14A
100
AcDbEntity
  8
AM_4
100
AcDbLine
 10
-2.181453308168459
 20
1.936880151435481
 30
0.0
 11
-2.181453308168459
 21
2.501685102610601
 31
0.0
  0
LINE
  5
1CD
330
14A
100
AcDbEntity
  8
AM_4
100
AcDbLine
 10
-2.181453308168459
 20
1.936880151435481
 30
0.0
 11
-1.789708333333333
 21
1.946601796876636
 31
0.0
  0
LINE
  5
1CE
330
14A
100
AcDbEntity
  8
AM_4
100
AcDbLine
 10
-1.789708333333333
 20
1.946601796876636
 30
0.0
 11
-1.789708333333333
 21
1.593048406283362
 31
0.0
  0
LINE
  5
1CF
330
14A
100
AcDbEntity
  8
AM_4
100
AcDbLine
 10
-1.789708333333333
 20
1.593048406283362
 30
0.0
 11
-2.181453308168459
 21
1.583326760842206
 31
0.0
  0
LINE
  5
1D0
330
14A
100
AcDbEntity
  8
AM_4
100
AcDbLine
 10
-2.181453308168459
 20
-2.501685102610601
 30
0.0
 11
-1.484375
 21
-2.52602761352785
 31
0.0
  0
LINE
  5
1D1
330
14A
100
AcDbEntity
  8
AM_4
100
AcDbLine
 10
-1.484375
 20
2.52602761352785
 30
0.0
 11
-2.181453308168459
 21
2.501685102610601
 31
0.0
  0
LINE
  5
1D2
330
14A
100
AcDbEntity
  8
AM_4
100
AcDbLine
 10
-2.181453308168459
 20
-2.501685102610601
 30
0.0
 11
-2.181453308168459
 21
-1.936880151435481
 31
0.0
  0
ENDBLK
  5
14D
330
14A
100
AcDbEntity
  8
0
100
AcDbBlockEnd
  0
BLOCK
  5
1D5
330
1D3
100
AcDbEntity
  8
0
100
AcDbBlockBegin
  2
7_069892H_0_in_069892_2
 70
     2
 10
0.0
 20
0.0
 30
0.0
  3
7_069892H_0_in_069892_2
  1

  0
ATTDEF
  5
1D7
330
1D3
100
AcDbEntity
  8
AM_6
100
AcDbText
 10
7.000624999999999
 20
5.125
 30
0.0
 40
0.5
  1
FC-IP -(Labyrinth Seal)-Housing -Inch
100
AcDbAttributeDefinition
  3

  2
NN
 70
     8
280
     0
  0
ATTDEF
  5
1D8
330
1D3
100
AcDbEntity
  8
AM_6
100
AcDbText
 10
7.000624999999999
 20
4.625
 30
0.0
 40
0.5
  1
Imperial Piloted Flange Bearings
100
AcDbAttributeDefinition
  3

  2
NT
 70
     8
280
     0
  0
ATTDEF
  5
1D9
330
1D3
100
AcDbEntity
  8
AM_6
100
AcDbText
 10
7.000624999999999
 20
4.125
 30
0.0
 40
0.5
  1
069892H
100
AcDbAttributeDefinition
  3

  2
NB
 70
     8
280
     0
  0
ATTDEF
  5
1DA
330
1D3
100
AcDbEntity
  8
AM_6
100
AcDbText
 10
7.000624999999999
 20
3.625
 30
0.0
 40
0.5
  1
$PN.H
100
AcDbAttributeDefinition
  3

  2
NBSYN
 70
     8
280
     0
  0
ATTDEF
  5
1DB
330
1D3
100
AcDbEntity
  8
AM_6
100
AcDbText
 10
7.000624999999999
 20
3.125
 30
0.0
 40
0.5
  1
069892
100
AcDbAttributeDefinition
  3

  2
LINA
 70
     8
280
     0
  0
ATTDEF
  5
1DC
330
1D3
100
AcDbEntity
  8
AM_6
100
AcDbText
 10
7.000624999999999
 20
2.625
 30
0.0
 40
0.5
  1
3-7/16
100
AcDbAttributeDefinition
  3

  2
SS
 70
     8
280
     0
  0
ATTDEF
  5
1DD
330
1D3
100
AcDbEntity
  8
AM_6
100
AcDbText
 10
7.000624999999999
 20
2.125
 30
0.0
 40
0.5
  1
069892
100
AcDbAttributeDefinition
  3

  2
PN
 70
     8
280
     0
  0
ATTDEF
  5
1DE
330
1D3
100
AcDbEntity
  8
AM_6
100
AcDbText
 10
7.000624999999999
 20
1.625
 30
0.0
 40
0.5
  1
FC-IP-307L
100
AcDbAttributeDefinition
  3

  2
DESCRIPTION
 70
     8
280
     0
  0
ATTDEF
  5
1DF
330
1D3
100
AcDbEntity
  8
AM_6
100
AcDbText
 10
7.000624999999999
 20
1.125
 30
0.0
 40
0.5
  1
Non-Expansion Type
100
AcDbAttributeDefinition
  3

  2
EF
 70
     8
280
     0
  0
ATTDEF
  5
1E0
330
1D3
100
AcDbEntity
  8
AM_6
100
AcDbText
 10
7.000624999999999
 20
0.625
 30
0.0
 40
0.5
  1
Labyrinth Seal
100
AcDbAttributeDefinition
  3

  2
ST
 70
     8
280
     0
  0
ATTDEF
  5
1E1
330
1D3
100
AcDbEntity
  8
AM_6
100
AcDbText
 10
7.000624999999999
 20
0.125
 30
0.0
 40
0.5
  1
4-11/64
100
AcDbAttributeDefinition
  3

  2
A
 70
     8
280
     0
  0
ATTDEF
  5
1E2
330
1D3
100
AcDbEntity
  8
AM_6
100
AcDbText
 10
7.000624999999999
 20
-0.375
 30
0.0
 40
0.5
  1
10-1/4
100
AcDbAttributeDefinition
  3

  2
B
 70
     8
280
     0
  0
ATTDEF
  5
1E3
330
1D3
100
AcDbEntity
  8
AM_6
100
AcDbText
 10
7.000624999999999
 20
-0.875
 30
0.0
 40
0.5
  1
3
100
AcDbAttributeDefinition
  3

  2
C
 70
     8
280
     0
  0
ATTDEF
  5
1E4
330
1D3
100
AcDbEntity
  8
AM_6
100
AcDbText
 10
7.000624999999999
 20
-1.375
 30
0.0
 40
0.5
  1
6-3/32
100
AcDbAttributeDefinition
  3

  2
D
 70
     8
280
     0
  0
ATTDEF
  5
1E5
330
1D3
100
AcDbEntity
  8
AM_6
100
AcDbText
 10
7.000624999999999
 20
-1.875
 30
0.0
 40
0.5
  1
8-5/8
100
AcDbAttributeDefinition
  3

  2
DD
 70
     8
280
     0
  0
ATTDEF
  5
1E6
330
1D3
100
AcDbEntity
  8
AM_6
100
AcDbText
 10
7.000624999999999
 20
-2.375
 30
0.0
 40
0.5
  1
1-17/64
100
AcDbAttributeDefinition
  3

  2
E
 70
     8
280
     0
  0
ATTDEF
  5
1E7
330
1D3
100
AcDbEntity
  8
AM_6
100
AcDbText
 10
7.000624999999999
 20
-2.875
 30
0.0
 40
0.5
  1
3/4
100
AcDbAttributeDefinition
  3

  2
F
 70
     8
280
     0
  0
ATTDEF
  5
1E8
330
1D3
100
AcDbEntity
  8
AM_6
100
AcDbText
 10
7.000624999999999
 20
-3.375
 30
0.0
 40
0.5
  1
2-17/32
100
AcDbAttributeDefinition
  3

  2
G
 70
     8
280
     0
  0
ATTDEF
  5
1E9
330
1D3
100
AcDbEntity
  8
AM_6
100
AcDbText
 10
7.000624999999999
 20
-3.875
 30
0.0
 40
0.5
  1
15/16
100
AcDbAttributeDefinition
  3

  2
H
 70
     8
280
     0
  0
ATTDEF
  5
1EA
330
1D3
100
AcDbEntity
  8
AM_6
100
AcDbText
 10
7.000624999999999
 20
-4.375
 30
0.0
 40
0.5
  1
7.375
100
AcDbAttributeDefinition
  3

  2
K
 70
     8
280
     0
  0
ATTDEF
  5
1EB
330
1D3
100
AcDbEntity
  8
AM_6
100
AcDbText
 10
7.000624999999999
 20
-4.875
 30
0.0
 40
0.5
  1
5
100
AcDbAttributeDefinition
  3

  2
L
 70
     8
280
     0
  0
ATTDEF
  5
1EC
330
1D3
100
AcDbEntity
  8
AM_6
100
AcDbText
 10
7.000624999999999
 20
-5.375
 30
0.0
 40
0.5
  1
3/4-10
100
AcDbAttributeDefinition
  3

  2
M
 70
     8
280
     0
  0
ATTDEF
  5
1ED
330
1D3
100
AcDbEntity
  8
AM_6
100
AcDbText
 10
7.000624999999999
 20
-5.875
 30
0.0
 40
0.5
  1
4-1/16
100
AcDbAttributeDefinition
  3

  2
N
 70
     8
280
     0
  0
ATTDEF
  5
1EE
330
1D3
100
AcDbEntity
  8
AM_6
100
AcDbText
 10
7.000624999999999
 20
-6.375
 30
0.0
 40
0.5
  1
1-41/64
100
AcDbAttributeDefinition
  3

  2
P
 70
     8
280
     0
  0
ATTDEF
  5
1EF
330
1D3
100
AcDbEntity
  8
AM_6
100
AcDbText
 10
7.000624999999999
 20
-6.875
 30
0.0
 40
0.5
  1
1-33/64
100
AcDbAttributeDefinition
  3

  2
Q
 70
     8
280
     0
  0
ATTDEF
  5
1F0
330
1D3
100
AcDbEntity
  8
AM_6
100
AcDbText
 10
7.000624999999999
 20
-7.375
 30
0.0
 40
0.5
  1
1/4
100
AcDbAttributeDefinition
  3

  2
X
 70
     8
280
     0
  0
ATTDEF
  5
1F1
330
1D3
100
AcDbEntity
  8
AM_6
100
AcDbText
 10
7.000624999999999
 20
-7.875
 30
0.0
 40
0.5
  1
0.025
100
AcDbAttributeDefinition
  3

  2
Y
 70
     8
280
     0
  0
ATTDEF
  5
1F2
330
1D3
100
AcDbEntity
  8
AM_6
100
AcDbText
 10
7.000624999999999
 20
-8.375
 30
0.0
 40
0.5
  1
4-3/64
100
AcDbAttributeDefinition
  3

  2
Z
 70
     8
280
     0
  0
ATTDEF
  5
1F3
330
1D3
100
AcDbEntity
  8
AM_6
100
AcDbText
 10
7.000624999999999
 20
-8.875
 30
0.0
 40
0.5
  1
baldor
100
AcDbAttributeDefinition
  3

  2
COMPANY
 70
     8
280
     0
  0
LINE
  5
1F4
330
1D3
100
AcDbEntity
  8
AM_9
100
AcDbLine
 10
-0.7499999999999999
 20
-3.366970438774798
 30
0.0
 11
-0.9374999999999999
 21
-3.366970438774798
 31
0.0
  0
LINE
  5
1F5
330
1D3
100
AcDbEntity
  8
AM_9
100
AcDbLine
 10
-0.7499999999999999
 20
-3.333061447078985
 30
0.0
 11
-0.9374999999999999
 21
-3.333061447078985
 31
0.0
  0
LINE
  5
1F6
330
1D3
100
AcDbEntity
  8
AM_9
100
AcDbLine
 10
-0.7499999999999999
 20
3.366970438774798
 30
0.0
 11
-0.9374999999999999
 21
3.366970438774798
 31
0.0
  0
LINE
  5
1F7
330
1D3
100
AcDbEntity
  8
AM_9
100
AcDbLine
 10
-0.9374999999999999
 20
3.333061447078983
 30
0.0
 11
-0.7499999999999999
 21
3.333061447078983
 31
0.0
  0
LINE
  5
1F8
330
1D3
100
AcDbEntity
  8
AM_9
100
AcDbLine
 10
-0.7499999999999999
 20
3.653444436418871
 30
0.0
 11
-0.9374999999999998
 21
3.653444436418871
 31
0.0
  0
LINE
  5
1F9
330
1D3
100
AcDbEntity
  8
AM_9
100
AcDbLine
 10
-0.7499999999999999
 20
3.350211699639678
 30
0.0
 11
-0.9374999999999999
 21
3.350211699639678
 31
0.0
  0
LINE
  5
1FA
330
1D3
100
AcDbEntity
  8
AM_9
100
AcDbLine
 10
-0.7499999999999999
 20
-3.35021169963968
 30
0.0
 11
-0.9374999999999999
 21
-3.35021169963968
 31
0.0
  0
LINE
  5
1FB
330
1D3
100
AcDbEntity
  8
AM_9
100
AcDbLine
 10
-0.9374999999999998
 20
-3.6875
 30
0.0
 11
-0.7500000000000001
 21
-3.6875
 31
0.0
  0
LINE
  5
1FC
330
1D3
100
AcDbEntity
  8
AM_9
100
AcDbLine
 10
-0.7499999999999999
 20
-3.333061447078985
 30
0.0
 11
-0.7499999999999999
 21
-4.127267519667964
 31
0.0
  0
LINE
  5
1FD
330
1D3
100
AcDbEntity
  8
AM_9
100
AcDbLine
 10
-0.7499999999999999
 20
-4.070780623385917
 30
0.0
 11
-0.9374999999999999
 21
-4.070780623385917
 31
0.0
  0
LINE
  5
1FE
330
1D3
100
AcDbEntity
  8
AM_9
100
AcDbLine
 10
-0.7499999999999999
 20
4.070780623385917
 30
0.0
 11
-0.9374999999999999
 21
4.070780623385917
 31
0.0
  0
LINE
  5
1FF
330
1D3
100
AcDbEntity
  8
AM_9
100
AcDbLine
 10
-0.7499999999999999
 20
4.127267519667964
 30
0.0
 11
-0.7499999999999999
 21
3.333061447078983
 31
0.0
  0
LINE
  5
200
330
1D3
100
AcDbEntity
  8
AM_9
100
AcDbLine
 10
-1.484375
 20
-3.1496
 30
0.0
 11
1.515625
 21
-3.1496
 31
0.0
  0
LINE
  5
201
330
1D3
100
AcDbEntity
  8
AM_9
100
AcDbLine
 10
1.515625
 20
3.1496
 30
0.0
 11
-1.484375
 21
3.1496
 31
0.0
  0
LINE
  5
202
330
1D3
100
AcDbEntity
  8
AM_9
100
AcDbLine
 10
-0.9374999999999997
 20
-3.424397993866986
 30
0.0
 11
0.0000000000000002
 21
-3.424397993866986
 31
0.0
  0
LINE
  5
203
330
1D3
100
AcDbEntity
  8
AM_9
100
AcDbLine
 10
0.0000000000000002
 20
-2.674397993866987
 30
0.0
 11
-0.9374999999999997
 21
-2.674397993866987
 31
0.0
  0
LINE
  5
204
330
1D3
100
AcDbEntity
  8
AM_9
100
AcDbLine
 10
-0.9374999999999997
 20
2.674397993866987
 30
0.0
 11
0.0000000000000002
 21
2.674397993866987
 31
0.0
  0
LINE
  5
205
330
1D3
100
AcDbEntity
  8
AM_9
100
AcDbLine
 10
0.0000000000000002
 20
3.424397993866986
 30
0.0
 11
-0.9374999999999997
 21
3.424397993866986
 31
0.0
  0
LINE
  5
206
330
1D3
100
AcDbEntity
  8
AM_9
100
AcDbLine
 10
-0.0168999999999995
 20
0.3581000000000002
 30
0.0
 11
-0.7331
 21
0.3581000000000002
 31
0.0
  0
LINE
  5
207
330
1D3
100
AcDbEntity
  8
AM_9
100
AcDbLine
 10
-0.7331
 20
-0.3581000000000002
 30
0.0
 11
-0.0168999999999995
 21
-0.3581000000000002
 31
0.0
  0
LINE
  5
208
330
1D3
100
AcDbEntity
  8
AM_9
100
AcDbLine
 10
-0.7331
 20
-0.3581000000000002
 30
0.0
 11
-0.7331
 21
0.3581000000000002
 31
0.0
  0
LINE
  5
209
330
1D3
100
AcDbEntity
  8
AM_9
100
AcDbLine
 10
-0.7331
 20
0.3581000000000002
 30
0.0
 11
-0.7499999999999997
 21
0.3750000000000002
 31
0.0
  0
LINE
  5
20A
330
1D3
100
AcDbEntity
  8
AM_9
100
AcDbLine
 10
-0.7499999999999997
 20
-0.3750000000000002
 30
0.0
 11
-0.7331
 21
-0.3581000000000002
 31
0.0
  0
LINE
  5
20B
330
1D3
100
AcDbEntity
  8
AM_9
100
AcDbLine
 10
-0.0168999999999995
 20
-0.3581000000000002
 30
0.0
 11
-0.0168999999999995
 21
0.3581000000000002
 31
0.0
  0
LINE
  5
20C
330
1D3
100
AcDbEntity
  8
AM_9
100
AcDbLine
 10
-0.0168999999999995
 20
-0.3581000000000002
 30
0.0
 11
0.0000000000000003
 21
-0.3750000000000002
 31
0.0
  0
LINE
  5
20D
330
1D3
100
AcDbEntity
  8
AM_9
100
AcDbLine
 10
0.0000000000000003
 20
0.3750000000000002
 30
0.0
 11
-0.0168999999999995
 21
0.3581000000000002
 31
0.0
  0
LINE
  5
20E
330
1D3
100
AcDbEntity
  8
AM_5
100
AcDbLine
 10
-0.0000000000000003
 20
-0.3750000000000002
 30
0.0
 11
-0.7500000000000002
 21
-0.3750000000000002
 31
0.0
  0
LINE
  5
20F
330
1D3
100
AcDbEntity
  8
AM_5
100
AcDbLine
 10
-0.0000000000000003
 20
0.3750000000000002
 30
0.0
 11
-0.7500000000000002
 21
0.3750000000000002
 31
0.0
  0
LINE
  5
210
330
1D3
100
AcDbEntity
  8
AM_7
100
AcDbLine
 10
0.0492187499999998
 20
3.049397993866986
 30
0.0
 11
-1.03359375
 21
3.049397993866986
 31
0.0
  0
LINE
  5
211
330
1D3
100
AcDbEntity
  8
AM_7
100
AcDbLine
 10
0.0492187499999998
 20
-3.049397993866986
 30
0.0
 11
-1.03359375
 21
-3.049397993866986
 31
0.0
  0
LINE
  5
212
330
1D3
100
AcDbEntity
  8
AM_7
100
AcDbLine
 10
2.000625
 20
0.0
 30
0.0
 11
-2.75671875
 21
0.0
 31
0.0
  0
LINE
  5
213
330
1D3
100
AcDbEntity
  8
AM_4
100
AcDbLine
 10
-0.7500000000000004
 20
4.957742761000825
 30
0.0
 11
-1.483375
 21
3.6875
 31
0.0
  0
LINE
  5
214
330
1D3
100
AcDbEntity
  8
AM_4
100
AcDbLine
 10
-1.483375
 20
3.6875
 30
0.0
 11
-1.483375
 21
3.601594311310067
 31
0.0
  0
LINE
  5
215
330
1D3
100
AcDbEntity
  8
AM_4
100
AcDbLine
 10
-0.9374999999999998
 20
3.653444436418871
 30
0.0
 11
-1.421875000000001
 21
3.653444436418873
 31
0.0
  0
LINE
  5
216
330
1D3
100
AcDbEntity
  8
AM_4
100
AcDbLine
 10
-1.421875000000001
 20
-3.6875
 30
0.0
 11
-0.9374999999999998
 21
-3.6875
 31
0.0
  0
LINE
  5
217
330
1D3
100
AcDbEntity
  8
AM_4
100
AcDbLine
 10
-1.421875000000001
 20
3.02085474751787
 30
0.0
 11
-0.9374999999999999
 21
3.02085474751787
 31
0.0
  0
LINE
  5
218
330
1D3
100
AcDbEntity
  8
AM_4
100
AcDbLine
 10
-1.421875000000001
 20
-3.020854747517869
 30
0.0
 11
-0.9374999999999999
 21
-3.020854747517869
 31
0.0
  0
LWPOLYLINE
  5
219
330
1D3
100
AcDbEntity
  8
AM_4
100
AcDbPolyline
 90
        7
 70
     0
 43
0.0
 10
-1.421875000000001
 20
3.02085474751787
 10
-1.422148439543374
 20
3.020575440747081
 10
-1.441346544462619
 20
2.998159129452771
 10
-1.459754786768741
 20
2.969847479350693
 10
-1.470542873499219
 20
2.94771968812545
 10
-1.479185537969131
 20
2.922670199022091
 10
-1.481890668476564
 20
2.910886526313337
  0
LINE
  5
21A
330
1D3
100
AcDbEntity
  8
AM_4
100
AcDbLine
 10
-1.421875000000001
 20
3.653444436418873
 30
0.0
 11
-1.421875000000001
 21
3.02085474751787
 31
0.0
  0
LWPOLYLINE
  5
21B
330
1D3
100
AcDbEntity
  8
AM_4
100
AcDbPolyline
 90
        6
 70
     0
 43
0.0
 10
-1.483375
 20
3.601594311310067
 10
-1.476942883854965
 20
3.620194316009985
 10
-1.463892530765629
 20
3.637060989097039
 10
-1.446099399424829
 20
3.648513316265891
 10
-1.425693211493403
 20
3.653326609266645
 10
-1.421875000000001
 20
3.653444436418873
  0
ARC
  5
21C
330
1D3
100
AcDbEntity
  8
AM_4
100
AcDbCircle
 10
-1.42187500000006
 20
3.625000000000007
 30
0.0
 40
0.0624999999999398
100
AcDbArc
 50
169.7369041013733
 51
180.0
  0
LINE
  5
21D
330
1D3
100
AcDbEntity
  8
AM_4
100
AcDbLine
 10
-1.484375
 20
3.625000000000001
 30
0.0
 11
-1.484375
 21
-3.625000000000001
 31
0.0
  0
LWPOLYLINE
  5
21E
330
1D3
100
AcDbEntity
  8
AM_4
100
AcDbPolyline
 90
        7
 70
     0
 43
0.0
 10
-1.481890669097013
 20
-2.910886523056324
 10
-1.475958812549633
 20
-2.933380547254743
 10
-1.46744404975512
 20
-2.954733975754983
 10
-1.452848372475401
 20
-2.98149813963555
 10
-1.436019365701775
 20
-3.004974595679661
 10
-1.422148439543354
 20
-3.020575440747075
 10
-1.421875000000001
 20
-3.02085474751787
  0
LINE
  5
21F
330
1D3
100
AcDbEntity
  8
AM_4
100
AcDbLine
 10
-1.421875000000001
 20
-3.020854747517869
 30
0.0
 11
-1.421875000000001
 21
-3.6875
 31
0.0
  0
ARC
  5
220
330
1D3
100
AcDbEntity
  8
AM_4
100
AcDbCircle
 10
-1.421875000000002
 20
-3.625000000000004
 30
0.0
 40
0.0624999999999973
100
AcDbArc
 50
180.0
 51
270.0
  0
LINE
  5
221
330
1D3
100
AcDbEntity
  8
AM_4
100
AcDbLine
 10
-1.481890668476564
 20
2.910886526313337
 30
0.0
 11
-0.9374999999999999
 21
2.910886526313337
 31
0.0
  0
LWPOLYLINE
  5
222
330
1D3
100
AcDbEntity
  8
AM_4
100
AcDbPolyline
 90
        3
 70
     0
 43
0.0
 10
-1.484375
 20
2.883785646578808
 10
-1.484205018847033
 20
2.891037531885568
 10
-1.481890668476564
 20
2.910886526313337
  0
LINE
  5
223
330
1D3
100
AcDbEntity
  8
AM_4
100
AcDbLine
 10
-1.481890669097013
 20
-2.910886523056324
 30
0.0
 11
-1.484375
 21
-2.883785646578808
 31
0.0
  0
LINE
  5
224
330
1D3
100
AcDbEntity
  8
AM_4
100
AcDbLine
 10
-1.481890669097013
 20
-2.910886523056324
 30
0.0
 11
-0.9374999999999999
 21
-2.910886523056324
 31
0.0
  0
LINE
  5
225
330
1D3
100
AcDbEntity
  8
AM_4
100
AcDbLine
 10
-1.481890669097013
 20
2.189555635208404
 30
0.0
 11
-0.9374999999999999
 21
2.189555635208404
 31
0.0
  0
LINE
  5
226
330
1D3
100
AcDbEntity
  8
AM_4
100
AcDbLine
 10
-1.481890668476564
 20
-2.189555634429042
 30
0.0
 11
-0.9374999999999999
 21
-2.189555634429042
 31
0.0
  0
LINE
  5
227
330
1D3
100
AcDbEntity
  8
AM_4
100
AcDbLine
 10
-0.9374999999999999
 20
-4.138598606777546
 30
0.0
 11
-0.7499999999999999
 21
-4.138598606777546
 31
0.0
  0
LINE
  5
228
330
1D3
100
AcDbEntity
  8
AM_4
100
AcDbLine
 10
-0.9374999999999999
 20
-4.138598606777546
 30
0.0
 11
-0.9374999999999998
 21
-1.54069394027413
 31
0.0
  0
LINE
  5
229
330
1D3
100
AcDbEntity
  8
AM_4
100
AcDbLine
 10
-0.9374999999999998
 20
1.540693940274127
 30
0.0
 11
-0.9374999999999999
 21
4.138598606777545
 31
0.0
  0
LINE
  5
22A
330
1D3
100
AcDbEntity
  8
AM_4
100
AcDbLine
 10
-0.7499999999999999
 20
4.138598606777545
 30
0.0
 11
-0.9374999999999999
 21
4.138598606777545
 31
0.0
  0
LINE
  5
22B
330
1D3
100
AcDbEntity
  8
AM_4
100
AcDbLine
 10
1.515624999999999
 20
3.412641246893661
 30
0.0
 11
1.515624999999999
 21
-3.412641246893661
 31
0.0
  0
ARC
  5
22C
330
1D3
100
AcDbEntity
  8
AM_4
100
AcDbCircle
 10
1.421874999999998
 20
-3.412641246893661
 30
0.0
 40
0.0937500000000012
100
AcDbArc
 50
272.0000000000012
 51
0.0
  0
ARC
  5
22D
330
1D3
100
AcDbEntity
  8
AM_4
100
AcDbCircle
 10
1.421874999999998
 20
3.412641246893661
 30
0.0
 40
0.0937500000000011
100
AcDbArc
 50
0.0
 51
87.99999999999896
  0
LINE
  5
22E
330
1D3
100
AcDbEntity
  8
AM_4
100
AcDbLine
 10
1.425146827815859
 20
3.506334136926702
 30
0.0
 11
1.356103172184141
 21
3.508745194509885
 31
0.0
  0
LINE
  5
22F
330
1D3
100
AcDbEntity
  8
AM_4
100
AcDbLine
 10
1.356103172184141
 20
-3.508745194509885
 30
0.0
 11
1.425146827815859
 21
-3.506334136926702
 31
0.0
  0
LINE
  5
230
330
1D3
100
AcDbEntity
  8
AM_4
100
AcDbLine
 10
1.425146827815859
 20
3.506334136926702
 30
0.0
 11
1.425146827815859
 21
-3.506334136926702
 31
0.0
  0
ARC
  5
231
330
1D3
100
AcDbEntity
  8
AM_4
100
AcDbCircle
 10
1.359374999999999
 20
-3.602438084542924
 30
0.0
 40
0.0937499999999984
100
AcDbArc
 50
91.99999999999908
 51
180.0
  0
ARC
  5
232
330
1D3
100
AcDbEntity
  8
AM_4
100
AcDbCircle
 10
1.359374999999999
 20
3.602438084542924
 30
0.0
 40
0.0937499999999987
100
AcDbArc
 50
180.0
 51
268.0000000000009
  0
LINE
  5
233
330
1D3
100
AcDbEntity
  8
AM_4
100
AcDbLine
 10
1.356103172184141
 20
3.508745194509885
 30
0.0
 11
1.356103172184141
 21
-3.508745194509885
 31
0.0
  0
LINE
  5
234
330
1D3
100
AcDbEntity
  8
AM_4
100
AcDbLine
 10
-0.7499999999999998
 20
1.540693940274127
 30
0.0
 11
-0.9374999999999998
 21
1.540693940274127
 31
0.0
  0
LINE
  5
235
330
1D3
100
AcDbEntity
  8
AM_4
100
AcDbLine
 10
-1.421875000000001
 20
2.114732333984316
 30
0.0
 11
-0.9374999999999999
 21
2.114732333984316
 31
0.0
  0
LINE
  5
236
330
1D3
100
AcDbEntity
  8
AM_4
100
AcDbLine
 10
-1.421875000000001
 20
-2.114732333984314
 30
0.0
 11
-0.9374999999999999
 21
-2.114732333984314
 31
0.0
  0
LINE
  5
237
330
1D3
100
AcDbEntity
  8
AM_4
100
AcDbLine
 10
-0.7499999999999998
 20
-1.540693940274128
 30
0.0
 11
-0.9374999999999998
 21
-1.54069394027413
 31
0.0
  0
LWPOLYLINE
  5
238
330
1D3
100
AcDbEntity
  8
AM_4
100
AcDbPolyline
 90
        7
 70
     0
 43
0.0
 10
-1.481890669097013
 20
2.189555635208404
 10
-1.475958812549633
 20
2.182655161266621
 10
-1.46744404975512
 20
2.173044300780741
 10
-1.4528483724754
 20
2.155877917696843
 10
-1.436019365701774
 20
2.134438498257065
 10
-1.422148439543288
 20
2.115130219478968
 10
-1.421875
 20
2.114732333984316
  0
LINE
  5
239
330
1D3
100
AcDbEntity
  8
AM_4
100
AcDbLine
 10
-1.481890669097013
 20
2.189555635208404
 30
0.0
 11
-1.484375
 21
2.196452900607261
 31
0.0
  0
LWPOLYLINE
  5
23A
330
1D3
100
AcDbEntity
  8
AM_4
100
AcDbPolyline
 90
        3
 70
     0
 43
0.0
 10
-1.484375
 20
-2.196452900607261
 10
-1.484205018847032
 20
-2.194526024876089
 10
-1.481890668476564
 20
-2.189555634429042
  0
LWPOLYLINE
  5
23B
330
1D3
100
AcDbEntity
  8
AM_4
100
AcDbPolyline
 90
        7
 70
     0
 43
0.0
 10
-1.421875000000001
 20
-2.114732333984314
 10
-1.422148439543374
 20
-2.115130219478928
 10
-1.441346544462619
 20
-2.141440540687266
 10
-1.459754786768741
 20
-2.164144356817098
 10
-1.470542873499219
 20
-2.176558805386856
 10
-1.47918553796913
 20
-2.186326627261904
 10
-1.481890668476564
 20
-2.189555634429042
  0
LINE
  5
23C
330
1D3
100
AcDbEntity
  8
AM_4
100
AcDbLine
 10
-1.421875000000001
 20
2.114732333984316
 30
0.0
 11
-1.421875000000001
 21
-2.114732333984314
 31
0.0
  0
LINE
  5
23D
330
1D3
100
AcDbEntity
  8
AM_4
100
AcDbLine
 10
0.0
 20
-3.687500000000003
 30
0.0
 11
1.265625
 21
-3.687500000000003
 31
0.0
  0
LINE
  5
23E
330
1D3
100
AcDbEntity
  8
AM_4
100
AcDbLine
 10
1.265625
 20
3.687500000000003
 30
0.0
 11
0.0
 21
3.687500000000003
 31
0.0
  0
LINE
  5
23F
330
1D3
100
AcDbEntity
  8
AM_4
100
AcDbLine
 10
1.265625
 20
3.687500000000003
 30
0.0
 11
1.265625
 21
-3.687500000000003
 31
0.0
  0
LINE
  5
240
330
1D3
100
AcDbEntity
  8
AM_4
100
AcDbLine
 10
-0.7499999999999998
 20
1.726579891934395
 30
0.0
 11
-0.9374999999999998
 21
1.726579891934395
 31
0.0
  0
LINE
  5
241
330
1D3
100
AcDbEntity
  8
AM_4
100
AcDbLine
 10
-0.7499999999999998
 20
-1.726579891934396
 30
0.0
 11
-0.9374999999999998
 21
-1.726579891934396
 31
0.0
  0
LINE
  5
242
330
1D3
100
AcDbEntity
  8
AM_4
100
AcDbLine
 10
-0.7499999999999998
 20
-2.731725004211567
 30
0.0
 11
-0.9374999999999998
 21
-2.731725004211567
 31
0.0
  0
LINE
  5
243
330
1D3
100
AcDbEntity
  8
AM_4
100
AcDbLine
 10
-0.7499999999999998
 20
2.731725004211564
 30
0.0
 11
-0.9374999999999998
 21
2.731725004211564
 31
0.0
  0
LINE
  5
244
330
1D3
100
AcDbEntity
  8
AM_4
100
AcDbLine
 10
-0.7499999999999998
 20
-3.038303444538392
 30
0.0
 11
-0.7499999999999998
 21
3.038303444538394
 31
0.0
  0
LINE
  5
245
330
1D3
100
AcDbEntity
  8
AM_4
100
AcDbLine
 10
-0.7499999999999999
 20
4.127267519667964
 30
0.0
 11
-0.7499999999999999
 21
5.125
 31
0.0
  0
LINE
  5
246
330
1D3
100
AcDbEntity
  8
AM_4
100
AcDbLine
 10
-0.9374999999999999
 20
4.127267519667964
 30
0.0
 11
-0.7499999999999999
 21
4.127267519667964
 31
0.0
  0
LINE
  5
247
330
1D3
100
AcDbEntity
  8
AM_4
100
AcDbLine
 10
-0.7499999999999998
 20
3.038303444538394
 30
0.0
 11
-0.9374999999999998
 21
3.038303444538394
 31
0.0
  0
LINE
  5
248
330
1D3
100
AcDbEntity
  8
AM_4
100
AcDbLine
 10
-0.9374999999999998
 20
-3.038303444538392
 30
0.0
 11
-0.7499999999999998
 21
-3.038303444538392
 31
0.0
  0
LINE
  5
249
330
1D3
100
AcDbEntity
  8
AM_4
100
AcDbLine
 10
-0.7499999999999999
 20
-4.127267519667964
 30
0.0
 11
-0.9374999999999999
 21
-4.127267519667964
 31
0.0
  0
LINE
  5
24A
330
1D3
100
AcDbEntity
  8
AM_4
100
AcDbLine
 10
-0.7499999999999999
 20
-5.125
 30
0.0
 11
0.0
 21
-5.125
 31
0.0
  0
LINE
  5
24B
330
1D3
100
AcDbEntity
  8
AM_4
100
AcDbLine
 10
0.0
 20
5.125
 30
0.0
 11
-0.7499999999999999
 21
5.125
 31
0.0
  0
LINE
  5
24C
330
1D3
100
AcDbEntity
  8
AM_4
100
AcDbLine
 10
0.0
 20
5.125
 30
0.0
 11
0.0
 21
-5.125
 31
0.0
  0
LINE
  5
24D
330
1D3
100
AcDbEntity
  8
AM_4
100
AcDbLine
 10
-0.7499999999999999
 20
-5.125
 30
0.0
 11
-0.7499999999999999
 21
-4.127267519667964
 31
0.0
  0
ENDBLK
  5
1D6
330
1D3
100
AcDbEntity
  8
0
100
AcDbBlockEnd
  0
ENDSEC
  0
SECTION
  2
ENTITIES
  0
INSERT
  5
6F
330
1F
100
AcDbEntity
  8
0
100
AcDbBlockReference
  2
1_069892_2
 10
0.0
 20
0.0
 30
0.0
  0
POINT
  5
24F
330
1F
100
AcDbEntity
  8
ConnectionPoints
100
AcDbPoint
 10
-2.299708333333333
 20
-2.204861111111111
 30
0.0000000000000001
  0
POINT
  5
250
330
1F
100
AcDbEntity
  8
ConnectionPoints
100
AcDbPoint
 10
-2.299708333333333
 20
2.204861111111111
 30
0.0000000000000001
  0
POINT
  5
251
330
1F
100
AcDbEntity
  8
ConnectionPoints
100
AcDbPoint
 10
-2.229708333333333
 20
0.0
 30
0.0000000000000001
  0
POINT
  5
252
330
1F
100
AcDbEntity
  8
ConnectionPoints
100
AcDbPoint
 10
-2.546875
 20
0.0
 30
0.0000000000000002
  0
POINT
  5
253
330
1F
100
AcDbEntity
  8
ConnectionPoints
100
AcDbPoint
 10
-2.428708333333333
 20
0.0
 30
0.0000000000000001
  0
POINT
  5
254
330
1F
100
AcDbEntity
  8
ConnectionPoints
100
AcDbPoint
 10
-2.229708333333333
 20
2.204861111111111
 30
0.0000000000000001
  0
POINT
  5
255
330
1F
100
AcDbEntity
  8
ConnectionPoints
100
AcDbPoint
 10
-2.414875
 20
2.204861111111111
 30
0.0000000000000001
  0
POINT
  5
256
330
1F
100
AcDbEntity
  8
ConnectionPoints
100
AcDbPoint
 10
-2.229708333333333
 20
-2.204861111111111
 30
0.0000000000000001
  0
POINT
  5
257
330
1F
100
AcDbEntity
  8
ConnectionPoints
100
AcDbPoint
 10
-2.414875
 20
-2.204861111111111
 30
0.0000000000000001
  0
POINT
  5
258
330
1F
100
AcDbEntity
  8
ConnectionPoints
100
AcDbPoint
 10
-2.229708333333333
 20
0.0
 30
0.0000000000000001
  0
POINT
  5
259
330
1F
100
AcDbEntity
  8
ConnectionPoints
100
AcDbPoint
 10
-1.1166875
 20
4.322621380500412
 30
0.0000000000000001
  0
POINT
  5
25A
330
1F
100
AcDbEntity
  8
ConnectionPoints
100
AcDbPoint
 10
-1.138854973296072
 20
4.284226190476191
 30
0.0000000000000001
  0
POINT
  5
25B
330
1F
100
AcDbEntity
  8
ConnectionPoints
100
AcDbPoint
 10
-2.296875
 20
0.0
 30
0.0000000000000001
  0
POINT
  5
25C
330
1F
100
AcDbEntity
  8
ConnectionPoints
100
AcDbPoint
 10
-2.546875
 20
0.0
 30
0.0000000000000002
  0
ENDSEC
  0
SECTION
  2
OBJECTS
  0
DICTIONARY
  5
C
330
0
100
AcDbDictionary
281
     1
  3
ACAD_DETAILVIEWSTYLE
350
264
  3
ACAD_GROUP
350
D
  3
ACAD_LAYOUT
350
1A
  3
ACAD_MATERIAL
350
43
  3
ACAD_MLEADERSTYLE
350
6B
  3
ACAD_MLINESTYLE
350
17
  3
ACAD_PLOTSETTINGS
350
19
  3
ACAD_PLOTSTYLENAME
350
E
  3
ACAD_SCALELIST
350
47
  3
ACAD_SECTIONVIEWSTYLE
350
265
  3
ACAD_TABLESTYLE
350
69
  3
ACAD_VISUALSTYLE
350
2A
  3
ACDB_RECOMPOSE_DATA
350
261
  3
AcDbVariableDictionary
350
25D
  0
SUN
  5
6D
330
29
100
AcDbSun
 90
        1
290
     0
 63
     7
421
 16777215
 40
1.0
291
     1
 91
  2455826
 92
 54000000
292
     0
 70
     2
 71
   256
280
     1
  0
DICTIONARY
  5
264
102
{ACAD_REACTORS
330
C
102
}
330
C
100
AcDbDictionary
281
     1
  0
DICTIONARY
  5
D
102
{ACAD_REACTORS
330
C
102
}
330
C
100
AcDbDictionary
281
     1
  0
DICTIONARY
  5
1A
102
{ACAD_REACTORS
330
C
102
}
330
C
100
AcDbDictionary
281
     1
  3
Layout1
350
1E
  3
Layout2
350
26
  3
Model
350
22
  0
DICTIONARY
  5
43
102
{ACAD_REACTORS
330
C
102
}
330
C
100
AcDbDictionary
281
     1
  3
ByBlock
350
45
  3
ByLayer
350
44
  3
Global
350
46
  0
DICTIONARY
  5
6B
102
{ACAD_REACTORS
330
C
102
}
330
C
100
AcDbDictionary
281
     1
  3
Standard
350
6C
  0
DICTIONARY
  5
17
102
{ACAD_REACTORS
330
C
102
}
330
C
100
AcDbDictionary
281
     1
  3
Standard
350
18
  0
DICTIONARY
  5
19
102
{ACAD_REACTORS
330
C
102
}
330
C
100
AcDbDictionary
281
     1
  0
ACDBDICTIONARYWDFLT
  5
E
102
{ACAD_REACTORS
330
C
102
}
330
C
100
AcDbDictionary
281
     1
  3
Normal
350
F
100
AcDbDictionaryWithDefault
340
F
  0
DICTIONARY
  5
47
102
{ACAD_REACTORS
330
C
102
}
330
C
100
AcDbDictionary
281
     1
  3
A0
350
48
  3
A1
350
49
  3
A2
350
4A
  3
A3
350
4B
  3
A4
350
4C
  3
A5
350
4D
  3
A6
350
4E
  3
A7
350
4F
  3
A8
350
50
  3
A9
350
51
  3
B0
350
52
  3
B1
350
53
  3
B2
350
54
  3
B3
350
55
  3
B4
350
56
  3
B5
350
57
  3
B6
350
58
  3
B7
350
59
  3
B8
350
5A
  3
B9
350
5B
  3
C0
350
5C
  3
C1
350
5D
  3
C2
350
5E
  3
C3
350
5F
  3
C4
350
60
  3
C5
350
61
  3
C6
350
62
  3
C7
350
63
  3
C8
350
64
  3
C9
350
65
  3
D0
350
66
  3
D1
350
67
  3
D2
350
68
  0
DICTIONARY
  5
265
102
{ACAD_REACTORS
330
C
102
}
330
C
100
AcDbDictionary
281
     1
  0
DICTIONARY
  5
69
102
{ACAD_REACTORS
330
C
102
}
330
C
100
AcDbDictionary
281
     1
  3
Standard
350
6A
  0
DICTIONARY
  5
2A
102
{ACAD_REACTORS
330
C
102
}
330
C
100
AcDbDictionary
281
     1
  3
2dWireframe
350
2F
  3
Basic
350
32
  3
Brighten
350
36
  3
ColorChange
350
3A
  3
Conceptual
350
34
  3
Dim
350
35
  3
EdgeColorOff
350
3D
  3
Facepattern
350
39
  3
Flat
350
2B
  3
FlatWithEdges
350
2C
  3
Gouraud
350
2D
  3
GouraudWithEdges
350
2E
  3
Hidden
350
31
  3
JitterOff
350
3B
  3
Linepattern
350
38
  3
OverhangOff
350
3C
  3
Realistic
350
33
  3
Shaded
350
42
  3
Shaded with edges
350
41
  3
Shades of Gray
350
3E
  3
Sketchy
350
3F
  3
Thicken
350
37
  3
Wireframe
350
30
  3
X-Ray
350
40
  0
XRECORD
  5
261
102
{ACAD_REACTORS
330
C
102
}
330
C
100
AcDbXrecord
280
     1
 90
        1
330
6A
  0
DICTIONARY
  5
25D
102
{ACAD_REACTORS
330
C
102
}
330
C
100
AcDbDictionary
281
     1
  3
CANNOSCALE
350
25E
  3
CMLEADERSTYLE
350
263
  3
CTABLESTYLE
350
262
  0
LAYOUT
  5
1E
102
{ACAD_REACTORS
330
1A
102
}
330
1A
100
AcDbPlotSettings
  1

  2
none_device
  4

  6

 40
0.0
 41
0.0
 42
0.0
 43
0.0
 44
0.0
 45
0.0
 46
0.0
 47
0.0
 48
0.0
 49
0.0
140
0.0
141
0.0
142
1.0
143
1.0
 70
   688
 72
     0
 73
     0
 74
     5
  7

 75
    16
 76
     0
 77
     2
 78
   300
147
1.0
148
0.0
149
0.0
100
AcDbLayout
  1
Layout1
 70
     1
 71
     1
 10
0.0
 20
0.0
 11
12.0
 21
9.0
 12
0.0
 22
0.0
 32
0.0
 14
1.000000000000000E+20
 24
1.000000000000000E+20
 34
1.000000000000000E+20
 15
-1.000000000000000E+20
 25
-1.000000000000000E+20
 35
-1.000000000000000E+20
146
0.0
 13
0.0
 23
0.0
 33
0.0
 16
1.0
 26
0.0
 36
0.0
 17
0.0
 27
1.0
 37
0.0
 76
     0
330
1B
  0
LAYOUT
  5
26
102
{ACAD_REACTORS
330
1A
102
}
330
1A
100
AcDbPlotSettings
  1

  2
none_device
  4

  6

 40
0.0
 41
0.0
 42
0.0
 43
0.0
 44
0.0
 45
0.0
 46
0.0
 47
0.0
 48
0.0
 49
0.0
140
0.0
141
0.0
142
1.0
143
1.0
 70
   688
 72
     0
 73
     0
 74
     5
  7

 75
    16
 76
     0
 77
     2
 78
   300
147
1.0
148
0.0
149
0.0
100
AcDbLayout
  1
Layout2
 70
     1
 71
     2
 10
0.0
 20
0.0
 11
0.0
 21
0.0
 12
0.0
 22
0.0
 32
0.0
 14
0.0
 24
0.0
 34
0.0
 15
0.0
 25
0.0
 35
0.0
146
0.0
 13
0.0
 23
0.0
 33
0.0
 16
1.0
 26
0.0
 36
0.0
 17
0.0
 27
1.0
 37
0.0
 76
     0
330
23
  0
LAYOUT
  5
22
102
{ACAD_REACTORS
330
1A
102
}
330
1A
100
AcDbPlotSettings
  1

  2
none_device
  4
Letter_(8.50_x_11.00_Inches)
  6

 40
6.35
 41
6.35
 42
6.35000508
 43
6.35000508
 44
215.9
 45
279.4
 46
0.0
 47
0.0
 48
0.0
 49
0.0
140
0.0
141
0.0
142
1.0
143
1.0
 70
  1712
 72
     0
 73
     0
 74
     0
  7

 75
     0
 76
     0
 77
     2
 78
   300
147
1.0
148
0.0
149
0.0
100
AcDbLayout
  1
Model
 70
     1
 71
     0
 10
0.0
 20
0.0
 11
12.0
 21
9.0
 12
0.0
 22
0.0
 32
0.0
 14
1.000000000000000E+20
 24
1.000000000000000E+20
 34
1.000000000000000E+20
 15
-1.000000000000000E+20
 25
-1.000000000000000E+20
 35
-1.000000000000000E+20
146
0.0
 13
0.0
 23
0.0
 33
0.0
 16
1.0
 26
0.0
 36
0.0
 17
0.0
 27
1.0
 37
0.0
 76
     0
330
1F
331
29
  0
MATERIAL
  5
45
102
{ACAD_REACTORS
330
43
102
}
330
43
100
AcDbMaterial
  1
ByBlock
 72
     1
 94
      127
  0
MATERIAL
  5
44
102
{ACAD_REACTORS
330
43
102
}
330
43
100
AcDbMaterial
  1
ByLayer
 72
     1
 94
      127
  0
MATERIAL
  5
46
102
{ACAD_REACTORS
330
43
102
}
330
43
100
AcDbMaterial
  1
Global
 72
     1
 94
      127
  0
MLEADERSTYLE
  5
6C
102
{ACAD_REACTORS
330
6B
102
}
330
6B
100
AcDbMLeaderStyle
179
     2
170
     2
171
     1
172
     0
 90
        2
 40
0.0
 41
0.0
173
     1
 91
-1056964608
340
14
 92
       -2
290
     1
 42
0.09
291
     1
 43
0.36
  3
Standard
341
0
 44
0.18
300

342
11
174
     1
178
     6
175
     1
176
     0
 93
-1056964608
 45
0.18
292
     0
297
     0
 46
0.18
343
0
 94
-1056964608
 47
1.0
 49
1.0
140
1.0
293
     1
141
0.0
294
     1
177
     0
142
1.0
295
     0
296
     0
143
0.125
271
     0
272
     9
273
     9
298
     0
  0
MLINESTYLE
  5
18
102
{ACAD_REACTORS
330
17
102
}
330
17
100
AcDbMlineStyle
  2
Standard
 70
     0
  3

 62
   256
 51
90.0
 52
90.0
 71
     2
 49
0.5
 62
   256
  6
BYLAYER
 49
-0.5
 62
   256
  6
BYLAYER
  0
ACDBPLACEHOLDER
  5
F
102
{ACAD_REACTORS
330
E
102
}
330
E
  0
SCALE
  5
48
102
{ACAD_REACTORS
330
47
102
}
330
47
100
AcDbScale
 70
     0
300
1:1
140
1.0
141
1.0
290
     1
  0
SCALE
  5
49
102
{ACAD_REACTORS
330
47
102
}
330
47
100
AcDbScale
 70
     0
300
1:2
140
1.0
141
2.0
290
     0
  0
SCALE
  5
4A
102
{ACAD_REACTORS
330
47
102
}
330
47
100
AcDbScale
 70
     0
300
1:4
140
1.0
141
4.0
290
     0
  0
SCALE
  5
4B
102
{ACAD_REACTORS
330
47
102
}
330
47
100
AcDbScale
 70
     0
300
1:5
140
1.0
141
5.0
290
     0
  0
SCALE
  5
4C
102
{ACAD_REACTORS
330
47
102
}
330
47
100
AcDbScale
 70
     0
300
1:8
140
1.0
141
8.0
290
     0
  0
SCALE
  5
4D
102
{ACAD_REACTORS
330
47
102
}
330
47
100
AcDbScale
 70
     0
300
1:10
140
1.0
141
10.0
290
     0
  0
SCALE
  5
4E
102
{ACAD_REACTORS
330
47
102
}
330
47
100
AcDbScale
 70
     0
300
1:16
140
1.0
141
16.0
290
     0
  0
SCALE
  5
4F
102
{ACAD_REACTORS
330
47
102
}
330
47
100
AcDbScale
 70
     0
300
1:20
140
1.0
141
20.0
290
     0
  0
SCALE
  5
50
102
{ACAD_REACTORS
330
47
102
}
330
47
100
AcDbScale
 70
     0
300
1:30
140
1.0
141
30.0
290
     0
  0
SCALE
  5
51
102
{ACAD_REACTORS
330
47
102
}
330
47
100
AcDbScale
 70
     0
300
1:40
140
1.0
141
40.0
290
     0
  0
SCALE
  5
52
102
{ACAD_REACTORS
330
47
102
}
330
47
100
AcDbScale
 70
     0
300
1:50
140
1.0
141
50.0
290
     0
  0
SCALE
  5
53
102
{ACAD_REACTORS
330
47
102
}
330
47
100
AcDbScale
 70
     0
300
1:100
140
1.0
141
100.0
290
     0
  0
SCALE
  5
54
102
{ACAD_REACTORS
330
47
102
}
330
47
100
AcDbScale
 70
     0
300
2:1
140
2.0
141
1.0
290
     0
  0
SCALE
  5
55
102
{ACAD_REACTORS
330
47
102
}
330
47
100
AcDbScale
 70
     0
300
4:1
140
4.0
141
1.0
290
     0
  0
SCALE
  5
56
102
{ACAD_REACTORS
330
47
102
}
330
47
100
AcDbScale
 70
     0
300
8:1
140
8.0
141
1.0
290
     0
  0
SCALE
  5
57
102
{ACAD_REACTORS
330
47
102
}
330
47
100
AcDbScale
 70
     0
300
10:1
140
10.0
141
1.0
290
     0
  0
SCALE
  5
58
102
{ACAD_REACTORS
330
47
102
}
330
47
100
AcDbScale
 70
     0
300
100:1
140
100.0
141
1.0
290
     0
  0
SCALE
  5
59
102
{ACAD_REACTORS
330
47
102
}
330
47
100
AcDbScale
 70
     0
300
1/128" = 1'-0"
140
0.0078125
141
12.0
290
     0
  0
SCALE
  5
5A
102
{ACAD_REACTORS
330
47
102
}
330
47
100
AcDbScale
 70
     0
300
1/64" = 1'-0"
140
0.015625
141
12.0
290
     0
  0
SCALE
  5
5B
102
{ACAD_REACTORS
330
47
102
}
330
47
100
AcDbScale
 70
     0
300
1/32" = 1'-0"
140
0.03125
141
12.0
290
     0
  0
SCALE
  5
5C
102
{ACAD_REACTORS
330
47
102
}
330
47
100
AcDbScale
 70
     0
300
1/16" = 1'-0"
140
0.0625
141
12.0
290
     0
  0
SCALE
  5
5D
102
{ACAD_REACTORS
330
47
102
}
330
47
100
AcDbScale
 70
     0
300
3/32" = 1'-0"
140
0.09375
141
12.0
290
     0
  0
SCALE
  5
5E
102
{ACAD_REACTORS
330
47
102
}
330
47
100
AcDbScale
 70
     0
300
1/8" = 1'-0"
140
0.125
141
12.0
290
     0
  0
SCALE
  5
5F
102
{ACAD_REACTORS
330
47
102
}
330
47
100
AcDbScale
 70
     0
300
3/16" = 1'-0"
140
0.1875
141
12.0
290
     0
  0
SCALE
  5
60
102
{ACAD_REACTORS
330
47
102
}
330
47
100
AcDbScale
 70
     0
300
1/4" = 1'-0"
140
0.25
141
12.0
290
     0
  0
SCALE
  5
61
102
{ACAD_REACTORS
330
47
102
}
330
47
100
AcDbScale
 70
     0
300
3/8" = 1'-0"
140
0.375
141
12.0
290
     0
  0
SCALE
  5
62
102
{ACAD_REACTORS
330
47
102
}
330
47
100
AcDbScale
 70
     0
300
1/2" = 1'-0"
140
0.5
141
12.0
290
     0
  0
SCALE
  5
63
102
{ACAD_REACTORS
330
47
102
}
330
47
100
AcDbScale
 70
     0
300
3/4" = 1'-0"
140
0.75
141
12.0
290
     0
  0
SCALE
  5
64
102
{ACAD_REACTORS
330
47
102
}
330
47
100
AcDbScale
 70
     0
300
1" = 1'-0"
140
1.0
141
12.0
290
     0
  0
SCALE
  5
65
102
{ACAD_REACTORS
330
47
102
}
330
47
100
AcDbScale
 70
     0
300
1-1/2" = 1'-0"
140
1.5
141
12.0
290
     0
  0
SCALE
  5
66
102
{ACAD_REACTORS
330
47
102
}
330
47
100
AcDbScale
 70
     0
300
3" = 1'-0"
140
3.0
141
12.0
290
     0
  0
SCALE
  5
67
102
{ACAD_REACTORS
330
47
102
}
330
47
100
AcDbScale
 70
     0
300
6" = 1'-0"
140
6.0
141
12.0
290
     0
  0
SCALE
  5
68
102
{ACAD_REACTORS
330
47
102
}
330
47
100
AcDbScale
 70
     0
300
1'-0" = 1'-0"
140
12.0
141
12.0
290
     0
  0
TABLESTYLE
  5
6A
102
{ACAD_REACTORS
330
69
102
}
102
{ACAD_XDICTIONARY
360
25F
102
}
330
69
100
AcDbTableStyle
  3
Standard
 70
     0
 71
     0
 40
0.06
 41
0.06
280
     0
281
     0
  7
Standard
140
0.18
170
     2
 62
     0
 63
   257
283
     0
 90
        4
 91
        0
  1

274
    -2
284
     1
 64
     0
275
    -2
285
     1
 65
     0
276
    -2
286
     1
 66
     0
277
    -2
287
     1
 67
     0
278
    -2
288
     1
 68
     0
279
    -2
289
     1
 69
     0
  7
Standard
140
0.25
170
     5
 62
     0
 63
   257
283
     0
 90
        4
 91
        0
  1

274
    -2
284
     1
 64
     0
275
    -2
285
     1
 65
     0
276
    -2
286
     1
 66
     0
277
    -2
287
     1
 67
     0
278
    -2
288
     1
 68
     0
279
    -2
289
     1
 69
     0
  7
Standard
140
0.18
170
     5
 62
     0
 63
   257
283
     0
 90
        4
 91
        0
  1

274
    -2
284
     1
 64
     0
275
    -2
285
     1
 65
     0
276
    -2
286
     1
 66
     0
277
    -2
287
     1
 67
     0
278
    -2
288
     1
 68
     0
279
    -2
289
     1
 69
     0
  0
VISUALSTYLE
  5
2F
102
{ACAD_REACTORS
330
2A
102
}
330
2A
100
AcDbVisualStyle
  2
2dWireframe
 70
     4
177
     3
291
     0
 70
    58
 90
        0
176
     1
 90
        2
176
     1
 90
        0
176
     1
 90
        0
176
     1
 40
0.6
176
     1
 40
30.0
176
     1
 62
     7
420
 16777215
176
     1
 90
        1
176
     1
 90
        4
176
     1
 62
     7
176
     1
 62
   257
176
     1
 90
        1
176
     1
 90
        1
176
     1
 40
1.0
176
     1
 90
        0
176
     1
 62
   257
176
     1
 40
1.0
176
     1
 90
        1
176
     1
 90
        6
176
     1
 90
        2
176
     1
 62
     7
176
     1
 90
        5
176
     1
 90
        0
176
     1
 90
        0
176
     1
290
     0
176
     1
 90
        1
176
     1
 40
0.0
176
     1
 90
        0
176
     1
290
     1
176
     1
290
     1
176
     1
290
     0
176
     1
290
     0
176
     1
290
     0
176
     1
290
     0
176
     1
290
     0
176
     1
290
     0
176
     1
290
     0
176
     1
 90
       50
176
     1
 40
0.0
176
     1
 40
1.0
176
     1
 90
        0
176
     1
 62
    18
420
        0
176
     1
 90
       50
176
     1
 90
        3
176
     1
 62
     5
420
      255
176
     1
290
     0
176
     1
 90
       50
176
     1
 90
       50
176
     1
 90
       50
176
     1
290
     0
176
     1
 90
       50
176
     1
 62
   256
176
     0
 40
1.0
176
     0
 90
        2
176
     1
  1
strokes_ogs.tif
176
     1
290
     0
176
     1
 40
1.0
176
     1
 40
1.0
176
     1
  0
VISUALSTYLE
  5
32
102
{ACAD_REACTORS
330
2A
102
}
330
2A
100
AcDbVisualStyle
  2
Basic
 70
     7
177
     3
291
     1
 70
    58
 90
        1
176
     1
 90
        0
176
     1
 90
        1
176
     1
 90
        0
176
     1
 40
0.6
176
     1
 40
30.0
176
     1
 62
     7
420
 16777215
176
     1
 90
        0
176
     1
 90
        4
176
     1
 62
     7
176
     1
 62
   257
176
     1
 90
        1
176
     1
 90
        1
176
     1
 40
1.0
176
     1
 90
        8
176
     1
 62
     7
176
     1
 40
1.0
176
     1
 90
        1
176
     1
 90
        6
176
     1
 90
        2
176
     1
 62
     7
176
     1
 90
        5
176
     1
 90
        0
176
     1
 90
        0
176
     1
290
     0
176
     1
 90
        1
176
     1
 40
0.0
176
     1
 90
        0
176
     1
290
     0
176
     1
290
     1
176
     1
290
     1
176
     1
290
     0
176
     1
290
     0
176
     1
290
     0
176
     1
290
     0
176
     1
290
     0
176
     1
290
     0
176
     1
 90
       50
176
     1
 40
0.0
176
     1
 40
1.0
176
     1
 90
        0
176
     1
 62
    18
420
        0
176
     1
 90
       50
176
     1
 90
        3
176
     1
 62
     5
420
      255
176
     1
290
     0
176
     1
 90
       50
176
     1
 90
       50
176
     1
 90
       50
176
     1
290
     0
176
     1
 90
       50
176
     1
 62
   256
176
     0
 40
1.0
176
     0
 90
        2
176
     1
  1
strokes_ogs.tif
176
     1
290
     0
176
     1
 40
1.0
176
     1
 40
1.0
176
     1
  0
VISUALSTYLE
  5
36
102
{ACAD_REACTORS
330
2A
102
}
330
2A
100
AcDbVisualStyle
  2
Brighten
 70
    12
177
     3
291
     1
 70
    58
 90
        2
176
     1
 90
        2
176
     1
 90
        0
176
     1
 90
        0
176
     1
 40
0.6
176
     1
 40
30.0
176
     1
 62
     7
420
 16777215
176
     1
 90
        1
176
     1
 90
        4
176
     1
 62
     7
176
     1
 62
   257
176
     1
 90
        1
176
     1
 90
        1
176
     1
 40
1.0
176
     1
 90
        8
176
     1
 62
     7
176
     1
 40
1.0
176
     1
 90
        1
176
     1
 90
        6
176
     1
 90
        2
176
     1
 62
     7
176
     1
 90
        5
176
     1
 90
        0
176
     1
 90
        0
176
     1
290
     0
176
     1
 90
        1
176
     1
 40
50.0
176
     1
 90
        0
176
     1
290
     0
176
     1
290
     1
176
     1
290
     1
176
     1
290
     0
176
     1
290
     0
176
     1
290
     0
176
     1
290
     0
176
     1
290
     0
176
     1
290
     0
176
     1
 90
       50
176
     1
 40
0.0
176
     1
 40
1.0
176
     1
 90
        0
176
     1
 62
    18
420
        0
176
     1
 90
       50
176
     1
 90
        3
176
     1
 62
     5
420
      255
176
     1
290
     0
176
     1
 90
       50
176
     1
 90
       50
176
     1
 90
       50
176
     1
290
     0
176
     1
 90
       50
176
     1
 62
   256
176
     0
 40
1.0
176
     0
 90
        2
176
     1
  1
strokes_ogs.tif
176
     1
290
     0
176
     1
 40
1.0
176
     1
 40
1.0
176
     1
  0
VISUALSTYLE
  5
3A
102
{ACAD_REACTORS
330
2A
102
}
330
2A
100
AcDbVisualStyle
  2
ColorChange
 70
    16
177
     3
291
     1
 70
    58
 90
        2
176
     1
 90
        2
176
     1
 90
        3
176
     1
 90
        0
176
     1
 40
0.6
176
     1
 40
30.0
176
     1
 62
     8
420
  8421504
176
     1
 90
        1
176
     1
 90
        4
176
     1
 62
     7
176
     1
 62
   257
176
     1
 90
        1
176
     1
 90
        1
176
     1
 40
1.0
176
     1
 90
        8
176
     1
 62
     8
420
  8421504
176
     1
 40
1.0
176
     1
 90
        1
176
     1
 90
        6
176
     1
 90
        2
176
     1
 62
     7
176
     1
 90
        5
176
     1
 90
        0
176
     1
 90
        0
176
     1
290
     0
176
     1
 90
        1
176
     1
 40
0.0
176
     1
 90
        0
176
     1
290
     0
176
     1
290
     1
176
     1
290
     1
176
     1
290
     0
176
     1
290
     0
176
     1
290
     0
176
     1
290
     0
176
     1
290
     0
176
     1
290
     0
176
     1
 90
       50
176
     1
 40
0.0
176
     1
 40
1.0
176
     1
 90
        0
176
     1
 62
    18
420
        0
176
     1
 90
       50
176
     1
 90
        3
176
     1
 62
     5
420
      255
176
     1
290
     0
176
     1
 90
       50
176
     1
 90
       50
176
     1
 90
       50
176
     1
290
     0
176
     1
 90
       50
176
     1
 62
   256
176
     0
 40
1.0
176
     0
 90
        2
176
     1
  1
strokes_ogs.tif
176
     1
290
     0
176
     1
 40
1.0
176
     1
 40
1.0
176
     1
  0
VISUALSTYLE
  5
34
102
{ACAD_REACTORS
330
2A
102
}
330
2A
100
AcDbVisualStyle
  2
Conceptual
 70
     9
177
     3
291
     0
 70
    58
 90
        3
176
     1
 90
        2
176
     1
 90
        0
176
     1
 90
        0
176
     1
 40
0.6
176
     1
 40
30.0
176
     1
 62
     7
420
 16777215
176
     1
 90
        2
176
     1
 90
        2
176
     1
 62
     7
176
     1
 62
   257
176
     1
 90
        1
176
     1
 90
        1
176
     1
 40
179.0
176
     1
 90
        8
176
     1
 62
     7
176
     1
 40
1.0
176
     1
 90
        1
176
     1
 90
        6
176
     1
 90
        2
176
     1
 62
     7
176
     1
 90
        3
176
     1
 90
        0
176
     1
 90
        0
176
     1
290
     0
176
     1
 90
        1
176
     1
 40
0.0
176
     1
 90
        0
176
     1
290
     0
176
     1
290
     1
176
     1
290
     1
176
     1
290
     0
176
     1
290
     0
176
     1
290
     0
176
     1
290
     0
176
     1
290
     0
176
     1
290
     0
176
     1
 90
       50
176
     1
 40
0.0
176
     1
 40
1.0
176
     1
 90
        0
176
     1
 62
    18
420
        0
176
     1
 90
       50
176
     1
 90
        3
176
     1
 62
     5
420
      255
176
     1
290
     0
176
     1
 90
       50
176
     1
 90
       50
176
     1
 90
       50
176
     1
290
     0
176
     1
 90
       50
176
     1
 62
   256
176
     0
 40
1.0
176
     0
 90
        2
176
     1
  1
strokes_ogs.tif
176
     1
290
     0
176
     1
 40
1.0
176
     1
 40
1.0
176
     1
  0
VISUALSTYLE
  5
35
102
{ACAD_REACTORS
330
2A
102
}
330
2A
100
AcDbVisualStyle
  2
Dim
 70
    11
177
     3
291
     1
 70
    58
 90
        2
176
     1
 90
        2
176
     1
 90
        0
176
     1
 90
        0
176
     1
 40
0.6
176
     1
 40
30.0
176
     1
 62
     7
420
 16777215
176
     1
 90
        1
176
     1
 90
        4
176
     1
 62
     7
176
     1
 62
   257
176
     1
 90
        1
176
     1
 90
        1
176
     1
 40
1.0
176
     1
 90
        8
176
     1
 62
     7
176
     1
 40
1.0
176
     1
 90
        1
176
     1
 90
        6
176
     1
 90
        2
176
     1
 62
     7
176
     1
 90
        5
176
     1
 90
        0
176
     1
 90
        0
176
     1
290
     0
176
     1
 90
        1
176
     1
 40
-50.0
176
     1
 90
        0
176
     1
290
     0
176
     1
290
     1
176
     1
290
     1
176
     1
290
     0
176
     1
290
     0
176
     1
290
     0
176
     1
290
     0
176
     1
290
     0
176
     1
290
     0
176
     1
 90
       50
176
     1
 40
0.0
176
     1
 40
1.0
176
     1
 90
        0
176
     1
 62
    18
420
        0
176
     1
 90
       50
176
     1
 90
        3
176
     1
 62
     5
420
      255
176
     1
290
     0
176
     1
 90
       50
176
     1
 90
       50
176
     1
 90
       50
176
     1
290
     0
176
     1
 90
       50
176
     1
 62
   256
176
     0
 40
1.0
176
     0
 90
        2
176
     1
  1
strokes_ogs.tif
176
     1
290
     0
176
     1
 40
1.0
176
     1
 40
1.0
176
     1
  0
VISUALSTYLE
  5
3D
102
{ACAD_REACTORS
330
2A
102
}
330
2A
100
AcDbVisualStyle
  2
EdgeColorOff
 70
    22
177
     3
291
     1
 70
    58
 90
        2
176
     0
 90
        2
176
     0
 90
        0
176
     0
 90
        0
176
     0
 40
0.6
176
     0
 40
30.0
176
     0
 62
     7
420
 16777215
176
     0
 90
        1
176
     0
 90
        4
176
     0
 62
     7
176
     0
 62
   257
176
     0
 90
        1
176
     0
 90
        1
176
     0
 40
1.0
176
     0
 90
        8
176
     2
 62
     7
176
     0
 40
1.0
176
     0
 90
        1
176
     0
 90
        6
176
     0
 90
        2
176
     0
 62
     7
176
     0
 90
        5
176
     0
 90
        0
176
     0
 90
        0
176
     0
290
     0
176
     0
 90
        1
176
     0
 40
0.0
176
     0
 90
        0
176
     0
290
     0
176
     0
290
     1
176
     0
290
     1
176
     0
290
     0
176
     0
290
     0
176
     0
290
     0
176
     0
290
     0
176
     0
290
     0
176
     0
290
     0
176
     0
 90
       50
176
     0
 40
0.0
176
     0
 40
1.0
176
     0
 90
        0
176
     0
 62
    18
420
        0
176
     0
 90
       50
176
     0
 90
        3
176
     0
 62
     5
420
      255
176
     0
290
     0
176
     0
 90
       50
176
     0
 90
       50
176
     0
 90
       50
176
     0
290
     0
176
     0
 90
       50
176
     0
 62
   256
176
     0
 40
1.0
176
     0
 90
        2
176
     0
  1
strokes_ogs.tif
176
     0
290
     0
176
     0
 40
1.0
176
     0
 40
1.0
176
     0
  0
VISUALSTYLE
  5
39
102
{ACAD_REACTORS
330
2A
102
}
330
2A
100
AcDbVisualStyle
  2
Facepattern
 70
    15
177
     3
291
     1
 70
    58
 90
        2
176
     1
 90
        2
176
     1
 90
        0
176
     1
 90
        0
176
     1
 40
0.6
176
     1
 40
30.0
176
     1
 62
     7
420
 16777215
176
     1
 90
        1
176
     1
 90
        4
176
     1
 62
     7
176
     1
 62
   257
176
     1
 90
        1
176
     1
 90
        1
176
     1
 40
1.0
176
     1
 90
        8
176
     1
 62
     7
176
     1
 40
1.0
176
     1
 90
        1
176
     1
 90
        6
176
     1
 90
        2
176
     1
 62
     7
176
     1
 90
        5
176
     1
 90
        0
176
     1
 90
        0
176
     1
290
     0
176
     1
 90
        1
176
     1
 40
0.0
176
     1
 90
        0
176
     1
290
     0
176
     1
290
     1
176
     1
290
     1
176
     1
290
     0
176
     1
290
     0
176
     1
290
     0
176
     1
290
     0
176
     1
290
     0
176
     1
290
     0
176
     1
 90
       50
176
     1
 40
0.0
176
     1
 40
1.0
176
     1
 90
        0
176
     1
 62
    18
420
        0
176
     1
 90
       50
176
     1
 90
        3
176
     1
 62
     5
420
      255
176
     1
290
     0
176
     1
 90
       50
176
     1
 90
       50
176
     1
 90
       50
176
     1
290
     0
176
     1
 90
       50
176
     1
 62
   256
176
     0
 40
1.0
176
     0
 90
        2
176
     1
  1
strokes_ogs.tif
176
     1
290
     0
176
     1
 40
1.0
176
     1
 40
1.0
176
     1
  0
VISUALSTYLE
  5
2B
102
{ACAD_REACTORS
330
2A
102
}
330
2A
100
AcDbVisualStyle
  2
Flat
 70
     0
177
     3
291
     1
 70
    58
 90
        2
176
     1
 90
        1
176
     1
 90
        1
176
     1
 90
        2
176
     1
 40
0.6
176
     1
 40
30.0
176
     1
 62
     7
420
 16777215
176
     1
 90
        0
176
     1
 90
        0
176
     1
 62
     7
176
     1
 62
   257
176
     1
 90
        1
176
     1
 90
        1
176
     1
 40
1.0
176
     1
 90
        8
176
     1
 62
     7
176
     1
 40
1.0
176
     1
 90
        1
176
     1
 90
        6
176
     1
 90
        2
176
     1
 62
     7
176
     1
 90
        5
176
     1
 90
        0
176
     1
 90
        0
176
     1
290
     0
176
     1
 90
       13
176
     1
 40
0.0
176
     1
 90
        0
176
     1
290
     0
176
     1
290
     1
176
     1
290
     1
176
     1
290
     0
176
     1
290
     0
176
     1
290
     0
176
     1
290
     0
176
     1
290
     0
176
     1
290
     0
176
     1
 90
       50
176
     1
 40
0.0
176
     1
 40
1.0
176
     1
 90
        0
176
     1
 62
    18
420
        0
176
     1
 90
       50
176
     1
 90
        3
176
     1
 62
     5
420
      255
176
     1
290
     0
176
     1
 90
       50
176
     1
 90
       50
176
     1
 90
       50
176
     1
290
     0
176
     1
 90
       50
176
     1
 62
   256
176
     0
 40
1.0
176
     0
 90
        2
176
     1
  1
strokes_ogs.tif
176
     1
290
     0
176
     1
 40
1.0
176
     1
 40
1.0
176
     1
  0
VISUALSTYLE
  5
2C
102
{ACAD_REACTORS
330
2A
102
}
330
2A
100
AcDbVisualStyle
  2
FlatWithEdges
 70
     1
177
     3
291
     1
 70
    58
 90
        2
176
     1
 90
        1
176
     1
 90
        1
176
     1
 90
        2
176
     1
 40
0.6
176
     1
 40
30.0
176
     1
 62
     7
420
 16777215
176
     1
 90
        1
176
     1
 90
        0
176
     1
 62
     7
176
     1
 62
   257
176
     1
 90
        1
176
     1
 90
        1
176
     1
 40
1.0
176
     1
 90
        0
176
     1
 62
   257
176
     1
 40
1.0
176
     1
 90
        1
176
     1
 90
        6
176
     1
 90
        2
176
     1
 62
     7
176
     1
 90
        5
176
     1
 90
        0
176
     1
 90
        0
176
     1
290
     0
176
     1
 90
       13
176
     1
 40
0.0
176
     1
 90
        0
176
     1
290
     0
176
     1
290
     1
176
     1
290
     1
176
     1
290
     0
176
     1
290
     0
176
     1
290
     0
176
     1
290
     0
176
     1
290
     0
176
     1
290
     0
176
     1
 90
       50
176
     1
 40
0.0
176
     1
 40
1.0
176
     1
 90
        0
176
     1
 62
    18
420
        0
176
     1
 90
       50
176
     1
 90
        3
176
     1
 62
     5
420
      255
176
     1
290
     0
176
     1
 90
       50
176
     1
 90
       50
176
     1
 90
       50
176
     1
290
     0
176
     1
 90
       50
176
     1
 62
   256
176
     0
 40
1.0
176
     0
 90
        2
176
     1
  1
strokes_ogs.tif
176
     1
290
     0
176
     1
 40
1.0
176
     1
 40
1.0
176
     1
  0
VISUALSTYLE
  5
2D
102
{ACAD_REACTORS
330
2A
102
}
330
2A
100
AcDbVisualStyle
  2
Gouraud
 70
     2
177
     3
291
     1
 70
    58
 90
        2
176
     1
 90
        2
176
     1
 90
        1
176
     1
 90
        2
176
     1
 40
0.6
176
     1
 40
30.0
176
     1
 62
     7
420
 16777215
176
     1
 90
        0
176
     1
 90
        0
176
     1
 62
     7
176
     1
 62
   257
176
     1
 90
        1
176
     1
 90
        1
176
     1
 40
1.0
176
     1
 90
        0
176
     1
 62
     7
176
     1
 40
1.0
176
     1
 90
        1
176
     1
 90
        6
176
     1
 90
        2
176
     1
 62
     7
176
     1
 90
        5
176
     1
 90
        0
176
     1
 90
        0
176
     1
290
     0
176
     1
 90
       13
176
     1
 40
0.0
176
     1
 90
        0
176
     1
290
     0
176
     1
290
     1
176
     1
290
     1
176
     1
290
     0
176
     1
290
     0
176
     1
290
     0
176
     1
290
     0
176
     1
290
     0
176
     1
290
     0
176
     1
 90
       50
176
     1
 40
0.0
176
     1
 40
1.0
176
     1
 90
        0
176
     1
 62
    18
420
        0
176
     1
 90
       50
176
     1
 90
        3
176
     1
 62
     5
420
      255
176
     1
290
     0
176
     1
 90
       50
176
     1
 90
       50
176
     1
 90
       50
176
     1
290
     0
176
     1
 90
       50
176
     1
 62
   256
176
     0
 40
1.0
176
     0
 90
        2
176
     1
  1
strokes_ogs.tif
176
     1
290
     0
176
     1
 40
1.0
176
     1
 40
1.0
176
     1
  0
VISUALSTYLE
  5
2E
102
{ACAD_REACTORS
330
2A
102
}
330
2A
100
AcDbVisualStyle
  2
GouraudWithEdges
 70
     3
177
     3
291
     1
 70
    58
 90
        2
176
     1
 90
        2
176
     1
 90
        1
176
     1
 90
        2
176
     1
 40
0.6
176
     1
 40
30.0
176
     1
 62
     7
420
 16777215
176
     1
 90
        1
176
     1
 90
        0
176
     1
 62
     7
176
     1
 62
   257
176
     1
 90
        1
176
     1
 90
        1
176
     1
 40
1.0
176
     1
 90
        0
176
     1
 62
   257
176
     1
 40
1.0
176
     1
 90
        1
176
     1
 90
        6
176
     1
 90
        2
176
     1
 62
     7
176
     1
 90
        5
176
     1
 90
        0
176
     1
 90
        0
176
     1
290
     0
176
     1
 90
       13
176
     1
 40
0.0
176
     1
 90
        0
176
     1
290
     0
176
     1
290
     1
176
     1
290
     1
176
     1
290
     0
176
     1
290
     0
176
     1
290
     0
176
     1
290
     0
176
     1
290
     0
176
     1
290
     0
176
     1
 90
       50
176
     1
 40
0.0
176
     1
 40
1.0
176
     1
 90
        0
176
     1
 62
    18
420
        0
176
     1
 90
       50
176
     1
 90
        3
176
     1
 62
     5
420
      255
176
     1
290
     0
176
     1
 90
       50
176
     1
 90
       50
176
     1
 90
       50
176
     1
290
     0
176
     1
 90
       50
176
     1
 62
   256
176
     0
 40
1.0
176
     0
 90
        2
176
     1
  1
strokes_ogs.tif
176
     1
290
     0
176
     1
 40
1.0
176
     1
 40
1.0
176
     1
  0
VISUALSTYLE
  5
31
102
{ACAD_REACTORS
330
2A
102
}
330
2A
100
AcDbVisualStyle
  2
Hidden
 70
     6
177
     3
291
     0
 70
    58
 90
        1
176
     1
 90
        2
176
     1
 90
        2
176
     1
 90
        0
176
     1
 40
0.6
176
     1
 40
30.0
176
     1
 62
     7
420
 16777215
176
     1
 90
        2
176
     1
 90
        2
176
     1
 62
     7
176
     1
 62
   257
176
     1
 90
        2
176
     1
 90
        1
176
     1
 40
40.0
176
     1
 90
        0
176
     1
 62
   257
176
     1
 40
1.0
176
     1
 90
        1
176
     1
 90
        6
176
     1
 90
        2
176
     1
 62
     7
176
     1
 90
        3
176
     1
 90
        0
176
     1
 90
        0
176
     1
290
     0
176
     1
 90
        1
176
     1
 40
0.0
176
     1
 90
        0
176
     1
290
     0
176
     1
290
     1
176
     1
290
     1
176
     1
290
     0
176
     1
290
     0
176
     1
290
     0
176
     1
290
     0
176
     1
290
     0
176
     1
290
     0
176
     1
 90
       50
176
     1
 40
0.0
176
     1
 40
1.0
176
     1
 90
        0
176
     1
 62
    18
420
        0
176
     1
 90
       50
176
     1
 90
        3
176
     1
 62
     5
420
      255
176
     1
290
     0
176
     1
 90
       50
176
     1
 90
       50
176
     1
 90
       50
176
     1
290
     0
176
     1
 90
       50
176
     1
 62
   256
176
     0
 40
1.0
176
     0
 90
        2
176
     1
  1
strokes_ogs.tif
176
     1
290
     0
176
     1
 40
1.0
176
     1
 40
1.0
176
     1
  0
VISUALSTYLE
  5
3B
102
{ACAD_REACTORS
330
2A
102
}
330
2A
100
AcDbVisualStyle
  2
JitterOff
 70
    20
177
     3
291
     1
 70
    58
 90
        2
176
     0
 90
        2
176
     0
 90
        0
176
     0
 90
        0
176
     0
 40
0.6
176
     0
 40
30.0
176
     0
 62
     7
420
 16777215
176
     0
 90
        1
176
     0
 90
        4
176
     0
 62
     7
176
     0
 62
   257
176
     0
 90
        1
176
     0
 90
        1
176
     0
 40
1.0
176
     0
 90
       10
176
     2
 62
     7
176
     0
 40
1.0
176
     0
 90
        1
176
     0
 90
        6
176
     0
 90
        2
176
     0
 62
     7
176
     0
 90
        5
176
     0
 90
        0
176
     0
 90
        0
176
     0
290
     0
176
     0
 90
        1
176
     0
 40
0.0
176
     0
 90
        0
176
     0
290
     0
176
     0
290
     1
176
     0
290
     1
176
     0
290
     0
176
     0
290
     0
176
     0
290
     0
176
     0
290
     0
176
     0
290
     0
176
     0
290
     0
176
     0
 90
       50
176
     0
 40
0.0
176
     0
 40
1.0
176
     0
 90
        0
176
     0
 62
    18
420
        0
176
     0
 90
       50
176
     0
 90
        3
176
     0
 62
     5
420
      255
176
     0
290
     0
176
     0
 90
       50
176
     0
 90
       50
176
     0
 90
       50
176
     0
290
     0
176
     0
 90
       50
176
     0
 62
   256
176
     0
 40
1.0
176
     0
 90
        2
176
     0
  1
strokes_ogs.tif
176
     0
290
     0
176
     0
 40
1.0
176
     0
 40
1.0
176
     0
  0
VISUALSTYLE
  5
38
102
{ACAD_REACTORS
330
2A
102
}
330
2A
100
AcDbVisualStyle
  2
Linepattern
 70
    14
177
     3
291
     1
 70
    58
 90
        2
176
     1
 90
        2
176
     1
 90
        0
176
     1
 90
        0
176
     1
 40
0.6
176
     1
 40
30.0
176
     1
 62
     7
420
 16777215
176
     1
 90
        1
176
     1
 90
        4
176
     1
 62
     7
176
     1
 62
   257
176
     1
 90
        7
176
     1
 90
        7
176
     1
 40
1.0
176
     1
 90
        8
176
     1
 62
     7
176
     1
 40
1.0
176
     1
 90
        1
176
     1
 90
        6
176
     1
 90
        2
176
     1
 62
     7
176
     1
 90
        5
176
     1
 90
        0
176
     1
 90
        0
176
     1
290
     0
176
     1
 90
        1
176
     1
 40
0.0
176
     1
 90
        0
176
     1
290
     0
176
     1
290
     1
176
     1
290
     1
176
     1
290
     0
176
     1
290
     0
176
     1
290
     0
176
     1
290
     0
176
     1
290
     0
176
     1
290
     0
176
     1
 90
       50
176
     1
 40
0.0
176
     1
 40
1.0
176
     1
 90
        0
176
     1
 62
    18
420
        0
176
     1
 90
       50
176
     1
 90
        3
176
     1
 62
     5
420
      255
176
     1
290
     0
176
     1
 90
       50
176
     1
 90
       50
176
     1
 90
       50
176
     1
290
     0
176
     1
 90
       50
176
     1
 62
   256
176
     0
 40
1.0
176
     0
 90
        2
176
     1
  1
strokes_ogs.tif
176
     1
290
     0
176
     1
 40
1.0
176
     1
 40
1.0
176
     1
  0
VISUALSTYLE
  5
3C
102
{ACAD_REACTORS
330
2A
102
}
330
2A
100
AcDbVisualStyle
  2
OverhangOff
 70
    21
177
     3
291
     1
 70
    58
 90
        2
176
     0
 90
        2
176
     0
 90
        0
176
     0
 90
        0
176
     0
 40
0.6
176
     0
 40
30.0
176
     0
 62
     7
420
 16777215
176
     0
 90
        1
176
     0
 90
        4
176
     0
 62
     7
176
     0
 62
   257
176
     0
 90
        1
176
     0
 90
        1
176
     0
 40
1.0
176
     0
 90
        9
176
     2
 62
     7
176
     0
 40
1.0
176
     0
 90
        1
176
     0
 90
        6
176
     0
 90
        2
176
     0
 62
     7
176
     0
 90
        5
176
     0
 90
        0
176
     0
 90
        0
176
     0
290
     0
176
     0
 90
        1
176
     0
 40
0.0
176
     0
 90
        0
176
     0
290
     0
176
     0
290
     1
176
     0
290
     1
176
     0
290
     0
176
     0
290
     0
176
     0
290
     0
176
     0
290
     0
176
     0
290
     0
176
     0
290
     0
176
     0
 90
       50
176
     0
 40
0.0
176
     0
 40
1.0
176
     0
 90
        0
176
     0
 62
    18
420
        0
176
     0
 90
       50
176
     0
 90
        3
176
     0
 62
     5
420
      255
176
     0
290
     0
176
     0
 90
       50
176
     0
 90
       50
176
     0
 90
       50
176
     0
290
     0
176
     0
 90
       50
176
     0
 62
   256
176
     0
 40
1.0
176
     0
 90
        2
176
     0
  1
strokes_ogs.tif
176
     0
290
     0
176
     0
 40
1.0
176
     0
 40
1.0
176
     0
  0
VISUALSTYLE
  5
33
102
{ACAD_REACTORS
330
2A
102
}
330
2A
100
AcDbVisualStyle
  2
Realistic
 70
     8
177
     3
291
     0
 70
    58
 90
        2
176
     1
 90
        3
176
     1
 90
        0
176
     1
 90
        2
176
     1
 40
0.6
176
     1
 40
30.0
176
     1
 62
     7
420
 16777215
176
     1
 90
        0
176
     1
 90
        0
176
     1
 62
     7
176
     1
 62
   257
176
     1
 90
        1
176
     1
 90
        1
176
     1
 40
1.0
176
     1
 90
        8
176
     1
 62
   257
176
     1
 40
1.0
176
     1
 90
        1
176
     1
 90
        6
176
     1
 90
        2
176
     1
 62
     7
176
     1
 90
        3
176
     1
 90
        0
176
     1
 90
        0
176
     1
290
     0
176
     1
 90
       13
176
     1
 40
0.0
176
     1
 90
        0
176
     1
290
     0
176
     1
290
     1
176
     1
290
     1
176
     1
290
     0
176
     1
290
     0
176
     1
290
     0
176
     1
290
     0
176
     1
290
     0
176
     1
290
     0
176
     1
 90
       50
176
     1
 40
0.0
176
     1
 40
1.0
176
     1
 90
        0
176
     1
 62
    18
420
        0
176
     1
 90
       50
176
     1
 90
        3
176
     1
 62
     5
420
      255
176
     1
290
     0
176
     1
 90
       50
176
     1
 90
       50
176
     1
 90
       50
176
     1
290
     0
176
     1
 90
       50
176
     1
 62
   256
176
     0
 40
1.0
176
     0
 90
        2
176
     1
  1
strokes_ogs.tif
176
     1
290
     0
176
     1
 40
1.0
176
     1
 40
1.0
176
     1
  0
VISUALSTYLE
  5
42
102
{ACAD_REACTORS
330
2A
102
}
330
2A
100
AcDbVisualStyle
  2
Shaded
 70
    27
177
     3
291
     0
 70
    58
 90
        2
176
     1
 90
        2
176
     1
 90
        1
176
     1
 90
        2
176
     1
 40
0.6
176
     1
 40
30.0
176
     1
 62
     7
420
 16777215
176
     1
 90
        0
176
     1
 90
        4
176
     1
 62
     7
176
     1
 62
   257
176
     1
 90
        1
176
     1
 90
        1
176
     1
 40
1.0
176
     1
 90
        8
176
     1
 62
   257
176
     1
 40
1.0
176
     1
 90
        1
176
     1
 90
        6
176
     1
 90
        2
176
     1
 62
     8
420
  7895160
176
     1
 90
        3
176
     1
 90
        0
176
     1
 90
        0
176
     1
290
     0
176
     1
 90
        5
176
     1
 40
0.0
176
     1
 90
        0
176
     1
290
     0
176
     1
290
     1
176
     1
290
     1
176
     1
290
     0
176
     1
290
     0
176
     1
290
     0
176
     1
290
     0
176
     1
290
     0
176
     1
290
     0
176
     1
 90
       50
176
     1
 40
0.0
176
     1
 40
1.0
176
     1
 90
        0
176
     1
 62
    18
420
        0
176
     1
 90
       50
176
     1
 90
        3
176
     1
 62
     5
420
      255
176
     1
290
     0
176
     1
 90
       50
176
     1
 90
       50
176
     1
 90
       50
176
     1
290
     0
176
     1
 90
       50
176
     1
 62
   256
176
     0
 40
1.0
176
     0
 90
        2
176
     1
  1
strokes_ogs.tif
176
     1
290
     0
176
     1
 40
1.0
176
     1
 40
1.0
176
     1
  0
VISUALSTYLE
  5
41
102
{ACAD_REACTORS
330
2A
102
}
330
2A
100
AcDbVisualStyle
  2
Shaded with edges
 70
    26
177
     3
291
     0
 70
    58
 90
        2
176
     1
 90
        2
176
     1
 90
        1
176
     1
 90
        2
176
     1
 40
0.6
176
     1
 40
30.0
176
     1
 62
     7
420
 16777215
176
     1
 90
        1
176
     1
 90
       10
176
     1
 62
     7
176
     1
 62
   257
176
     1
 90
        2
176
     1
 90
        1
176
     1
 40
1.0
176
     1
 90
        8
176
     1
 62
   257
176
     1
 40
1.0
176
     1
 90
        1
176
     1
 90
        6
176
     1
 90
        2
176
     1
 62
     7
176
     1
 90
        3
176
     1
 90
        0
176
     1
 90
        0
176
     1
290
     0
176
     1
 90
        5
176
     1
 40
0.0
176
     1
 90
        0
176
     1
290
     0
176
     1
290
     1
176
     1
290
     1
176
     1
290
     0
176
     1
290
     0
176
     1
290
     0
176
     1
290
     0
176
     1
290
     0
176
     1
290
     0
176
     1
 90
       50
176
     1
 40
0.0
176
     1
 40
1.0
176
     1
 90
        0
176
     1
 62
    18
420
        0
176
     1
 90
       50
176
     1
 90
        3
176
     1
 62
     5
420
      255
176
     1
290
     0
176
     1
 90
       50
176
     1
 90
       50
176
     1
 90
       50
176
     1
290
     0
176
     1
 90
       50
176
     1
 62
   256
176
     0
 40
1.0
176
     0
 90
        2
176
     1
  1
strokes_ogs.tif
176
     1
290
     0
176
     1
 40
1.0
176
     1
 40
1.0
176
     1
  0
VISUALSTYLE
  5
3E
102
{ACAD_REACTORS
330
2A
102
}
330
2A
100
AcDbVisualStyle
  2
Shades of Gray
 70
    23
177
     3
291
     0
 70
    58
 90
        2
176
     1
 90
        2
176
     1
 90
        3
176
     1
 90
        0
176
     1
 40
0.6
176
     1
 40
30.0
176
     1
 62
     7
420
 16777215
176
     1
 90
        2
176
     1
 90
        2
176
     1
 62
     7
176
     1
 62
     7
176
     1
 90
        1
176
     1
 90
        1
176
     1
 40
40.0
176
     1
 90
        8
176
     1
 62
     7
176
     1
 40
1.0
176
     1
 90
        1
176
     1
 90
        6
176
     1
 90
        2
176
     1
 62
     7
176
     1
 90
        3
176
     1
 90
        0
176
     1
 90
        0
176
     1
290
     0
176
     1
 90
        1
176
     1
 40
0.0
176
     1
 90
        0
176
     1
290
     0
176
     1
290
     1
176
     1
290
     1
176
     1
290
     0
176
     1
290
     0
176
     1
290
     0
176
     1
290
     0
176
     1
290
     0
176
     1
290
     0
176
     1
 90
       50
176
     1
 40
0.0
176
     1
 40
1.0
176
     1
 90
        0
176
     1
 62
    18
420
        0
176
     1
 90
       50
176
     1
 90
        3
176
     1
 62
     5
420
      255
176
     1
290
     0
176
     1
 90
       50
176
     1
 90
       50
176
     1
 90
       50
176
     1
290
     0
176
     1
 90
       50
176
     1
 62
   256
176
     0
 40
1.0
176
     0
 90
        2
176
     1
  1
strokes_ogs.tif
176
     1
290
     0
176
     1
 40
1.0
176
     1
 40
1.0
176
     1
  0
VISUALSTYLE
  5
3F
102
{ACAD_REACTORS
330
2A
102
}
330
2A
100
AcDbVisualStyle
  2
Sketchy
 70
    24
177
     3
291
     0
 70
    58
 90
        1
176
     1
 90
        2
176
     1
 90
        2
176
     1
 90
        0
176
     1
 40
0.6
176
     1
 40
30.0
176
     1
 62
     7
420
 16777215
176
     1
 90
        2
176
     1
 90
        2
176
     1
 62
     7
176
     1
 62
     7
176
     1
 90
        1
176
     1
 90
        1
176
     1
 40
40.0
176
     1
 90
       11
176
     1
 62
     7
176
     1
 40
1.0
176
     1
 90
        1
176
     1
 90
        6
176
     1
 90
        2
176
     1
 62
     7
176
     1
 90
        6
176
     1
 90
        0
176
     1
 90
        0
176
     1
290
     0
176
     1
 90
        1
176
     1
 40
0.0
176
     1
 90
        0
176
     1
290
     0
176
     1
290
     1
176
     1
290
     1
176
     1
290
     0
176
     1
290
     0
176
     1
290
     0
176
     1
290
     0
176
     1
290
     0
176
     1
290
     0
176
     1
 90
       50
176
     1
 40
0.0
176
     1
 40
1.0
176
     1
 90
        0
176
     1
 62
    18
420
        0
176
     1
 90
       50
176
     1
 90
        3
176
     1
 62
     5
420
      255
176
     1
290
     0
176
     1
 90
       50
176
     1
 90
       50
176
     1
 90
       50
176
     1
290
     0
176
     1
 90
       50
176
     1
 62
   256
176
     0
 40
1.0
176
     0
 90
        2
176
     1
  1
strokes_ogs.tif
176
     1
290
     0
176
     1
 40
1.0
176
     1
 40
1.0
176
     1
  0
VISUALSTYLE
  5
37
102
{ACAD_REACTORS
330
2A
102
}
330
2A
100
AcDbVisualStyle
  2
Thicken
 70
    13
177
     3
291
     1
 70
    58
 90
        2
176
     1
 90
        2
176
     1
 90
        0
176
     1
 90
        0
176
     1
 40
0.6
176
     1
 40
30.0
176
     1
 62
     7
420
 16777215
176
     1
 90
        1
176
     1
 90
        4
176
     1
 62
     7
176
     1
 62
   257
176
     1
 90
        1
176
     1
 90
        1
176
     1
 40
1.0
176
     1
 90
       12
176
     1
 62
     7
176
     1
 40
1.0
176
     1
 90
        1
176
     1
 90
        6
176
     1
 90
        2
176
     1
 62
     7
176
     1
 90
        5
176
     1
 90
        0
176
     1
 90
        0
176
     1
290
     0
176
     1
 90
        1
176
     1
 40
0.0
176
     1
 90
        0
176
     1
290
     0
176
     1
290
     1
176
     1
290
     1
176
     1
290
     0
176
     1
290
     0
176
     1
290
     0
176
     1
290
     0
176
     1
290
     0
176
     1
290
     0
176
     1
 90
       50
176
     1
 40
0.0
176
     1
 40
1.0
176
     1
 90
        0
176
     1
 62
    18
420
        0
176
     1
 90
       50
176
     1
 90
        3
176
     1
 62
     5
420
      255
176
     1
290
     0
176
     1
 90
       50
176
     1
 90
       50
176
     1
 90
       50
176
     1
290
     0
176
     1
 90
       50
176
     1
 62
   256
176
     0
 40
1.0
176
     0
 90
        2
176
     1
  1
strokes_ogs.tif
176
     1
290
     0
176
     1
 40
1.0
176
     1
 40
1.0
176
     1
  0
VISUALSTYLE
  5
30
102
{ACAD_REACTORS
330
2A
102
}
330
2A
100
AcDbVisualStyle
  2
Wireframe
 70
     5
177
     3
291
     0
 70
    58
 90
        0
176
     1
 90
        2
176
     1
 90
        0
176
     1
 90
        0
176
     1
 40
0.6
176
     1
 40
30.0
176
     1
 62
     7
420
 16777215
176
     1
 90
        1
176
     1
 90
        4
176
     1
 62
     7
176
     1
 62
   257
176
     1
 90
        1
176
     1
 90
        1
176
     1
 40
1.0
176
     1
 90
        0
176
     1
 62
   257
176
     1
 40
1.0
176
     1
 90
        1
176
     1
 90
        6
176
     1
 90
        2
176
     1
 62
     7
176
     1
 90
        3
176
     1
 90
        0
176
     1
 90
        0
176
     1
290
     0
176
     1
 90
        1
176
     1
 40
0.0
176
     1
 90
        0
176
     1
290
     0
176
     1
290
     1
176
     1
290
     1
176
     1
290
     0
176
     1
290
     0
176
     1
290
     0
176
     1
290
     0
176
     1
290
     0
176
     1
290
     0
176
     1
 90
       50
176
     1
 40
0.0
176
     1
 40
1.0
176
     1
 90
        0
176
     1
 62
    18
420
        0
176
     1
 90
       50
176
     1
 90
        3
176
     1
 62
     5
420
      255
176
     1
290
     0
176
     1
 90
       50
176
     1
 90
       50
176
     1
 90
       50
176
     1
290
     0
176
     1
 90
       50
176
     1
 62
   256
176
     0
 40
1.0
176
     0
 90
        2
176
     1
  1
strokes_ogs.tif
176
     1
290
     0
176
     1
 40
1.0
176
     1
 40
1.0
176
     1
  0
VISUALSTYLE
  5
40
102
{ACAD_REACTORS
330
2A
102
}
330
2A
100
AcDbVisualStyle
  2
X-Ray
 70
    25
177
     3
291
     0
 70
    58
 90
        2
176
     1
 90
        2
176
     1
 90
        1
176
     1
 90
        1
176
     1
 40
0.5
176
     1
 40
30.0
176
     1
 62
     7
420
 16777215
176
     1
 90
        1
176
     1
 90
        0
176
     1
 62
     7
176
     1
 62
   257
176
     1
 90
        1
176
     1
 90
        1
176
     1
 40
1.0
176
     1
 90
        8
176
     1
 62
     7
176
     1
 40
1.0
176
     1
 90
        1
176
     1
 90
        6
176
     1
 90
        2
176
     1
 62
     7
176
     1
 90
        3
176
     1
 90
        0
176
     1
 90
        0
176
     1
290
     0
176
     1
 90
       13
176
     1
 40
0.0
176
     1
 90
        0
176
     1
290
     0
176
     1
290
     1
176
     1
290
     1
176
     1
290
     0
176
     1
290
     0
176
     1
290
     0
176
     1
290
     0
176
     1
290
     0
176
     1
290
     0
176
     1
 90
       50
176
     1
 40
0.0
176
     1
 40
1.0
176
     1
 90
        0
176
     1
 62
    18
420
        0
176
     1
 90
       50
176
     1
 90
        3
176
     1
 62
     5
420
      255
176
     1
290
     0
176
     1
 90
       50
176
     1
 90
       50
176
     1
 90
       50
176
     1
290
     0
176
     1
 90
       50
176
     1
 62
   256
176
     0
 40
1.0
176
     0
 90
        2
176
     1
  1
strokes_ogs.tif
176
     1
290
     0
176
     1
 40
1.0
176
     1
 40
1.0
176
     1
  0
DICTIONARYVAR
  5
25E
102
{ACAD_REACTORS
330
25D
102
}
330
25D
100
DictionaryVariables
280
     0
  1
1:1
  0
DICTIONARYVAR
  5
263
102
{ACAD_REACTORS
330
25D
102
}
330
25D
100
DictionaryVariables
280
     0
  1
Standard
  0
DICTIONARYVAR
  5
262
102
{ACAD_REACTORS
330
25D
102
}
330
25D
100
DictionaryVariables
280
     0
  1
Standard
  0
DICTIONARY
  5
25F
330
6A
100
AcDbDictionary
280
     1
281
     1
  3
ACAD_ROUNDTRIP_2008_TABLESTYLE_CELLSTYLEMAP
360
260
  0
CELLSTYLEMAP
  5
260
102
{ACAD_REACTORS
330
25F
102
}
330
25F
100
AcDbCellStyleMap
 90
        3
300
CELLSTYLE
  1
TABLEFORMAT_BEGIN
 90
        5
170
     1
 91
        0
 92
    32768
 62
   257
 93
        1
300
CONTENTFORMAT
  1
CONTENTFORMAT_BEGIN
 90
        0
 91
        0
 92
        4
 93
        0
300

 40
0.0
140
1.0
 94
        5
 62
     0
340
11
144
0.25
309
CONTENTFORMAT_END
171
     1
301
MARGIN
  1
CELLMARGIN_BEGIN
 40
0.06
 40
0.06
 40
0.06
 40
0.06
 40
0.06
 40
0.06
309
CELLMARGIN_END
 94
        6
 95
        1
302
GRIDFORMAT
  1
GRIDFORMAT_BEGIN
 90
        0
 91
        1
 62
     0
 92
       -2
340
14
 93
        0
 40
0.045
309
GRIDFORMAT_END
 95
        2
302
GRIDFORMAT
  1
GRIDFORMAT_BEGIN
 90
        0
 91
        1
 62
     0
 92
       -2
340
14
 93
        0
 40
0.045
309
GRIDFORMAT_END
 95
        4
302
GRIDFORMAT
  1
GRIDFORMAT_BEGIN
 90
        0
 91
        1
 62
     0
 92
       -2
340
14
 93
        0
 40
0.045
309
GRIDFORMAT_END
 95
        8
302
GRIDFORMAT
  1
GRIDFORMAT_BEGIN
 90
        0
 91
        1
 62
     0
 92
       -2
340
14
 93
        0
 40
0.045
309
GRIDFORMAT_END
 95
       16
302
GRIDFORMAT
  1
GRIDFORMAT_BEGIN
 90
        0
 91
        1
 62
     0
 92
       -2
340
14
 93
        0
 40
0.045
309
GRIDFORMAT_END
 95
       32
302
GRIDFORMAT
  1
GRIDFORMAT_BEGIN
 90
        0
 91
        1
 62
     0
 92
       -2
340
14
 93
        0
 40
0.045
309
GRIDFORMAT_END
309
TABLEFORMAT_END
  1
CELLSTYLE_BEGIN
 90
        1
 91
        1
300
_TITLE
309
CELLSTYLE_END
300
CELLSTYLE
  1
TABLEFORMAT_BEGIN
 90
        5
170
     1
 91
        0
 92
        0
 62
   257
 93
        1
300
CONTENTFORMAT
  1
CONTENTFORMAT_BEGIN
 90
        0
 91
        0
 92
        4
 93
        0
300

 40
0.0
140
1.0
 94
        5
 62
     0
340
11
144
0.18
309
CONTENTFORMAT_END
171
     1
301
MARGIN
  1
CELLMARGIN_BEGIN
 40
0.06
 40
0.06
 40
0.06
 40
0.06
 40
0.06
 40
0.06
309
CELLMARGIN_END
 94
        6
 95
        1
302
GRIDFORMAT
  1
GRIDFORMAT_BEGIN
 90
        0
 91
        1
 62
     0
 92
       -2
340
14
 93
        0
 40
0.045
309
GRIDFORMAT_END
 95
        2
302
GRIDFORMAT
  1
GRIDFORMAT_BEGIN
 90
        0
 91
        1
 62
     0
 92
       -2
340
14
 93
        0
 40
0.045
309
GRIDFORMAT_END
 95
        4
302
GRIDFORMAT
  1
GRIDFORMAT_BEGIN
 90
        0
 91
        1
 62
     0
 92
       -2
340
14
 93
        0
 40
0.045
309
GRIDFORMAT_END
 95
        8
302
GRIDFORMAT
  1
GRIDFORMAT_BEGIN
 90
        0
 91
        1
 62
     0
 92
       -2
340
14
 93
        0
 40
0.045
309
GRIDFORMAT_END
 95
       16
302
GRIDFORMAT
  1
GRIDFORMAT_BEGIN
 90
        0
 91
        1
 62
     0
 92
       -2
340
14
 93
        0
 40
0.045
309
GRIDFORMAT_END
 95
       32
302
GRIDFORMAT
  1
GRIDFORMAT_BEGIN
 90
        0
 91
        1
 62
     0
 92
       -2
340
14
 93
        0
 40
0.045
309
GRIDFORMAT_END
309
TABLEFORMAT_END
  1
CELLSTYLE_BEGIN
 90
        2
 91
        1
300
_HEADER
309
CELLSTYLE_END
300
CELLSTYLE
  1
TABLEFORMAT_BEGIN
 90
        5
170
     1
 91
        0
 92
        0
 62
   257
 93
        1
300
CONTENTFORMAT
  1
CONTENTFORMAT_BEGIN
 90
        0
 91
        0
 92
        4
 93
        0
300

 40
0.0
140
1.0
 94
        2
 62
     0
340
11
144
0.18
309
CONTENTFORMAT_END
171
     1
301
MARGIN
  1
CELLMARGIN_BEGIN
 40
0.06
 40
0.06
 40
0.06
 40
0.06
 40
0.06
 40
0.06
309
CELLMARGIN_END
 94
        6
 95
        1
302
GRIDFORMAT
  1
GRIDFORMAT_BEGIN
 90
        0
 91
        1
 62
     0
 92
       -2
340
14
 93
        0
 40
0.045
309
GRIDFORMAT_END
 95
        2
302
GRIDFORMAT
  1
GRIDFORMAT_BEGIN
 90
        0
 91
        1
 62
     0
 92
       -2
340
14
 93
        0
 40
0.045
309
GRIDFORMAT_END
 95
        4
302
GRIDFORMAT
  1
GRIDFORMAT_BEGIN
 90
        0
 91
        1
 62
     0
 92
       -2
340
14
 93
        0
 40
0.045
309
GRIDFORMAT_END
 95
        8
302
GRIDFORMAT
  1
GRIDFORMAT_BEGIN
 90
        0
 91
        1
 62
     0
 92
       -2
340
14
 93
        0
 40
0.045
309
GRIDFORMAT_END
 95
       16
302
GRIDFORMAT
  1
GRIDFORMAT_BEGIN
 90
        0
 91
        1
 62
     0
 92
       -2
340
14
 93
        0
 40
0.045
309
GRIDFORMAT_END
 95
       32
302
GRIDFORMAT
  1
GRIDFORMAT_BEGIN
 90
        0
 91
        1
 62
     0
 92
       -2
340
14
 93
        0
 40
0.045
309
GRIDFORMAT_END
309
TABLEFORMAT_END
  1
CELLSTYLE_BEGIN
 90
        3
 91
        2
300
_DATA
309
CELLSTYLE_END
  0
ENDSEC
  0
EOF