0
SECTION
  2
HEADER
  9
$ACADVER
  1
AC1027
  9
$ACADMAINTVER
 70
     8
  9
$DWGCODEPAGE
  3
ANSI_1252
  9
$REQUIREDVERSIONS
160
                 0
  9
$COMMENTS
  1
File was created by Cadenas
  9
$CUSTOMPROPERTYTAG
  1
NN
  9
$CUSTOMPROPERTY
  1
Imperial - IP Piloted Flange Labyrinth Seal
  9
$CUSTOMPROPERTYTAG
  1
NT
  9
$CUSTOMPROPERTY
  1
Imperial Piloted Flange Bearings
  9
$CUSTOMPROPERTYTAG
  1
NB
  9
$CUSTOMPROPERTY
  1
069892
  9
$CUSTOMPROPERTYTAG
  1
NBSYN
  9
$CUSTOMPROPERTY
  1
$PN.
  9
$CUSTOMPROPERTYTAG
  1
LINA
  9
$CUSTOMPROPERTY
  1
069892
  9
$CUSTOMPROPERTYTAG
  1
SS
  9
$CUSTOMPROPERTY
  1
3-7/16
  9
$CUSTOMPROPERTYTAG
  1
PN
  9
$CUSTOMPROPERTY
  1
069892
  9
$CUSTOMPROPERTYTAG
  1
DESCRIPTION
  9
$CUSTOMPROPERTY
  1
FC-IP-307L
  9
$CUSTOMPROPERTYTAG
  1
EF
  9
$CUSTOMPROPERTY
  1
Non-Expansion Type
  9
$CUSTOMPROPERTYTAG
  1
ST
  9
$CUSTOMPROPERTY
  1
Labyrinth Seal
  9
$CUSTOMPROPERTYTAG
  1
A
  9
$CUSTOMPROPERTY
  1
4-11/64
  9
$CUSTOMPROPERTYTAG
  1
B
  9
$CUSTOMPROPERTY
  1
10-1/4
  9
$CUSTOMPROPERTYTAG
  1
C
  9
$CUSTOMPROPERTY
  1
3
  9
$CUSTOMPROPERTYTAG
  1
D
  9
$CUSTOMPROPERTY
  1
6-3/32
  9
$CUSTOMPROPERTYTAG
  1
DD
  9
$CUSTOMPROPERTY
  1
8-5/8
  9
$CUSTOMPROPERTYTAG
  1
E
  9
$CUSTOMPROPERTY
  1
1-17/64
  9
$CUSTOMPROPERTYTAG
  1
F
  9
$CUSTOMPROPERTY
  1
3/4
  9
$CUSTOMPROPERTYTAG
  1
G
  9
$CUSTOMPROPERTY
  1
2-17/32
  9
$CUSTOMPROPERTYTAG
  1
H
  9
$CUSTOMPROPERTY
  1
15/16
  9
$CUSTOMPROPERTYTAG
  1
K
  9
$CUSTOMPROPERTY
  1
7.375
  9
$CUSTOMPROPERTYTAG
  1
L
  9
$CUSTOMPROPERTY
  1
5
  9
$CUSTOMPROPERTYTAG
  1
M
  9
$CUSTOMPROPERTY
  1
3/4-10
  9
$CUSTOMPROPERTYTAG
  1
N
  9
$CUSTOMPROPERTY
  1
4-1/16
  9
$CUSTOMPROPERTYTAG
  1
P
  9
$CUSTOMPROPERTY
  1
1-41/64
  9
$CUSTOMPROPERTYTAG
  1
Q
  9
$CUSTOMPROPERTY
  1
1-33/64
  9
$CUSTOMPROPERTYTAG
  1
X
  9
$CUSTOMPROPERTY
  1
1/4
  9
$CUSTOMPROPERTYTAG
  1
Y
  9
$CUSTOMPROPERTY
  1
0.025
  9
$CUSTOMPROPERTYTAG
  1
Z
  9
$CUSTOMPROPERTY
  1
4-3/64
  9
$CUSTOMPROPERTYTAG
  1
COMPANY
  9
$CUSTOMPROPERTY
  1
baldor
  9
$INSBASE
 10
0.0
 20
0.0
 30
0.0
  9
$EXTMIN
 10
1.000000000000000E+20
 20
1.000000000000000E+20
 30
1.000000000000000E+20
  9
$EXTMAX
 10
-1.000000000000000E+20
 20
-1.000000000000000E+20
 30
-1.000000000000000E+20
  9
$LIMMIN
 10
0.0
 20
0.0
  9
$LIMMAX
 10
12.0
 20
9.0
  9
$ORTHOMODE
 70
     0
  9
$REGENMODE
 70
     1
  9
$FILLMODE
 70
     1
  9
$QTEXTMODE
 70
     0
  9
$MIRRTEXT
 70
     1
  9
$LTSCALE
 40
1.0
  9
$ATTMODE
 70
     1
  9
$TEXTSIZE
 40
0.2
  9
$TRACEWID
 40
0.05
  9
$TEXTSTYLE
  7
Standard
  9
$CLAYER
  8
0
  9
$CELTYPE
  6
ByLayer
  9
$CECOLOR
 62
   256
  9
$CELTSCALE
 40
1.0
  9
$DISPSILH
 70
     0
  9
$DIMSCALE
 40
1.0
  9
$DIMASZ
 40
0.18
  9
$DIMEXO
 40
0.0625
  9
$DIMDLI
 40
0.38
  9
$DIMRND
 40
0.0
  9
$DIMDLE
 40
0.0
  9
$DIMEXE
 40
0.18
  9
$DIMTP
 40
0.0
  9
$DIMTM
 40
0.0
  9
$DIMTXT
 40
0.18
  9
$DIMCEN
 40
0.09
  9
$DIMTSZ
 40
0.0
  9
$DIMTOL
 70
     0
  9
$DIMLIM
 70
     0
  9
$DIMTIH
 70
     1
  9
$DIMTOH
 70
     1
  9
$DIMSE1
 70
     0
  9
$DIMSE2
 70
     0
  9
$DIMTAD
 70
     0
  9
$DIMZIN
 70
     0
  9
$DIMBLK
  1

  9
$DIMASO
 70
     1
  9
$DIMSHO
 70
     1
  9
$DIMPOST
  1

  9
$DIMAPOST
  1

  9
$DIMALT
 70
     0
  9
$DIMALTD
 70
     2
  9
$DIMALTF
 40
25.4
  9
$DIMLFAC
 40
1.0
  9
$DIMTOFL
 70
     0
  9
$DIMTVP
 40
0.0
  9
$DIMTIX
 70
     0
  9
$DIMSOXD
 70
     0
  9
$DIMSAH
 70
     0
  9
$DIMBLK1
  1

  9
$DIMBLK2
  1

  9
$DIMSTYLE
  2
Standard
  9
$DIMCLRD
 70
     0
  9
$DIMCLRE
 70
     0
  9
$DIMCLRT
 70
     0
  9
$DIMTFAC
 40
1.0
  9
$DIMGAP
 40
0.09
  9
$DIMJUST
 70
     0
  9
$DIMSD1
 70
     0
  9
$DIMSD2
 70
     0
  9
$DIMTOLJ
 70
     1
  9
$DIMTZIN
 70
     0
  9
$DIMALTZ
 70
     0
  9
$DIMALTTZ
 70
     0
  9
$DIMUPT
 70
     0
  9
$DIMDEC
 70
     4
  9
$DIMTDEC
 70
     4
  9
$DIMALTU
 70
     2
  9
$DIMALTTD
 70
     2
  9
$DIMTXSTY
  7
Standard
  9
$DIMAUNIT
 70
     0
  9
$DIMADEC
 70
     0
  9
$DIMALTRND
 40
0.0
  9
$DIMAZIN
 70
     0
  9
$DIMDSEP
 70
    46
  9
$DIMATFIT
 70
     3
  9
$DIMFRAC
 70
     0
  9
$DIMLDRBLK
  1

  9
$DIMLUNIT
 70
     2
  9
$DIMLWD
 70
    -2
  9
$DIMLWE
 70
    -2
  9
$DIMTMOVE
 70
     0
  9
$DIMFXL
 40
1.0
  9
$DIMFXLON
 70
     0
  9
$DIMJOGANG
 40
0.7853981633974483
  9
$DIMTFILL
 70
     0
  9
$DIMTFILLCLR
 70
     0
  9
$DIMARCSYM
 70
     0
  9
$DIMLTYPE
  6

  9
$DIMLTEX1
  6

  9
$DIMLTEX2
  6

  9
$DIMTXTDIRECTION
 70
     0
  9
$LUNITS
 70
     2
  9
$LUPREC
 70
     4
  9
$SKETCHINC
 40
0.1
  9
$FILLETRAD
 40
0.5
  9
$AUNITS
 70
     0
  9
$AUPREC
 70
     0
  9
$MENU
  1
.
  9
$ELEVATION
 40
0.0
  9
$PELEVATION
 40
0.0
  9
$THICKNESS
 40
0.0
  9
$LIMCHECK
 70
     0
  9
$CHAMFERA
 40
0.0
  9
$CHAMFERB
 40
0.0
  9
$CHAMFERC
 40
0.0
  9
$CHAMFERD
 40
0.0
  9
$SKPOLY
 70
     0
  9
$TDCREATE
 40
2458168.990002523
  9
$TDUCREATE
 40
2458168.948335857
  9
$TDUPDATE
 40
2458168.990002697
  9
$TDUUPDATE
 40
2458168.94833603
  9
$TDINDWG
 40
0.0000000116
  9
$TDUSRTIMER
 40
0.0000000116
  9
$USRTIMER
 70
     1
  9
$ANGBASE
 50
0.0
  9
$ANGDIR
 70
     0
  9
$PDMODE
 70
     0
  9
$PDSIZE
 40
0.0
  9
$PLINEWID
 40
0.0
  9
$SPLFRAME
 70
     0
  9
$SPLINETYPE
 70
     6
  9
$SPLINESEGS
 70
     8
  9
$HANDSEED
  5
25F
  9
$SURFTAB1
 70
     6
  9
$SURFTAB2
 70
     6
  9
$SURFTYPE
 70
     6
  9
$SURFU
 70
     6
  9
$SURFV
 70
     6
  9
$UCSBASE
  2

  9
$UCSNAME
  2

  9
$UCSORG
 10
0.0
 20
0.0
 30
0.0
  9
$UCSXDIR
 10
1.0
 20
0.0
 30
0.0
  9
$UCSYDIR
 10
0.0
 20
1.0
 30
0.0
  9
$UCSORTHOREF
  2

  9
$UCSORTHOVIEW
 70
     0
  9
$UCSORGTOP
 10
0.0
 20
0.0
 30
0.0
  9
$UCSORGBOTTOM
 10
0.0
 20
0.0
 30
0.0
  9
$UCSORGLEFT
 10
0.0
 20
0.0
 30
0.0
  9
$UCSORGRIGHT
 10
0.0
 20
0.0
 30
0.0
  9
$UCSORGFRONT
 10
0.0
 20
0.0
 30
0.0
  9
$UCSORGBACK
 10
0.0
 20
0.0
 30
0.0
  9
$PUCSBASE
  2

  9
$PUCSNAME
  2

  9
$PUCSORG
 10
0.0
 20
0.0
 30
0.0
  9
$PUCSXDIR
 10
1.0
 20
0.0
 30
0.0
  9
$PUCSYDIR
 10
0.0
 20
1.0
 30
0.0
  9
$PUCSORTHOREF
  2

  9
$PUCSORTHOVIEW
 70
     0
  9
$PUCSORGTOP
 10
0.0
 20
0.0
 30
0.0
  9
$PUCSORGBOTTOM
 10
0.0
 20
0.0
 30
0.0
  9
$PUCSORGLEFT
 10
0.0
 20
0.0
 30
0.0
  9
$PUCSORGRIGHT
 10
0.0
 20
0.0
 30
0.0
  9
$PUCSORGFRONT
 10
0.0
 20
0.0
 30
0.0
  9
$PUCSORGBACK
 10
0.0
 20
0.0
 30
0.0
  9
$USERI1
 70
     0
  9
$USERI2
 70
     0
  9
$USERI3
 70
     0
  9
$USERI4
 70
     0
  9
$USERI5
 70
     0
  9
$USERR1
 40
0.0
  9
$USERR2
 40
0.0
  9
$USERR3
 40
0.0
  9
$USERR4
 40
0.0
  9
$USERR5
 40
0.0
  9
$WORLDVIEW
 70
     1
  9
$SHADEDGE
 70
     3
  9
$SHADEDIF
 70
    70
  9
$TILEMODE
 70
     1
  9
$MAXACTVP
 70
    64
  9
$PINSBASE
 10
0.0
 20
0.0
 30
0.0
  9
$PLIMCHECK
 70
     0
  9
$PEXTMIN
 10
1.000000000000000E+20
 20
1.000000000000000E+20
 30
1.000000000000000E+20
  9
$PEXTMAX
 10
-1.000000000000000E+20
 20
-1.000000000000000E+20
 30
-1.000000000000000E+20
  9
$PLIMMIN
 10
0.0
 20
0.0
  9
$PLIMMAX
 10
12.0
 20
9.0
  9
$UNITMODE
 70
     0
  9
$VISRETAIN
 70
     1
  9
$PLINEGEN
 70
     0
  9
$PSLTSCALE
 70
     1
  9
$TREEDEPTH
 70
  3020
  9
$CMLSTYLE
  2
Standard
  9
$CMLJUST
 70
     0
  9
$CMLSCALE
 40
1.0
  9
$PROXYGRAPHICS
 70
     1
  9
$MEASUREMENT
 70
     0
  9
$CELWEIGHT
370
    -1
  9
$ENDCAPS
280
     0
  9
$JOINSTYLE
280
     0
  9
$LWDISPLAY
290
     0
  9
$INSUNITS
 70
     1
  9
$HYPERLINKBASE
  1

  9
$STYLESHEET
  1

  9
$XEDIT
290
     1
  9
$CEPSNTYPE
380
     0
  9
$PSTYLEMODE
290
     1
  9
$FINGERPRINTGUID
  2
{1A4D4BF0-4A6F-48E8-8A7D-E38C06B1BD3B}
  9
$VERSIONGUID
  2
{FAEB1C32-E019-11D5-929B-00C0DF256EC4}
  9
$EXTNAMES
290
     1
  9
$PSVPSCALE
 40
0.0
  9
$OLESTARTUP
290
     0
  9
$SORTENTS
280
   127
  9
$INDEXCTL
280
     0
  9
$HIDETEXT
280
     1
  9
$XCLIPFRAME
280
     2
  9
$HALOGAP
280
     0
  9
$OBSCOLOR
 70
   257
  9
$OBSLTYPE
280
     0
  9
$INTERSECTIONDISPLAY
280
     0
  9
$INTERSECTIONCOLOR
 70
   257
  9
$DIMASSOC
280
     2
  9
$PROJECTNAME
  1

  9
$CAMERADISPLAY
290
     0
  9
$LENSLENGTH
 40
50.0
  9
$CAMERAHEIGHT
 40
0.0
  9
$STEPSPERSEC
 40
2.0
  9
$STEPSIZE
 40
6.0
  9
$3DDWFPREC
 40
2.0
  9
$PSOLWIDTH
 40
0.25
  9
$PSOLHEIGHT
 40
4.0
  9
$LOFTANG1
 40
1.570796326794897
  9
$LOFTANG2
 40
1.570796326794897
  9
$LOFTMAG1
 40
0.0
  9
$LOFTMAG2
 40
0.0
  9
$LOFTPARAM
 70
     7
  9
$LOFTNORMALS
280
     1
  9
$LATITUDE
 40
37.795
  9
$LONGITUDE
 40
-122.394
  9
$NORTHDIRECTION
 40
0.0
  9
$TIMEZONE
 70
 -8000
  9
$LIGHTGLYPHDISPLAY
280
     1
  9
$TILEMODELIGHTSYNCH
280
     1
  9
$CMATERIAL
347
44
  9
$SOLIDHIST
280
     0
  9
$SHOWHIST
280
     1
  9
$DWFFRAME
280
     2
  9
$DGNFRAME
280
     2
  9
$REALWORLDSCALE
290
     1
  9
$INTERFERECOLOR
 62
   256
  9
$CSHADOW
280
     0
  9
$SHADOWPLANELOCATION
 40
0.0
  0
ENDSEC
  0
SECTION
  2
CLASSES
  0
CLASS
  1
ACDBDICTIONARYWDFLT
  2
AcDbDictionaryWithDefault
  3
ObjectDBX Classes
 90
        0
 91
        4
280
     0
281
     0
  0
CLASS
  1
VISUALSTYLE
  2
AcDbVisualStyle
  3
ObjectDBX Classes
 90
     4095
 91
        4
280
     0
281
     0
  0
CLASS
  1
MATERIAL
  2
AcDbMaterial
  3
ObjectDBX Classes
 90
     1153
 91
        4
280
     0
281
     0
  0
CLASS
  1
SCALE
  2
AcDbScale
  3
ObjectDBX Classes
 90
     1153
 91
        4
280
     0
281
     0
  0
CLASS
  1
TABLESTYLE
  2
AcDbTableStyle
  3
ObjectDBX Classes
 90
     4095
 91
        4
280
     0
281
     0
  0
CLASS
  1
MLEADERSTYLE
  2
AcDbMLeaderStyle
  3
ACDB_MLEADERSTYLE_CLASS
 90
     4095
 91
        4
280
     0
281
     0
  0
CLASS
  1
SUN
  2
AcDbSun
  3
SCENEOE
 90
     1153
 91
        4
280
     0
281
     0
  0
CLASS
  1
DICTIONARYVAR
  2
AcDbDictionaryVar
  3
ObjectDBX Classes
 90
        0
 91
        4
280
     0
281
     0
  0
CLASS
  1
CELLSTYLEMAP
  2
AcDbCellStyleMap
  3
ObjectDBX Classes
 90
     1152
 91
        4
280
     0
281
     0
  0
ENDSEC
  0
SECTION
  2
TABLES
  0
TABLE
  2
VPORT
  5
8
330
0
100
AcDbSymbolTable
 70
     1
  0
VPORT
  5
29
330
8
100
AcDbSymbolTableRecord
100
AcDbViewportTableRecord
  2
*Active
 70
     0
 10
0.0
 20
0.0
 11
1.0
 21
1.0
 12
0.0
 22
0.0
 13
0.0
 23
0.0
 14
0.5
 24
0.5
 15
0.5
 25
0.5
 16
0.0
 26
0.0
 36
1.0
 17
-0.0000000000000018
 27
-0.0000000000000018
 37
0.0
 40
10.455
 41
1.0
 42
50.0
 43
0.0
 44
0.0
 50
0.0
 51
0.0
 71
     0
 72
   100
 73
     1
 74
     3
 75
     0
 76
     0
 77
     0
 78
     0
281
     0
 65
     1
110
0.0
120
0.0
130
0.0
111
1.0
121
0.0
131
0.0
112
0.0
122
1.0
132
0.0
 79
     0
146
0.0
348
2F
 60
     3
 61
     5
292
     1
282
     1
141
0.0
142
0.0
 63
   250
361
6D
  0
ENDTAB
  0
TABLE
  2
LTYPE
  5
5
330
0
100
AcDbSymbolTable
 70
     3
  0
LTYPE
  5
14
330
5
100
AcDbSymbolTableRecord
100
AcDbLinetypeTableRecord
  2
ByBlock
 70
     0
  3

 72
    65
 73
     0
 40
0.0
  0
LTYPE
  5
15
330
5
100
AcDbSymbolTableRecord
100
AcDbLinetypeTableRecord
  2
ByLayer
 70
     0
  3

 72
    65
 73
     0
 40
0.0
  0
LTYPE
  5
16
330
5
100
AcDbSymbolTableRecord
100
AcDbLinetypeTableRecord
  2
Continuous
 70
     0
  3
Solid line
 72
    65
 73
     0
 40
0.0
  0
LTYPE
  5
9C
330
5
100
AcDbSymbolTableRecord
100
AcDbLinetypeTableRecord
  2
Dashed
 70
     0
  3

 72
    65
 73
     2
 40
2.0
 49
1.0
 74
     0
 49
-1.0
 74
     0
  0
LTYPE
  5
F8
330
5
100
AcDbSymbolTableRecord
100
AcDbLinetypeTableRecord
  2
Center
 70
     0
  3

 72
    65
 73
     4
 40
1.5
 49
0.45
 74
     0
 49
-0.5
 74
     0
 49
0.05
 74
     0
 49
-0.5
 74
     0
  0
ENDTAB
  0
TABLE
  2
LAYER
  5
2
330
0
100
AcDbSymbolTable
 70
     7
  0
LAYER
  5
10
330
2
100
AcDbSymbolTableRecord
100
AcDbLayerTableRecord
  2
0
 70
     0
 62
     7
  6
Continuous
370
    -3
390
F
347
46
348
0
  0
LAYER
  5
72
330
2
100
AcDbSymbolTableRecord
100
AcDbLayerTableRecord
  2
AM_6
 70
     0
 62
    -2
  6
Continuous
370
    35
390
F
347
46
348
0
  0
LAYER
  5
9D
330
2
100
AcDbSymbolTableRecord
100
AcDbLayerTableRecord
  2
AM_9
 70
     0
 62
     6
  6
Dashed
370
    25
390
F
347
46
348
0
  0
LAYER
  5
BF
330
2
100
AcDbSymbolTableRecord
100
AcDbLayerTableRecord
  2
AM_4
 70
     0
 62
     7
  6
Continuous
370
    50
390
F
347
46
348
0
  0
LAYER
  5
F6
330
2
100
AcDbSymbolTableRecord
100
AcDbLayerTableRecord
  2
AM_5
 70
     0
 62
     3
  6
Continuous
370
    25
390
F
347
46
348
0
  0
LAYER
  5
F9
330
2
100
AcDbSymbolTableRecord
100
AcDbLayerTableRecord
  2
AM_7
 70
     0
 62
     7
  6
Center
370
    25
390
F
347
46
348
0
  0
LAYER
  5
247
330
2
100
AcDbSymbolTableRecord
100
AcDbLayerTableRecord
  2
ConnectionPoints
 70
     0
 62
     7
  6
Continuous
370
    50
390
F
347
46
348
0
  0
ENDTAB
  0
TABLE
  2
STYLE
  5
3
330
0
100
AcDbSymbolTable
 70
     1
  0
STYLE
  5
11
330
3
100
AcDbSymbolTableRecord
100
AcDbTextStyleTableRecord
  2
Standard
 70
     0
 40
0.0
 41
1.0
 50
0.0
 71
     0
 42
0.2
  3
txt
  4

  0
ENDTAB
  0
TABLE
  2
VIEW
  5
6
330
0
100
AcDbSymbolTable
 70
     0
  0
ENDTAB
  0
TABLE
  2
UCS
  5
7
330
0
100
AcDbSymbolTable
 70
     0
  0
ENDTAB
  0
TABLE
  2
APPID
  5
9
330
0
100
AcDbSymbolTable
 70
     1
  0
APPID
  5
12
330
9
100
AcDbSymbolTableRecord
100
AcDbRegAppTableRecord
  2
ACAD
 70
     0
  0
ENDTAB
  0
TABLE
  2
DIMSTYLE
  5
A
330
0
100
AcDbSymbolTable
 70
     1
100
AcDbDimStyleTable
  0
DIMSTYLE
105
27
330
A
100
AcDbSymbolTableRecord
100
AcDbDimStyleTableRecord
  2
Standard
 70
     0
178
     0
340
11
  0
ENDTAB
  0
TABLE
  2
BLOCK_RECORD
  5
1
330
0
100
AcDbSymbolTable
 70
     8
  0
BLOCK_RECORD
  5
1F
330
1
100
AcDbSymbolTableRecord
100
AcDbBlockTableRecord
  2
*Model_Space
340
22
 70
     0
280
     1
281
     0
  0
BLOCK_RECORD
  5
1B
330
1
100
AcDbSymbolTableRecord
100
AcDbBlockTableRecord
  2
*Paper_Space
340
1E
 70
     0
280
     1
281
     0
  0
BLOCK_RECORD
  5
23
330
1
100
AcDbSymbolTableRecord
100
AcDbBlockTableRecord
  2
*Paper_Space0
340
26
 70
     0
280
     1
281
     0
  0
BLOCK_RECORD
  5
6E
330
1
100
AcDbSymbolTableRecord
100
AcDbBlockTableRecord
  2
1_069892_0
340
0
102
{BLKREFS
331
6F
102
}
 70
     0
280
     1
281
     0
  0
BLOCK_RECORD
  5
90
330
1
100
AcDbSymbolTableRecord
100
AcDbBlockTableRecord
  2
2_405015E_Inch_0_in_069892_0
340
0
102
{BLKREFS
331
91
102
}
 70
     0
280
     1
281
     0
  0
BLOCK_RECORD
  5
E6
330
1
100
AcDbSymbolTableRecord
100
AcDbBlockTableRecord
  2
3_ASME_B18_3_1_4_1_0_in_069892_0
340
0
102
{BLKREFS
331
E7
102
}
 70
     0
280
     1
281
     0
  0
BLOCK_RECORD
  5
105
330
1
100
AcDbSymbolTableRecord
100
AcDbBlockTableRecord
  2
4_ASME_B18_3_1_4_2_0_in_069892_0
340
0
102
{BLKREFS
331
106
102
}
 70
     0
280
     1
281
     0
  0
BLOCK_RECORD
  5
121
330
1
100
AcDbSymbolTableRecord
100
AcDbBlockTableRecord
  2
5_070903LW_0_in_069892_0
340
0
102
{BLKREFS
331
122
102
}
 70
     0
280
     1
281
     0
  0
BLOCK_RECORD
  5
16C
330
1
100
AcDbSymbolTableRecord
100
AcDbBlockTableRecord
  2
6_070935I_0_in_069892_0
340
0
102
{BLKREFS
331
16D
102
}
 70
     0
280
     1
281
     0
  0
BLOCK_RECORD
  5
1CA
330
1
100
AcDbSymbolTableRecord
100
AcDbBlockTableRecord
  2
7_069892H_0_in_069892_0
340
0
102
{BLKREFS
331
1CB
102
}
 70
     0
280
     1
281
     0
  0
ENDTAB
  0
ENDSEC
  0
SECTION
  2
BLOCKS
  0
BLOCK
  5
20
330
1F
100
AcDbEntity
  8
0
100
AcDbBlockBegin
  2
*Model_Space
 70
     0
 10
0.0
 20
0.0
 30
0.0
  3
*Model_Space
  1

  0
ENDBLK
  5
21
330
1F
100
AcDbEntity
  8
0
100
AcDbBlockEnd
  0
BLOCK
  5
1C
330
1B
100
AcDbEntity
 67
     1
  8
0
100
AcDbBlockBegin
  2
*Paper_Space
 70
     0
 10
0.0
 20
0.0
 30
0.0
  3
*Paper_Space
  1

  0
ENDBLK
  5
1D
330
1B
100
AcDbEntity
 67
     1
  8
0
100
AcDbBlockEnd
  0
BLOCK
  5
24
330
23
100
AcDbEntity
  8
0
100
AcDbBlockBegin
  2
*Paper_Space0
 70
     0
 10
0.0
 20
0.0
 30
0.0
  3
*Paper_Space0
  1

  0
ENDBLK
  5
25
330
23
100
AcDbEntity
  8
0
100
AcDbBlockEnd
  0
BLOCK
  5
70
330
6E
100
AcDbEntity
  8
0
100
AcDbBlockBegin
  2
1_069892_0
 70
     2
 10
0.0
 20
0.0
 30
0.0
  3
1_069892_0
  1

  0
ATTDEF
  5
73
330
6E
100
AcDbEntity
  8
AM_6
100
AcDbText
 10
10.125
 20
5.124999999999997
 30
0.0
 40
0.5
  1
Imperial - IP Piloted Flange Labyrinth Seal
100
AcDbAttributeDefinition
  3

  2
NN
 70
     8
280
     0
  0
ATTDEF
  5
74
330
6E
100
AcDbEntity
  8
AM_6
100
AcDbText
 10
10.125
 20
4.624999999999997
 30
0.0
 40
0.5
  1
Imperial Piloted Flange Bearings
100
AcDbAttributeDefinition
  3

  2
NT
 70
     8
280
     0
  0
ATTDEF
  5
75
330
6E
100
AcDbEntity
  8
AM_6
100
AcDbText
 10
10.125
 20
4.124999999999997
 30
0.0
 40
0.5
  1
069892
100
AcDbAttributeDefinition
  3

  2
NB
 70
     8
280
     0
  0
ATTDEF
  5
76
330
6E
100
AcDbEntity
  8
AM_6
100
AcDbText
 10
10.125
 20
3.624999999999997
 30
0.0
 40
0.5
  1
$PN.
100
AcDbAttributeDefinition
  3

  2
NBSYN
 70
     8
280
     0
  0
ATTDEF
  5
77
330
6E
100
AcDbEntity
  8
AM_6
100
AcDbText
 10
10.125
 20
3.124999999999997
 30
0.0
 40
0.5
  1
069892
100
AcDbAttributeDefinition
  3

  2
LINA
 70
     8
280
     0
  0
ATTDEF
  5
78
330
6E
100
AcDbEntity
  8
AM_6
100
AcDbText
 10
10.125
 20
2.624999999999997
 30
0.0
 40
0.5
  1
3-7/16
100
AcDbAttributeDefinition
  3

  2
SS
 70
     8
280
     0
  0
ATTDEF
  5
79
330
6E
100
AcDbEntity
  8
AM_6
100
AcDbText
 10
10.125
 20
2.124999999999997
 30
0.0
 40
0.5
  1
069892
100
AcDbAttributeDefinition
  3

  2
PN
 70
     8
280
     0
  0
ATTDEF
  5
7A
330
6E
100
AcDbEntity
  8
AM_6
100
AcDbText
 10
10.125
 20
1.624999999999997
 30
0.0
 40
0.5
  1
FC-IP-307L
100
AcDbAttributeDefinition
  3

  2
DESCRIPTION
 70
     8
280
     0
  0
ATTDEF
  5
7B
330
6E
100
AcDbEntity
  8
AM_6
100
AcDbText
 10
10.125
 20
1.124999999999997
 30
0.0
 40
0.5
  1
Non-Expansion Type
100
AcDbAttributeDefinition
  3

  2
EF
 70
     8
280
     0
  0
ATTDEF
  5
7C
330
6E
100
AcDbEntity
  8
AM_6
100
AcDbText
 10
10.125
 20
0.6249999999999973
 30
0.0
 40
0.5
  1
Labyrinth Seal
100
AcDbAttributeDefinition
  3

  2
ST
 70
     8
280
     0
  0
ATTDEF
  5
7D
330
6E
100
AcDbEntity
  8
AM_6
100
AcDbText
 10
10.125
 20
0.1249999999999973
 30
0.0
 40
0.5
  1
4-11/64
100
AcDbAttributeDefinition
  3

  2
A
 70
     8
280
     0
  0
ATTDEF
  5
7E
330
6E
100
AcDbEntity
  8
AM_6
100
AcDbText
 10
10.125
 20
-0.3750000000000027
 30
0.0
 40
0.5
  1
10-1/4
100
AcDbAttributeDefinition
  3

  2
B
 70
     8
280
     0
  0
ATTDEF
  5
7F
330
6E
100
AcDbEntity
  8
AM_6
100
AcDbText
 10
10.125
 20
-0.8750000000000027
 30
0.0
 40
0.5
  1
3
100
AcDbAttributeDefinition
  3

  2
C
 70
     8
280
     0
  0
ATTDEF
  5
80
330
6E
100
AcDbEntity
  8
AM_6
100
AcDbText
 10
10.125
 20
-1.375000000000003
 30
0.0
 40
0.5
  1
6-3/32
100
AcDbAttributeDefinition
  3

  2
D
 70
     8
280
     0
  0
ATTDEF
  5
81
330
6E
100
AcDbEntity
  8
AM_6
100
AcDbText
 10
10.125
 20
-1.875000000000003
 30
0.0
 40
0.5
  1
8-5/8
100
AcDbAttributeDefinition
  3

  2
DD
 70
     8
280
     0
  0
ATTDEF
  5
82
330
6E
100
AcDbEntity
  8
AM_6
100
AcDbText
 10
10.125
 20
-2.375000000000003
 30
0.0
 40
0.5
  1
1-17/64
100
AcDbAttributeDefinition
  3

  2
E
 70
     8
280
     0
  0
ATTDEF
  5
83
330
6E
100
AcDbEntity
  8
AM_6
100
AcDbText
 10
10.125
 20
-2.875000000000003
 30
0.0
 40
0.5
  1
3/4
100
AcDbAttributeDefinition
  3

  2
F
 70
     8
280
     0
  0
ATTDEF
  5
84
330
6E
100
AcDbEntity
  8
AM_6
100
AcDbText
 10
10.125
 20
-3.375000000000003
 30
0.0
 40
0.5
  1
2-17/32
100
AcDbAttributeDefinition
  3

  2
G
 70
     8
280
     0
  0
ATTDEF
  5
85
330
6E
100
AcDbEntity
  8
AM_6
100
AcDbText
 10
10.125
 20
-3.875000000000003
 30
0.0
 40
0.5
  1
15/16
100
AcDbAttributeDefinition
  3

  2
H
 70
     8
280
     0
  0
ATTDEF
  5
86
330
6E
100
AcDbEntity
  8
AM_6
100
AcDbText
 10
10.125
 20
-4.375000000000003
 30
0.0
 40
0.5
  1
7.375
100
AcDbAttributeDefinition
  3

  2
K
 70
     8
280
     0
  0
ATTDEF
  5
87
330
6E
100
AcDbEntity
  8
AM_6
100
AcDbText
 10
10.125
 20
-4.875000000000003
 30
0.0
 40
0.5
  1
5
100
AcDbAttributeDefinition
  3

  2
L
 70
     8
280
     0
  0
ATTDEF
  5
88
330
6E
100
AcDbEntity
  8
AM_6
100
AcDbText
 10
10.125
 20
-5.375000000000003
 30
0.0
 40
0.5
  1
3/4-10
100
AcDbAttributeDefinition
  3

  2
M
 70
     8
280
     0
  0
ATTDEF
  5
89
330
6E
100
AcDbEntity
  8
AM_6
100
AcDbText
 10
10.125
 20
-5.875000000000003
 30
0.0
 40
0.5
  1
4-1/16
100
AcDbAttributeDefinition
  3

  2
N
 70
     8
280
     0
  0
ATTDEF
  5
8A
330
6E
100
AcDbEntity
  8
AM_6
100
AcDbText
 10
10.125
 20
-6.375000000000003
 30
0.0
 40
0.5
  1
1-41/64
100
AcDbAttributeDefinition
  3

  2
P
 70
     8
280
     0
  0
ATTDEF
  5
8B
330
6E
100
AcDbEntity
  8
AM_6
100
AcDbText
 10
10.125
 20
-6.875000000000003
 30
0.0
 40
0.5
  1
1-33/64
100
AcDbAttributeDefinition
  3

  2
Q
 70
     8
280
     0
  0
ATTDEF
  5
8C
330
6E
100
AcDbEntity
  8
AM_6
100
AcDbText
 10
10.125
 20
-7.375000000000003
 30
0.0
 40
0.5
  1
1/4
100
AcDbAttributeDefinition
  3

  2
X
 70
     8
280
     0
  0
ATTDEF
  5
8D
330
6E
100
AcDbEntity
  8
AM_6
100
AcDbText
 10
10.125
 20
-7.875000000000003
 30
0.0
 40
0.5
  1
0.025
100
AcDbAttributeDefinition
  3

  2
Y
 70
     8
280
     0
  0
ATTDEF
  5
8E
330
6E
100
AcDbEntity
  8
AM_6
100
AcDbText
 10
10.125
 20
-8.375000000000004
 30
0.0
 40
0.5
  1
4-3/64
100
AcDbAttributeDefinition
  3

  2
Z
 70
     8
280
     0
  0
ATTDEF
  5
8F
330
6E
100
AcDbEntity
  8
AM_6
100
AcDbText
 10
10.125
 20
-8.875000000000004
 30
0.0
 40
0.5
  1
baldor
100
AcDbAttributeDefinition
  3

  2
COMPANY
 70
     8
280
     0
  0
INSERT
  5
91
330
6E
100
AcDbEntity
  8
0
100
AcDbBlockReference
  2
2_405015E_Inch_0_in_069892_0
 10
0.0
 20
0.0
 30
0.0
  0
INSERT
  5
E7
330
6E
100
AcDbEntity
  8
0
100
AcDbBlockReference
  2
3_ASME_B18_3_1_4_1_0_in_069892_0
 10
0.0
 20
0.0
 30
0.0
  0
INSERT
  5
106
330
6E
100
AcDbEntity
  8
0
100
AcDbBlockReference
  2
4_ASME_B18_3_1_4_2_0_in_069892_0
 10
0.0
 20
0.0
 30
0.0
  0
INSERT
  5
122
330
6E
100
AcDbEntity
  8
0
100
AcDbBlockReference
  2
5_070903LW_0_in_069892_0
 10
0.0
 20
0.0
 30
0.0
  0
INSERT
  5
16D
330
6E
100
AcDbEntity
  8
0
100
AcDbBlockReference
  2
6_070935I_0_in_069892_0
 10
0.0
 20
0.0
 30
0.0
  0
INSERT
  5
1CB
330
6E
100
AcDbEntity
  8
0
100
AcDbBlockReference
  2
7_069892H_0_in_069892_0
 10
0.0
 20
0.0
 30
0.0
  0
ENDBLK
  5
71
330
6E
100
AcDbEntity
  8
0
100
AcDbBlockEnd
  0
BLOCK
  5
92
330
90
100
AcDbEntity
  8
0
100
AcDbBlockBegin
  2
2_405015E_Inch_0_in_069892_0
 70
     2
 10
0.0
 20
0.0
 30
0.0
  3
2_405015E_Inch_0_in_069892_0
  1

  0
ATTDEF
  5
94
330
90
100
AcDbEntity
  8
AM_6
100
AcDbText
 10
5.252590742770462
 20
4.599043051981842
 30
0.0
 40
0.5
  1
405015E -Inch
100
AcDbAttributeDefinition
  3

  2
NN
 70
     8
280
     0
  0
ATTDEF
  5
95
330
90
100
AcDbEntity
  8
AM_6
100
AcDbText
 10
5.252590742770462
 20
4.099043051981842
 30
0.0
 40
0.5
  1
Grease Fitting
100
AcDbAttributeDefinition
  3

  2
NT
 70
     8
280
     0
  0
ATTDEF
  5
96
330
90
100
AcDbEntity
  8
AM_6
100
AcDbText
 10
5.252590742770462
 20
3.599043051981842
 30
0.0
 40
0.5
  1
405015E-Inch
100
AcDbAttributeDefinition
  3

  2
NB
 70
     8
280
     0
  0
ATTDEF
  5
97
330
90
100
AcDbEntity
  8
AM_6
100
AcDbText
 10
5.252590742770462
 20
3.099043051981842
 30
0.0
 40
0.5
  1
$MN.-Inch
100
AcDbAttributeDefinition
  3

  2
NBSYN
 70
     8
280
     0
  0
ATTDEF
  5
98
330
90
100
AcDbEntity
  8
AM_6
100
AcDbText
 10
5.252590742770462
 20
2.599043051981842
 30
0.0
 40
0.5
  1
405015E
100
AcDbAttributeDefinition
  3

  2
LINA
 70
     8
280
     0
  0
ATTDEF
  5
99
330
90
100
AcDbEntity
  8
AM_6
100
AcDbText
 10
5.252590742770462
 20
2.099043051981842
 30
0.0
 40
0.5
  1
405015E
100
AcDbAttributeDefinition
  3

  2
MN
 70
     8
280
     0
  0
ATTDEF
  5
9A
330
90
100
AcDbEntity
  8
AM_6
100
AcDbText
 10
5.252590742770462
 20
1.599043051981842
 30
0.0
 40
0.5
  1
1/8 x 27PTF
100
AcDbAttributeDefinition
  3

  2
T
 70
     8
280
     0
  0
ATTDEF
  5
9B
330
90
100
AcDbEntity
  8
AM_6
100
AcDbText
 10
5.252590742770462
 20
1.099043051981842
 30
0.0
 40
0.5
  1
baldor
100
AcDbAttributeDefinition
  3

  2
COMPANY
 70
     8
280
     0
  0
ELLIPSE
  5
9E
330
90
100
AcDbEntity
  8
AM_9
100
AcDbEllipse
 10
0.0
 20
4.190121380500412
 30
0.0
 11
-0.161902872472269
 21
1.982738345459263E-17
 31
0.0
210
0.0
220
0.0
230
1.0
 40
0.8660254037844368
 41
0.0
 42
6.283185307179586
  0
LWPOLYLINE
  5
9F
330
90
100
AcDbEntity
  8
AM_9
100
AcDbPolyline
 90
        3
 70
     0
 43
0.0
 10
0.1262953713852306
 20
4.516598237426566
 10
0.1577272497321276
 20
4.466123882532723
 10
0.1894430570778459
 20
4.417342909039336
  0
LWPOLYLINE
  5
A0
330
90
100
AcDbEntity
  8
AM_9
100
AcDbPolyline
 90
        3
 70
     0
 43
0.0
 10
0.0
 20
4.512064437578259
 10
0.0631476856926153
 20
4.513261127970775
 10
0.1262953713852306
 20
4.516598237426566
  0
LWPOLYLINE
  5
A1
330
90
100
AcDbEntity
  8
AM_9
100
AcDbPolyline
 90
        3
 70
     0
 43
0.0
 10
-0.1894430570778459
 20
4.417342909039336
 10
-0.1578692142315383
 20
4.465900363701314
 10
-0.1262953713852306
 20
4.516598237426566
  0
LWPOLYLINE
  5
A2
330
90
100
AcDbEntity
  8
AM_9
100
AcDbPolyline
 90
        4
 70
     0
 43
0.0
 10
-0.1262953713852306
 20
4.516598237426566
 10
-0.0967996321117978
 20
4.51480564383718
 10
-0.0485424412477544
 20
4.512777351699794
 10
0.0
 20
4.512064437578259
  0
LINE
  5
A3
330
90
100
AcDbEntity
  8
AM_9
100
AcDbLine
 10
0.1262953713852306
 20
4.557530637729951
 30
0.0
 11
0.1262953713852306
 21
4.516598237426566
 31
0.0
  0
LINE
  5
A4
330
90
100
AcDbEntity
  8
AM_9
100
AcDbLine
 10
-0.1262953713852306
 20
4.557530637729951
 30
0.0
 11
-0.1262953713852306
 21
4.516598237426566
 31
0.0
  0
LWPOLYLINE
  5
A5
330
90
100
AcDbEntity
  8
AM_9
100
AcDbPolyline
 90
        3
 70
     0
 43
0.0
 10
0.0878491423263088
 20
4.559789434866928
 10
0.0634316146914367
 20
4.560857175103449
 10
0.0
 20
4.562064437578258
  0
LWPOLYLINE
  5
A6
330
90
100
AcDbEntity
  8
AM_9
100
AcDbPolyline
 90
        3
 70
     0
 43
0.0
 10
0.0
 20
4.562064437578258
 10
-0.0483998160558989
 20
4.56135565721969
 10
-0.0876643906215056
 20
4.559798650782118
  0
LWPOLYLINE
  5
A7
330
90
100
AcDbEntity
  8
AM_9
100
AcDbPolyline
 90
        3
 70
     0
 43
0.0
 10
-0.2525907427704612
 20
4.327155180348719
 10
-0.2211588644235643
 20
4.370976460495568
 10
-0.1894430570778459
 20
4.417342909039336
  0
LWPOLYLINE
  5
A8
330
90
100
AcDbEntity
  8
AM_9
100
AcDbPolyline
 90
        3
 70
     0
 43
0.0
 10
0.1894430570778459
 20
4.417342909039336
 10
0.2210168999241536
 20
4.371178835162391
 10
0.2525907427704612
 20
4.327155180348719
  0
LINE
  5
A9
330
90
100
AcDbEntity
  8
AM_9
100
AcDbLine
 10
0.1983264404626879
 20
4.199168091126567
 30
0.0
 11
0.2054502516015135
 21
4.312976278332703
 31
0.0
  0
LINE
  5
AA
330
90
100
AcDbEntity
  8
AM_9
100
AcDbLine
 10
-0.2054502516015135
 20
4.312976278332703
 30
0.0
 11
-0.1983264404626879
 21
4.199168091126567
 31
0.0
  0
ELLIPSE
  5
AB
330
90
100
AcDbEntity
  8
AM_9
100
AcDbEllipse
 10
0.0000000000000007
 20
4.372621380500412
 30
0.0
 11
0.2187499999999984
 21
0.0
 31
0.0
210
0.0
220
0.0
230
1.0
 40
0.8660254037844464
 41
1.032970329615134
 42
1.570796326794897
  0
ELLIPSE
  5
AC
330
90
100
AcDbEntity
  8
AM_9
100
AcDbEllipse
 10
-0.0000000000000007
 20
4.372621380500412
 30
0.0
 11
0.2187499999999983
 21
0.0
 31
0.0
210
0.0
220
0.0
230
1.0
 40
0.8660254037844468
 41
1.570796326794897
 42
2.10862232397466
  0
ELLIPSE
  5
AD
330
90
100
AcDbEntity
  8
AM_9
100
AcDbEllipse
 10
0.0000000000000018
 20
4.372621380500409
 30
0.0
 11
0.2137500000000064
 21
0.0
 31
0.0
210
0.0
220
0.0
230
1.0
 40
0.8660254037844318
 41
0.9862868522353807
 42
2.155305801354428
  0
ELLIPSE
  5
AE
330
90
100
AcDbEntity
  8
AM_9
100
AcDbEllipse
 10
0.0
 20
4.381780479770853
 30
0.0
 11
0.1725340532830159
 21
0.0
 31
0.0
210
0.0
220
0.0
230
1.0
 40
0.8660254037844378
 41
0.6732704101475004
 42
2.468322243442293
  0
ELLIPSE
  5
AF
330
90
100
AcDbEntity
  8
AM_9
100
AcDbEllipse
 10
-0.0000000000000041
 20
4.408997941309697
 30
0.0
 11
0.1188200907349019
 21
0.0
 31
0.0
210
0.0
220
0.0
230
1.0
 40
0.8660254037844382
 41
0.0521714424108817
 42
0.8365075292153926
  0
LINE
  5
B0
330
90
100
AcDbEntity
  8
AM_9
100
AcDbLine
 10
-0.0703562363973515
 20
4.492621380500412
 30
0.0
 11
-0.079616518023802
 21
4.485382285353562
 31
0.0
  0
LINE
  5
B1
330
90
100
AcDbEntity
  8
AM_9
100
AcDbLine
 10
0.079616518023802
 20
4.485382285353562
 30
0.0
 11
0.0703562363973515
 21
4.492621380500412
 31
0.0
  0
ELLIPSE
  5
B2
330
90
100
AcDbEntity
  8
AM_9
100
AcDbEllipse
 10
0.0
 20
4.425121380500412
 30
0.0
 11
0.1049999999999995
 21
1.564621925353997E-9
 31
0.0
210
0.0
220
0.0
230
1.0
 40
0.8660254037844447
 41
0.8365075143792886
 42
3.141592638688632
  0
ELLIPSE
  5
B3
330
90
100
AcDbEntity
  8
AM_9
100
AcDbEllipse
 10
0.0
 20
4.408997941309698
 30
0.0
 11
0.118820090734899
 21
1.770557325108334E-9
 31
0.0
210
0.0
220
0.0
230
1.0
 40
0.8660254037844295
 41
0.8365075143793046
 42
2.305085109538263
  0
ELLIPSE
  5
B4
330
90
100
AcDbEntity
  8
AM_9
100
AcDbEllipse
 10
0.0000000000000041
 20
4.408997941309698
 30
0.0
 11
0.1188200907349015
 21
0.0
 31
0.0
210
0.0
220
0.0
230
1.0
 40
0.866025403784441
 41
2.305085124374412
 42
3.08942121117892
  0
ELLIPSE
  5
B5
330
90
100
AcDbEntity
  8
AM_9
100
AcDbEllipse
 10
0.0000000000000001
 20
4.425121380500412
 30
0.0
 11
0.105
 21
0.0
 31
0.0
210
0.0
220
0.0
230
1.0
 40
0.8660254037844407
 41
5.858105981271439
 42
7.119692836394988
  0
LINE
  5
B6
330
90
100
AcDbEntity
  8
AM_9
100
AcDbLine
 10
0.105
 20
4.425121380500412
 30
0.0
 11
0.105
 21
4.440121380500413
 31
0.0
  0
LINE
  5
B7
330
90
100
AcDbEntity
  8
AM_9
100
AcDbLine
 10
-0.105
 20
4.440121380500413
 30
0.0
 11
-0.105
 21
4.425121380500412
 31
0.0
  0
ELLIPSE
  5
B8
330
90
100
AcDbEntity
  8
AM_9
100
AcDbEllipse
 10
-0.0000000000000025
 20
4.440121380500413
 30
0.0
 11
0.1049999999999974
 21
1.564621925353965E-9
 31
0.0
210
0.0
220
0.0
230
1.0
 40
0.8660254037844454
 41
3.141592638688632
 42
4.188790190806229
  0
ELLIPSE
  5
B9
330
90
100
AcDbEntity
  8
AM_9
100
AcDbEllipse
 10
0.0000000000000002
 20
4.425121380500403
 30
0.0
 11
0.1050000000000001
 21
0.0
 31
0.0
210
0.0
220
0.0
230
1.0
 40
0.8660254037844227
 41
3.141592653589793
 42
3.566671979497857
  0
ELLIPSE
  5
BA
330
90
100
AcDbEntity
  8
AM_9
100
AcDbEllipse
 10
0.0
 20
4.440121380500412
 30
0.0
 11
0.1050000000000004
 21
0.0
 31
0.0
210
0.0
220
0.0
230
1.0
 40
0.8660254037844374
 41
5.23598775598299
 42
9.42477796076938
  0
ELLIPSE
  5
BB
330
90
100
AcDbEntity
  8
AM_9
100
AcDbEllipse
 10
0.0
 20
4.470121380500411
 30
0.0
 11
0.1350000000000014
 21
0.0
 31
0.0
210
0.0
220
0.0
230
1.0
 40
0.8660254037844355
 41
0.7751090107151315
 42
2.366483642874662
  0
ELLIPSE
  5
BC
330
90
100
AcDbEntity
  8
AM_9
100
AcDbEllipse
 10
-0.0000000000000002
 20
4.208478757654886
 30
0.0
 11
0.1986176267812152
 21
0.0
 31
0.0
210
0.0
220
0.0
230
1.0
 40
0.8660254037844449
 41
0.0
 42
6.283185307179586
  0
ELLIPSE
  5
BD
330
90
100
AcDbEntity
  8
AM_9
100
AcDbEllipse
 10
0.0000000000000005
 20
4.322621380500411
 30
0.0
 11
0.2057518972230693
 21
0.0
 31
0.0
210
0.0
220
0.0
230
1.0
 40
0.8660254037844347
 41
0.0
 42
6.283185307179586
  0
ELLIPSE
  5
BE
330
90
100
AcDbEntity
  8
AM_9
100
AcDbEllipse
 10
0.0000000000000009
 20
4.322621380500413
 30
0.0
 11
0.2187500000000013
 21
0.0
 31
0.0
210
0.0
220
0.0
230
1.0
 40
0.866025403784439
 41
0.0
 42
6.283185307179586
  0
LWPOLYLINE
  5
C0
330
90
100
AcDbEntity
  8
AM_4
100
AcDbPolyline
 90
        3
 70
     0
 43
0.0
 10
0.1894430570778459
 20
4.467342909039336
 10
0.1578692142315383
 20
4.513506982916279
 10
0.1262953713852306
 20
4.557530637729951
  0
LINE
  5
C1
330
90
100
AcDbEntity
  8
AM_4
100
AcDbLine
 10
0.1262953713852306
 20
4.557530637729951
 30
0.0
 11
0.0878491423263088
 21
4.559789434866928
 31
0.0
  0
LWPOLYLINE
  5
C2
330
90
100
AcDbEntity
  8
AM_4
100
AcDbPolyline
 90
        3
 70
     0
 43
0.0
 10
-0.1262953713852306
 20
4.557530637729951
 10
-0.1577272497321276
 20
4.513709357583103
 10
-0.1894430570778459
 20
4.467342909039336
  0
LINE
  5
C3
330
90
100
AcDbEntity
  8
AM_4
100
AcDbLine
 10
-0.0876643906215056
 20
4.559798650782118
 30
0.0
 11
-0.1262953713852306
 21
4.557530637729951
 31
0.0
  0
LWPOLYLINE
  5
C4
330
90
100
AcDbEntity
  8
AM_4
100
AcDbPolyline
 90
        3
 70
     0
 43
0.0
 10
-0.1894430570778459
 20
4.467342909039336
 10
-0.2210168999241536
 20
4.418785454377357
 10
-0.2525907427704612
 20
4.368087580652105
  0
LWPOLYLINE
  5
C5
330
90
100
AcDbEntity
  8
AM_4
100
AcDbPolyline
 90
        3
 70
     0
 43
0.0
 10
0.2525907427704612
 20
4.368087580652105
 10
0.2211588644235643
 20
4.418561935545948
 10
0.1894430570778459
 20
4.467342909039336
  0
ELLIPSE
  5
C6
330
90
100
AcDbEntity
  8
AM_4
100
AcDbEllipse
 10
0.0000000000000019
 20
4.37262138050041
 30
0.0
 11
0.2187499999999968
 21
0.0
 31
0.0
210
0.0
220
0.0
230
1.0
 40
0.8660254037844407
 41
4.71238898038469
 42
7.316155636794732
  0
ELLIPSE
  5
C7
330
90
100
AcDbEntity
  8
AM_4
100
AcDbEllipse
 10
-0.0000000000000019
 20
4.37262138050041
 30
0.0
 11
0.2187499999999968
 21
0.0
 31
0.0
210
0.0
220
0.0
230
1.0
 40
0.8660254037844407
 41
2.108622323974648
 42
4.71238898038469
  0
LWPOLYLINE
  5
C8
330
90
100
AcDbEntity
  8
AM_4
100
AcDbPolyline
 90
        3
 70
     0
 43
0.0
 10
0.0
 20
4.183178323422567
 10
0.0631476856926153
 20
4.181981633030049
 10
0.1262953713852306
 20
4.17864452357426
  0
LWPOLYLINE
  5
C9
330
90
100
AcDbEntity
  8
AM_4
100
AcDbPolyline
 90
        4
 70
     0
 43
0.0
 10
-0.1262953713852306
 20
4.17864452357426
 10
-0.0967996321117978
 20
4.180437117163645
 10
-0.0485424412477544
 20
4.182465409301031
 10
0.0
 20
4.183178323422567
  0
LWPOLYLINE
  5
CA
330
90
100
AcDbEntity
  8
AM_4
100
AcDbPolyline
 90
        4
 70
     0
 43
0.0
 10
0.0
 20
4.133178323422566
 10
-0.0483998160558989
 20
4.133887103781135
 10
-0.0967996321117978
 20
4.135919529681488
 10
-0.1262953713852306
 20
4.137712123270874
  0
LWPOLYLINE
  5
CB
330
90
100
AcDbEntity
  8
AM_4
100
AcDbPolyline
 90
        3
 70
     0
 43
0.0
 10
0.1262953713852306
 20
4.137712123270874
 10
0.0634316146914367
 20
4.134385585897377
 10
0.0
 20
4.133178323422566
  0
LINE
  5
CC
330
90
100
AcDbEntity
  8
AM_4
100
AcDbLine
 10
0.2525907427704612
 20
4.368087580652105
 30
0.0
 11
0.2525907427704612
 21
4.327155180348719
 31
0.0
  0
LWPOLYLINE
  5
CD
330
90
100
AcDbEntity
  8
AM_4
100
AcDbPolyline
 90
        3
 70
     0
 43
0.0
 10
0.1894430570778459
 20
4.277899851961489
 10
0.2210168999241535
 20
4.324063925838433
 10
0.2525907427704612
 20
4.368087580652105
  0
LWPOLYLINE
  5
CE
330
90
100
AcDbEntity
  8
AM_4
100
AcDbPolyline
 90
        3
 70
     0
 43
0.0
 10
0.1262953713852306
 20
4.17864452357426
 10
0.1577272497321276
 20
4.229118878468102
 10
0.1894430570778459
 20
4.277899851961489
  0
LINE
  5
CF
330
90
100
AcDbEntity
  8
AM_4
100
AcDbLine
 10
0.1262953713852306
 20
4.17864452357426
 30
0.0
 11
0.1262953713852306
 21
4.137712123270874
 31
0.0
  0
LWPOLYLINE
  5
D0
330
90
100
AcDbEntity
  8
AM_4
100
AcDbPolyline
 90
        3
 70
     0
 43
0.0
 10
0.1894430570778459
 20
4.22789985196149
 10
0.1578692142315383
 20
4.181735778084546
 10
0.1262953713852306
 20
4.137712123270874
  0
LWPOLYLINE
  5
D1
330
90
100
AcDbEntity
  8
AM_4
100
AcDbPolyline
 90
        3
 70
     0
 43
0.0
 10
0.2525907427704612
 20
4.327155180348719
 10
0.2211588644235643
 20
4.276680825454877
 10
0.1894430570778459
 20
4.22789985196149
  0
LINE
  5
D2
330
90
100
AcDbEntity
  8
AM_4
100
AcDbLine
 10
-0.1262953713852306
 20
4.17864452357426
 30
0.0
 11
-0.1262953713852306
 21
4.137712123270874
 31
0.0
  0
LWPOLYLINE
  5
D3
330
90
100
AcDbEntity
  8
AM_4
100
AcDbPolyline
 90
        3
 70
     0
 43
0.0
 10
-0.1894430570778459
 20
4.277899851961489
 10
-0.1578692142315383
 20
4.229342397299511
 10
-0.1262953713852306
 20
4.17864452357426
  0
LWPOLYLINE
  5
D4
330
90
100
AcDbEntity
  8
AM_4
100
AcDbPolyline
 90
        3
 70
     0
 43
0.0
 10
-0.2525907427704612
 20
4.368087580652105
 10
-0.2211588644235643
 20
4.324266300505258
 10
-0.1894430570778459
 20
4.277899851961489
  0
LINE
  5
D5
330
90
100
AcDbEntity
  8
AM_4
100
AcDbLine
 10
-0.2525907427704612
 20
4.368087580652105
 30
0.0
 11
-0.2525907427704612
 21
4.327155180348719
 31
0.0
  0
LWPOLYLINE
  5
D6
330
90
100
AcDbEntity
  8
AM_4
100
AcDbPolyline
 90
        3
 70
     0
 43
0.0
 10
-0.1894430570778459
 20
4.22789985196149
 10
-0.2210168999241536
 20
4.276457306623468
 10
-0.2525907427704612
 20
4.327155180348719
  0
LWPOLYLINE
  5
D7
330
90
100
AcDbEntity
  8
AM_4
100
AcDbPolyline
 90
        3
 70
     0
 43
0.0
 10
-0.1262953713852306
 20
4.137712123270874
 10
-0.1577272497321276
 20
4.181533403417721
 10
-0.1894430570778459
 20
4.22789985196149
  0
ELLIPSE
  5
D8
330
90
100
AcDbEntity
  8
AM_4
100
AcDbEllipse
 10
0.0
 20
4.372621380500412
 30
0.0
 11
0.2137499999999999
 21
0.0
 31
0.0
210
0.0
220
0.0
230
1.0
 40
0.8660254037844375
 41
2.623748055602222
 42
6.283185307179586
  0
ELLIPSE
  5
D9
330
90
100
AcDbEntity
  8
AM_4
100
AcDbEllipse
 10
-0.0000000000000011
 20
4.372621380500414
 30
0.0
 11
0.2137499999999986
 21
0.0
 31
0.0
210
0.0
220
0.0
230
1.0
 40
0.8660254037844344
 41
2.155305801354431
 42
2.623748055602227
  0
ELLIPSE
  5
DA
330
90
100
AcDbEntity
  8
AM_4
100
AcDbEllipse
 10
0.000000000000009
 20
4.372621380500415
 30
0.0
 11
0.2137499999999878
 21
0.0
 31
0.0
210
0.0
220
0.0
230
1.0
 40
0.866025403784453
 41
0.0
 42
0.9862868522353808
  0
ELLIPSE
  5
DB
330
90
100
AcDbEntity
  8
AM_4
100
AcDbEllipse
 10
-0.0000000000000003
 20
4.381780479770853
 30
0.0
 11
0.1725340532830154
 21
0.0
 31
0.0
210
0.0
220
0.0
230
1.0
 40
0.8660254037844405
 41
2.468322243442293
 42
6.956455717327085
  0
ELLIPSE
  5
DC
330
90
100
AcDbEntity
  8
AM_4
100
AcDbEllipse
 10
0.0000000000000029
 20
4.408997941309688
 30
0.0
 11
0.1188200907348946
 21
0.0
 31
0.0
210
0.0
220
0.0
230
1.0
 40
0.8660254037844314
 41
3.089421211178822
 42
6.335356749590559
  0
ELLIPSE
  5
DD
330
90
100
AcDbEntity
  8
AM_4
100
AcDbEllipse
 10
0.0
 20
4.425121380500411
 30
0.0
 11
0.1049999999999996
 21
0.0
 31
0.0
210
0.0
220
0.0
230
1.0
 40
0.8660254037844352
 41
3.566671979497933
 42
5.858105981271446
  0
LINE
  5
DE
330
90
100
AcDbEntity
  8
AM_4
100
AcDbLine
 10
0.0525
 20
4.361371380500413
 30
0.0
 11
0.0675000000000001
 21
4.368871380500413
 31
0.0
  0
LINE
  5
DF
330
90
100
AcDbEntity
  8
AM_4
100
AcDbLine
 10
-0.0675000000000001
 20
4.368871380500413
 30
0.0
 11
-0.0525
 21
4.361371380500413
 31
0.0
  0
ELLIPSE
  5
E0
330
90
100
AcDbEntity
  8
AM_4
100
AcDbEllipse
 10
0.0
 20
4.440121380500412
 30
0.0
 11
0.105
 21
0.0
 31
0.0
210
0.0
220
0.0
230
1.0
 40
0.8660254037844324
 41
4.18879020478639
 42
5.235987755982988
  0
ELLIPSE
  5
E1
330
90
100
AcDbEntity
  8
AM_4
100
AcDbEllipse
 10
-0.0000000000000012
 20
4.470121380500413
 30
0.0
 11
0.1350000000000013
 21
0.0
 31
0.0
210
0.0
220
0.0
230
1.0
 40
0.8660254037844362
 41
4.1887902047864
 42
7.058294317894701
  0
LINE
  5
E2
330
90
100
AcDbEntity
  8
AM_4
100
AcDbLine
 10
-0.0733474205218687
 20
4.57234822829252
 30
0.0
 11
-0.0964365416902991
 21
4.551936691232032
 31
0.0
  0
LINE
  5
E3
330
90
100
AcDbEntity
  8
AM_4
100
AcDbLine
 10
0.0964365416902991
 20
4.551936691232032
 30
0.0
 11
0.0733474205218687
 21
4.57234822829252
 31
0.0
  0
ELLIPSE
  5
E4
330
90
100
AcDbEntity
  8
AM_4
100
AcDbEllipse
 10
-0.0000000000000002
 20
4.470121380500413
 30
0.0
 11
0.1349999999999999
 21
0.0
 31
0.0
210
0.0
220
0.0
230
1.0
 40
0.8660254037844384
 41
2.366483642874674
 42
4.188790204786394
  0
ELLIPSE
  5
E5
330
90
100
AcDbEntity
  8
AM_4
100
AcDbEllipse
 10
-0.0000000000000011
 20
4.510121380500413
 30
0.0
 11
0.1026779019331888
 21
0.0
 31
0.0
210
0.0
220
0.0
230
1.0
 40
0.866025403784438
 41
0.0
 42
6.283185307179586
  0
ENDBLK
  5
93
330
90
100
AcDbEntity
  8
0
100
AcDbBlockEnd
  0
BLOCK
  5
E8
330
E6
100
AcDbEntity
  8
0
100
AcDbBlockBegin
  2
3_ASME_B18_3_1_4_1_0_in_069892_0
 70
     2
 10
0.0
 20
0.0
 30
0.0
  3
3_ASME_B18_3_1_4_1_0_in_069892_0
  1

  0
ATTDEF
  5
EA
330
E6
100
AcDbEntity
  8
AM_6
100
AcDbText
 10
5.229425
 20
-1.986361111111111
 30
0.0
 40
0.5
  1
ANSI/ASME B18.3-1998
100
AcDbAttributeDefinition
  3

  2
NN
 70
     8
280
     0
  0
ATTDEF
  5
EB
330
E6
100
AcDbEntity
  8
AM_6
100
AcDbText
 10
5.229425
 20
-2.486361111111111
 30
0.0
 40
0.5
  1
Socket Button Head Cap Screws
100
AcDbAttributeDefinition
  3

  2
NT
 70
     8
280
     0
  0
ATTDEF
  5
EC
330
E6
100
AcDbEntity
  8
AM_6
100
AcDbText
 10
5.229425
 20
-2.986361111111111
 30
0.0
 40
0.5
  1
ASME B18.3-1/4
100
AcDbAttributeDefinition
  3

  2
NB
 70
     8
280
     0
  0
ATTDEF
  5
ED
330
E6
100
AcDbEntity
  8
AM_6
100
AcDbText
 10
5.229425
 20
-3.486361111111111
 30
0.0
 40
0.5
  1
ASME B18.3-$NS.
100
AcDbAttributeDefinition
  3

  2
NBSYN
 70
     8
280
     0
  0
ATTDEF
  5
EE
330
E6
100
AcDbEntity
  8
AM_6
100
AcDbText
 10
5.229425
 20
-3.986361111111111
 30
0.0
 40
0.5
  1
ASME B18.3-1/4
100
AcDbAttributeDefinition
  3

  2
LINA
 70
     8
280
     0
  0
ATTDEF
  5
EF
330
E6
100
AcDbEntity
  8
AM_6
100
AcDbText
 10
5.229425
 20
-4.486361111111111
 30
0.0
 40
0.5
  1
1/4
100
AcDbAttributeDefinition
  3

  2
NS
 70
     8
280
     0
  0
ATTDEF
  5
F0
330
E6
100
AcDbEntity
  8
AM_6
100
AcDbText
 10
5.229425
 20
-4.986361111111111
 30
0.0
 40
0.5
  1
0.437
100
AcDbAttributeDefinition
  3

  2
A
 70
     8
280
     0
  0
ATTDEF
  5
F1
330
E6
100
AcDbEntity
  8
AM_6
100
AcDbText
 10
5.229425
 20
-5.486361111111111
 30
0.0
 40
0.5
  1
0.132
100
AcDbAttributeDefinition
  3

  2
H
 70
     8
280
     0
  0
ATTDEF
  5
F2
330
E6
100
AcDbEntity
  8
AM_6
100
AcDbText
 10
5.229425
 20
-5.986361111111111
 30
0.0
 40
0.5
  1
0.800
100
AcDbAttributeDefinition
  3

  2
L
 70
     8
280
     0
  0
ATTDEF
  5
F3
330
E6
100
AcDbEntity
  8
AM_6
100
AcDbText
 10
5.229425
 20
-6.486361111111111
 30
0.0
 40
0.5
  1
0.031
100
AcDbAttributeDefinition
  3

  2
S
 70
     8
280
     0
  0
ATTDEF
  5
F4
330
E6
100
AcDbEntity
  8
AM_6
100
AcDbText
 10
5.229425
 20
-6.986361111111111
 30
0.0
 40
0.5
  1
0.156250
100
AcDbAttributeDefinition
  3

  2
J
 70
     8
280
     0
  0
ATTDEF
  5
F5
330
E6
100
AcDbEntity
  8
AM_6
100
AcDbText
 10
5.229425
 20
-7.486361111111111
 30
0.0
 40
0.5
  1
baldor
100
AcDbAttributeDefinition
  3

  2
COMPANY
 70
     8
280
     0
  0
ARC
  5
F7
330
E6
100
AcDbEntity
  8
AM_5
100
AcDbCircle
 10
0.0000000000000001
 20
-2.204861111111111
 30
0.0
 40
0.0952500000000001
100
AcDbArc
 50
75.00000000000001
 51
15.00000000000002
  0
LINE
  5
FA
330
E6
100
AcDbEntity
  8
AM_7
100
AcDbLine
 10
-0.2294250000000002
 20
-2.204861111111111
 30
0.0
 11
0.2294250000000002
 21
-2.204861111111111
 31
0.0
  0
LINE
  5
FB
330
E6
100
AcDbEntity
  8
AM_4
100
AcDbLine
 10
0.0
 20
-2.114650131550232
 30
0.0
 11
0.078125
 21
-2.159755621330671
 31
0.0
  0
LINE
  5
FC
330
E6
100
AcDbEntity
  8
AM_4
100
AcDbLine
 10
0.078125
 20
-2.159755621330671
 30
0.0
 11
0.078125
 21
-2.249966600891551
 31
0.0
  0
LINE
  5
FD
330
E6
100
AcDbEntity
  8
AM_4
100
AcDbLine
 10
0.0
 20
-2.29507209067199
 30
0.0
 11
-0.078125
 21
-2.249966600891551
 31
0.0
  0
CIRCLE
  5
FE
330
E6
100
AcDbEntity
  8
AM_4
100
AcDbCircle
 10
0.0
 20
-2.204861111111111
 30
0.0
 40
0.1175
  0
LINE
  5
FF
330
E6
100
AcDbEntity
  8
AM_4
100
AcDbLine
 10
-0.078125
 20
-2.249966600891551
 30
0.0
 11
-0.078125
 21
-2.159755621330671
 31
0.0
  0
LINE
  5
100
330
E6
100
AcDbEntity
  8
AM_4
100
AcDbLine
 10
-0.078125
 20
-2.159755621330671
 30
0.0
 11
0.0
 21
-2.114650131550232
 31
0.0
  0
LINE
  5
101
330
E6
100
AcDbEntity
  8
AM_4
100
AcDbLine
 10
0.078125
 20
-2.249966600891551
 30
0.0
 11
0.0
 21
-2.29507209067199
 31
0.0
  0
ARC
  5
102
330
E6
100
AcDbEntity
  8
AM_5
100
AcDbCircle
 10
0.0
 20
-2.204861111111111
 30
0.0
 40
0.09525
100
AcDbArc
 50
345.0
 51
285.0
  0
CIRCLE
  5
103
330
E6
100
AcDbEntity
  8
AM_4
100
AcDbCircle
 10
0.0
 20
-2.204861111111111
 30
0.0
 40
0.2185000000000001
  0
CIRCLE
  5
104
330
E6
100
AcDbEntity
  8
AM_5
100
AcDbCircle
 10
0.0000000000000005
 20
-2.204861111111112
 30
0.0
 40
0.1063999999999998
  0
ENDBLK
  5
E9
330
E6
100
AcDbEntity
  8
0
100
AcDbBlockEnd
  0
BLOCK
  5
107
330
105
100
AcDbEntity
  8
0
100
AcDbBlockBegin
  2
4_ASME_B18_3_1_4_2_0_in_069892_0
 70
     2
 10
0.0
 20
0.0
 30
0.0
  3
4_ASME_B18_3_1_4_2_0_in_069892_0
  1

  0
ATTDEF
  5
109
330
105
100
AcDbEntity
  8
AM_6
100
AcDbText
 10
5.229425
 20
2.42336111111111
 30
0.0
 40
0.5
  1
ANSI/ASME B18.3-1998
100
AcDbAttributeDefinition
  3

  2
NN
 70
     8
280
     0
  0
ATTDEF
  5
10A
330
105
100
AcDbEntity
  8
AM_6
100
AcDbText
 10
5.229425
 20
1.92336111111111
 30
0.0
 40
0.5
  1
Socket Button Head Cap Screws
100
AcDbAttributeDefinition
  3

  2
NT
 70
     8
280
     0
  0
ATTDEF
  5
10B
330
105
100
AcDbEntity
  8
AM_6
100
AcDbText
 10
5.229425
 20
1.42336111111111
 30
0.0
 40
0.5
  1
ASME B18.3-1/4
100
AcDbAttributeDefinition
  3

  2
NB
 70
     8
280
     0
  0
ATTDEF
  5
10C
330
105
100
AcDbEntity
  8
AM_6
100
AcDbText
 10
5.229425
 20
0.9233611111111104
 30
0.0
 40
0.5
  1
ASME B18.3-$NS.
100
AcDbAttributeDefinition
  3

  2
NBSYN
 70
     8
280
     0
  0
ATTDEF
  5
10D
330
105
100
AcDbEntity
  8
AM_6
100
AcDbText
 10
5.229425
 20
0.4233611111111104
 30
0.0
 40
0.5
  1
ASME B18.3-1/4
100
AcDbAttributeDefinition
  3

  2
LINA
 70
     8
280
     0
  0
ATTDEF
  5
10E
330
105
100
AcDbEntity
  8
AM_6
100
AcDbText
 10
5.229425
 20
-0.0766388888888896
 30
0.0
 40
0.5
  1
1/4
100
AcDbAttributeDefinition
  3

  2
NS
 70
     8
280
     0
  0
ATTDEF
  5
10F
330
105
100
AcDbEntity
  8
AM_6
100
AcDbText
 10
5.229425
 20
-0.5766388888888896
 30
0.0
 40
0.5
  1
0.437
100
AcDbAttributeDefinition
  3

  2
A
 70
     8
280
     0
  0
ATTDEF
  5
110
330
105
100
AcDbEntity
  8
AM_6
100
AcDbText
 10
5.229425
 20
-1.07663888888889
 30
0.0
 40
0.5
  1
0.132
100
AcDbAttributeDefinition
  3

  2
H
 70
     8
280
     0
  0
ATTDEF
  5
111
330
105
100
AcDbEntity
  8
AM_6
100
AcDbText
 10
5.229425
 20
-1.57663888888889
 30
0.0
 40
0.5
  1
0.800
100
AcDbAttributeDefinition
  3

  2
L
 70
     8
280
     0
  0
ATTDEF
  5
112
330
105
100
AcDbEntity
  8
AM_6
100
AcDbText
 10
5.229425
 20
-2.07663888888889
 30
0.0
 40
0.5
  1
0.031
100
AcDbAttributeDefinition
  3

  2
S
 70
     8
280
     0
  0
ATTDEF
  5
113
330
105
100
AcDbEntity
  8
AM_6
100
AcDbText
 10
5.229425
 20
-2.57663888888889
 30
0.0
 40
0.5
  1
0.156250
100
AcDbAttributeDefinition
  3

  2
J
 70
     8
280
     0
  0
ATTDEF
  5
114
330
105
100
AcDbEntity
  8
AM_6
100
AcDbText
 10
5.229425
 20
-3.07663888888889
 30
0.0
 40
0.5
  1
baldor
100
AcDbAttributeDefinition
  3

  2
COMPANY
 70
     8
280
     0
  0
ARC
  5
115
330
105
100
AcDbEntity
  8
AM_5
100
AcDbCircle
 10
-0.0000000000000001
 20
2.204861111111111
 30
0.0
 40
0.0952500000000001
100
AcDbArc
 50
75.00000000000001
 51
15.00000000000004
  0
LINE
  5
116
330
105
100
AcDbEntity
  8
AM_7
100
AcDbLine
 10
-0.2294249999999999
 20
2.204861111111111
 30
0.0
 11
0.2294249999999999
 21
2.204861111111111
 31
0.0
  0
LINE
  5
117
330
105
100
AcDbEntity
  8
AM_4
100
AcDbLine
 10
0.0
 20
2.29507209067199
 30
0.0
 11
0.078125
 21
2.249966600891551
 31
0.0
  0
LINE
  5
118
330
105
100
AcDbEntity
  8
AM_4
100
AcDbLine
 10
0.078125
 20
2.249966600891551
 30
0.0
 11
0.078125
 21
2.159755621330671
 31
0.0
  0
CIRCLE
  5
119
330
105
100
AcDbEntity
  8
AM_4
100
AcDbCircle
 10
0.0
 20
2.204861111111111
 30
0.0
 40
0.1175
  0
LINE
  5
11A
330
105
100
AcDbEntity
  8
AM_4
100
AcDbLine
 10
-0.078125
 20
2.159755621330671
 30
0.0
 11
-0.078125
 21
2.249966600891551
 31
0.0
  0
LINE
  5
11B
330
105
100
AcDbEntity
  8
AM_4
100
AcDbLine
 10
-0.078125
 20
2.249966600891551
 30
0.0
 11
0.0
 21
2.29507209067199
 31
0.0
  0
LINE
  5
11C
330
105
100
AcDbEntity
  8
AM_4
100
AcDbLine
 10
0.078125
 20
2.159755621330671
 30
0.0
 11
0.0
 21
2.114650131550232
 31
0.0
  0
LINE
  5
11D
330
105
100
AcDbEntity
  8
AM_4
100
AcDbLine
 10
0.0
 20
2.114650131550232
 30
0.0
 11
-0.078125
 21
2.159755621330671
 31
0.0
  0
ARC
  5
11E
330
105
100
AcDbEntity
  8
AM_5
100
AcDbCircle
 10
0.0
 20
2.204861111111111
 30
0.0
 40
0.09525
100
AcDbArc
 50
345.0
 51
285.0
  0
CIRCLE
  5
11F
330
105
100
AcDbEntity
  8
AM_4
100
AcDbCircle
 10
0.0
 20
2.204861111111111
 30
0.0
 40
0.2184999999999999
  0
CIRCLE
  5
120
330
105
100
AcDbEntity
  8
AM_5
100
AcDbCircle
 10
0.0000000000000005
 20
2.204861111111111
 30
0.0
 40
0.1063999999999998
  0
ENDBLK
  5
108
330
105
100
AcDbEntity
  8
0
100
AcDbBlockEnd
  0
BLOCK
  5
123
330
121
100
AcDbEntity
  8
0
100
AcDbBlockBegin
  2
5_070903LW_0_in_069892_0
 70
     2
 10
0.0
 20
0.0
 30
0.0
  3
5_070903LW_0_in_069892_0
  1

  0
ATTDEF
  5
125
330
121
100
AcDbEntity
  8
AM_6
100
AcDbText
 10
7.5
 20
2.5
 30
0.0
 40
0.5
  1
Imperial Insert Lockwasher -Inch
100
AcDbAttributeDefinition
  3

  2
NN
 70
     8
280
     0
  0
ATTDEF
  5
126
330
121
100
AcDbEntity
  8
AM_6
100
AcDbText
 10
7.5
 20
2.0
 30
0.0
 40
0.5
  1
Imperial Bearings
100
AcDbAttributeDefinition
  3

  2
NT
 70
     8
280
     0
  0
ATTDEF
  5
127
330
121
100
AcDbEntity
  8
AM_6
100
AcDbText
 10
7.5
 20
1.5
 30
0.0
 40
0.5
  1
070903LW
100
AcDbAttributeDefinition
  3

  2
NB
 70
     8
280
     0
  0
ATTDEF
  5
128
330
121
100
AcDbEntity
  8
AM_6
100
AcDbText
 10
7.5
 20
1.0
 30
0.0
 40
0.5
  1
$PN.LW
100
AcDbAttributeDefinition
  3

  2
NBSYN
 70
     8
280
     0
  0
ATTDEF
  5
129
330
121
100
AcDbEntity
  8
AM_6
100
AcDbText
 10
7.5
 20
0.5
 30
0.0
 40
0.5
  1
070903
100
AcDbAttributeDefinition
  3

  2
LINA
 70
     8
280
     0
  0
ATTDEF
  5
12A
330
121
100
AcDbEntity
  8
AM_6
100
AcDbText
 10
7.5
 20
0.0
 30
0.0
 40
0.5
  1
3-7/16
100
AcDbAttributeDefinition
  3

  2
SS
 70
     8
280
     0
  0
ATTDEF
  5
12B
330
121
100
AcDbEntity
  8
AM_6
100
AcDbText
 10
7.5
 20
-0.5
 30
0.0
 40
0.5
  1
3.437500
100
AcDbAttributeDefinition
  3

  2
SS1
 70
     8
280
     0
  0
ATTDEF
  5
12C
330
121
100
AcDbEntity
  8
AM_6
100
AcDbText
 10
7.5
 20
-1.0
 30
0.0
 40
0.5
  1
070903
100
AcDbAttributeDefinition
  3

  2
PN
 70
     8
280
     0
  0
ATTDEF
  5
12D
330
121
100
AcDbEntity
  8
AM_6
100
AcDbText
 10
7.5
 20
-1.5
 30
0.0
 40
0.5
  1
INS-IP-307R
100
AcDbAttributeDefinition
  3

  2
DESCRIPTION
 70
     8
280
     0
  0
ATTDEF
  5
12E
330
121
100
AcDbEntity
  8
AM_6
100
AcDbText
 10
7.5
 20
-2.0
 30
0.0
 40
0.5
  1
6.2992
100
AcDbAttributeDefinition
  3

  2
A
 70
     8
280
     0
  0
ATTDEF
  5
12F
330
121
100
AcDbEntity
  8
AM_6
100
AcDbText
 10
7.5
 20
-2.5
 30
0.0
 40
0.5
  1
1-5/8
100
AcDbAttributeDefinition
  3

  2
B
 70
     8
280
     0
  0
ATTDEF
  5
130
330
121
100
AcDbEntity
  8
AM_6
100
AcDbText
 10
7.5
 20
-3.0
 30
0.0
 40
0.5
  1
4-11/64
100
AcDbAttributeDefinition
  3

  2
C
 70
     8
280
     0
  0
ATTDEF
  5
131
330
121
100
AcDbEntity
  8
AM_6
100
AcDbText
 10
7.5
 20
-3.5
 30
0.0
 40
0.5
  1
1.483
100
AcDbAttributeDefinition
  3

  2
D
 70
     8
280
     0
  0
ATTDEF
  5
132
330
121
100
AcDbEntity
  8
AM_6
100
AcDbText
 10
7.5
 20
-4.0
 30
0.0
 40
0.5
  1
5
100
AcDbAttributeDefinition
  3

  2
E
 70
     8
280
     0
  0
ATTDEF
  5
133
330
121
100
AcDbEntity
  8
AM_6
100
AcDbText
 10
7.5
 20
-4.5
 30
0.0
 40
0.5
  1
0.2500
100
AcDbAttributeDefinition
  3

  2
NDM
 70
     8
280
     0
  0
ATTDEF
  5
134
330
121
100
AcDbEntity
  8
AM_6
100
AcDbText
 10
7.5
 20
-5.0
 30
0.0
 40
0.5
  1
0.1960
100
AcDbAttributeDefinition
  3

  2
KDM
 70
     8
280
     0
  0
ATTDEF
  5
135
330
121
100
AcDbEntity
  8
AM_6
100
AcDbText
 10
7.5
 20
-5.5
 30
0.0
 40
0.5
  1
4.28
100
AcDbAttributeDefinition
  3

  2
AL
 70
     8
280
     0
  0
ATTDEF
  5
136
330
121
100
AcDbEntity
  8
AM_6
100
AcDbText
 10
7.5
 20
-6.0
 30
0.0
 40
0.5
  1
0.50
100
AcDbAttributeDefinition
  3

  2
BL
 70
     8
280
     0
  0
ATTDEF
  5
137
330
121
100
AcDbEntity
  8
AM_6
100
AcDbText
 10
7.5
 20
-6.5
 30
0.0
 40
0.5
  1
0.07
100
AcDbAttributeDefinition
  3

  2
CL
 70
     8
280
     0
  0
ATTDEF
  5
138
330
121
100
AcDbEntity
  8
AM_6
100
AcDbText
 10
7.5
 20
-7.0
 30
0.0
 40
0.5
  1
0.44
100
AcDbAttributeDefinition
  3

  2
DL
 70
     8
280
     0
  0
ATTDEF
  5
139
330
121
100
AcDbEntity
  8
AM_6
100
AcDbText
 10
7.5
 20
-7.5
 30
0.0
 40
0.5
  1
baldor
100
AcDbAttributeDefinition
  3

  2
COMPANY
 70
     8
280
     0
  0
ARC
  5
13A
330
121
100
AcDbEntity
  8
AM_9
100
AcDbCircle
 10
-0.0000000000000165
 20
0.0000000000000366
 30
0.0
 40
1.80921052631575
100
AcDbArc
 50
108.5382262762186
 51
116.4617737237814
  0
LINE
  5
13B
330
121
100
AcDbEntity
  8
AM_9
100
AcDbLine
 10
-0.1250000000000005
 20
2.025648248849498
 30
0.0
 11
-0.1250000000000004
 21
2.204861111111111
 31
0.0
  0
LINE
  5
13C
330
121
100
AcDbEntity
  8
AM_9
100
AcDbLine
 10
0.1249999999999998
 20
2.204861111111111
 30
0.0
 11
0.1249999999999998
 21
2.025648248849497
 31
0.0
  0
LINE
  5
13D
330
121
100
AcDbEntity
  8
AM_9
100
AcDbLine
 10
0.1250000000000011
 20
-2.025648248849498
 30
0.0
 11
0.125000000000001
 21
-2.204861111111111
 31
0.0
  0
LINE
  5
13E
330
121
100
AcDbEntity
  8
AM_9
100
AcDbLine
 10
-0.1249999999999991
 20
-2.204861111111111
 30
0.0
 11
-0.1249999999999991
 21
-2.025648248849497
 31
0.0
  0
LINE
  5
13F
330
121
100
AcDbEntity
  8
AM_7
100
AcDbLine
 10
-1.690357807711283
 20
-1.559107797093044
 30
0.0
 11
-1.427857786474801
 21
-1.559107797093044
 31
0.0
  0
LINE
  5
140
330
121
100
AcDbEntity
  8
AM_7
100
AcDbLine
 10
-1.559107797093042
 20
-1.690357807711285
 30
0.0
 11
-1.559107797093042
 21
-1.427857786474803
 31
0.0
  0
LINE
  5
141
330
121
100
AcDbEntity
  8
AM_7
100
AcDbLine
 10
1.427857786474802
 20
-1.559107797093042
 30
0.0
 11
1.690357807711284
 21
-1.559107797093042
 31
0.0
  0
LINE
  5
142
330
121
100
AcDbEntity
  8
AM_7
100
AcDbLine
 10
1.559107797093043
 20
-1.690357807711283
 30
0.0
 11
1.559107797093043
 21
-1.427857786474801
 31
0.0
  0
LINE
  5
143
330
121
100
AcDbEntity
  8
AM_7
100
AcDbLine
 10
-2.20491139185062
 20
-0.1312500106182428
 30
0.0
 11
-2.20491139185062
 21
0.1312500106182406
 31
0.0
  0
LINE
  5
144
330
121
100
AcDbEntity
  8
AM_7
100
AcDbLine
 10
2.20491139185062
 20
-0.1312500106182409
 30
0.0
 11
2.20491139185062
 21
0.1312500106182424
 31
0.0
  0
LINE
  5
145
330
121
100
AcDbEntity
  8
AM_7
100
AcDbLine
 10
1.427857786474801
 20
1.559107797093043
 30
0.0
 11
1.690357807711284
 21
1.559107797093043
 31
0.0
  0
LINE
  5
146
330
121
100
AcDbEntity
  8
AM_7
100
AcDbLine
 10
1.559107797093043
 20
1.427857786474801
 30
0.0
 11
1.559107797093043
 21
1.690357807711284
 31
0.0
  0
LINE
  5
147
330
121
100
AcDbEntity
  8
AM_7
100
AcDbLine
 10
-1.690357807711284
 20
1.559107797093043
 30
0.0
 11
-1.427857786474802
 21
1.559107797093043
 31
0.0
  0
LINE
  5
148
330
121
100
AcDbEntity
  8
AM_7
100
AcDbLine
 10
-1.559107797093043
 20
1.427857786474803
 30
0.0
 11
-1.559107797093043
 21
1.690357807711284
 31
0.0
  0
ARC
  5
149
330
121
100
AcDbEntity
  8
AM_4
100
AcDbCircle
 10
0.0000000000000047
 20
0.00000000000001
 30
0.0
 40
1.858108108108097
100
AcDbArc
 50
48.85735657672135
 51
86.14264342327873
  0
LINE
  5
14A
330
121
100
AcDbEntity
  8
AM_4
100
AcDbLine
 10
-0.1249999999999998
 20
1.853898794815157
 30
0.0
 11
-0.1250000000000005
 21
2.025648248849498
 31
0.0
  0
LINE
  5
14B
330
121
100
AcDbEntity
  8
AM_4
100
AcDbLine
 10
0.1249999999999998
 20
2.025648248849497
 30
0.0
 11
0.1249999999999999
 21
1.853898794815157
 31
0.0
  0
ARC
  5
14C
330
121
100
AcDbEntity
  8
AM_4
100
AcDbCircle
 10
0.0000000000000107
 20
0.0000000000000056
 30
0.0
 40
1.85810810810812
100
AcDbArc
 50
183.8573565767215
 51
221.1426434232785
  0
LINE
  5
14D
330
121
100
AcDbEntity
  8
AM_4
100
AcDbLine
 10
-1.64746059088949
 20
-1.470683895592855
 30
0.0
 11
-1.399292757095683
 21
-1.222516061799048
 31
0.0
  0
ARC
  5
14E
330
121
100
AcDbEntity
  8
AM_4
100
AcDbCircle
 10
-1.559107797093042
 20
-1.559107797093044
 30
0.0
 40
0.1250000101126106
100
AcDbArc
 50
134.9769530079252
 51
315.023046992075
  0
LINE
  5
14F
330
121
100
AcDbEntity
  8
AM_4
100
AcDbLine
 10
-1.222516061799047
 20
-1.399292757095684
 30
0.0
 11
-1.470683895592853
 21
-1.647460590889491
 31
0.0
  0
ARC
  5
150
330
121
100
AcDbEntity
  8
AM_4
100
AcDbCircle
 10
-2.204911391850621
 20
-0.0000000000000011
 30
0.0
 40
0.1250000101126107
100
AcDbArc
 50
89.97695300792516
 51
270.0230469920748
  0
LINE
  5
151
330
121
100
AcDbEntity
  8
AM_4
100
AcDbLine
 10
-1.853898794815158
 20
-0.1250000000000017
 30
0.0
 11
-2.204861111111111
 21
-0.1250000000000011
 31
0.0
  0
LINE
  5
152
330
121
100
AcDbEntity
  8
AM_4
100
AcDbLine
 10
0.1250000000000009
 20
-1.853898794815158
 30
0.0
 11
0.1250000000000011
 21
-2.025648248849498
 31
0.0
  0
ARC
  5
153
330
121
100
AcDbEntity
  8
AM_4
100
AcDbCircle
 10
-0.0000000000000022
 20
0.0000000000000024
 30
0.0
 40
1.858108108108111
100
AcDbArc
 50
273.8573565767215
 51
311.1426434232786
  0
LINE
  5
154
330
121
100
AcDbEntity
  8
AM_4
100
AcDbLine
 10
1.470683895592859
 20
-1.647460590889495
 30
0.0
 11
1.222516061799048
 21
-1.399292757095683
 31
0.0
  0
ARC
  5
155
330
121
100
AcDbEntity
  8
AM_4
100
AcDbCircle
 10
1.559107797093043
 20
-1.559107797093042
 30
0.0
 40
0.1250000101126106
100
AcDbArc
 50
224.9769530079283
 51
45.02304699207468
  0
LINE
  5
156
330
121
100
AcDbEntity
  8
AM_4
100
AcDbLine
 10
1.399292757095685
 20
-1.222516061799047
 30
0.0
 11
1.647460590889491
 21
-1.470683895592853
 31
0.0
  0
ARC
  5
157
330
121
100
AcDbEntity
  8
AM_4
100
AcDbCircle
 10
-0.0000000000000075
 20
0.0000000000000019
 30
0.0
 40
1.858108108108115
100
AcDbArc
 50
318.8573565767215
 51
356.1426434232786
  0
LINE
  5
158
330
121
100
AcDbEntity
  8
AM_4
100
AcDbLine
 10
2.204861111111111
 20
-0.1249999999999993
 30
0.0
 11
1.853898794815157
 21
-0.1249999999999995
 31
0.0
  0
ARC
  5
159
330
121
100
AcDbEntity
  8
AM_4
100
AcDbCircle
 10
2.20491139185062
 20
0.0000000000000007
 30
0.0
 40
0.1250000101126108
100
AcDbArc
 50
269.9769530079256
 51
90.02304699207443
  0
LINE
  5
15A
330
121
100
AcDbEntity
  8
AM_4
100
AcDbLine
 10
1.853898794815157
 20
0.1249999999999995
 30
0.0
 11
2.204861111111111
 21
0.1250000000000009
 31
0.0
  0
ARC
  5
15B
330
121
100
AcDbEntity
  8
AM_4
100
AcDbCircle
 10
0.0000000000000016
 20
0.0000000000000015
 30
0.0
 40
1.858108108108106
100
AcDbArc
 50
3.857356576721314
 51
41.1426434232786
  0
LINE
  5
15C
330
121
100
AcDbEntity
  8
AM_4
100
AcDbLine
 10
1.647460590889491
 20
1.470683895592854
 30
0.0
 11
1.399292757095684
 21
1.222516061799047
 31
0.0
  0
ARC
  5
15D
330
121
100
AcDbEntity
  8
AM_4
100
AcDbCircle
 10
1.559107797093043
 20
1.559107797093043
 30
0.0
 40
0.1250000101126106
100
AcDbArc
 50
314.9769530079253
 51
135.0230469920747
  0
LINE
  5
15E
330
121
100
AcDbEntity
  8
AM_4
100
AcDbLine
 10
-0.1249999999999991
 20
-2.025648248849497
 30
0.0
 11
-0.1249999999999992
 21
-1.853898794815158
 31
0.0
  0
LINE
  5
15F
330
121
100
AcDbEntity
  8
AM_4
100
AcDbLine
 10
-0.5752154790865558
 20
1.715333752116794
 30
0.0
 11
-0.5939714124934569
 21
1.760614580922702
 31
0.0
  0
ARC
  5
160
330
121
100
AcDbEntity
  8
AM_4
100
AcDbCircle
 10
0.0000000000000645
 20
-0.0000000000001583
 30
0.0
 40
1.71875000000017
100
AcDbArc
 50
108.3293520881388
 51
116.6706479118611
  0
LINE
  5
161
330
121
100
AcDbEntity
  8
AM_4
100
AcDbLine
 10
-0.8249412956212792
 20
1.664943722831429
 30
0.0
 11
-0.806185362214378
 21
1.619662894025522
 31
0.0
  0
LINE
  5
162
330
121
100
AcDbEntity
  8
AM_4
100
AcDbLine
 10
1.222516061799046
 20
1.399292757095685
 30
0.0
 11
1.470683895592854
 21
1.647460590889491
 31
0.0
  0
ARC
  5
163
330
121
100
AcDbEntity
  8
AM_4
100
AcDbCircle
 10
0.0000000000000058
 20
0.0000000000000129
 30
0.0
 40
1.858108108108122
100
AcDbArc
 50
228.8573565767216
 51
266.1426434232785
  0
LINE
  5
164
330
121
100
AcDbEntity
  8
AM_4
100
AcDbLine
 10
-2.204861111111111
 20
0.1249999999999989
 30
0.0
 11
-1.853898794815158
 21
0.1249999999999989
 31
0.0
  0
ARC
  5
165
330
121
100
AcDbEntity
  8
AM_4
100
AcDbCircle
 10
-0.0000000000000016
 20
-0.0000000000000003
 30
0.0
 40
1.858108108108107
100
AcDbArc
 50
138.8573565767214
 51
176.1426434232787
  0
LINE
  5
166
330
121
100
AcDbEntity
  8
AM_4
100
AcDbLine
 10
-1.399292757095684
 20
1.222516061799047
 30
0.0
 11
-1.647460590889491
 21
1.470683895592854
 31
0.0
  0
ARC
  5
167
330
121
100
AcDbEntity
  8
AM_4
100
AcDbCircle
 10
-1.559107797093043
 20
1.559107797093043
 30
0.0
 40
0.1250000101126106
100
AcDbArc
 50
44.97695300791239
 51
225.0230469920748
  0
LINE
  5
168
330
121
100
AcDbEntity
  8
AM_4
100
AcDbLine
 10
-1.470683895592834
 20
1.647460590889471
 30
0.0
 11
-1.222516061799047
 21
1.399292757095684
 31
0.0
  0
ARC
  5
169
330
121
100
AcDbEntity
  8
AM_4
100
AcDbCircle
 10
-0.0000000000000155
 20
0.0000000000000244
 30
0.0
 40
1.858108108108079
100
AcDbArc
 50
116.3573565767213
 51
131.1426434232787
  0
ARC
  5
16A
330
121
100
AcDbEntity
  8
AM_4
100
AcDbCircle
 10
-0.0000000000000019
 20
0.0000000000000058
 30
0.0
 40
1.858108108108102
100
AcDbArc
 50
93.85735657672134
 51
108.6426434232786
  0
CIRCLE
  5
16B
330
121
100
AcDbEntity
  8
AM_4
100
AcDbCircle
 10
0.0
 20
0.0
 30
0.0
 40
2.5
  0
ENDBLK
  5
124
330
121
100
AcDbEntity
  8
0
100
AcDbBlockEnd
  0
BLOCK
  5
16E
330
16C
100
AcDbEntity
  8
0
100
AcDbBlockBegin
  2
6_070935I_0_in_069892_0
 70
     2
 10
0.0
 20
0.0
 30
0.0
  3
6_070935I_0_in_069892_0
  1

  0
ATTDEF
  5
170
330
16C
100
AcDbEntity
  8
AM_6
100
AcDbText
 10
8.099599999999999
 20
3.0996
 30
0.0
 40
0.5
  1
Imperial Insert -Inch
100
AcDbAttributeDefinition
  3

  2
NN
 70
     8
280
     0
  0
ATTDEF
  5
171
330
16C
100
AcDbEntity
  8
AM_6
100
AcDbText
 10
8.099599999999999
 20
2.5996
 30
0.0
 40
0.5
  1
Imperial Bearings
100
AcDbAttributeDefinition
  3

  2
NT
 70
     8
280
     0
  0
ATTDEF
  5
172
330
16C
100
AcDbEntity
  8
AM_6
100
AcDbText
 10
8.099599999999999
 20
2.0996
 30
0.0
 40
0.5
  1
070935I
100
AcDbAttributeDefinition
  3

  2
NB
 70
     8
280
     0
  0
ATTDEF
  5
173
330
16C
100
AcDbEntity
  8
AM_6
100
AcDbText
 10
8.099599999999999
 20
1.5996
 30
0.0
 40
0.5
  1
$PN.I
100
AcDbAttributeDefinition
  3

  2
NBSYN
 70
     8
280
     0
  0
ATTDEF
  5
174
330
16C
100
AcDbEntity
  8
AM_6
100
AcDbText
 10
8.099599999999999
 20
1.0996
 30
0.0
 40
0.5
  1
070935
100
AcDbAttributeDefinition
  3

  2
LINA
 70
     8
280
     0
  0
ATTDEF
  5
175
330
16C
100
AcDbEntity
  8
AM_6
100
AcDbText
 10
8.099599999999999
 20
0.5995999999999997
 30
0.0
 40
0.5
  1
3-7/16
100
AcDbAttributeDefinition
  3

  2
SS
 70
     8
280
     0
  0
ATTDEF
  5
176
330
16C
100
AcDbEntity
  8
AM_6
100
AcDbText
 10
8.099599999999999
 20
0.0995999999999997
 30
0.0
 40
0.5
  1
3.437500
100
AcDbAttributeDefinition
  3

  2
SS1
 70
     8
280
     0
  0
ATTDEF
  5
177
330
16C
100
AcDbEntity
  8
AM_6
100
AcDbText
 10
8.099599999999999
 20
-0.4004000000000003
 30
0.0
 40
0.5
  1
070935
100
AcDbAttributeDefinition
  3

  2
PN
 70
     8
280
     0
  0
ATTDEF
  5
178
330
16C
100
AcDbEntity
  8
AM_6
100
AcDbText
 10
8.099599999999999
 20
-0.9004000000000003
 30
0.0
 40
0.5
  1
INS-IP-307L
100
AcDbAttributeDefinition
  3

  2
DESCRIPTION
 70
     8
280
     0
  0
ATTDEF
  5
179
330
16C
100
AcDbEntity
  8
AM_6
100
AcDbText
 10
8.099599999999999
 20
-1.4004
 30
0.0
 40
0.5
  1
Labyrinth Seal
100
AcDbAttributeDefinition
  3

  2
ST
 70
     8
280
     0
  0
ATTDEF
  5
17A
330
16C
100
AcDbEntity
  8
AM_6
100
AcDbText
 10
8.099599999999999
 20
-1.9004
 30
0.0
 40
0.5
  1
6.2992
100
AcDbAttributeDefinition
  3

  2
A
 70
     8
280
     0
  0
ATTDEF
  5
17B
330
16C
100
AcDbEntity
  8
AM_6
100
AcDbText
 10
8.099599999999999
 20
-2.4004
 30
0.0
 40
0.5
  1
1-5/8
100
AcDbAttributeDefinition
  3

  2
B
 70
     8
280
     0
  0
ATTDEF
  5
17C
330
16C
100
AcDbEntity
  8
AM_6
100
AcDbText
 10
8.099599999999999
 20
-2.9004
 30
0.0
 40
0.5
  1
4-11/64
100
AcDbAttributeDefinition
  3

  2
C
 70
     8
280
     0
  0
ATTDEF
  5
17D
330
16C
100
AcDbEntity
  8
AM_6
100
AcDbText
 10
8.099599999999999
 20
-3.4004
 30
0.0
 40
0.5
  1
1.483
100
AcDbAttributeDefinition
  3

  2
D
 70
     8
280
     0
  0
ATTDEF
  5
17E
330
16C
100
AcDbEntity
  8
AM_6
100
AcDbText
 10
8.099599999999999
 20
-3.9004
 30
0.0
 40
0.5
  1
5
100
AcDbAttributeDefinition
  3

  2
E
 70
     8
280
     0
  0
ATTDEF
  5
17F
330
16C
100
AcDbEntity
  8
AM_6
100
AcDbText
 10
8.099599999999999
 20
-4.4004
 30
0.0
 40
0.5
  1
0.2500
100
AcDbAttributeDefinition
  3

  2
NDM
 70
     8
280
     0
  0
ATTDEF
  5
180
330
16C
100
AcDbEntity
  8
AM_6
100
AcDbText
 10
8.099599999999999
 20
-4.9004
 30
0.0
 40
0.5
  1
0.132
100
AcDbAttributeDefinition
  3

  2
H
 70
     8
280
     0
  0
ATTDEF
  5
181
330
16C
100
AcDbEntity
  8
AM_6
100
AcDbText
 10
8.099599999999999
 20
-5.4004
 30
0.0
 40
0.5
  1
0.1960
100
AcDbAttributeDefinition
  3

  2
KDM
 70
     8
280
     0
  0
ATTDEF
  5
182
330
16C
100
AcDbEntity
  8
AM_6
100
AcDbText
 10
8.099599999999999
 20
-5.9004
 30
0.0
 40
0.5
  1
4.28
100
AcDbAttributeDefinition
  3

  2
AL
 70
     8
280
     0
  0
ATTDEF
  5
183
330
16C
100
AcDbEntity
  8
AM_6
100
AcDbText
 10
8.099599999999999
 20
-6.4004
 30
0.0
 40
0.5
  1
0.50
100
AcDbAttributeDefinition
  3

  2
BL
 70
     8
280
     0
  0
ATTDEF
  5
184
330
16C
100
AcDbEntity
  8
AM_6
100
AcDbText
 10
8.099599999999999
 20
-6.9004
 30
0.0
 40
0.5
  1
0.07
100
AcDbAttributeDefinition
  3

  2
CL
 70
     8
280
     0
  0
ATTDEF
  5
185
330
16C
100
AcDbEntity
  8
AM_6
100
AcDbText
 10
8.099599999999999
 20
-7.4004
 30
0.0
 40
0.5
  1
0.44
100
AcDbAttributeDefinition
  3

  2
DL
 70
     8
280
     0
  0
ATTDEF
  5
186
330
16C
100
AcDbEntity
  8
AM_6
100
AcDbText
 10
8.099599999999999
 20
-7.9004
 30
0.0
 40
0.5
  1
0.8000
100
AcDbAttributeDefinition
  3

  2
LL
 70
     8
280
     0
  0
ATTDEF
  5
187
330
16C
100
AcDbEntity
  8
AM_6
100
AcDbText
 10
8.099599999999999
 20
-8.400400000000001
 30
0.0
 40
0.5
  1
0.025
100
AcDbAttributeDefinition
  3

  2
Y
 70
     8
280
     0
  0
ATTDEF
  5
188
330
16C
100
AcDbEntity
  8
AM_6
100
AcDbText
 10
8.099599999999999
 20
-8.900400000000001
 30
0.0
 40
0.5
  1
0.025000
100
AcDbAttributeDefinition
  3

  2
Y1
 70
     8
280
     0
  0
ATTDEF
  5
189
330
16C
100
AcDbEntity
  8
AM_6
100
AcDbText
 10
8.099599999999999
 20
-9.400400000000001
 30
0.0
 40
0.5
  1
4-3/64
100
AcDbAttributeDefinition
  3

  2
Z
 70
     8
280
     0
  0
ATTDEF
  5
18A
330
16C
100
AcDbEntity
  8
AM_6
100
AcDbText
 10
8.099599999999999
 20
-9.900400000000001
 30
0.0
 40
0.5
  1
4.046875
100
AcDbAttributeDefinition
  3

  2
Z1
 70
     8
280
     0
  0
ATTDEF
  5
18B
330
16C
100
AcDbEntity
  8
AM_6
100
AcDbText
 10
8.099599999999999
 20
-10.4004
 30
0.0
 40
0.5
  1
baldor
100
AcDbAttributeDefinition
  3

  2
COMPANY
 70
     8
280
     0
  0
CIRCLE
  5
18C
330
16C
100
AcDbEntity
  8
AM_9
100
AcDbCircle
 10
0.0
 20
0.0
 30
0.0
 40
2.0234375
  0
CIRCLE
  5
18D
330
16C
100
AcDbEntity
  8
AM_9
100
AcDbCircle
 10
0.0
 20
0.0
 30
0.0
 40
2.196380876068376
  0
CIRCLE
  5
18E
330
16C
100
AcDbEntity
  8
AM_9
100
AcDbCircle
 10
0.0
 20
0.0
 30
0.0
 40
2.704226135594409
  0
CIRCLE
  5
18F
330
16C
100
AcDbEntity
  8
AM_9
100
AcDbCircle
 10
0.0
 20
0.0
 30
0.0
 40
2.248263888888889
  0
CIRCLE
  5
190
330
16C
100
AcDbEntity
  8
AM_9
100
AcDbCircle
 10
0.0
 20
0.0
 30
0.0
 40
2.790828675972853
  0
CIRCLE
  5
191
330
16C
100
AcDbEntity
  8
AM_9
100
AcDbCircle
 10
0.0
 20
0.0
 30
0.0
 40
2.9496
  0
CIRCLE
  5
192
330
16C
100
AcDbEntity
  8
AM_9
100
AcDbCircle
 10
0.0
 20
0.0
 30
0.0
 40
3.06835
  0
CIRCLE
  5
193
330
16C
100
AcDbEntity
  8
AM_9
100
AcDbCircle
 10
0.0
 20
-2.204861111111111
 30
0.0
 40
0.09795
  0
LINE
  5
194
330
16C
100
AcDbEntity
  8
AM_9
100
AcDbLine
 10
1.689985207035848
 20
-1.336431816442575
 30
0.0
 11
1.936880151435481
 21
-1.583326760842207
 31
0.0
  0
LINE
  5
195
330
16C
100
AcDbEntity
  8
AM_9
100
AcDbLine
 10
1.936880151435482
 20
1.583326760842206
 30
0.0
 11
1.689985207035849
 21
1.336431816442574
 31
0.0
  0
LINE
  5
196
330
16C
100
AcDbEntity
  8
AM_9
100
AcDbLine
 10
1.583326760842207
 20
-1.936880151435481
 30
0.0
 11
1.336431816442575
 21
-1.689985207035849
 31
0.0
  0
LINE
  5
197
330
16C
100
AcDbEntity
  8
AM_9
100
AcDbLine
 10
-1.336431816442575
 20
-1.689985207035848
 30
0.0
 11
-1.583326760842208
 21
-1.936880151435481
 31
0.0
  0
LINE
  5
198
330
16C
100
AcDbEntity
  8
AM_9
100
AcDbLine
 10
-1.689985207035848
 20
1.336431816442575
 30
0.0
 11
-1.936880151435481
 21
1.583326760842207
 31
0.0
  0
LINE
  5
199
330
16C
100
AcDbEntity
  8
AM_9
100
AcDbLine
 10
-1.936880151435481
 20
-1.583326760842207
 30
0.0
 11
-1.689985207035849
 21
-1.336431816442575
 31
0.0
  0
CIRCLE
  5
19A
330
16C
100
AcDbEntity
  8
AM_9
100
AcDbCircle
 10
0.0
 20
2.204861111111111
 30
0.0
 40
0.09795
  0
ARC
  5
19B
330
16C
100
AcDbEntity
  8
AM_9
100
AcDbCircle
 10
0.000000000000016
 20
-0.00000000000004
 30
0.0
 40
1.813984168865478
100
AcDbArc
 50
108.5486685782481
 51
116.4513314217519
  0
LINE
  5
19C
330
16C
100
AcDbEntity
  8
AM_9
100
AcDbLine
 10
1.336431816442575
 20
1.689985207035848
 30
0.0
 11
1.583326760842208
 21
1.936880151435481
 31
0.0
  0
LINE
  5
19D
330
16C
100
AcDbEntity
  8
AM_9
100
AcDbLine
 10
-1.583326760842207
 20
1.936880151435481
 30
0.0
 11
-1.336431816442575
 21
1.689985207035849
 31
0.0
  0
LINE
  5
19E
330
16C
100
AcDbEntity
  8
AM_9
100
AcDbLine
 10
-1.60159685938753
 20
1.424820164090893
 30
0.0
 11
-1.689985207035848
 21
1.336431816442575
 31
0.0
  0
LINE
  5
19F
330
16C
100
AcDbEntity
  8
AM_9
100
AcDbLine
 10
-1.336431816442575
 20
1.689985207035849
 30
0.0
 11
-1.424820164090894
 21
1.60159685938753
 31
0.0
  0
ARC
  5
1A0
330
16C
100
AcDbEntity
  8
AM_9
100
AcDbCircle
 10
-0.0000000000000004
 20
0.0000000000000001
 30
0.0
 40
2.451715561259646
100
AcDbArc
 50
140.8525894283245
 51
219.1474105716755
  0
LINE
  5
1A1
330
16C
100
AcDbEntity
  8
AM_9
100
AcDbLine
 10
-1.424820164090893
 20
-1.601596859387531
 30
0.0
 11
-1.336431816442575
 21
-1.689985207035848
 31
0.0
  0
LINE
  5
1A2
330
16C
100
AcDbEntity
  8
AM_9
100
AcDbLine
 10
-1.689985207035849
 20
-1.336431816442575
 30
0.0
 11
-1.60159685938753
 21
-1.424820164090894
 31
0.0
  0
ARC
  5
1A3
330
16C
100
AcDbEntity
  8
AM_9
100
AcDbCircle
 10
-0.0000000000000001
 20
-0.0000000000000004
 30
0.0
 40
2.451715561259646
100
AcDbArc
 50
230.8525894283245
 51
309.1474105716755
  0
LINE
  5
1A4
330
16C
100
AcDbEntity
  8
AM_9
100
AcDbLine
 10
1.60159685938753
 20
-1.424820164090893
 30
0.0
 11
1.689985207035848
 21
-1.336431816442575
 31
0.0
  0
LINE
  5
1A5
330
16C
100
AcDbEntity
  8
AM_9
100
AcDbLine
 10
1.336431816442575
 20
-1.689985207035849
 30
0.0
 11
1.424820164090894
 21
-1.60159685938753
 31
0.0
  0
ARC
  5
1A6
330
16C
100
AcDbEntity
  8
AM_9
100
AcDbCircle
 10
0.0
 20
-0.0000000000000006
 30
0.0
 40
2.451715561259646
100
AcDbArc
 50
320.8525894283245
 51
39.14741057167548
  0
LINE
  5
1A7
330
16C
100
AcDbEntity
  8
AM_9
100
AcDbLine
 10
1.424820164090893
 20
1.60159685938753
 30
0.0
 11
1.336431816442575
 21
1.689985207035848
 31
0.0
  0
LINE
  5
1A8
330
16C
100
AcDbEntity
  8
AM_9
100
AcDbLine
 10
1.689985207035849
 20
1.336431816442574
 30
0.0
 11
1.60159685938753
 21
1.424820164090893
 31
0.0
  0
ARC
  5
1A9
330
16C
100
AcDbEntity
  8
AM_9
100
AcDbCircle
 10
0.0000000000000003
 20
0.0000000000000004
 30
0.0
 40
2.451715561259646
100
AcDbArc
 50
50.85258942832449
 51
129.1474105716756
  0
ARC
  5
1AA
330
16C
100
AcDbEntity
  8
AM_5
100
AcDbCircle
 10
0.0000000000000003
 20
2.204861111111111
 30
0.0
 40
0.1250000000000001
100
AcDbArc
 50
75.0000000000001
 51
14.99999999999994
  0
ARC
  5
1AB
330
16C
100
AcDbEntity
  8
AM_5
100
AcDbCircle
 10
0.0000000000000003
 20
-2.204861111111111
 30
0.0
 40
0.1250000000000001
100
AcDbArc
 50
75.0000000000001
 51
14.99999999999994
  0
CIRCLE
  5
1AC
330
16C
100
AcDbEntity
  8
AM_4
100
AcDbCircle
 10
0.0
 20
0.0
 30
0.0
 40
3.0996
  0
LINE
  5
1AD
330
16C
100
AcDbEntity
  8
AM_4
100
AcDbLine
 10
-1.593048406283363
 20
1.946601796876637
 30
0.0
 11
-1.583326760842207
 21
1.936880151435481
 31
0.0
  0
LINE
  5
1AE
330
16C
100
AcDbEntity
  8
AM_4
100
AcDbLine
 10
1.593048406283363
 20
-1.946601796876637
 30
0.0
 11
1.583326760842207
 21
-1.936880151435481
 31
0.0
  0
LINE
  5
1AF
330
16C
100
AcDbEntity
  8
AM_4
100
AcDbLine
 10
1.583326760842208
 20
1.936880151435481
 30
0.0
 11
1.593048406283363
 21
1.946601796876636
 31
0.0
  0
LINE
  5
1B0
330
16C
100
AcDbEntity
  8
AM_4
100
AcDbLine
 10
-1.936880151435481
 20
1.583326760842207
 30
0.0
 11
-1.946601796876636
 21
1.593048406283363
 31
0.0
  0
LINE
  5
1B1
330
16C
100
AcDbEntity
  8
AM_4
100
AcDbLine
 10
1.936880151435481
 20
-1.583326760842207
 30
0.0
 11
1.946601796876636
 21
-1.593048406283363
 31
0.0
  0
LINE
  5
1B2
330
16C
100
AcDbEntity
  8
AM_4
100
AcDbLine
 10
-1.946601796876637
 20
-1.593048406283362
 30
0.0
 11
-1.936880151435481
 21
-1.583326760842207
 31
0.0
  0
LINE
  5
1B3
330
16C
100
AcDbEntity
  8
AM_4
100
AcDbLine
 10
1.946601796876637
 20
1.593048406283362
 30
0.0
 11
1.936880151435482
 21
1.583326760842206
 31
0.0
  0
LINE
  5
1B4
330
16C
100
AcDbEntity
  8
AM_4
100
AcDbLine
 10
-1.583326760842208
 20
-1.936880151435481
 30
0.0
 11
-1.593048406283363
 21
-1.946601796876636
 31
0.0
  0
CIRCLE
  5
1B5
330
16C
100
AcDbEntity
  8
AM_4
100
AcDbCircle
 10
0.0
 20
0.0
 30
0.0
 40
2.554448754797947
  0
ARC
  5
1B6
330
16C
100
AcDbEntity
  8
AM_4
100
AcDbCircle
 10
0.0000000000001026
 20
-0.0000000000001008
 30
0.0
 40
2.515365138576225
100
AcDbArc
 50
309.2960039559734
 51
320.7039960440265
  0
ARC
  5
1B7
330
16C
100
AcDbEntity
  8
AM_4
100
AcDbCircle
 10
-0.0000000000000979
 20
-0.0000000000000973
 30
0.0
 40
2.515365138576231
100
AcDbArc
 50
219.2960039559734
 51
230.7039960440265
  0
ARC
  5
1B8
330
16C
100
AcDbEntity
  8
AM_4
100
AcDbCircle
 10
-0.0000000000001126
 20
0.0000000000001119
 30
0.0
 40
2.51536513857621
100
AcDbArc
 50
129.2960039559734
 51
140.7039960440266
  0
ARC
  5
1B9
330
16C
100
AcDbEntity
  8
AM_4
100
AcDbCircle
 10
0.0000000000000826
 20
0.0000000000000848
 30
0.0
 40
2.515365138576251
100
AcDbArc
 50
39.29600395597348
 51
50.70399604402642
  0
ARC
  5
1BA
330
16C
100
AcDbEntity
  8
AM_4
100
AcDbCircle
 10
0.0000000000000022
 20
0.0000000000000001
 30
0.0
 40
2.501685102610598
100
AcDbArc
 50
320.7352916783375
 51
39.26470832166245
  0
ARC
  5
1BB
330
16C
100
AcDbEntity
  8
AM_4
100
AcDbCircle
 10
0.0000000000000002
 20
-0.0000000000000013
 30
0.0
 40
2.501685102610599
100
AcDbArc
 50
230.7352916783375
 51
309.2647083216625
  0
ARC
  5
1BC
330
16C
100
AcDbEntity
  8
AM_4
100
AcDbCircle
 10
-0.0000000000000022
 20
0.0
 30
0.0
 40
2.501685102610598
100
AcDbArc
 50
140.7352916783375
 51
219.2647083216625
  0
LINE
  5
1BD
330
16C
100
AcDbEntity
  8
AM_4
100
AcDbLine
 10
-1.424820164090894
 20
1.60159685938753
 30
0.0
 11
-1.60159685938753
 21
1.424820164090893
 31
0.0
  0
LINE
  5
1BE
330
16C
100
AcDbEntity
  8
AM_4
100
AcDbLine
 10
-1.60159685938753
 20
-1.424820164090894
 30
0.0
 11
-1.424820164090893
 21
-1.601596859387531
 31
0.0
  0
LINE
  5
1BF
330
16C
100
AcDbEntity
  8
AM_4
100
AcDbLine
 10
1.424820164090894
 20
-1.60159685938753
 30
0.0
 11
1.60159685938753
 21
-1.424820164090893
 31
0.0
  0
LINE
  5
1C0
330
16C
100
AcDbEntity
  8
AM_4
100
AcDbLine
 10
1.60159685938753
 20
1.424820164090893
 30
0.0
 11
1.424820164090893
 21
1.60159685938753
 31
0.0
  0
ARC
  5
1C1
330
16C
100
AcDbEntity
  8
AM_4
100
AcDbCircle
 10
0.0000000000000001
 20
0.0000000000000022
 30
0.0
 40
2.501685102610598
100
AcDbArc
 50
50.73529167833751
 51
129.2647083216625
  0
LINE
  5
1C2
330
16C
100
AcDbEntity
  8
AM_4
100
AcDbLine
 10
-0.8061853622143776
 20
1.619662894025522
 30
0.0
 11
-0.7714803145653195
 21
1.535877497308362
 31
0.0
  0
LINE
  5
1C3
330
16C
100
AcDbEntity
  8
AM_4
100
AcDbLine
 10
-0.540510431437498
 20
1.631548355399634
 30
0.0
 11
-0.5752154790865559
 21
1.715333752116795
 31
0.0
  0
ARC
  5
1C4
330
16C
100
AcDbEntity
  8
AM_4
100
AcDbCircle
 10
0.0
 20
0.0000000000000003
 30
0.0
 40
1.71875
100
AcDbArc
 50
116.6706479118615
 51
108.3293520881385
  0
ARC
  5
1C5
330
16C
100
AcDbEntity
  8
AM_4
100
AcDbCircle
 10
0.0000000000000017
 20
0.0000000000000006
 30
0.0
 40
1.80921052631579
100
AcDbArc
 50
116.4617737237814
 51
108.5382262762188
  0
ARC
  5
1C6
330
16C
100
AcDbEntity
  8
AM_5
100
AcDbCircle
 10
-0.0000000000000002
 20
2.204861111111111
 30
0.0
 40
0.1249999999999998
100
AcDbArc
 50
165.0000000000001
 51
104.9999999999999
  0
ARC
  5
1C7
330
16C
100
AcDbEntity
  8
AM_5
100
AcDbCircle
 10
-0.0000000000000002
 20
-2.204861111111111
 30
0.0
 40
0.1249999999999998
100
AcDbArc
 50
165.0000000000001
 51
104.9999999999999
  0
ARC
  5
1C8
330
16C
100
AcDbEntity
  8
AM_5
100
AcDbCircle
 10
0.0000000000000001
 20
2.204861111111111
 30
0.0
 40
0.1250000000000002
100
AcDbArc
 50
105.0
 51
14.99999999999992
  0
ARC
  5
1C9
330
16C
100
AcDbEntity
  8
AM_5
100
AcDbCircle
 10
0.0000000000000001
 20
-2.204861111111111
 30
0.0
 40
0.1250000000000002
100
AcDbArc
 50
105.0
 51
14.99999999999992
  0
ENDBLK
  5
16F
330
16C
100
AcDbEntity
  8
0
100
AcDbBlockEnd
  0
BLOCK
  5
1CC
330
1CA
100
AcDbEntity
  8
0
100
AcDbBlockBegin
  2
7_069892H_0_in_069892_0
 70
     2
 10
0.0
 20
0.0
 30
0.0
  3
7_069892H_0_in_069892_0
  1

  0
ATTDEF
  5
1CE
330
1CA
100
AcDbEntity
  8
AM_6
100
AcDbText
 10
10.125
 20
5.124999999999997
 30
0.0
 40
0.5
  1
FC-IP -(Labyrinth Seal)-Housing -Inch
100
AcDbAttributeDefinition
  3

  2
NN
 70
     8
280
     0
  0
ATTDEF
  5
1CF
330
1CA
100
AcDbEntity
  8
AM_6
100
AcDbText
 10
10.125
 20
4.624999999999997
 30
0.0
 40
0.5
  1
Imperial Piloted Flange Bearings
100
AcDbAttributeDefinition
  3

  2
NT
 70
     8
280
     0
  0
ATTDEF
  5
1D0
330
1CA
100
AcDbEntity
  8
AM_6
100
AcDbText
 10
10.125
 20
4.124999999999997
 30
0.0
 40
0.5
  1
069892H
100
AcDbAttributeDefinition
  3

  2
NB
 70
     8
280
     0
  0
ATTDEF
  5
1D1
330
1CA
100
AcDbEntity
  8
AM_6
100
AcDbText
 10
10.125
 20
3.624999999999997
 30
0.0
 40
0.5
  1
$PN.H
100
AcDbAttributeDefinition
  3

  2
NBSYN
 70
     8
280
     0
  0
ATTDEF
  5
1D2
330
1CA
100
AcDbEntity
  8
AM_6
100
AcDbText
 10
10.125
 20
3.124999999999997
 30
0.0
 40
0.5
  1
069892
100
AcDbAttributeDefinition
  3

  2
LINA
 70
     8
280
     0
  0
ATTDEF
  5
1D3
330
1CA
100
AcDbEntity
  8
AM_6
100
AcDbText
 10
10.125
 20
2.624999999999997
 30
0.0
 40
0.5
  1
3-7/16
100
AcDbAttributeDefinition
  3

  2
SS
 70
     8
280
     0
  0
ATTDEF
  5
1D4
330
1CA
100
AcDbEntity
  8
AM_6
100
AcDbText
 10
10.125
 20
2.124999999999997
 30
0.0
 40
0.5
  1
069892
100
AcDbAttributeDefinition
  3

  2
PN
 70
     8
280
     0
  0
ATTDEF
  5
1D5
330
1CA
100
AcDbEntity
  8
AM_6
100
AcDbText
 10
10.125
 20
1.624999999999997
 30
0.0
 40
0.5
  1
FC-IP-307L
100
AcDbAttributeDefinition
  3

  2
DESCRIPTION
 70
     8
280
     0
  0
ATTDEF
  5
1D6
330
1CA
100
AcDbEntity
  8
AM_6
100
AcDbText
 10
10.125
 20
1.124999999999997
 30
0.0
 40
0.5
  1
Non-Expansion Type
100
AcDbAttributeDefinition
  3

  2
EF
 70
     8
280
     0
  0
ATTDEF
  5
1D7
330
1CA
100
AcDbEntity
  8
AM_6
100
AcDbText
 10
10.125
 20
0.6249999999999973
 30
0.0
 40
0.5
  1
Labyrinth Seal
100
AcDbAttributeDefinition
  3

  2
ST
 70
     8
280
     0
  0
ATTDEF
  5
1D8
330
1CA
100
AcDbEntity
  8
AM_6
100
AcDbText
 10
10.125
 20
0.1249999999999973
 30
0.0
 40
0.5
  1
4-11/64
100
AcDbAttributeDefinition
  3

  2
A
 70
     8
280
     0
  0
ATTDEF
  5
1D9
330
1CA
100
AcDbEntity
  8
AM_6
100
AcDbText
 10
10.125
 20
-0.3750000000000027
 30
0.0
 40
0.5
  1
10-1/4
100
AcDbAttributeDefinition
  3

  2
B
 70
     8
280
     0
  0
ATTDEF
  5
1DA
330
1CA
100
AcDbEntity
  8
AM_6
100
AcDbText
 10
10.125
 20
-0.8750000000000027
 30
0.0
 40
0.5
  1
3
100
AcDbAttributeDefinition
  3

  2
C
 70
     8
280
     0
  0
ATTDEF
  5
1DB
330
1CA
100
AcDbEntity
  8
AM_6
100
AcDbText
 10
10.125
 20
-1.375000000000003
 30
0.0
 40
0.5
  1
6-3/32
100
AcDbAttributeDefinition
  3

  2
D
 70
     8
280
     0
  0
ATTDEF
  5
1DC
330
1CA
100
AcDbEntity
  8
AM_6
100
AcDbText
 10
10.125
 20
-1.875000000000003
 30
0.0
 40
0.5
  1
8-5/8
100
AcDbAttributeDefinition
  3

  2
DD
 70
     8
280
     0
  0
ATTDEF
  5
1DD
330
1CA
100
AcDbEntity
  8
AM_6
100
AcDbText
 10
10.125
 20
-2.375000000000003
 30
0.0
 40
0.5
  1
1-17/64
100
AcDbAttributeDefinition
  3

  2
E
 70
     8
280
     0
  0
ATTDEF
  5
1DE
330
1CA
100
AcDbEntity
  8
AM_6
100
AcDbText
 10
10.125
 20
-2.875000000000003
 30
0.0
 40
0.5
  1
3/4
100
AcDbAttributeDefinition
  3

  2
F
 70
     8
280
     0
  0
ATTDEF
  5
1DF
330
1CA
100
AcDbEntity
  8
AM_6
100
AcDbText
 10
10.125
 20
-3.375000000000003
 30
0.0
 40
0.5
  1
2-17/32
100
AcDbAttributeDefinition
  3

  2
G
 70
     8
280
     0
  0
ATTDEF
  5
1E0
330
1CA
100
AcDbEntity
  8
AM_6
100
AcDbText
 10
10.125
 20
-3.875000000000003
 30
0.0
 40
0.5
  1
15/16
100
AcDbAttributeDefinition
  3

  2
H
 70
     8
280
     0
  0
ATTDEF
  5
1E1
330
1CA
100
AcDbEntity
  8
AM_6
100
AcDbText
 10
10.125
 20
-4.375000000000003
 30
0.0
 40
0.5
  1
7.375
100
AcDbAttributeDefinition
  3

  2
K
 70
     8
280
     0
  0
ATTDEF
  5
1E2
330
1CA
100
AcDbEntity
  8
AM_6
100
AcDbText
 10
10.125
 20
-4.875000000000003
 30
0.0
 40
0.5
  1
5
100
AcDbAttributeDefinition
  3

  2
L
 70
     8
280
     0
  0
ATTDEF
  5
1E3
330
1CA
100
AcDbEntity
  8
AM_6
100
AcDbText
 10
10.125
 20
-5.375000000000003
 30
0.0
 40
0.5
  1
3/4-10
100
AcDbAttributeDefinition
  3

  2
M
 70
     8
280
     0
  0
ATTDEF
  5
1E4
330
1CA
100
AcDbEntity
  8
AM_6
100
AcDbText
 10
10.125
 20
-5.875000000000003
 30
0.0
 40
0.5
  1
4-1/16
100
AcDbAttributeDefinition
  3

  2
N
 70
     8
280
     0
  0
ATTDEF
  5
1E5
330
1CA
100
AcDbEntity
  8
AM_6
100
AcDbText
 10
10.125
 20
-6.375000000000003
 30
0.0
 40
0.5
  1
1-41/64
100
AcDbAttributeDefinition
  3

  2
P
 70
     8
280
     0
  0
ATTDEF
  5
1E6
330
1CA
100
AcDbEntity
  8
AM_6
100
AcDbText
 10
10.125
 20
-6.875000000000003
 30
0.0
 40
0.5
  1
1-33/64
100
AcDbAttributeDefinition
  3

  2
Q
 70
     8
280
     0
  0
ATTDEF
  5
1E7
330
1CA
100
AcDbEntity
  8
AM_6
100
AcDbText
 10
10.125
 20
-7.375000000000003
 30
0.0
 40
0.5
  1
1/4
100
AcDbAttributeDefinition
  3

  2
X
 70
     8
280
     0
  0
ATTDEF
  5
1E8
330
1CA
100
AcDbEntity
  8
AM_6
100
AcDbText
 10
10.125
 20
-7.875000000000003
 30
0.0
 40
0.5
  1
0.025
100
AcDbAttributeDefinition
  3

  2
Y
 70
     8
280
     0
  0
ATTDEF
  5
1E9
330
1CA
100
AcDbEntity
  8
AM_6
100
AcDbText
 10
10.125
 20
-8.375000000000004
 30
0.0
 40
0.5
  1
4-3/64
100
AcDbAttributeDefinition
  3

  2
Z
 70
     8
280
     0
  0
ATTDEF
  5
1EA
330
1CA
100
AcDbEntity
  8
AM_6
100
AcDbText
 10
10.125
 20
-8.875000000000004
 30
0.0
 40
0.5
  1
baldor
100
AcDbAttributeDefinition
  3

  2
COMPANY
 70
     8
280
     0
  0
CIRCLE
  5
1EB
330
1CA
100
AcDbEntity
  8
AM_9
100
AcDbCircle
 10
0.0
 20
0.0
 30
0.0
 40
3.412641246893661
  0
CIRCLE
  5
1EC
330
1CA
100
AcDbEntity
  8
AM_9
100
AcDbCircle
 10
0.0
 20
0.0
 30
0.0
 40
3.506334136926702
  0
CIRCLE
  5
1ED
330
1CA
100
AcDbEntity
  8
AM_9
100
AcDbCircle
 10
0.0
 20
0.0
 30
0.0
 40
3.508745194509885
  0
CIRCLE
  5
1EE
330
1CA
100
AcDbEntity
  8
AM_9
100
AcDbCircle
 10
0.0
 20
0.0
 30
0.0
 40
3.602438084542925
  0
ARC
  5
1EF
330
1CA
100
AcDbEntity
  8
AM_9
100
AcDbCircle
 10
0.0000000000001656
 20
-0.0000000000001661
 30
0.0
 40
3.687499999999769
100
AcDbArc
 50
304.9937260335373
 51
325.0062739664627
  0
ARC
  5
1F0
330
1CA
100
AcDbEntity
  8
AM_9
100
AcDbCircle
 10
0.0000000000001577
 20
0.0000000000001563
 30
0.0
 40
3.687499999999782
100
AcDbArc
 50
34.99372603353741
 51
55.00627396646267
  0
ARC
  5
1F1
330
1CA
100
AcDbEntity
  8
AM_9
100
AcDbCircle
 10
0.0000000000000066
 20
0.0000000000002416
 30
0.0
 40
3.687499999999762
100
AcDbArc
 50
82.20707566457727
 51
97.79292433542295
  0
ARC
  5
1F2
330
1CA
100
AcDbEntity
  8
AM_9
100
AcDbCircle
 10
0.0000000000001621
 20
0.0000000000000002
 30
0.0
 40
3.687500000000093
100
AcDbArc
 50
124.99372603354
 51
235.00627396646
  0
ARC
  5
1F3
330
1CA
100
AcDbEntity
  8
AM_5
100
AcDbCircle
 10
-4.312500000000002
 20
0.0000000000000023
 30
0.0
 40
0.3749999999999996
100
AcDbArc
 50
74.9999999999999
 51
14.99999999999982
  0
LINE
  5
1F4
330
1CA
100
AcDbEntity
  8
AM_7
100
AcDbLine
 10
-3.782559988770071
 20
0.0
 30
0.0
 11
3.782559988770071
 21
0.0
 31
0.0
  0
LINE
  5
1F5
330
1CA
100
AcDbEntity
  8
AM_7
100
AcDbLine
 10
0.0
 20
-3.782559988770071
 30
0.0
 11
0.0
 21
3.782559988770071
 31
0.0
  0
LINE
  5
1F6
330
1CA
100
AcDbEntity
  8
AM_7
100
AcDbLine
 10
3.91875
 20
0.0
 30
0.0
 11
4.706250000000001
 21
0.0
 31
0.0
  0
LINE
  5
1F7
330
1CA
100
AcDbEntity
  8
AM_7
100
AcDbLine
 10
4.3125
 20
-0.3937500000000003
 30
0.0
 11
4.3125
 21
0.3937500000000003
 31
0.0
  0
LINE
  5
1F8
330
1CA
100
AcDbEntity
  8
AM_7
100
AcDbLine
 10
-4.706250000000001
 20
0.0
 30
0.0
 11
-3.91875
 21
0.0
 31
0.0
  0
LINE
  5
1F9
330
1CA
100
AcDbEntity
  8
AM_7
100
AcDbLine
 10
-4.3125
 20
-0.3937500000000003
 30
0.0
 11
-4.3125
 21
0.3937500000000003
 31
0.0
  0
LINE
  5
1FA
330
1CA
100
AcDbEntity
  8
AM_7
100
AcDbLine
 10
2.655647993866987
 20
-3.049397993866986
 30
0.0
 11
3.443147993866986
 21
-3.049397993866986
 31
0.0
  0
LINE
  5
1FB
330
1CA
100
AcDbEntity
  8
AM_7
100
AcDbLine
 10
3.049397993866986
 20
-3.443147993866986
 30
0.0
 11
3.049397993866986
 21
-2.655647993866987
 31
0.0
  0
LINE
  5
1FC
330
1CA
100
AcDbEntity
  8
AM_7
100
AcDbLine
 10
2.655647993866987
 20
3.049397993866986
 30
0.0
 11
3.443147993866986
 21
3.049397993866986
 31
0.0
  0
LINE
  5
1FD
330
1CA
100
AcDbEntity
  8
AM_7
100
AcDbLine
 10
3.049397993866986
 20
2.655647993866987
 30
0.0
 11
3.049397993866986
 21
3.443147993866986
 31
0.0
  0
LINE
  5
1FE
330
1CA
100
AcDbEntity
  8
AM_7
100
AcDbLine
 10
-3.443147993866986
 20
-3.049397993866986
 30
0.0
 11
-2.655647993866987
 21
-3.049397993866986
 31
0.0
  0
LINE
  5
1FF
330
1CA
100
AcDbEntity
  8
AM_7
100
AcDbLine
 10
-3.049397993866986
 20
-3.443147993866986
 30
0.0
 11
-3.049397993866986
 21
-2.655647993866987
 31
0.0
  0
LINE
  5
200
330
1CA
100
AcDbEntity
  8
AM_7
100
AcDbLine
 10
-3.443147993866986
 20
3.049397993866986
 30
0.0
 11
-2.655647993866987
 21
3.049397993866986
 31
0.0
  0
LINE
  5
201
330
1CA
100
AcDbEntity
  8
AM_7
100
AcDbLine
 10
-3.049397993866986
 20
2.655647993866987
 30
0.0
 11
-3.049397993866986
 21
3.443147993866986
 31
0.0
  0
CIRCLE
  5
202
330
1CA
100
AcDbEntity
  8
AM_4
100
AcDbCircle
 10
-4.3125
 20
0.0
 30
0.0
 40
0.3580999999999996
  0
CIRCLE
  5
203
330
1CA
100
AcDbEntity
  8
AM_4
100
AcDbCircle
 10
4.3125
 20
0.0
 30
0.0
 40
0.3581000000000002
  0
LINE
  5
204
330
1CA
100
AcDbEntity
  8
AM_4
100
AcDbLine
 10
4.070780623385917
 20
-2.731725004211567
 30
0.0
 11
3.366970438774798
 21
-1.726579891934396
 31
0.0
  0
LINE
  5
205
330
1CA
100
AcDbEntity
  8
AM_4
100
AcDbLine
 10
1.726579891934394
 20
-3.366970438774798
 30
0.0
 11
2.731725004211563
 21
-4.070780623385917
 31
0.0
  0
CIRCLE
  5
206
330
1CA
100
AcDbEntity
  8
AM_4
100
AcDbCircle
 10
3.049397993866986
 20
-3.049397993866986
 30
0.0
 40
0.3749999999999999
  0
ARC
  5
207
330
1CA
100
AcDbEntity
  8
AM_4
100
AcDbCircle
 10
3.520561447078979
 20
-1.619034310118575
 30
0.0
 40
0.187499999999996
100
AcDbArc
 50
155.3032647444021
 51
215.0000000000007
  0
ARC
  5
208
330
1CA
100
AcDbEntity
  8
AM_4
100
AcDbCircle
 10
1.619034310118573
 20
-3.520561447078989
 30
0.0
 40
0.187500000000004
100
AcDbArc
 50
55.00000000000104
 51
114.6967352555978
  0
ARC
  5
209
330
1CA
100
AcDbEntity
  8
AM_4
100
AcDbCircle
 10
2.946816167843205
 20
-3.763598606777551
 30
0.0
 40
0.3749999999999949
100
AcDbArc
 50
234.9999999999995
 51
284.1207399910855
  0
ARC
  5
20A
330
1CA
100
AcDbEntity
  8
AM_4
100
AcDbCircle
 10
3.763598606777544
 20
-2.946816167843208
 30
0.0
 40
0.3750000000000004
100
AcDbArc
 50
345.8792600089148
 51
34.99999999999973
  0
ARC
  5
20B
330
1CA
100
AcDbEntity
  8
AM_4
100
AcDbCircle
 10
3.76359860677755
 20
2.946816167843204
 30
0.0
 40
0.3749999999999948
100
AcDbArc
 50
324.9999999999999
 51
14.12073999108626
  0
ARC
  5
20C
330
1CA
100
AcDbEntity
  8
AM_4
100
AcDbCircle
 10
1.619034310118576
 20
3.520561447078978
 30
0.0
 40
0.187499999999994
100
AcDbArc
 50
245.3032647444018
 51
305.0000000000009
  0
CIRCLE
  5
20D
330
1CA
100
AcDbEntity
  8
AM_4
100
AcDbCircle
 10
3.049397993866986
 20
3.049397993866986
 30
0.0
 40
0.3749999999999999
  0
LINE
  5
20E
330
1CA
100
AcDbEntity
  8
AM_4
100
AcDbLine
 10
2.731725004211565
 20
4.070780623385917
 30
0.0
 11
1.726579891934396
 21
3.366970438774798
 31
0.0
  0
ARC
  5
20F
330
1CA
100
AcDbEntity
  8
AM_4
100
AcDbCircle
 10
3.520561447078986
 20
1.619034310118574
 30
0.0
 40
0.1875000000000008
100
AcDbArc
 50
145.0000000000005
 51
204.6967352555978
  0
LINE
  5
210
330
1CA
100
AcDbEntity
  8
AM_4
100
AcDbLine
 10
3.366970438774798
 20
1.726579891934395
 30
0.0
 11
4.070780623385917
 21
2.731725004211564
 31
0.0
  0
ARC
  5
211
330
1CA
100
AcDbEntity
  8
AM_4
100
AcDbCircle
 10
2.946816167843206
 20
3.763598606777551
 30
0.0
 40
0.3749999999999944
100
AcDbArc
 50
75.87926000891457
 51
125.0000000000003
  0
ARC
  5
212
330
1CA
100
AcDbEntity
  8
AM_4
100
AcDbCircle
 10
-3.520561447078985
 20
-1.619034310118574
 30
0.0
 40
0.1875000000000003
100
AcDbArc
 50
325.0000000000006
 51
24.69673525559783
  0
CIRCLE
  5
213
330
1CA
100
AcDbEntity
  8
AM_4
100
AcDbCircle
 10
-3.049397993866986
 20
-3.049397993866986
 30
0.0
 40
0.3749999999999999
  0
LINE
  5
214
330
1CA
100
AcDbEntity
  8
AM_4
100
AcDbLine
 10
-2.731725004211566
 20
-4.070780623385918
 30
0.0
 11
-1.726579891934396
 21
-3.366970438774798
 31
0.0
  0
ARC
  5
215
330
1CA
100
AcDbEntity
  8
AM_4
100
AcDbCircle
 10
-1.619034310118575
 20
-3.520561447078979
 30
0.0
 40
0.187499999999996
100
AcDbArc
 50
65.30326474440214
 51
125.0000000000007
  0
LINE
  5
216
330
1CA
100
AcDbEntity
  8
AM_4
100
AcDbLine
 10
-3.366970438774798
 20
-1.726579891934394
 30
0.0
 11
-4.070780623385917
 21
-2.731725004211563
 31
0.0
  0
ARC
  5
217
330
1CA
100
AcDbEntity
  8
AM_4
100
AcDbCircle
 10
-3.76359860677755
 20
-2.946816167843205
 30
0.0
 40
0.3749999999999959
100
AcDbArc
 50
144.9999999999995
 51
194.1207399910855
  0
ARC
  5
218
330
1CA
100
AcDbEntity
  8
AM_4
100
AcDbCircle
 10
-2.946816167843207
 20
-3.763598606777538
 30
0.0
 40
0.3750000000000062
100
AcDbArc
 50
255.8792600089149
 51
304.9999999999991
  0
CIRCLE
  5
219
330
1CA
100
AcDbEntity
  8
AM_4
100
AcDbCircle
 10
-3.049397993866986
 20
3.049397993866986
 30
0.0
 40
0.3749999999999999
  0
LINE
  5
21A
330
1CA
100
AcDbEntity
  8
AM_4
100
AcDbLine
 10
-4.070780623385917
 20
2.731725004211566
 30
0.0
 11
-3.366970438774798
 21
1.726579891934396
 31
0.0
  0
ARC
  5
21B
330
1CA
100
AcDbEntity
  8
AM_4
100
AcDbCircle
 10
-3.520561447078978
 20
1.619034310118576
 30
0.0
 40
0.1874999999999945
100
AcDbArc
 50
335.3032647444018
 51
35.00000000000078
  0
ARC
  5
21C
330
1CA
100
AcDbEntity
  8
AM_4
100
AcDbCircle
 10
-1.619034310118574
 20
3.520561447078986
 30
0.0
 40
0.1875000000000007
100
AcDbArc
 50
235.0000000000006
 51
294.6967352555981
  0
LINE
  5
21D
330
1CA
100
AcDbEntity
  8
AM_4
100
AcDbLine
 10
-1.726579891934394
 20
3.366970438774798
 30
0.0
 11
-2.731725004211564
 21
4.070780623385917
 31
0.0
  0
ARC
  5
21E
330
1CA
100
AcDbEntity
  8
AM_4
100
AcDbCircle
 10
-2.946816167843207
 20
3.763598606777549
 30
0.0
 40
0.3749999999999976
100
AcDbArc
 50
54.99999999999952
 51
104.1207399910851
  0
ARC
  5
21F
330
1CA
100
AcDbEntity
  8
AM_4
100
AcDbCircle
 10
-3.763598606777542
 20
2.946816167843208
 30
0.0
 40
0.3750000000000026
100
AcDbArc
 50
165.8792600089151
 51
214.9999999999997
  0
LINE
  5
220
330
1CA
100
AcDbEntity
  8
AM_4
100
AcDbLine
 10
0.5
 20
4.957742761000825
 30
0.0
 11
0.5
 21
3.601594311310067
 31
0.0
  0
LINE
  5
221
330
1CA
100
AcDbEntity
  8
AM_4
100
AcDbLine
 10
-0.5
 20
4.957742761000825
 30
0.0
 11
-0.5
 21
3.601594311310067
 31
0.0
  0
LINE
  5
222
330
1CA
100
AcDbEntity
  8
AM_4
100
AcDbLine
 10
0.5
 20
3.6875
 30
0.0
 11
-0.5
 21
3.6875
 31
0.0
  0
LINE
  5
223
330
1CA
100
AcDbEntity
  8
AM_4
100
AcDbLine
 10
0.5
 20
4.957742761000825
 30
0.0
 11
-0.5
 21
4.957742761000825
 31
0.0
  0
LWPOLYLINE
  5
224
330
1CA
100
AcDbEntity
  8
AM_4
100
AcDbPolyline
 90
        5
 70
     0
 43
0.0
 10
3.02085474751787
 20
-2.114732333984314
 10
3.020575440747081
 20
-2.115130219478928
 10
2.969847479350693
 20
-2.164144356817098
 10
2.922670199022091
 20
-2.186326627261904
 10
2.910886526313337
 20
-2.189555634429042
  0
LWPOLYLINE
  5
225
330
1CA
100
AcDbEntity
  8
AM_4
100
AcDbPolyline
 90
        5
 70
     0
 43
0.0
 10
2.910886523056324
 20
2.189555635208404
 10
2.954733975754983
 20
2.173044300780741
 10
3.004974595679661
 20
2.134438498257065
 10
3.020575440747054
 20
2.115130219478968
 10
3.02085474751787
 20
2.114732333984316
  0
LINE
  5
226
330
1CA
100
AcDbEntity
  8
AM_4
100
AcDbLine
 10
2.910886523056324
 20
2.189555635208404
 30
0.0
 11
2.883785646578808
 21
2.196452900607261
 31
0.0
  0
LWPOLYLINE
  5
227
330
1CA
100
AcDbEntity
  8
AM_4
100
AcDbPolyline
 90
        3
 70
     0
 43
0.0
 10
2.883785646578808
 20
-2.196452900607261
 10
2.891037531885574
 20
-2.194526024876089
 10
2.910886526313337
 20
-2.189555634429042
  0
ARC
  5
228
330
1CA
100
AcDbEntity
  8
AM_4
100
AcDbCircle
 10
0.0000000000000022
 20
0.0000000000000002
 30
0.0
 40
3.687499999999998
100
AcDbArc
 50
325.006273966462
 51
34.99372603353802
  0
ARC
  5
229
330
1CA
100
AcDbEntity
  8
AM_4
100
AcDbCircle
 10
-3.137786341515304
 20
3.137786341515303
 30
0.0
 40
0.9749999999999986
100
AcDbArc
 50
285.1005355652676
 51
344.8994644347325
  0
ARC
  5
22A
330
1CA
100
AcDbEntity
  8
AM_4
100
AcDbCircle
 10
-3.137786341515303
 20
-3.137786341515304
 30
0.0
 40
0.9749999999999992
100
AcDbArc
 50
15.10053556526764
 51
74.89946443473245
  0
ARC
  5
22B
330
1CA
100
AcDbEntity
  8
AM_4
100
AcDbCircle
 10
3.137786341515303
 20
3.137786341515304
 30
0.0
 40
0.9749999999999986
100
AcDbArc
 50
195.1005355652676
 51
254.8994644347325
  0
ARC
  5
22C
330
1CA
100
AcDbEntity
  8
AM_4
100
AcDbCircle
 10
3.137786341515304
 20
-3.137786341515303
 30
0.0
 40
0.9749999999999986
100
AcDbArc
 50
105.1005355652676
 51
164.8994644347325
  0
ARC
  5
22D
330
1CA
100
AcDbEntity
  8
AM_4
100
AcDbCircle
 10
0.0000000000000018
 20
0.0
 30
0.0
 40
3.624999999999999
100
AcDbArc
 50
322.7050675754028
 51
37.29493242459717
  0
CIRCLE
  5
22E
330
1CA
100
AcDbEntity
  8
AM_4
100
AcDbCircle
 10
0.0
 20
0.0
 30
0.0
 40
3.1496
  0
LWPOLYLINE
  5
22F
330
1CA
100
AcDbEntity
  8
AM_4
100
AcDbPolyline
 90
        5
 70
     0
 43
0.0
 10
-3.02085474751787
 20
2.114732333984314
 10
-3.020575440747054
 20
2.115130219478967
 10
-2.96984747935341
 20
2.164144356815323
 10
-2.922670199024848
 20
2.18632662726105
 10
-2.910886526313337
 20
2.189555634429042
  0
LWPOLYLINE
  5
230
330
1CA
100
AcDbEntity
  8
AM_4
100
AcDbPolyline
 90
        5
 70
     0
 43
0.0
 10
-2.910886523056324
 20
-2.189555635208404
 10
-2.954733975754983
 20
-2.173044300780741
 10
-3.004974595679661
 20
-2.134438498257065
 10
-3.020575440747054
 20
-2.115130219478968
 10
-3.02085474751787
 20
-2.114732333984316
  0
LWPOLYLINE
  5
231
330
1CA
100
AcDbEntity
  8
AM_4
100
AcDbPolyline
 90
        3
 70
     0
 43
0.0
 10
-2.883785646578808
 20
2.196452900607261
 10
-2.891037531885573
 20
2.19452602487609
 10
-2.910886526313337
 20
2.189555634429042
  0
LINE
  5
232
330
1CA
100
AcDbEntity
  8
AM_4
100
AcDbLine
 10
-2.910886523056324
 20
-2.189555635208404
 30
0.0
 11
-2.883785646578808
 21
-2.196452900607261
 31
0.0
  0
ARC
  5
233
330
1CA
100
AcDbEntity
  8
AM_4
100
AcDbCircle
 10
-0.0000000000000013
 20
-0.0000000000000007
 30
0.0
 40
3.687499999999999
100
AcDbArc
 50
145.006273966462
 51
214.993726033538
  0
ARC
  5
234
330
1CA
100
AcDbEntity
  8
AM_4
100
AcDbCircle
 10
-0.0000000000000009
 20
-0.0000000000000002
 30
0.0
 40
3.625
100
AcDbArc
 50
142.7050675754028
 51
217.2949324245972
  0
LWPOLYLINE
  5
235
330
1CA
100
AcDbEntity
  8
AM_4
100
AcDbPolyline
 90
        5
 70
     0
 43
0.0
 10
-2.114732333984314
 20
-3.02085474751787
 10
-2.115130219478928
 20
-3.020575440747081
 10
-2.164144356817098
 20
-2.969847479350693
 10
-2.186326627261904
 20
-2.922670199022091
 10
-2.189555634429042
 20
-2.910886526313337
  0
LWPOLYLINE
  5
236
330
1CA
100
AcDbEntity
  8
AM_4
100
AcDbPolyline
 90
        5
 70
     0
 43
0.0
 10
2.189555635208404
 20
-2.910886523056324
 10
2.173044300780741
 20
-2.954733975754983
 10
2.134438498257065
 20
-3.004974595679661
 10
2.115130219478937
 20
-3.020575440747075
 10
2.114732333984315
 20
-3.02085474751787
  0
LWPOLYLINE
  5
237
330
1CA
100
AcDbEntity
  8
AM_4
100
AcDbPolyline
 90
        3
 70
     0
 43
0.0
 10
-2.196452900607261
 20
-2.883785646578808
 10
-2.19452602487609
 20
-2.891037531885573
 10
-2.189555634429042
 20
-2.910886526313337
  0
LINE
  5
238
330
1CA
100
AcDbEntity
  8
AM_4
100
AcDbLine
 10
2.189555635208404
 20
-2.910886523056324
 30
0.0
 11
2.196452900607261
 21
-2.883785646578808
 31
0.0
  0
ARC
  5
239
330
1CA
100
AcDbEntity
  8
AM_4
100
AcDbCircle
 10
0.0
 20
-0.0000000000000018
 30
0.0
 40
3.624999999999999
100
AcDbArc
 50
232.7050675754028
 51
307.2949324245972
  0
ARC
  5
23A
330
1CA
100
AcDbEntity
  8
AM_4
100
AcDbCircle
 10
0.0
 20
-0.0000000000000036
 30
0.0
 40
3.687499999999997
100
AcDbArc
 50
235.006273966462
 51
304.993726033538
  0
LINE
  5
23B
330
1CA
100
AcDbEntity
  8
AM_4
100
AcDbLine
 10
-2.189555635208404
 20
2.910886523056324
 30
0.0
 11
-2.196452900607261
 21
2.883785646578808
 31
0.0
  0
ARC
  5
23C
330
1CA
100
AcDbEntity
  8
AM_4
100
AcDbCircle
 10
-0.0000000000000002
 20
0.0000000000000009
 30
0.0
 40
3.625
100
AcDbArc
 50
52.70506757540284
 51
127.2949324245972
  0
LWPOLYLINE
  5
23D
330
1CA
100
AcDbEntity
  8
AM_4
100
AcDbPolyline
 90
        3
 70
     0
 43
0.0
 10
2.196452900607261
 20
2.883785646578808
 10
2.194526024876091
 20
2.891037531885568
 10
2.189555634429042
 20
2.910886526313337
  0
LWPOLYLINE
  5
23E
330
1CA
100
AcDbEntity
  8
AM_4
100
AcDbPolyline
 90
        5
 70
     0
 43
0.0
 10
2.114732333984314
 20
3.02085474751787
 10
2.115130219478928
 20
3.020575440747081
 10
2.164144356817098
 20
2.969847479350693
 10
2.186326627261904
 20
2.922670199022091
 10
2.189555634429042
 20
2.910886526313337
  0
ARC
  5
23F
330
1CA
100
AcDbEntity
  8
AM_4
100
AcDbCircle
 10
-0.0000000000000133
 20
-0.0000000000000209
 30
0.0
 40
3.687500000000024
100
AcDbArc
 50
55.00627396646206
 51
82.2070756645775
  0
ARC
  5
240
330
1CA
100
AcDbEntity
  8
AM_4
100
AcDbCircle
 10
0.0000000000000001
 20
0.0000000000000373
 30
0.0
 40
3.636135528725623
100
AcDbArc
 50
82.09629330149143
 51
97.90370669850857
  0
ARC
  5
241
330
1CA
100
AcDbEntity
  8
AM_4
100
AcDbCircle
 10
-0.0000000000000053
 20
0.0000000000000138
 30
0.0
 40
3.687499999999986
100
AcDbArc
 50
97.79292433542231
 51
124.993726033538
  0
LWPOLYLINE
  5
242
330
1CA
100
AcDbEntity
  8
AM_4
100
AcDbPolyline
 90
        5
 70
     0
 43
0.0
 10
-2.189555635208404
 20
2.910886523056324
 10
-2.173044300780741
 20
2.954733975754983
 10
-2.134438498257065
 20
3.004974595679661
 10
-2.115130219478968
 20
3.020575440747054
 10
-2.114732333984316
 20
3.02085474751787
  0
ARC
  5
243
330
1CA
100
AcDbEntity
  8
AM_5
100
AcDbCircle
 10
-4.3125
 20
0.0
 30
0.0
 40
0.3750000000000001
100
AcDbArc
 50
165.0
 51
105.0
  0
ARC
  5
244
330
1CA
100
AcDbEntity
  8
AM_5
100
AcDbCircle
 10
-4.312500000000001
 20
0.0000000000000002
 30
0.0
 40
0.3749999999999995
100
AcDbArc
 50
104.9999999999998
 51
195.0
  0
CIRCLE
  5
245
330
1CA
100
AcDbEntity
  8
AM_4
100
AcDbCircle
 10
-0.0000000000000018
 20
-0.0000000000000007
 30
0.0
 40
5.124999999999998
  0
CIRCLE
  5
246
330
1CA
100
AcDbEntity
  8
AM_5
100
AcDbCircle
 10
4.3125
 20
0.0000000000000001
 30
0.0
 40
0.3749999999999999
  0
ENDBLK
  5
1CD
330
1CA
100
AcDbEntity
  8
0
100
AcDbBlockEnd
  0
ENDSEC
  0
SECTION
  2
ENTITIES
  0
INSERT
  5
6F
330
1F
100
AcDbEntity
  8
0
100
AcDbBlockReference
  2
1_069892_0
 10
0.0
 20
0.0
 30
0.0
  0
POINT
  5
248
330
1F
100
AcDbEntity
  8
ConnectionPoints
100
AcDbPoint
 10
0.0
 20
-2.204861111111111
 30
2.299708333333333
  0
POINT
  5
249
330
1F
100
AcDbEntity
  8
ConnectionPoints
100
AcDbPoint
 10
0.0
 20
2.204861111111111
 30
2.299708333333333
  0
POINT
  5
24A
330
1F
100
AcDbEntity
  8
ConnectionPoints
100
AcDbPoint
 10
0.0
 20
0.0
 30
2.229708333333333
  0
POINT
  5
24B
330
1F
100
AcDbEntity
  8
ConnectionPoints
100
AcDbPoint
 10
0.0
 20
0.0
 30
2.546875
  0
POINT
  5
24C
330
1F
100
AcDbEntity
  8
ConnectionPoints
100
AcDbPoint
 10
0.0
 20
0.0
 30
2.428708333333333
  0
POINT
  5
24D
330
1F
100
AcDbEntity
  8
ConnectionPoints
100
AcDbPoint
 10
0.0
 20
2.204861111111111
 30
2.229708333333333
  0
POINT
  5
24E
330
1F
100
AcDbEntity
  8
ConnectionPoints
100
AcDbPoint
 10
0.0
 20
2.204861111111111
 30
2.414875
  0
POINT
  5
24F
330
1F
100
AcDbEntity
  8
ConnectionPoints
100
AcDbPoint
 10
0.0
 20
-2.204861111111111
 30
2.229708333333333
  0
POINT
  5
250
330
1F
100
AcDbEntity
  8
ConnectionPoints
100
AcDbPoint
 10
0.0
 20
-2.204861111111111
 30
2.414875
  0
POINT
  5
251
330
1F
100
AcDbEntity
  8
ConnectionPoints
100
AcDbPoint
 10
0.0
 20
0.0
 30
2.229708333333333
  0
POINT
  5
252
330
1F
100
AcDbEntity
  8
ConnectionPoints
100
AcDbPoint
 10
0.0
 20
4.322621380500412
 30
1.1166875
  0
POINT
  5
253
330
1F
100
AcDbEntity
  8
ConnectionPoints
100
AcDbPoint
 10
0.0
 20
4.284226190476191
 30
1.138854973296072
  0
POINT
  5
254
330
1F
100
AcDbEntity
  8
ConnectionPoints
100
AcDbPoint
 10
0.0
 20
0.0
 30
2.296875
  0
POINT
  5
255
330
1F
100
AcDbEntity
  8
ConnectionPoints
100
AcDbPoint
 10
0.0
 20
0.0
 30
2.546875
  0
ENDSEC
  0
SECTION
  2
OBJECTS
  0
DICTIONARY
  5
C
330
0
100
AcDbDictionary
281
     1
  3
ACAD_DETAILVIEWSTYLE
350
25D
  3
ACAD_GROUP
350
D
  3
ACAD_LAYOUT
350
1A
  3
ACAD_MATERIAL
350
43
  3
ACAD_MLEADERSTYLE
350
6B
  3
ACAD_MLINESTYLE
350
17
  3
ACAD_PLOTSETTINGS
350
19
  3
ACAD_PLOTSTYLENAME
350
E
  3
ACAD_SCALELIST
350
47
  3
ACAD_SECTIONVIEWSTYLE
350
25E
  3
ACAD_TABLESTYLE
350
69
  3
ACAD_VISUALSTYLE
350
2A
  3
ACDB_RECOMPOSE_DATA
350
25A
  3
AcDbVariableDictionary
350
256
  0
SUN
  5
6D
330
29
100
AcDbSun
 90
        1
290
     0
 63
     7
421
 16777215
 40
1.0
291
     1
 91
  2455826
 92
 54000000
292
     0
 70
     2
 71
   256
280
     1
  0
DICTIONARY
  5
25D
102
{ACAD_REACTORS
330
C
102
}
330
C
100
AcDbDictionary
281
     1
  0
DICTIONARY
  5
D
102
{ACAD_REACTORS
330
C
102
}
330
C
100
AcDbDictionary
281
     1
  0
DICTIONARY
  5
1A
102
{ACAD_REACTORS
330
C
102
}
330
C
100
AcDbDictionary
281
     1
  3
Layout1
350
1E
  3
Layout2
350
26
  3
Model
350
22
  0
DICTIONARY
  5
43
102
{ACAD_REACTORS
330
C
102
}
330
C
100
AcDbDictionary
281
     1
  3
ByBlock
350
45
  3
ByLayer
350
44
  3
Global
350
46
  0
DICTIONARY
  5
6B
102
{ACAD_REACTORS
330
C
102
}
330
C
100
AcDbDictionary
281
     1
  3
Standard
350
6C
  0
DICTIONARY
  5
17
102
{ACAD_REACTORS
330
C
102
}
330
C
100
AcDbDictionary
281
     1
  3
Standard
350
18
  0
DICTIONARY
  5
19
102
{ACAD_REACTORS
330
C
102
}
330
C
100
AcDbDictionary
281
     1
  0
ACDBDICTIONARYWDFLT
  5
E
102
{ACAD_REACTORS
330
C
102
}
330
C
100
AcDbDictionary
281
     1
  3
Normal
350
F
100
AcDbDictionaryWithDefault
340
F
  0
DICTIONARY
  5
47
102
{ACAD_REACTORS
330
C
102
}
330
C
100
AcDbDictionary
281
     1
  3
A0
350
48
  3
A1
350
49
  3
A2
350
4A
  3
A3
350
4B
  3
A4
350
4C
  3
A5
350
4D
  3
A6
350
4E
  3
A7
350
4F
  3
A8
350
50
  3
A9
350
51
  3
B0
350
52
  3
B1
350
53
  3
B2
350
54
  3
B3
350
55
  3
B4
350
56
  3
B5
350
57
  3
B6
350
58
  3
B7
350
59
  3
B8
350
5A
  3
B9
350
5B
  3
C0
350
5C
  3
C1
350
5D
  3
C2
350
5E
  3
C3
350
5F
  3
C4
350
60
  3
C5
350
61
  3
C6
350
62
  3
C7
350
63
  3
C8
350
64
  3
C9
350
65
  3
D0
350
66
  3
D1
350
67
  3
D2
350
68
  0
DICTIONARY
  5
25E
102
{ACAD_REACTORS
330
C
102
}
330
C
100
AcDbDictionary
281
     1
  0
DICTIONARY
  5
69
102
{ACAD_REACTORS
330
C
102
}
330
C
100
AcDbDictionary
281
     1
  3
Standard
350
6A
  0
DICTIONARY
  5
2A
102
{ACAD_REACTORS
330
C
102
}
330
C
100
AcDbDictionary
281
     1
  3
2dWireframe
350
2F
  3
Basic
350
32
  3
Brighten
350
36
  3
ColorChange
350
3A
  3
Conceptual
350
34
  3
Dim
350
35
  3
EdgeColorOff
350
3D
  3
Facepattern
350
39
  3
Flat
350
2B
  3
FlatWithEdges
350
2C
  3
Gouraud
350
2D
  3
GouraudWithEdges
350
2E
  3
Hidden
350
31
  3
JitterOff
350
3B
  3
Linepattern
350
38
  3
OverhangOff
350
3C
  3
Realistic
350
33
  3
Shaded
350
42
  3
Shaded with edges
350
41
  3
Shades of Gray
350
3E
  3
Sketchy
350
3F
  3
Thicken
350
37
  3
Wireframe
350
30
  3
X-Ray
350
40
  0
XRECORD
  5
25A
102
{ACAD_REACTORS
330
C
102
}
330
C
100
AcDbXrecord
280
     1
 90
        1
330
6A
  0
DICTIONARY
  5
256
102
{ACAD_REACTORS
330
C
102
}
330
C
100
AcDbDictionary
281
     1
  3
CANNOSCALE
350
257
  3
CMLEADERSTYLE
350
25C
  3
CTABLESTYLE
350
25B
  0
LAYOUT
  5
1E
102
{ACAD_REACTORS
330
1A
102
}
330
1A
100
AcDbPlotSettings
  1

  2
none_device
  4

  6

 40
0.0
 41
0.0
 42
0.0
 43
0.0
 44
0.0
 45
0.0
 46
0.0
 47
0.0
 48
0.0
 49
0.0
140
0.0
141
0.0
142
1.0
143
1.0
 70
   688
 72
     0
 73
     0
 74
     5
  7

 75
    16
 76
     0
 77
     2
 78
   300
147
1.0
148
0.0
149
0.0
100
AcDbLayout
  1
Layout1
 70
     1
 71
     1
 10
0.0
 20
0.0
 11
12.0
 21
9.0
 12
0.0
 22
0.0
 32
0.0
 14
1.000000000000000E+20
 24
1.000000000000000E+20
 34
1.000000000000000E+20
 15
-1.000000000000000E+20
 25
-1.000000000000000E+20
 35
-1.000000000000000E+20
146
0.0
 13
0.0
 23
0.0
 33
0.0
 16
1.0
 26
0.0
 36
0.0
 17
0.0
 27
1.0
 37
0.0
 76
     0
330
1B
  0
LAYOUT
  5
26
102
{ACAD_REACTORS
330
1A
102
}
330
1A
100
AcDbPlotSettings
  1

  2
none_device
  4

  6

 40
0.0
 41
0.0
 42
0.0
 43
0.0
 44
0.0
 45
0.0
 46
0.0
 47
0.0
 48
0.0
 49
0.0
140
0.0
141
0.0
142
1.0
143
1.0
 70
   688
 72
     0
 73
     0
 74
     5
  7

 75
    16
 76
     0
 77
     2
 78
   300
147
1.0
148
0.0
149
0.0
100
AcDbLayout
  1
Layout2
 70
     1
 71
     2
 10
0.0
 20
0.0
 11
0.0
 21
0.0
 12
0.0
 22
0.0
 32
0.0
 14
0.0
 24
0.0
 34
0.0
 15
0.0
 25
0.0
 35
0.0
146
0.0
 13
0.0
 23
0.0
 33
0.0
 16
1.0
 26
0.0
 36
0.0
 17
0.0
 27
1.0
 37
0.0
 76
     0
330
23
  0
LAYOUT
  5
22
102
{ACAD_REACTORS
330
1A
102
}
330
1A
100
AcDbPlotSettings
  1

  2
none_device
  4
Letter_(8.50_x_11.00_Inches)
  6

 40
6.35
 41
6.35
 42
6.35000508
 43
6.35000508
 44
215.9
 45
279.4
 46
0.0
 47
0.0
 48
0.0
 49
0.0
140
0.0
141
0.0
142
1.0
143
1.0
 70
  1712
 72
     0
 73
     0
 74
     0
  7

 75
     0
 76
     0
 77
     2
 78
   300
147
1.0
148
0.0
149
0.0
100
AcDbLayout
  1
Model
 70
     1
 71
     0
 10
0.0
 20
0.0
 11
12.0
 21
9.0
 12
0.0
 22
0.0
 32
0.0
 14
1.000000000000000E+20
 24
1.000000000000000E+20
 34
1.000000000000000E+20
 15
-1.000000000000000E+20
 25
-1.000000000000000E+20
 35
-1.000000000000000E+20
146
0.0
 13
0.0
 23
0.0
 33
0.0
 16
1.0
 26
0.0
 36
0.0
 17
0.0
 27
1.0
 37
0.0
 76
     0
330
1F
331
29
  0
MATERIAL
  5
45
102
{ACAD_REACTORS
330
43
102
}
330
43
100
AcDbMaterial
  1
ByBlock
 72
     1
 94
      127
  0
MATERIAL
  5
44
102
{ACAD_REACTORS
330
43
102
}
330
43
100
AcDbMaterial
  1
ByLayer
 72
     1
 94
      127
  0
MATERIAL
  5
46
102
{ACAD_REACTORS
330
43
102
}
330
43
100
AcDbMaterial
  1
Global
 72
     1
 94
      127
  0
MLEADERSTYLE
  5
6C
102
{ACAD_REACTORS
330
6B
102
}
330
6B
100
AcDbMLeaderStyle
179
     2
170
     2
171
     1
172
     0
 90
        2
 40
0.0
 41
0.0
173
     1
 91
-1056964608
340
14
 92
       -2
290
     1
 42
0.09
291
     1
 43
0.36
  3
Standard
341
0
 44
0.18
300

342
11
174
     1
178
     6
175
     1
176
     0
 93
-1056964608
 45
0.18
292
     0
297
     0
 46
0.18
343
0
 94
-1056964608
 47
1.0
 49
1.0
140
1.0
293
     1
141
0.0
294
     1
177
     0
142
1.0
295
     0
296
     0
143
0.125
271
     0
272
     9
273
     9
298
     0
  0
MLINESTYLE
  5
18
102
{ACAD_REACTORS
330
17
102
}
330
17
100
AcDbMlineStyle
  2
Standard
 70
     0
  3

 62
   256
 51
90.0
 52
90.0
 71
     2
 49
0.5
 62
   256
  6
BYLAYER
 49
-0.5
 62
   256
  6
BYLAYER
  0
ACDBPLACEHOLDER
  5
F
102
{ACAD_REACTORS
330
E
102
}
330
E
  0
SCALE
  5
48
102
{ACAD_REACTORS
330
47
102
}
330
47
100
AcDbScale
 70
     0
300
1:1
140
1.0
141
1.0
290
     1
  0
SCALE
  5
49
102
{ACAD_REACTORS
330
47
102
}
330
47
100
AcDbScale
 70
     0
300
1:2
140
1.0
141
2.0
290
     0
  0
SCALE
  5
4A
102
{ACAD_REACTORS
330
47
102
}
330
47
100
AcDbScale
 70
     0
300
1:4
140
1.0
141
4.0
290
     0
  0
SCALE
  5
4B
102
{ACAD_REACTORS
330
47
102
}
330
47
100
AcDbScale
 70
     0
300
1:5
140
1.0
141
5.0
290
     0
  0
SCALE
  5
4C
102
{ACAD_REACTORS
330
47
102
}
330
47
100
AcDbScale
 70
     0
300
1:8
140
1.0
141
8.0
290
     0
  0
SCALE
  5
4D
102
{ACAD_REACTORS
330
47
102
}
330
47
100
AcDbScale
 70
     0
300
1:10
140
1.0
141
10.0
290
     0
  0
SCALE
  5
4E
102
{ACAD_REACTORS
330
47
102
}
330
47
100
AcDbScale
 70
     0
300
1:16
140
1.0
141
16.0
290
     0
  0
SCALE
  5
4F
102
{ACAD_REACTORS
330
47
102
}
330
47
100
AcDbScale
 70
     0
300
1:20
140
1.0
141
20.0
290
     0
  0
SCALE
  5
50
102
{ACAD_REACTORS
330
47
102
}
330
47
100
AcDbScale
 70
     0
300
1:30
140
1.0
141
30.0
290
     0
  0
SCALE
  5
51
102
{ACAD_REACTORS
330
47
102
}
330
47
100
AcDbScale
 70
     0
300
1:40
140
1.0
141
40.0
290
     0
  0
SCALE
  5
52
102
{ACAD_REACTORS
330
47
102
}
330
47
100
AcDbScale
 70
     0
300
1:50
140
1.0
141
50.0
290
     0
  0
SCALE
  5
53
102
{ACAD_REACTORS
330
47
102
}
330
47
100
AcDbScale
 70
     0
300
1:100
140
1.0
141
100.0
290
     0
  0
SCALE
  5
54
102
{ACAD_REACTORS
330
47
102
}
330
47
100
AcDbScale
 70
     0
300
2:1
140
2.0
141
1.0
290
     0
  0
SCALE
  5
55
102
{ACAD_REACTORS
330
47
102
}
330
47
100
AcDbScale
 70
     0
300
4:1
140
4.0
141
1.0
290
     0
  0
SCALE
  5
56
102
{ACAD_REACTORS
330
47
102
}
330
47
100
AcDbScale
 70
     0
300
8:1
140
8.0
141
1.0
290
     0
  0
SCALE
  5
57
102
{ACAD_REACTORS
330
47
102
}
330
47
100
AcDbScale
 70
     0
300
10:1
140
10.0
141
1.0
290
     0
  0
SCALE
  5
58
102
{ACAD_REACTORS
330
47
102
}
330
47
100
AcDbScale
 70
     0
300
100:1
140
100.0
141
1.0
290
     0
  0
SCALE
  5
59
102
{ACAD_REACTORS
330
47
102
}
330
47
100
AcDbScale
 70
     0
300
1/128" = 1'-0"
140
0.0078125
141
12.0
290
     0
  0
SCALE
  5
5A
102
{ACAD_REACTORS
330
47
102
}
330
47
100
AcDbScale
 70
     0
300
1/64" = 1'-0"
140
0.015625
141
12.0
290
     0
  0
SCALE
  5
5B
102
{ACAD_REACTORS
330
47
102
}
330
47
100
AcDbScale
 70
     0
300
1/32" = 1'-0"
140
0.03125
141
12.0
290
     0
  0
SCALE
  5
5C
102
{ACAD_REACTORS
330
47
102
}
330
47
100
AcDbScale
 70
     0
300
1/16" = 1'-0"
140
0.0625
141
12.0
290
     0
  0
SCALE
  5
5D
102
{ACAD_REACTORS
330
47
102
}
330
47
100
AcDbScale
 70
     0
300
3/32" = 1'-0"
140
0.09375
141
12.0
290
     0
  0
SCALE
  5
5E
102
{ACAD_REACTORS
330
47
102
}
330
47
100
AcDbScale
 70
     0
300
1/8" = 1'-0"
140
0.125
141
12.0
290
     0
  0
SCALE
  5
5F
102
{ACAD_REACTORS
330
47
102
}
330
47
100
AcDbScale
 70
     0
300
3/16" = 1'-0"
140
0.1875
141
12.0
290
     0
  0
SCALE
  5
60
102
{ACAD_REACTORS
330
47
102
}
330
47
100
AcDbScale
 70
     0
300
1/4" = 1'-0"
140
0.25
141
12.0
290
     0
  0
SCALE
  5
61
102
{ACAD_REACTORS
330
47
102
}
330
47
100
AcDbScale
 70
     0
300
3/8" = 1'-0"
140
0.375
141
12.0
290
     0
  0
SCALE
  5
62
102
{ACAD_REACTORS
330
47
102
}
330
47
100
AcDbScale
 70
     0
300
1/2" = 1'-0"
140
0.5
141
12.0
290
     0
  0
SCALE
  5
63
102
{ACAD_REACTORS
330
47
102
}
330
47
100
AcDbScale
 70
     0
300
3/4" = 1'-0"
140
0.75
141
12.0
290
     0
  0
SCALE
  5
64
102
{ACAD_REACTORS
330
47
102
}
330
47
100
AcDbScale
 70
     0
300
1" = 1'-0"
140
1.0
141
12.0
290
     0
  0
SCALE
  5
65
102
{ACAD_REACTORS
330
47
102
}
330
47
100
AcDbScale
 70
     0
300
1-1/2" = 1'-0"
140
1.5
141
12.0
290
     0
  0
SCALE
  5
66
102
{ACAD_REACTORS
330
47
102
}
330
47
100
AcDbScale
 70
     0
300
3" = 1'-0"
140
3.0
141
12.0
290
     0
  0
SCALE
  5
67
102
{ACAD_REACTORS
330
47
102
}
330
47
100
AcDbScale
 70
     0
300
6" = 1'-0"
140
6.0
141
12.0
290
     0
  0
SCALE
  5
68
102
{ACAD_REACTORS
330
47
102
}
330
47
100
AcDbScale
 70
     0
300
1'-0" = 1'-0"
140
12.0
141
12.0
290
     0
  0
TABLESTYLE
  5
6A
102
{ACAD_REACTORS
330
69
102
}
102
{ACAD_XDICTIONARY
360
258
102
}
330
69
100
AcDbTableStyle
  3
Standard
 70
     0
 71
     0
 40
0.06
 41
0.06
280
     0
281
     0
  7
Standard
140
0.18
170
     2
 62
     0
 63
   257
283
     0
 90
        4
 91
        0
  1

274
    -2
284
     1
 64
     0
275
    -2
285
     1
 65
     0
276
    -2
286
     1
 66
     0
277
    -2
287
     1
 67
     0
278
    -2
288
     1
 68
     0
279
    -2
289
     1
 69
     0
  7
Standard
140
0.25
170
     5
 62
     0
 63
   257
283
     0
 90
        4
 91
        0
  1

274
    -2
284
     1
 64
     0
275
    -2
285
     1
 65
     0
276
    -2
286
     1
 66
     0
277
    -2
287
     1
 67
     0
278
    -2
288
     1
 68
     0
279
    -2
289
     1
 69
     0
  7
Standard
140
0.18
170
     5
 62
     0
 63
   257
283
     0
 90
        4
 91
        0
  1

274
    -2
284
     1
 64
     0
275
    -2
285
     1
 65
     0
276
    -2
286
     1
 66
     0
277
    -2
287
     1
 67
     0
278
    -2
288
     1
 68
     0
279
    -2
289
     1
 69
     0
  0
VISUALSTYLE
  5
2F
102
{ACAD_REACTORS
330
2A
102
}
330
2A
100
AcDbVisualStyle
  2
2dWireframe
 70
     4
177
     3
291
     0
 70
    58
 90
        0
176
     1
 90
        2
176
     1
 90
        0
176
     1
 90
        0
176
     1
 40
0.6
176
     1
 40
30.0
176
     1
 62
     7
420
 16777215
176
     1
 90
        1
176
     1
 90
        4
176
     1
 62
     7
176
     1
 62
   257
176
     1
 90
        1
176
     1
 90
        1
176
     1
 40
1.0
176
     1
 90
        0
176
     1
 62
   257
176
     1
 40
1.0
176
     1
 90
        1
176
     1
 90
        6
176
     1
 90
        2
176
     1
 62
     7
176
     1
 90
        5
176
     1
 90
        0
176
     1
 90
        0
176
     1
290
     0
176
     1
 90
        1
176
     1
 40
0.0
176
     1
 90
        0
176
     1
290
     1
176
     1
290
     1
176
     1
290
     0
176
     1
290
     0
176
     1
290
     0
176
     1
290
     0
176
     1
290
     0
176
     1
290
     0
176
     1
290
     0
176
     1
 90
       50
176
     1
 40
0.0
176
     1
 40
1.0
176
     1
 90
        0
176
     1
 62
    18
420
        0
176
     1
 90
       50
176
     1
 90
        3
176
     1
 62
     5
420
      255
176
     1
290
     0
176
     1
 90
       50
176
     1
 90
       50
176
     1
 90
       50
176
     1
290
     0
176
     1
 90
       50
176
     1
 62
   256
176
     0
 40
1.0
176
     0
 90
        2
176
     1
  1
strokes_ogs.tif
176
     1
290
     0
176
     1
 40
1.0
176
     1
 40
1.0
176
     1
  0
VISUALSTYLE
  5
32
102
{ACAD_REACTORS
330
2A
102
}
330
2A
100
AcDbVisualStyle
  2
Basic
 70
     7
177
     3
291
     1
 70
    58
 90
        1
176
     1
 90
        0
176
     1
 90
        1
176
     1
 90
        0
176
     1
 40
0.6
176
     1
 40
30.0
176
     1
 62
     7
420
 16777215
176
     1
 90
        0
176
     1
 90
        4
176
     1
 62
     7
176
     1
 62
   257
176
     1
 90
        1
176
     1
 90
        1
176
     1
 40
1.0
176
     1
 90
        8
176
     1
 62
     7
176
     1
 40
1.0
176
     1
 90
        1
176
     1
 90
        6
176
     1
 90
        2
176
     1
 62
     7
176
     1
 90
        5
176
     1
 90
        0
176
     1
 90
        0
176
     1
290
     0
176
     1
 90
        1
176
     1
 40
0.0
176
     1
 90
        0
176
     1
290
     0
176
     1
290
     1
176
     1
290
     1
176
     1
290
     0
176
     1
290
     0
176
     1
290
     0
176
     1
290
     0
176
     1
290
     0
176
     1
290
     0
176
     1
 90
       50
176
     1
 40
0.0
176
     1
 40
1.0
176
     1
 90
        0
176
     1
 62
    18
420
        0
176
     1
 90
       50
176
     1
 90
        3
176
     1
 62
     5
420
      255
176
     1
290
     0
176
     1
 90
       50
176
     1
 90
       50
176
     1
 90
       50
176
     1
290
     0
176
     1
 90
       50
176
     1
 62
   256
176
     0
 40
1.0
176
     0
 90
        2
176
     1
  1
strokes_ogs.tif
176
     1
290
     0
176
     1
 40
1.0
176
     1
 40
1.0
176
     1
  0
VISUALSTYLE
  5
36
102
{ACAD_REACTORS
330
2A
102
}
330
2A
100
AcDbVisualStyle
  2
Brighten
 70
    12
177
     3
291
     1
 70
    58
 90
        2
176
     1
 90
        2
176
     1
 90
        0
176
     1
 90
        0
176
     1
 40
0.6
176
     1
 40
30.0
176
     1
 62
     7
420
 16777215
176
     1
 90
        1
176
     1
 90
        4
176
     1
 62
     7
176
     1
 62
   257
176
     1
 90
        1
176
     1
 90
        1
176
     1
 40
1.0
176
     1
 90
        8
176
     1
 62
     7
176
     1
 40
1.0
176
     1
 90
        1
176
     1
 90
        6
176
     1
 90
        2
176
     1
 62
     7
176
     1
 90
        5
176
     1
 90
        0
176
     1
 90
        0
176
     1
290
     0
176
     1
 90
        1
176
     1
 40
50.0
176
     1
 90
        0
176
     1
290
     0
176
     1
290
     1
176
     1
290
     1
176
     1
290
     0
176
     1
290
     0
176
     1
290
     0
176
     1
290
     0
176
     1
290
     0
176
     1
290
     0
176
     1
 90
       50
176
     1
 40
0.0
176
     1
 40
1.0
176
     1
 90
        0
176
     1
 62
    18
420
        0
176
     1
 90
       50
176
     1
 90
        3
176
     1
 62
     5
420
      255
176
     1
290
     0
176
     1
 90
       50
176
     1
 90
       50
176
     1
 90
       50
176
     1
290
     0
176
     1
 90
       50
176
     1
 62
   256
176
     0
 40
1.0
176
     0
 90
        2
176
     1
  1
strokes_ogs.tif
176
     1
290
     0
176
     1
 40
1.0
176
     1
 40
1.0
176
     1
  0
VISUALSTYLE
  5
3A
102
{ACAD_REACTORS
330
2A
102
}
330
2A
100
AcDbVisualStyle
  2
ColorChange
 70
    16
177
     3
291
     1
 70
    58
 90
        2
176
     1
 90
        2
176
     1
 90
        3
176
     1
 90
        0
176
     1
 40
0.6
176
     1
 40
30.0
176
     1
 62
     8
420
  8421504
176
     1
 90
        1
176
     1
 90
        4
176
     1
 62
     7
176
     1
 62
   257
176
     1
 90
        1
176
     1
 90
        1
176
     1
 40
1.0
176
     1
 90
        8
176
     1
 62
     8
420
  8421504
176
     1
 40
1.0
176
     1
 90
        1
176
     1
 90
        6
176
     1
 90
        2
176
     1
 62
     7
176
     1
 90
        5
176
     1
 90
        0
176
     1
 90
        0
176
     1
290
     0
176
     1
 90
        1
176
     1
 40
0.0
176
     1
 90
        0
176
     1
290
     0
176
     1
290
     1
176
     1
290
     1
176
     1
290
     0
176
     1
290
     0
176
     1
290
     0
176
     1
290
     0
176
     1
290
     0
176
     1
290
     0
176
     1
 90
       50
176
     1
 40
0.0
176
     1
 40
1.0
176
     1
 90
        0
176
     1
 62
    18
420
        0
176
     1
 90
       50
176
     1
 90
        3
176
     1
 62
     5
420
      255
176
     1
290
     0
176
     1
 90
       50
176
     1
 90
       50
176
     1
 90
       50
176
     1
290
     0
176
     1
 90
       50
176
     1
 62
   256
176
     0
 40
1.0
176
     0
 90
        2
176
     1
  1
strokes_ogs.tif
176
     1
290
     0
176
     1
 40
1.0
176
     1
 40
1.0
176
     1
  0
VISUALSTYLE
  5
34
102
{ACAD_REACTORS
330
2A
102
}
330
2A
100
AcDbVisualStyle
  2
Conceptual
 70
     9
177
     3
291
     0
 70
    58
 90
        3
176
     1
 90
        2
176
     1
 90
        0
176
     1
 90
        0
176
     1
 40
0.6
176
     1
 40
30.0
176
     1
 62
     7
420
 16777215
176
     1
 90
        2
176
     1
 90
        2
176
     1
 62
     7
176
     1
 62
   257
176
     1
 90
        1
176
     1
 90
        1
176
     1
 40
179.0
176
     1
 90
        8
176
     1
 62
     7
176
     1
 40
1.0
176
     1
 90
        1
176
     1
 90
        6
176
     1
 90
        2
176
     1
 62
     7
176
     1
 90
        3
176
     1
 90
        0
176
     1
 90
        0
176
     1
290
     0
176
     1
 90
        1
176
     1
 40
0.0
176
     1
 90
        0
176
     1
290
     0
176
     1
290
     1
176
     1
290
     1
176
     1
290
     0
176
     1
290
     0
176
     1
290
     0
176
     1
290
     0
176
     1
290
     0
176
     1
290
     0
176
     1
 90
       50
176
     1
 40
0.0
176
     1
 40
1.0
176
     1
 90
        0
176
     1
 62
    18
420
        0
176
     1
 90
       50
176
     1
 90
        3
176
     1
 62
     5
420
      255
176
     1
290
     0
176
     1
 90
       50
176
     1
 90
       50
176
     1
 90
       50
176
     1
290
     0
176
     1
 90
       50
176
     1
 62
   256
176
     0
 40
1.0
176
     0
 90
        2
176
     1
  1
strokes_ogs.tif
176
     1
290
     0
176
     1
 40
1.0
176
     1
 40
1.0
176
     1
  0
VISUALSTYLE
  5
35
102
{ACAD_REACTORS
330
2A
102
}
330
2A
100
AcDbVisualStyle
  2
Dim
 70
    11
177
     3
291
     1
 70
    58
 90
        2
176
     1
 90
        2
176
     1
 90
        0
176
     1
 90
        0
176
     1
 40
0.6
176
     1
 40
30.0
176
     1
 62
     7
420
 16777215
176
     1
 90
        1
176
     1
 90
        4
176
     1
 62
     7
176
     1
 62
   257
176
     1
 90
        1
176
     1
 90
        1
176
     1
 40
1.0
176
     1
 90
        8
176
     1
 62
     7
176
     1
 40
1.0
176
     1
 90
        1
176
     1
 90
        6
176
     1
 90
        2
176
     1
 62
     7
176
     1
 90
        5
176
     1
 90
        0
176
     1
 90
        0
176
     1
290
     0
176
     1
 90
        1
176
     1
 40
-50.0
176
     1
 90
        0
176
     1
290
     0
176
     1
290
     1
176
     1
290
     1
176
     1
290
     0
176
     1
290
     0
176
     1
290
     0
176
     1
290
     0
176
     1
290
     0
176
     1
290
     0
176
     1
 90
       50
176
     1
 40
0.0
176
     1
 40
1.0
176
     1
 90
        0
176
     1
 62
    18
420
        0
176
     1
 90
       50
176
     1
 90
        3
176
     1
 62
     5
420
      255
176
     1
290
     0
176
     1
 90
       50
176
     1
 90
       50
176
     1
 90
       50
176
     1
290
     0
176
     1
 90
       50
176
     1
 62
   256
176
     0
 40
1.0
176
     0
 90
        2
176
     1
  1
strokes_ogs.tif
176
     1
290
     0
176
     1
 40
1.0
176
     1
 40
1.0
176
     1
  0
VISUALSTYLE
  5
3D
102
{ACAD_REACTORS
330
2A
102
}
330
2A
100
AcDbVisualStyle
  2
EdgeColorOff
 70
    22
177
     3
291
     1
 70
    58
 90
        2
176
     0
 90
        2
176
     0
 90
        0
176
     0
 90
        0
176
     0
 40
0.6
176
     0
 40
30.0
176
     0
 62
     7
420
 16777215
176
     0
 90
        1
176
     0
 90
        4
176
     0
 62
     7
176
     0
 62
   257
176
     0
 90
        1
176
     0
 90
        1
176
     0
 40
1.0
176
     0
 90
        8
176
     2
 62
     7
176
     0
 40
1.0
176
     0
 90
        1
176
     0
 90
        6
176
     0
 90
        2
176
     0
 62
     7
176
     0
 90
        5
176
     0
 90
        0
176
     0
 90
        0
176
     0
290
     0
176
     0
 90
        1
176
     0
 40
0.0
176
     0
 90
        0
176
     0
290
     0
176
     0
290
     1
176
     0
290
     1
176
     0
290
     0
176
     0
290
     0
176
     0
290
     0
176
     0
290
     0
176
     0
290
     0
176
     0
290
     0
176
     0
 90
       50
176
     0
 40
0.0
176
     0
 40
1.0
176
     0
 90
        0
176
     0
 62
    18
420
        0
176
     0
 90
       50
176
     0
 90
        3
176
     0
 62
     5
420
      255
176
     0
290
     0
176
     0
 90
       50
176
     0
 90
       50
176
     0
 90
       50
176
     0
290
     0
176
     0
 90
       50
176
     0
 62
   256
176
     0
 40
1.0
176
     0
 90
        2
176
     0
  1
strokes_ogs.tif
176
     0
290
     0
176
     0
 40
1.0
176
     0
 40
1.0
176
     0
  0
VISUALSTYLE
  5
39
102
{ACAD_REACTORS
330
2A
102
}
330
2A
100
AcDbVisualStyle
  2
Facepattern
 70
    15
177
     3
291
     1
 70
    58
 90
        2
176
     1
 90
        2
176
     1
 90
        0
176
     1
 90
        0
176
     1
 40
0.6
176
     1
 40
30.0
176
     1
 62
     7
420
 16777215
176
     1
 90
        1
176
     1
 90
        4
176
     1
 62
     7
176
     1
 62
   257
176
     1
 90
        1
176
     1
 90
        1
176
     1
 40
1.0
176
     1
 90
        8
176
     1
 62
     7
176
     1
 40
1.0
176
     1
 90
        1
176
     1
 90
        6
176
     1
 90
        2
176
     1
 62
     7
176
     1
 90
        5
176
     1
 90
        0
176
     1
 90
        0
176
     1
290
     0
176
     1
 90
        1
176
     1
 40
0.0
176
     1
 90
        0
176
     1
290
     0
176
     1
290
     1
176
     1
290
     1
176
     1
290
     0
176
     1
290
     0
176
     1
290
     0
176
     1
290
     0
176
     1
290
     0
176
     1
290
     0
176
     1
 90
       50
176
     1
 40
0.0
176
     1
 40
1.0
176
     1
 90
        0
176
     1
 62
    18
420
        0
176
     1
 90
       50
176
     1
 90
        3
176
     1
 62
     5
420
      255
176
     1
290
     0
176
     1
 90
       50
176
     1
 90
       50
176
     1
 90
       50
176
     1
290
     0
176
     1
 90
       50
176
     1
 62
   256
176
     0
 40
1.0
176
     0
 90
        2
176
     1
  1
strokes_ogs.tif
176
     1
290
     0
176
     1
 40
1.0
176
     1
 40
1.0
176
     1
  0
VISUALSTYLE
  5
2B
102
{ACAD_REACTORS
330
2A
102
}
330
2A
100
AcDbVisualStyle
  2
Flat
 70
     0
177
     3
291
     1
 70
    58
 90
        2
176
     1
 90
        1
176
     1
 90
        1
176
     1
 90
        2
176
     1
 40
0.6
176
     1
 40
30.0
176
     1
 62
     7
420
 16777215
176
     1
 90
        0
176
     1
 90
        0
176
     1
 62
     7
176
     1
 62
   257
176
     1
 90
        1
176
     1
 90
        1
176
     1
 40
1.0
176
     1
 90
        8
176
     1
 62
     7
176
     1
 40
1.0
176
     1
 90
        1
176
     1
 90
        6
176
     1
 90
        2
176
     1
 62
     7
176
     1
 90
        5
176
     1
 90
        0
176
     1
 90
        0
176
     1
290
     0
176
     1
 90
       13
176
     1
 40
0.0
176
     1
 90
        0
176
     1
290
     0
176
     1
290
     1
176
     1
290
     1
176
     1
290
     0
176
     1
290
     0
176
     1
290
     0
176
     1
290
     0
176
     1
290
     0
176
     1
290
     0
176
     1
 90
       50
176
     1
 40
0.0
176
     1
 40
1.0
176
     1
 90
        0
176
     1
 62
    18
420
        0
176
     1
 90
       50
176
     1
 90
        3
176
     1
 62
     5
420
      255
176
     1
290
     0
176
     1
 90
       50
176
     1
 90
       50
176
     1
 90
       50
176
     1
290
     0
176
     1
 90
       50
176
     1
 62
   256
176
     0
 40
1.0
176
     0
 90
        2
176
     1
  1
strokes_ogs.tif
176
     1
290
     0
176
     1
 40
1.0
176
     1
 40
1.0
176
     1
  0
VISUALSTYLE
  5
2C
102
{ACAD_REACTORS
330
2A
102
}
330
2A
100
AcDbVisualStyle
  2
FlatWithEdges
 70
     1
177
     3
291
     1
 70
    58
 90
        2
176
     1
 90
        1
176
     1
 90
        1
176
     1
 90
        2
176
     1
 40
0.6
176
     1
 40
30.0
176
     1
 62
     7
420
 16777215
176
     1
 90
        1
176
     1
 90
        0
176
     1
 62
     7
176
     1
 62
   257
176
     1
 90
        1
176
     1
 90
        1
176
     1
 40
1.0
176
     1
 90
        0
176
     1
 62
   257
176
     1
 40
1.0
176
     1
 90
        1
176
     1
 90
        6
176
     1
 90
        2
176
     1
 62
     7
176
     1
 90
        5
176
     1
 90
        0
176
     1
 90
        0
176
     1
290
     0
176
     1
 90
       13
176
     1
 40
0.0
176
     1
 90
        0
176
     1
290
     0
176
     1
290
     1
176
     1
290
     1
176
     1
290
     0
176
     1
290
     0
176
     1
290
     0
176
     1
290
     0
176
     1
290
     0
176
     1
290
     0
176
     1
 90
       50
176
     1
 40
0.0
176
     1
 40
1.0
176
     1
 90
        0
176
     1
 62
    18
420
        0
176
     1
 90
       50
176
     1
 90
        3
176
     1
 62
     5
420
      255
176
     1
290
     0
176
     1
 90
       50
176
     1
 90
       50
176
     1
 90
       50
176
     1
290
     0
176
     1
 90
       50
176
     1
 62
   256
176
     0
 40
1.0
176
     0
 90
        2
176
     1
  1
strokes_ogs.tif
176
     1
290
     0
176
     1
 40
1.0
176
     1
 40
1.0
176
     1
  0
VISUALSTYLE
  5
2D
102
{ACAD_REACTORS
330
2A
102
}
330
2A
100
AcDbVisualStyle
  2
Gouraud
 70
     2
177
     3
291
     1
 70
    58
 90
        2
176
     1
 90
        2
176
     1
 90
        1
176
     1
 90
        2
176
     1
 40
0.6
176
     1
 40
30.0
176
     1
 62
     7
420
 16777215
176
     1
 90
        0
176
     1
 90
        0
176
     1
 62
     7
176
     1
 62
   257
176
     1
 90
        1
176
     1
 90
        1
176
     1
 40
1.0
176
     1
 90
        0
176
     1
 62
     7
176
     1
 40
1.0
176
     1
 90
        1
176
     1
 90
        6
176
     1
 90
        2
176
     1
 62
     7
176
     1
 90
        5
176
     1
 90
        0
176
     1
 90
        0
176
     1
290
     0
176
     1
 90
       13
176
     1
 40
0.0
176
     1
 90
        0
176
     1
290
     0
176
     1
290
     1
176
     1
290
     1
176
     1
290
     0
176
     1
290
     0
176
     1
290
     0
176
     1
290
     0
176
     1
290
     0
176
     1
290
     0
176
     1
 90
       50
176
     1
 40
0.0
176
     1
 40
1.0
176
     1
 90
        0
176
     1
 62
    18
420
        0
176
     1
 90
       50
176
     1
 90
        3
176
     1
 62
     5
420
      255
176
     1
290
     0
176
     1
 90
       50
176
     1
 90
       50
176
     1
 90
       50
176
     1
290
     0
176
     1
 90
       50
176
     1
 62
   256
176
     0
 40
1.0
176
     0
 90
        2
176
     1
  1
strokes_ogs.tif
176
     1
290
     0
176
     1
 40
1.0
176
     1
 40
1.0
176
     1
  0
VISUALSTYLE
  5
2E
102
{ACAD_REACTORS
330
2A
102
}
330
2A
100
AcDbVisualStyle
  2
GouraudWithEdges
 70
     3
177
     3
291
     1
 70
    58
 90
        2
176
     1
 90
        2
176
     1
 90
        1
176
     1
 90
        2
176
     1
 40
0.6
176
     1
 40
30.0
176
     1
 62
     7
420
 16777215
176
     1
 90
        1
176
     1
 90
        0
176
     1
 62
     7
176
     1
 62
   257
176
     1
 90
        1
176
     1
 90
        1
176
     1
 40
1.0
176
     1
 90
        0
176
     1
 62
   257
176
     1
 40
1.0
176
     1
 90
        1
176
     1
 90
        6
176
     1
 90
        2
176
     1
 62
     7
176
     1
 90
        5
176
     1
 90
        0
176
     1
 90
        0
176
     1
290
     0
176
     1
 90
       13
176
     1
 40
0.0
176
     1
 90
        0
176
     1
290
     0
176
     1
290
     1
176
     1
290
     1
176
     1
290
     0
176
     1
290
     0
176
     1
290
     0
176
     1
290
     0
176
     1
290
     0
176
     1
290
     0
176
     1
 90
       50
176
     1
 40
0.0
176
     1
 40
1.0
176
     1
 90
        0
176
     1
 62
    18
420
        0
176
     1
 90
       50
176
     1
 90
        3
176
     1
 62
     5
420
      255
176
     1
290
     0
176
     1
 90
       50
176
     1
 90
       50
176
     1
 90
       50
176
     1
290
     0
176
     1
 90
       50
176
     1
 62
   256
176
     0
 40
1.0
176
     0
 90
        2
176
     1
  1
strokes_ogs.tif
176
     1
290
     0
176
     1
 40
1.0
176
     1
 40
1.0
176
     1
  0
VISUALSTYLE
  5
31
102
{ACAD_REACTORS
330
2A
102
}
330
2A
100
AcDbVisualStyle
  2
Hidden
 70
     6
177
     3
291
     0
 70
    58
 90
        1
176
     1
 90
        2
176
     1
 90
        2
176
     1
 90
        0
176
     1
 40
0.6
176
     1
 40
30.0
176
     1
 62
     7
420
 16777215
176
     1
 90
        2
176
     1
 90
        2
176
     1
 62
     7
176
     1
 62
   257
176
     1
 90
        2
176
     1
 90
        1
176
     1
 40
40.0
176
     1
 90
        0
176
     1
 62
   257
176
     1
 40
1.0
176
     1
 90
        1
176
     1
 90
        6
176
     1
 90
        2
176
     1
 62
     7
176
     1
 90
        3
176
     1
 90
        0
176
     1
 90
        0
176
     1
290
     0
176
     1
 90
        1
176
     1
 40
0.0
176
     1
 90
        0
176
     1
290
     0
176
     1
290
     1
176
     1
290
     1
176
     1
290
     0
176
     1
290
     0
176
     1
290
     0
176
     1
290
     0
176
     1
290
     0
176
     1
290
     0
176
     1
 90
       50
176
     1
 40
0.0
176
     1
 40
1.0
176
     1
 90
        0
176
     1
 62
    18
420
        0
176
     1
 90
       50
176
     1
 90
        3
176
     1
 62
     5
420
      255
176
     1
290
     0
176
     1
 90
       50
176
     1
 90
       50
176
     1
 90
       50
176
     1
290
     0
176
     1
 90
       50
176
     1
 62
   256
176
     0
 40
1.0
176
     0
 90
        2
176
     1
  1
strokes_ogs.tif
176
     1
290
     0
176
     1
 40
1.0
176
     1
 40
1.0
176
     1
  0
VISUALSTYLE
  5
3B
102
{ACAD_REACTORS
330
2A
102
}
330
2A
100
AcDbVisualStyle
  2
JitterOff
 70
    20
177
     3
291
     1
 70
    58
 90
        2
176
     0
 90
        2
176
     0
 90
        0
176
     0
 90
        0
176
     0
 40
0.6
176
     0
 40
30.0
176
     0
 62
     7
420
 16777215
176
     0
 90
        1
176
     0
 90
        4
176
     0
 62
     7
176
     0
 62
   257
176
     0
 90
        1
176
     0
 90
        1
176
     0
 40
1.0
176
     0
 90
       10
176
     2
 62
     7
176
     0
 40
1.0
176
     0
 90
        1
176
     0
 90
        6
176
     0
 90
        2
176
     0
 62
     7
176
     0
 90
        5
176
     0
 90
        0
176
     0
 90
        0
176
     0
290
     0
176
     0
 90
        1
176
     0
 40
0.0
176
     0
 90
        0
176
     0
290
     0
176
     0
290
     1
176
     0
290
     1
176
     0
290
     0
176
     0
290
     0
176
     0
290
     0
176
     0
290
     0
176
     0
290
     0
176
     0
290
     0
176
     0
 90
       50
176
     0
 40
0.0
176
     0
 40
1.0
176
     0
 90
        0
176
     0
 62
    18
420
        0
176
     0
 90
       50
176
     0
 90
        3
176
     0
 62
     5
420
      255
176
     0
290
     0
176
     0
 90
       50
176
     0
 90
       50
176
     0
 90
       50
176
     0
290
     0
176
     0
 90
       50
176
     0
 62
   256
176
     0
 40
1.0
176
     0
 90
        2
176
     0
  1
strokes_ogs.tif
176
     0
290
     0
176
     0
 40
1.0
176
     0
 40
1.0
176
     0
  0
VISUALSTYLE
  5
38
102
{ACAD_REACTORS
330
2A
102
}
330
2A
100
AcDbVisualStyle
  2
Linepattern
 70
    14
177
     3
291
     1
 70
    58
 90
        2
176
     1
 90
        2
176
     1
 90
        0
176
     1
 90
        0
176
     1
 40
0.6
176
     1
 40
30.0
176
     1
 62
     7
420
 16777215
176
     1
 90
        1
176
     1
 90
        4
176
     1
 62
     7
176
     1
 62
   257
176
     1
 90
        7
176
     1
 90
        7
176
     1
 40
1.0
176
     1
 90
        8
176
     1
 62
     7
176
     1
 40
1.0
176
     1
 90
        1
176
     1
 90
        6
176
     1
 90
        2
176
     1
 62
     7
176
     1
 90
        5
176
     1
 90
        0
176
     1
 90
        0
176
     1
290
     0
176
     1
 90
        1
176
     1
 40
0.0
176
     1
 90
        0
176
     1
290
     0
176
     1
290
     1
176
     1
290
     1
176
     1
290
     0
176
     1
290
     0
176
     1
290
     0
176
     1
290
     0
176
     1
290
     0
176
     1
290
     0
176
     1
 90
       50
176
     1
 40
0.0
176
     1
 40
1.0
176
     1
 90
        0
176
     1
 62
    18
420
        0
176
     1
 90
       50
176
     1
 90
        3
176
     1
 62
     5
420
      255
176
     1
290
     0
176
     1
 90
       50
176
     1
 90
       50
176
     1
 90
       50
176
     1
290
     0
176
     1
 90
       50
176
     1
 62
   256
176
     0
 40
1.0
176
     0
 90
        2
176
     1
  1
strokes_ogs.tif
176
     1
290
     0
176
     1
 40
1.0
176
     1
 40
1.0
176
     1
  0
VISUALSTYLE
  5
3C
102
{ACAD_REACTORS
330
2A
102
}
330
2A
100
AcDbVisualStyle
  2
OverhangOff
 70
    21
177
     3
291
     1
 70
    58
 90
        2
176
     0
 90
        2
176
     0
 90
        0
176
     0
 90
        0
176
     0
 40
0.6
176
     0
 40
30.0
176
     0
 62
     7
420
 16777215
176
     0
 90
        1
176
     0
 90
        4
176
     0
 62
     7
176
     0
 62
   257
176
     0
 90
        1
176
     0
 90
        1
176
     0
 40
1.0
176
     0
 90
        9
176
     2
 62
     7
176
     0
 40
1.0
176
     0
 90
        1
176
     0
 90
        6
176
     0
 90
        2
176
     0
 62
     7
176
     0
 90
        5
176
     0
 90
        0
176
     0
 90
        0
176
     0
290
     0
176
     0
 90
        1
176
     0
 40
0.0
176
     0
 90
        0
176
     0
290
     0
176
     0
290
     1
176
     0
290
     1
176
     0
290
     0
176
     0
290
     0
176
     0
290
     0
176
     0
290
     0
176
     0
290
     0
176
     0
290
     0
176
     0
 90
       50
176
     0
 40
0.0
176
     0
 40
1.0
176
     0
 90
        0
176
     0
 62
    18
420
        0
176
     0
 90
       50
176
     0
 90
        3
176
     0
 62
     5
420
      255
176
     0
290
     0
176
     0
 90
       50
176
     0
 90
       50
176
     0
 90
       50
176
     0
290
     0
176
     0
 90
       50
176
     0
 62
   256
176
     0
 40
1.0
176
     0
 90
        2
176
     0
  1
strokes_ogs.tif
176
     0
290
     0
176
     0
 40
1.0
176
     0
 40
1.0
176
     0
  0
VISUALSTYLE
  5
33
102
{ACAD_REACTORS
330
2A
102
}
330
2A
100
AcDbVisualStyle
  2
Realistic
 70
     8
177
     3
291
     0
 70
    58
 90
        2
176
     1
 90
        3
176
     1
 90
        0
176
     1
 90
        2
176
     1
 40
0.6
176
     1
 40
30.0
176
     1
 62
     7
420
 16777215
176
     1
 90
        0
176
     1
 90
        0
176
     1
 62
     7
176
     1
 62
   257
176
     1
 90
        1
176
     1
 90
        1
176
     1
 40
1.0
176
     1
 90
        8
176
     1
 62
   257
176
     1
 40
1.0
176
     1
 90
        1
176
     1
 90
        6
176
     1
 90
        2
176
     1
 62
     7
176
     1
 90
        3
176
     1
 90
        0
176
     1
 90
        0
176
     1
290
     0
176
     1
 90
       13
176
     1
 40
0.0
176
     1
 90
        0
176
     1
290
     0
176
     1
290
     1
176
     1
290
     1
176
     1
290
     0
176
     1
290
     0
176
     1
290
     0
176
     1
290
     0
176
     1
290
     0
176
     1
290
     0
176
     1
 90
       50
176
     1
 40
0.0
176
     1
 40
1.0
176
     1
 90
        0
176
     1
 62
    18
420
        0
176
     1
 90
       50
176
     1
 90
        3
176
     1
 62
     5
420
      255
176
     1
290
     0
176
     1
 90
       50
176
     1
 90
       50
176
     1
 90
       50
176
     1
290
     0
176
     1
 90
       50
176
     1
 62
   256
176
     0
 40
1.0
176
     0
 90
        2
176
     1
  1
strokes_ogs.tif
176
     1
290
     0
176
     1
 40
1.0
176
     1
 40
1.0
176
     1
  0
VISUALSTYLE
  5
42
102
{ACAD_REACTORS
330
2A
102
}
330
2A
100
AcDbVisualStyle
  2
Shaded
 70
    27
177
     3
291
     0
 70
    58
 90
        2
176
     1
 90
        2
176
     1
 90
        1
176
     1
 90
        2
176
     1
 40
0.6
176
     1
 40
30.0
176
     1
 62
     7
420
 16777215
176
     1
 90
        0
176
     1
 90
        4
176
     1
 62
     7
176
     1
 62
   257
176
     1
 90
        1
176
     1
 90
        1
176
     1
 40
1.0
176
     1
 90
        8
176
     1
 62
   257
176
     1
 40
1.0
176
     1
 90
        1
176
     1
 90
        6
176
     1
 90
        2
176
     1
 62
     8
420
  7895160
176
     1
 90
        3
176
     1
 90
        0
176
     1
 90
        0
176
     1
290
     0
176
     1
 90
        5
176
     1
 40
0.0
176
     1
 90
        0
176
     1
290
     0
176
     1
290
     1
176
     1
290
     1
176
     1
290
     0
176
     1
290
     0
176
     1
290
     0
176
     1
290
     0
176
     1
290
     0
176
     1
290
     0
176
     1
 90
       50
176
     1
 40
0.0
176
     1
 40
1.0
176
     1
 90
        0
176
     1
 62
    18
420
        0
176
     1
 90
       50
176
     1
 90
        3
176
     1
 62
     5
420
      255
176
     1
290
     0
176
     1
 90
       50
176
     1
 90
       50
176
     1
 90
       50
176
     1
290
     0
176
     1
 90
       50
176
     1
 62
   256
176
     0
 40
1.0
176
     0
 90
        2
176
     1
  1
strokes_ogs.tif
176
     1
290
     0
176
     1
 40
1.0
176
     1
 40
1.0
176
     1
  0
VISUALSTYLE
  5
41
102
{ACAD_REACTORS
330
2A
102
}
330
2A
100
AcDbVisualStyle
  2
Shaded with edges
 70
    26
177
     3
291
     0
 70
    58
 90
        2
176
     1
 90
        2
176
     1
 90
        1
176
     1
 90
        2
176
     1
 40
0.6
176
     1
 40
30.0
176
     1
 62
     7
420
 16777215
176
     1
 90
        1
176
     1
 90
       10
176
     1
 62
     7
176
     1
 62
   257
176
     1
 90
        2
176
     1
 90
        1
176
     1
 40
1.0
176
     1
 90
        8
176
     1
 62
   257
176
     1
 40
1.0
176
     1
 90
        1
176
     1
 90
        6
176
     1
 90
        2
176
     1
 62
     7
176
     1
 90
        3
176
     1
 90
        0
176
     1
 90
        0
176
     1
290
     0
176
     1
 90
        5
176
     1
 40
0.0
176
     1
 90
        0
176
     1
290
     0
176
     1
290
     1
176
     1
290
     1
176
     1
290
     0
176
     1
290
     0
176
     1
290
     0
176
     1
290
     0
176
     1
290
     0
176
     1
290
     0
176
     1
 90
       50
176
     1
 40
0.0
176
     1
 40
1.0
176
     1
 90
        0
176
     1
 62
    18
420
        0
176
     1
 90
       50
176
     1
 90
        3
176
     1
 62
     5
420
      255
176
     1
290
     0
176
     1
 90
       50
176
     1
 90
       50
176
     1
 90
       50
176
     1
290
     0
176
     1
 90
       50
176
     1
 62
   256
176
     0
 40
1.0
176
     0
 90
        2
176
     1
  1
strokes_ogs.tif
176
     1
290
     0
176
     1
 40
1.0
176
     1
 40
1.0
176
     1
  0
VISUALSTYLE
  5
3E
102
{ACAD_REACTORS
330
2A
102
}
330
2A
100
AcDbVisualStyle
  2
Shades of Gray
 70
    23
177
     3
291
     0
 70
    58
 90
        2
176
     1
 90
        2
176
     1
 90
        3
176
     1
 90
        0
176
     1
 40
0.6
176
     1
 40
30.0
176
     1
 62
     7
420
 16777215
176
     1
 90
        2
176
     1
 90
        2
176
     1
 62
     7
176
     1
 62
     7
176
     1
 90
        1
176
     1
 90
        1
176
     1
 40
40.0
176
     1
 90
        8
176
     1
 62
     7
176
     1
 40
1.0
176
     1
 90
        1
176
     1
 90
        6
176
     1
 90
        2
176
     1
 62
     7
176
     1
 90
        3
176
     1
 90
        0
176
     1
 90
        0
176
     1
290
     0
176
     1
 90
        1
176
     1
 40
0.0
176
     1
 90
        0
176
     1
290
     0
176
     1
290
     1
176
     1
290
     1
176
     1
290
     0
176
     1
290
     0
176
     1
290
     0
176
     1
290
     0
176
     1
290
     0
176
     1
290
     0
176
     1
 90
       50
176
     1
 40
0.0
176
     1
 40
1.0
176
     1
 90
        0
176
     1
 62
    18
420
        0
176
     1
 90
       50
176
     1
 90
        3
176
     1
 62
     5
420
      255
176
     1
290
     0
176
     1
 90
       50
176
     1
 90
       50
176
     1
 90
       50
176
     1
290
     0
176
     1
 90
       50
176
     1
 62
   256
176
     0
 40
1.0
176
     0
 90
        2
176
     1
  1
strokes_ogs.tif
176
     1
290
     0
176
     1
 40
1.0
176
     1
 40
1.0
176
     1
  0
VISUALSTYLE
  5
3F
102
{ACAD_REACTORS
330
2A
102
}
330
2A
100
AcDbVisualStyle
  2
Sketchy
 70
    24
177
     3
291
     0
 70
    58
 90
        1
176
     1
 90
        2
176
     1
 90
        2
176
     1
 90
        0
176
     1
 40
0.6
176
     1
 40
30.0
176
     1
 62
     7
420
 16777215
176
     1
 90
        2
176
     1
 90
        2
176
     1
 62
     7
176
     1
 62
     7
176
     1
 90
        1
176
     1
 90
        1
176
     1
 40
40.0
176
     1
 90
       11
176
     1
 62
     7
176
     1
 40
1.0
176
     1
 90
        1
176
     1
 90
        6
176
     1
 90
        2
176
     1
 62
     7
176
     1
 90
        6
176
     1
 90
        0
176
     1
 90
        0
176
     1
290
     0
176
     1
 90
        1
176
     1
 40
0.0
176
     1
 90
        0
176
     1
290
     0
176
     1
290
     1
176
     1
290
     1
176
     1
290
     0
176
     1
290
     0
176
     1
290
     0
176
     1
290
     0
176
     1
290
     0
176
     1
290
     0
176
     1
 90
       50
176
     1
 40
0.0
176
     1
 40
1.0
176
     1
 90
        0
176
     1
 62
    18
420
        0
176
     1
 90
       50
176
     1
 90
        3
176
     1
 62
     5
420
      255
176
     1
290
     0
176
     1
 90
       50
176
     1
 90
       50
176
     1
 90
       50
176
     1
290
     0
176
     1
 90
       50
176
     1
 62
   256
176
     0
 40
1.0
176
     0
 90
        2
176
     1
  1
strokes_ogs.tif
176
     1
290
     0
176
     1
 40
1.0
176
     1
 40
1.0
176
     1
  0
VISUALSTYLE
  5
37
102
{ACAD_REACTORS
330
2A
102
}
330
2A
100
AcDbVisualStyle
  2
Thicken
 70
    13
177
     3
291
     1
 70
    58
 90
        2
176
     1
 90
        2
176
     1
 90
        0
176
     1
 90
        0
176
     1
 40
0.6
176
     1
 40
30.0
176
     1
 62
     7
420
 16777215
176
     1
 90
        1
176
     1
 90
        4
176
     1
 62
     7
176
     1
 62
   257
176
     1
 90
        1
176
     1
 90
        1
176
     1
 40
1.0
176
     1
 90
       12
176
     1
 62
     7
176
     1
 40
1.0
176
     1
 90
        1
176
     1
 90
        6
176
     1
 90
        2
176
     1
 62
     7
176
     1
 90
        5
176
     1
 90
        0
176
     1
 90
        0
176
     1
290
     0
176
     1
 90
        1
176
     1
 40
0.0
176
     1
 90
        0
176
     1
290
     0
176
     1
290
     1
176
     1
290
     1
176
     1
290
     0
176
     1
290
     0
176
     1
290
     0
176
     1
290
     0
176
     1
290
     0
176
     1
290
     0
176
     1
 90
       50
176
     1
 40
0.0
176
     1
 40
1.0
176
     1
 90
        0
176
     1
 62
    18
420
        0
176
     1
 90
       50
176
     1
 90
        3
176
     1
 62
     5
420
      255
176
     1
290
     0
176
     1
 90
       50
176
     1
 90
       50
176
     1
 90
       50
176
     1
290
     0
176
     1
 90
       50
176
     1
 62
   256
176
     0
 40
1.0
176
     0
 90
        2
176
     1
  1
strokes_ogs.tif
176
     1
290
     0
176
     1
 40
1.0
176
     1
 40
1.0
176
     1
  0
VISUALSTYLE
  5
30
102
{ACAD_REACTORS
330
2A
102
}
330
2A
100
AcDbVisualStyle
  2
Wireframe
 70
     5
177
     3
291
     0
 70
    58
 90
        0
176
     1
 90
        2
176
     1
 90
        0
176
     1
 90
        0
176
     1
 40
0.6
176
     1
 40
30.0
176
     1
 62
     7
420
 16777215
176
     1
 90
        1
176
     1
 90
        4
176
     1
 62
     7
176
     1
 62
   257
176
     1
 90
        1
176
     1
 90
        1
176
     1
 40
1.0
176
     1
 90
        0
176
     1
 62
   257
176
     1
 40
1.0
176
     1
 90
        1
176
     1
 90
        6
176
     1
 90
        2
176
     1
 62
     7
176
     1
 90
        3
176
     1
 90
        0
176
     1
 90
        0
176
     1
290
     0
176
     1
 90
        1
176
     1
 40
0.0
176
     1
 90
        0
176
     1
290
     0
176
     1
290
     1
176
     1
290
     1
176
     1
290
     0
176
     1
290
     0
176
     1
290
     0
176
     1
290
     0
176
     1
290
     0
176
     1
290
     0
176
     1
 90
       50
176
     1
 40
0.0
176
     1
 40
1.0
176
     1
 90
        0
176
     1
 62
    18
420
        0
176
     1
 90
       50
176
     1
 90
        3
176
     1
 62
     5
420
      255
176
     1
290
     0
176
     1
 90
       50
176
     1
 90
       50
176
     1
 90
       50
176
     1
290
     0
176
     1
 90
       50
176
     1
 62
   256
176
     0
 40
1.0
176
     0
 90
        2
176
     1
  1
strokes_ogs.tif
176
     1
290
     0
176
     1
 40
1.0
176
     1
 40
1.0
176
     1
  0
VISUALSTYLE
  5
40
102
{ACAD_REACTORS
330
2A
102
}
330
2A
100
AcDbVisualStyle
  2
X-Ray
 70
    25
177
     3
291
     0
 70
    58
 90
        2
176
     1
 90
        2
176
     1
 90
        1
176
     1
 90
        1
176
     1
 40
0.5
176
     1
 40
30.0
176
     1
 62
     7
420
 16777215
176
     1
 90
        1
176
     1
 90
        0
176
     1
 62
     7
176
     1
 62
   257
176
     1
 90
        1
176
     1
 90
        1
176
     1
 40
1.0
176
     1
 90
        8
176
     1
 62
     7
176
     1
 40
1.0
176
     1
 90
        1
176
     1
 90
        6
176
     1
 90
        2
176
     1
 62
     7
176
     1
 90
        3
176
     1
 90
        0
176
     1
 90
        0
176
     1
290
     0
176
     1
 90
       13
176
     1
 40
0.0
176
     1
 90
        0
176
     1
290
     0
176
     1
290
     1
176
     1
290
     1
176
     1
290
     0
176
     1
290
     0
176
     1
290
     0
176
     1
290
     0
176
     1
290
     0
176
     1
290
     0
176
     1
 90
       50
176
     1
 40
0.0
176
     1
 40
1.0
176
     1
 90
        0
176
     1
 62
    18
420
        0
176
     1
 90
       50
176
     1
 90
        3
176
     1
 62
     5
420
      255
176
     1
290
     0
176
     1
 90
       50
176
     1
 90
       50
176
     1
 90
       50
176
     1
290
     0
176
     1
 90
       50
176
     1
 62
   256
176
     0
 40
1.0
176
     0
 90
        2
176
     1
  1
strokes_ogs.tif
176
     1
290
     0
176
     1
 40
1.0
176
     1
 40
1.0
176
     1
  0
DICTIONARYVAR
  5
257
102
{ACAD_REACTORS
330
256
102
}
330
256
100
DictionaryVariables
280
     0
  1
1:1
  0
DICTIONARYVAR
  5
25C
102
{ACAD_REACTORS
330
256
102
}
330
256
100
DictionaryVariables
280
     0
  1
Standard
  0
DICTIONARYVAR
  5
25B
102
{ACAD_REACTORS
330
256
102
}
330
256
100
DictionaryVariables
280
     0
  1
Standard
  0
DICTIONARY
  5
258
330
6A
100
AcDbDictionary
280
     1
281
     1
  3
ACAD_ROUNDTRIP_2008_TABLESTYLE_CELLSTYLEMAP
360
259
  0
CELLSTYLEMAP
  5
259
102
{ACAD_REACTORS
330
258
102
}
330
258
100
AcDbCellStyleMap
 90
        3
300
CELLSTYLE
  1
TABLEFORMAT_BEGIN
 90
        5
170
     1
 91
        0
 92
    32768
 62
   257
 93
        1
300
CONTENTFORMAT
  1
CONTENTFORMAT_BEGIN
 90
        0
 91
        0
 92
        4
 93
        0
300

 40
0.0
140
1.0
 94
        5
 62
     0
340
11
144
0.25
309
CONTENTFORMAT_END
171
     1
301
MARGIN
  1
CELLMARGIN_BEGIN
 40
0.06
 40
0.06
 40
0.06
 40
0.06
 40
0.06
 40
0.06
309
CELLMARGIN_END
 94
        6
 95
        1
302
GRIDFORMAT
  1
GRIDFORMAT_BEGIN
 90
        0
 91
        1
 62
     0
 92
       -2
340
14
 93
        0
 40
0.045
309
GRIDFORMAT_END
 95
        2
302
GRIDFORMAT
  1
GRIDFORMAT_BEGIN
 90
        0
 91
        1
 62
     0
 92
       -2
340
14
 93
        0
 40
0.045
309
GRIDFORMAT_END
 95
        4
302
GRIDFORMAT
  1
GRIDFORMAT_BEGIN
 90
        0
 91
        1
 62
     0
 92
       -2
340
14
 93
        0
 40
0.045
309
GRIDFORMAT_END
 95
        8
302
GRIDFORMAT
  1
GRIDFORMAT_BEGIN
 90
        0
 91
        1
 62
     0
 92
       -2
340
14
 93
        0
 40
0.045
309
GRIDFORMAT_END
 95
       16
302
GRIDFORMAT
  1
GRIDFORMAT_BEGIN
 90
        0
 91
        1
 62
     0
 92
       -2
340
14
 93
        0
 40
0.045
309
GRIDFORMAT_END
 95
       32
302
GRIDFORMAT
  1
GRIDFORMAT_BEGIN
 90
        0
 91
        1
 62
     0
 92
       -2
340
14
 93
        0
 40
0.045
309
GRIDFORMAT_END
309
TABLEFORMAT_END
  1
CELLSTYLE_BEGIN
 90
        1
 91
        1
300
_TITLE
309
CELLSTYLE_END
300
CELLSTYLE
  1
TABLEFORMAT_BEGIN
 90
        5
170
     1
 91
        0
 92
        0
 62
   257
 93
        1
300
CONTENTFORMAT
  1
CONTENTFORMAT_BEGIN
 90
        0
 91
        0
 92
        4
 93
        0
300

 40
0.0
140
1.0
 94
        5
 62
     0
340
11
144
0.18
309
CONTENTFORMAT_END
171
     1
301
MARGIN
  1
CELLMARGIN_BEGIN
 40
0.06
 40
0.06
 40
0.06
 40
0.06
 40
0.06
 40
0.06
309
CELLMARGIN_END
 94
        6
 95
        1
302
GRIDFORMAT
  1
GRIDFORMAT_BEGIN
 90
        0
 91
        1
 62
     0
 92
       -2
340
14
 93
        0
 40
0.045
309
GRIDFORMAT_END
 95
        2
302
GRIDFORMAT
  1
GRIDFORMAT_BEGIN
 90
        0
 91
        1
 62
     0
 92
       -2
340
14
 93
        0
 40
0.045
309
GRIDFORMAT_END
 95
        4
302
GRIDFORMAT
  1
GRIDFORMAT_BEGIN
 90
        0
 91
        1
 62
     0
 92
       -2
340
14
 93
        0
 40
0.045
309
GRIDFORMAT_END
 95
        8
302
GRIDFORMAT
  1
GRIDFORMAT_BEGIN
 90
        0
 91
        1
 62
     0
 92
       -2
340
14
 93
        0
 40
0.045
309
GRIDFORMAT_END
 95
       16
302
GRIDFORMAT
  1
GRIDFORMAT_BEGIN
 90
        0
 91
        1
 62
     0
 92
       -2
340
14
 93
        0
 40
0.045
309
GRIDFORMAT_END
 95
       32
302
GRIDFORMAT
  1
GRIDFORMAT_BEGIN
 90
        0
 91
        1
 62
     0
 92
       -2
340
14
 93
        0
 40
0.045
309
GRIDFORMAT_END
309
TABLEFORMAT_END
  1
CELLSTYLE_BEGIN
 90
        2
 91
        1
300
_HEADER
309
CELLSTYLE_END
300
CELLSTYLE
  1
TABLEFORMAT_BEGIN
 90
        5
170
     1
 91
        0
 92
        0
 62
   257
 93
        1
300
CONTENTFORMAT
  1
CONTENTFORMAT_BEGIN
 90
        0
 91
        0
 92
        4
 93
        0
300

 40
0.0
140
1.0
 94
        2
 62
     0
340
11
144
0.18
309
CONTENTFORMAT_END
171
     1
301
MARGIN
  1
CELLMARGIN_BEGIN
 40
0.06
 40
0.06
 40
0.06
 40
0.06
 40
0.06
 40
0.06
309
CELLMARGIN_END
 94
        6
 95
        1
302
GRIDFORMAT
  1
GRIDFORMAT_BEGIN
 90
        0
 91
        1
 62
     0
 92
       -2
340
14
 93
        0
 40
0.045
309
GRIDFORMAT_END
 95
        2
302
GRIDFORMAT
  1
GRIDFORMAT_BEGIN
 90
        0
 91
        1
 62
     0
 92
       -2
340
14
 93
        0
 40
0.045
309
GRIDFORMAT_END
 95
        4
302
GRIDFORMAT
  1
GRIDFORMAT_BEGIN
 90
        0
 91
        1
 62
     0
 92
       -2
340
14
 93
        0
 40
0.045
309
GRIDFORMAT_END
 95
        8
302
GRIDFORMAT
  1
GRIDFORMAT_BEGIN
 90
        0
 91
        1
 62
     0
 92
       -2
340
14
 93
        0
 40
0.045
309
GRIDFORMAT_END
 95
       16
302
GRIDFORMAT
  1
GRIDFORMAT_BEGIN
 90
        0
 91
        1
 62
     0
 92
       -2
340
14
 93
        0
 40
0.045
309
GRIDFORMAT_END
 95
       32
302
GRIDFORMAT
  1
GRIDFORMAT_BEGIN
 90
        0
 91
        1
 62
     0
 92
       -2
340
14
 93
        0
 40
0.045
309
GRIDFORMAT_END
309
TABLEFORMAT_END
  1
CELLSTYLE_BEGIN
 90
        3
 91
        2
300
_DATA
309
CELLSTYLE_END
  0
ENDSEC
  0
EOF