0
SECTION
  2
HEADER
  9
$ACADVER
  1
AC1027
  9
$ACADMAINTVER
 70
     8
  9
$DWGCODEPAGE
  3
ANSI_1252
  9
$REQUIREDVERSIONS
160
                 0
  9
$COMMENTS
  1
File was created by Cadenas
  9
$CUSTOMPROPERTYTAG
  1
NN
  9
$CUSTOMPROPERTY
  1
Imperial - IP Piloted Flange Labyrinth Seal
  9
$CUSTOMPROPERTYTAG
  1
NT
  9
$CUSTOMPROPERTY
  1
Imperial Piloted Flange Bearings
  9
$CUSTOMPROPERTYTAG
  1
NB
  9
$CUSTOMPROPERTY
  1
069875
  9
$CUSTOMPROPERTYTAG
  1
NBSYN
  9
$CUSTOMPROPERTY
  1
$PN.
  9
$CUSTOMPROPERTYTAG
  1
LINA
  9
$CUSTOMPROPERTY
  1
069875
  9
$CUSTOMPROPERTYTAG
  1
SS
  9
$CUSTOMPROPERTY
  1
1-5/8
  9
$CUSTOMPROPERTYTAG
  1
PN
  9
$CUSTOMPROPERTY
  1
069875
  9
$CUSTOMPROPERTYTAG
  1
DESCRIPTION
  9
$CUSTOMPROPERTY
  1
FC-IP-110L
  9
$CUSTOMPROPERTYTAG
  1
EF
  9
$CUSTOMPROPERTY
  1
Non-Expansion Type
  9
$CUSTOMPROPERTYTAG
  1
ST
  9
$CUSTOMPROPERTY
  1
Labyrinth Seal
  9
$CUSTOMPROPERTYTAG
  1
A
  9
$CUSTOMPROPERTY
  1
2-13/16
  9
$CUSTOMPROPERTYTAG
  1
B
  9
$CUSTOMPROPERTY
  1
6-1/8
  9
$CUSTOMPROPERTYTAG
  1
C
  9
$CUSTOMPROPERTY
  1
1-29/32
  9
$CUSTOMPROPERTYTAG
  1
D
  9
$CUSTOMPROPERTY
  1
3-5/8
  9
$CUSTOMPROPERTYTAG
  1
DD
  9
$CUSTOMPROPERTY
  1
5-1/8
  9
$CUSTOMPROPERTYTAG
  1
E
  9
$CUSTOMPROPERTY
  1
7/8
  9
$CUSTOMPROPERTYTAG
  1
F
  9
$CUSTOMPROPERTY
  1
7/16
  9
$CUSTOMPROPERTYTAG
  1
G
  9
$CUSTOMPROPERTY
  1
1-39/64
  9
$CUSTOMPROPERTYTAG
  1
H
  9
$CUSTOMPROPERTY
  1
1/2
  9
$CUSTOMPROPERTYTAG
  1
K
  9
$CUSTOMPROPERTY
  1
4.250
  9
$CUSTOMPROPERTYTAG
  1
L
  9
$CUSTOMPROPERTY
  1
3
  9
$CUSTOMPROPERTYTAG
  1
M
  9
$CUSTOMPROPERTY
  1
7/16-14
  9
$CUSTOMPROPERTYTAG
  1
N
  9
$CUSTOMPROPERTY
  1
2-55/64
  9
$CUSTOMPROPERTYTAG
  1
P
  9
$CUSTOMPROPERTY
  1
1-13/64
  9
$CUSTOMPROPERTYTAG
  1
Q
  9
$CUSTOMPROPERTY
  1
1-17/64
  9
$CUSTOMPROPERTYTAG
  1
X
  9
$CUSTOMPROPERTY
  1
1/4
  9
$CUSTOMPROPERTYTAG
  1
Y
  9
$CUSTOMPROPERTY
  1
0.020
  9
$CUSTOMPROPERTYTAG
  1
Z
  9
$CUSTOMPROPERTY
  1
2-5/64
  9
$CUSTOMPROPERTYTAG
  1
COMPANY
  9
$CUSTOMPROPERTY
  1
baldor
  9
$INSBASE
 10
0.0
 20
0.0
 30
0.0
  9
$EXTMIN
 10
1.000000000000000E+20
 20
1.000000000000000E+20
 30
1.000000000000000E+20
  9
$EXTMAX
 10
-1.000000000000000E+20
 20
-1.000000000000000E+20
 30
-1.000000000000000E+20
  9
$LIMMIN
 10
0.0
 20
0.0
  9
$LIMMAX
 10
12.0
 20
9.0
  9
$ORTHOMODE
 70
     0
  9
$REGENMODE
 70
     1
  9
$FILLMODE
 70
     1
  9
$QTEXTMODE
 70
     0
  9
$MIRRTEXT
 70
     1
  9
$LTSCALE
 40
1.0
  9
$ATTMODE
 70
     1
  9
$TEXTSIZE
 40
0.2
  9
$TRACEWID
 40
0.05
  9
$TEXTSTYLE
  7
Standard
  9
$CLAYER
  8
0
  9
$CELTYPE
  6
ByLayer
  9
$CECOLOR
 62
   256
  9
$CELTSCALE
 40
1.0
  9
$DISPSILH
 70
     0
  9
$DIMSCALE
 40
1.0
  9
$DIMASZ
 40
0.18
  9
$DIMEXO
 40
0.0625
  9
$DIMDLI
 40
0.38
  9
$DIMRND
 40
0.0
  9
$DIMDLE
 40
0.0
  9
$DIMEXE
 40
0.18
  9
$DIMTP
 40
0.0
  9
$DIMTM
 40
0.0
  9
$DIMTXT
 40
0.18
  9
$DIMCEN
 40
0.09
  9
$DIMTSZ
 40
0.0
  9
$DIMTOL
 70
     0
  9
$DIMLIM
 70
     0
  9
$DIMTIH
 70
     1
  9
$DIMTOH
 70
     1
  9
$DIMSE1
 70
     0
  9
$DIMSE2
 70
     0
  9
$DIMTAD
 70
     0
  9
$DIMZIN
 70
     0
  9
$DIMBLK
  1

  9
$DIMASO
 70
     1
  9
$DIMSHO
 70
     1
  9
$DIMPOST
  1

  9
$DIMAPOST
  1

  9
$DIMALT
 70
     0
  9
$DIMALTD
 70
     2
  9
$DIMALTF
 40
25.4
  9
$DIMLFAC
 40
1.0
  9
$DIMTOFL
 70
     0
  9
$DIMTVP
 40
0.0
  9
$DIMTIX
 70
     0
  9
$DIMSOXD
 70
     0
  9
$DIMSAH
 70
     0
  9
$DIMBLK1
  1

  9
$DIMBLK2
  1

  9
$DIMSTYLE
  2
Standard
  9
$DIMCLRD
 70
     0
  9
$DIMCLRE
 70
     0
  9
$DIMCLRT
 70
     0
  9
$DIMTFAC
 40
1.0
  9
$DIMGAP
 40
0.09
  9
$DIMJUST
 70
     0
  9
$DIMSD1
 70
     0
  9
$DIMSD2
 70
     0
  9
$DIMTOLJ
 70
     1
  9
$DIMTZIN
 70
     0
  9
$DIMALTZ
 70
     0
  9
$DIMALTTZ
 70
     0
  9
$DIMUPT
 70
     0
  9
$DIMDEC
 70
     4
  9
$DIMTDEC
 70
     4
  9
$DIMALTU
 70
     2
  9
$DIMALTTD
 70
     2
  9
$DIMTXSTY
  7
Standard
  9
$DIMAUNIT
 70
     0
  9
$DIMADEC
 70
     0
  9
$DIMALTRND
 40
0.0
  9
$DIMAZIN
 70
     0
  9
$DIMDSEP
 70
    46
  9
$DIMATFIT
 70
     3
  9
$DIMFRAC
 70
     0
  9
$DIMLDRBLK
  1

  9
$DIMLUNIT
 70
     2
  9
$DIMLWD
 70
    -2
  9
$DIMLWE
 70
    -2
  9
$DIMTMOVE
 70
     0
  9
$DIMFXL
 40
1.0
  9
$DIMFXLON
 70
     0
  9
$DIMJOGANG
 40
0.7853981633974483
  9
$DIMTFILL
 70
     0
  9
$DIMTFILLCLR
 70
     0
  9
$DIMARCSYM
 70
     0
  9
$DIMLTYPE
  6

  9
$DIMLTEX1
  6

  9
$DIMLTEX2
  6

  9
$DIMTXTDIRECTION
 70
     0
  9
$LUNITS
 70
     2
  9
$LUPREC
 70
     4
  9
$SKETCHINC
 40
0.1
  9
$FILLETRAD
 40
0.5
  9
$AUNITS
 70
     0
  9
$AUPREC
 70
     0
  9
$MENU
  1
.
  9
$ELEVATION
 40
0.0
  9
$PELEVATION
 40
0.0
  9
$THICKNESS
 40
0.0
  9
$LIMCHECK
 70
     0
  9
$CHAMFERA
 40
0.0
  9
$CHAMFERB
 40
0.0
  9
$CHAMFERC
 40
0.0
  9
$CHAMFERD
 40
0.0
  9
$SKPOLY
 70
     0
  9
$TDCREATE
 40
2458168.989574803
  9
$TDUCREATE
 40
2458168.947908137
  9
$TDUPDATE
 40
2458168.989574988
  9
$TDUUPDATE
 40
2458168.947908322
  9
$TDINDWG
 40
0.0000000116
  9
$TDUSRTIMER
 40
0.0000000116
  9
$USRTIMER
 70
     1
  9
$ANGBASE
 50
0.0
  9
$ANGDIR
 70
     0
  9
$PDMODE
 70
     0
  9
$PDSIZE
 40
0.0
  9
$PLINEWID
 40
0.0
  9
$SPLFRAME
 70
     0
  9
$SPLINETYPE
 70
     6
  9
$SPLINESEGS
 70
     8
  9
$HANDSEED
  5
268
  9
$SURFTAB1
 70
     6
  9
$SURFTAB2
 70
     6
  9
$SURFTYPE
 70
     6
  9
$SURFU
 70
     6
  9
$SURFV
 70
     6
  9
$UCSBASE
  2

  9
$UCSNAME
  2

  9
$UCSORG
 10
0.0
 20
0.0
 30
0.0
  9
$UCSXDIR
 10
1.0
 20
0.0
 30
0.0
  9
$UCSYDIR
 10
0.0
 20
1.0
 30
0.0
  9
$UCSORTHOREF
  2

  9
$UCSORTHOVIEW
 70
     0
  9
$UCSORGTOP
 10
0.0
 20
0.0
 30
0.0
  9
$UCSORGBOTTOM
 10
0.0
 20
0.0
 30
0.0
  9
$UCSORGLEFT
 10
0.0
 20
0.0
 30
0.0
  9
$UCSORGRIGHT
 10
0.0
 20
0.0
 30
0.0
  9
$UCSORGFRONT
 10
0.0
 20
0.0
 30
0.0
  9
$UCSORGBACK
 10
0.0
 20
0.0
 30
0.0
  9
$PUCSBASE
  2

  9
$PUCSNAME
  2

  9
$PUCSORG
 10
0.0
 20
0.0
 30
0.0
  9
$PUCSXDIR
 10
1.0
 20
0.0
 30
0.0
  9
$PUCSYDIR
 10
0.0
 20
1.0
 30
0.0
  9
$PUCSORTHOREF
  2

  9
$PUCSORTHOVIEW
 70
     0
  9
$PUCSORGTOP
 10
0.0
 20
0.0
 30
0.0
  9
$PUCSORGBOTTOM
 10
0.0
 20
0.0
 30
0.0
  9
$PUCSORGLEFT
 10
0.0
 20
0.0
 30
0.0
  9
$PUCSORGRIGHT
 10
0.0
 20
0.0
 30
0.0
  9
$PUCSORGFRONT
 10
0.0
 20
0.0
 30
0.0
  9
$PUCSORGBACK
 10
0.0
 20
0.0
 30
0.0
  9
$USERI1
 70
     0
  9
$USERI2
 70
     0
  9
$USERI3
 70
     0
  9
$USERI4
 70
     0
  9
$USERI5
 70
     0
  9
$USERR1
 40
0.0
  9
$USERR2
 40
0.0
  9
$USERR3
 40
0.0
  9
$USERR4
 40
0.0
  9
$USERR5
 40
0.0
  9
$WORLDVIEW
 70
     1
  9
$SHADEDGE
 70
     3
  9
$SHADEDIF
 70
    70
  9
$TILEMODE
 70
     1
  9
$MAXACTVP
 70
    64
  9
$PINSBASE
 10
0.0
 20
0.0
 30
0.0
  9
$PLIMCHECK
 70
     0
  9
$PEXTMIN
 10
1.000000000000000E+20
 20
1.000000000000000E+20
 30
1.000000000000000E+20
  9
$PEXTMAX
 10
-1.000000000000000E+20
 20
-1.000000000000000E+20
 30
-1.000000000000000E+20
  9
$PLIMMIN
 10
0.0
 20
0.0
  9
$PLIMMAX
 10
12.0
 20
9.0
  9
$UNITMODE
 70
     0
  9
$VISRETAIN
 70
     1
  9
$PLINEGEN
 70
     0
  9
$PSLTSCALE
 70
     1
  9
$TREEDEPTH
 70
  3020
  9
$CMLSTYLE
  2
Standard
  9
$CMLJUST
 70
     0
  9
$CMLSCALE
 40
1.0
  9
$PROXYGRAPHICS
 70
     1
  9
$MEASUREMENT
 70
     0
  9
$CELWEIGHT
370
    -1
  9
$ENDCAPS
280
     0
  9
$JOINSTYLE
280
     0
  9
$LWDISPLAY
290
     0
  9
$INSUNITS
 70
     1
  9
$HYPERLINKBASE
  1

  9
$STYLESHEET
  1

  9
$XEDIT
290
     1
  9
$CEPSNTYPE
380
     0
  9
$PSTYLEMODE
290
     1
  9
$FINGERPRINTGUID
  2
{E7E30C8D-8B30-4DB4-894F-F3BE8F50A9A9}
  9
$VERSIONGUID
  2
{FAEB1C32-E019-11D5-929B-00C0DF256EC4}
  9
$EXTNAMES
290
     1
  9
$PSVPSCALE
 40
0.0
  9
$OLESTARTUP
290
     0
  9
$SORTENTS
280
   127
  9
$INDEXCTL
280
     0
  9
$HIDETEXT
280
     1
  9
$XCLIPFRAME
280
     2
  9
$HALOGAP
280
     0
  9
$OBSCOLOR
 70
   257
  9
$OBSLTYPE
280
     0
  9
$INTERSECTIONDISPLAY
280
     0
  9
$INTERSECTIONCOLOR
 70
   257
  9
$DIMASSOC
280
     2
  9
$PROJECTNAME
  1

  9
$CAMERADISPLAY
290
     0
  9
$LENSLENGTH
 40
50.0
  9
$CAMERAHEIGHT
 40
0.0
  9
$STEPSPERSEC
 40
2.0
  9
$STEPSIZE
 40
6.0
  9
$3DDWFPREC
 40
2.0
  9
$PSOLWIDTH
 40
0.25
  9
$PSOLHEIGHT
 40
4.0
  9
$LOFTANG1
 40
1.570796326794897
  9
$LOFTANG2
 40
1.570796326794897
  9
$LOFTMAG1
 40
0.0
  9
$LOFTMAG2
 40
0.0
  9
$LOFTPARAM
 70
     7
  9
$LOFTNORMALS
280
     1
  9
$LATITUDE
 40
37.795
  9
$LONGITUDE
 40
-122.394
  9
$NORTHDIRECTION
 40
0.0
  9
$TIMEZONE
 70
 -8000
  9
$LIGHTGLYPHDISPLAY
280
     1
  9
$TILEMODELIGHTSYNCH
280
     1
  9
$CMATERIAL
347
44
  9
$SOLIDHIST
280
     0
  9
$SHOWHIST
280
     1
  9
$DWFFRAME
280
     2
  9
$DGNFRAME
280
     2
  9
$REALWORLDSCALE
290
     1
  9
$INTERFERECOLOR
 62
   256
  9
$CSHADOW
280
     0
  9
$SHADOWPLANELOCATION
 40
0.0
  0
ENDSEC
  0
SECTION
  2
CLASSES
  0
CLASS
  1
ACDBDICTIONARYWDFLT
  2
AcDbDictionaryWithDefault
  3
ObjectDBX Classes
 90
        0
 91
        4
280
     0
281
     0
  0
CLASS
  1
VISUALSTYLE
  2
AcDbVisualStyle
  3
ObjectDBX Classes
 90
     4095
 91
        4
280
     0
281
     0
  0
CLASS
  1
MATERIAL
  2
AcDbMaterial
  3
ObjectDBX Classes
 90
     1153
 91
        4
280
     0
281
     0
  0
CLASS
  1
SCALE
  2
AcDbScale
  3
ObjectDBX Classes
 90
     1153
 91
        4
280
     0
281
     0
  0
CLASS
  1
TABLESTYLE
  2
AcDbTableStyle
  3
ObjectDBX Classes
 90
     4095
 91
        4
280
     0
281
     0
  0
CLASS
  1
MLEADERSTYLE
  2
AcDbMLeaderStyle
  3
ACDB_MLEADERSTYLE_CLASS
 90
     4095
 91
        4
280
     0
281
     0
  0
CLASS
  1
SUN
  2
AcDbSun
  3
SCENEOE
 90
     1153
 91
        4
280
     0
281
     0
  0
CLASS
  1
DICTIONARYVAR
  2
AcDbDictionaryVar
  3
ObjectDBX Classes
 90
        0
 91
        4
280
     0
281
     0
  0
CLASS
  1
CELLSTYLEMAP
  2
AcDbCellStyleMap
  3
ObjectDBX Classes
 90
     1152
 91
        4
280
     0
281
     0
  0
ENDSEC
  0
SECTION
  2
TABLES
  0
TABLE
  2
VPORT
  5
8
330
0
100
AcDbSymbolTable
 70
     1
  0
VPORT
  5
29
330
8
100
AcDbSymbolTableRecord
100
AcDbViewportTableRecord
  2
*Active
 70
     0
 10
0.0
 20
0.0
 11
1.0
 21
1.0
 12
-0.0323750000000018
 22
0.0
 13
0.0
 23
0.0
 14
0.5
 24
0.5
 15
0.5
 25
0.5
 16
0.0
 26
0.0
 36
1.0
 17
0.0
 27
0.0
 37
0.0
 40
6.2475
 41
0.556081632653061
 42
50.0
 43
0.0
 44
0.0
 50
0.0
 51
0.0
 71
     0
 72
   100
 73
     1
 74
     3
 75
     0
 76
     0
 77
     0
 78
     0
281
     0
 65
     1
110
0.0
120
0.0
130
0.0
111
1.0
121
0.0
131
0.0
112
0.0
122
1.0
132
0.0
 79
     0
146
0.0
348
2F
 60
     3
 61
     5
292
     1
282
     1
141
0.0
142
0.0
 63
   250
361
6D
  0
ENDTAB
  0
TABLE
  2
LTYPE
  5
5
330
0
100
AcDbSymbolTable
 70
     3
  0
LTYPE
  5
14
330
5
100
AcDbSymbolTableRecord
100
AcDbLinetypeTableRecord
  2
ByBlock
 70
     0
  3

 72
    65
 73
     0
 40
0.0
  0
LTYPE
  5
15
330
5
100
AcDbSymbolTableRecord
100
AcDbLinetypeTableRecord
  2
ByLayer
 70
     0
  3

 72
    65
 73
     0
 40
0.0
  0
LTYPE
  5
16
330
5
100
AcDbSymbolTableRecord
100
AcDbLinetypeTableRecord
  2
Continuous
 70
     0
  3
Solid line
 72
    65
 73
     0
 40
0.0
  0
LTYPE
  5
9C
330
5
100
AcDbSymbolTableRecord
100
AcDbLinetypeTableRecord
  2
Dashed
 70
     0
  3

 72
    65
 73
     2
 40
2.0
 49
1.0
 74
     0
 49
-1.0
 74
     0
  0
LTYPE
  5
AC
330
5
100
AcDbSymbolTableRecord
100
AcDbLinetypeTableRecord
  2
Center
 70
     0
  3

 72
    65
 73
     4
 40
1.5
 49
0.45
 74
     0
 49
-0.5
 74
     0
 49
0.05
 74
     0
 49
-0.5
 74
     0
  0
ENDTAB
  0
TABLE
  2
LAYER
  5
2
330
0
100
AcDbSymbolTable
 70
     7
  0
LAYER
  5
10
330
2
100
AcDbSymbolTableRecord
100
AcDbLayerTableRecord
  2
0
 70
     0
 62
     7
  6
Continuous
370
    -3
390
F
347
46
348
0
  0
LAYER
  5
72
330
2
100
AcDbSymbolTableRecord
100
AcDbLayerTableRecord
  2
AM_6
 70
     0
 62
    -2
  6
Continuous
370
    35
390
F
347
46
348
0
  0
LAYER
  5
9D
330
2
100
AcDbSymbolTableRecord
100
AcDbLayerTableRecord
  2
AM_9
 70
     0
 62
     6
  6
Dashed
370
    25
390
F
347
46
348
0
  0
LAYER
  5
A6
330
2
100
AcDbSymbolTableRecord
100
AcDbLayerTableRecord
  2
AM_5
 70
     0
 62
     3
  6
Continuous
370
    25
390
F
347
46
348
0
  0
LAYER
  5
AD
330
2
100
AcDbSymbolTableRecord
100
AcDbLayerTableRecord
  2
AM_7
 70
     0
 62
     7
  6
Center
370
    25
390
F
347
46
348
0
  0
LAYER
  5
AF
330
2
100
AcDbSymbolTableRecord
100
AcDbLayerTableRecord
  2
AM_4
 70
     0
 62
     7
  6
Continuous
370
    50
390
F
347
46
348
0
  0
LAYER
  5
250
330
2
100
AcDbSymbolTableRecord
100
AcDbLayerTableRecord
  2
ConnectionPoints
 70
     0
 62
     7
  6
Continuous
370
    50
390
F
347
46
348
0
  0
ENDTAB
  0
TABLE
  2
STYLE
  5
3
330
0
100
AcDbSymbolTable
 70
     1
  0
STYLE
  5
11
330
3
100
AcDbSymbolTableRecord
100
AcDbTextStyleTableRecord
  2
Standard
 70
     0
 40
0.0
 41
1.0
 50
0.0
 71
     0
 42
0.2
  3
txt
  4

  0
ENDTAB
  0
TABLE
  2
VIEW
  5
6
330
0
100
AcDbSymbolTable
 70
     0
  0
ENDTAB
  0
TABLE
  2
UCS
  5
7
330
0
100
AcDbSymbolTable
 70
     0
  0
ENDTAB
  0
TABLE
  2
APPID
  5
9
330
0
100
AcDbSymbolTable
 70
     1
  0
APPID
  5
12
330
9
100
AcDbSymbolTableRecord
100
AcDbRegAppTableRecord
  2
ACAD
 70
     0
  0
ENDTAB
  0
TABLE
  2
DIMSTYLE
  5
A
330
0
100
AcDbSymbolTable
 70
     1
100
AcDbDimStyleTable
  0
DIMSTYLE
105
27
330
A
100
AcDbSymbolTableRecord
100
AcDbDimStyleTableRecord
  2
Standard
 70
     0
178
     0
340
11
  0
ENDTAB
  0
TABLE
  2
BLOCK_RECORD
  5
1
330
0
100
AcDbSymbolTable
 70
     8
  0
BLOCK_RECORD
  5
1F
330
1
100
AcDbSymbolTableRecord
100
AcDbBlockTableRecord
  2
*Model_Space
340
22
 70
     0
280
     1
281
     0
  0
BLOCK_RECORD
  5
1B
330
1
100
AcDbSymbolTableRecord
100
AcDbBlockTableRecord
  2
*Paper_Space
340
1E
 70
     0
280
     1
281
     0
  0
BLOCK_RECORD
  5
23
330
1
100
AcDbSymbolTableRecord
100
AcDbBlockTableRecord
  2
*Paper_Space0
340
26
 70
     0
280
     1
281
     0
  0
BLOCK_RECORD
  5
6E
330
1
100
AcDbSymbolTableRecord
100
AcDbBlockTableRecord
  2
1_069875_2
340
0
102
{BLKREFS
331
6F
102
}
 70
     0
280
     1
281
     0
  0
BLOCK_RECORD
  5
90
330
1
100
AcDbSymbolTableRecord
100
AcDbBlockTableRecord
  2
2_405015E_Inch_0_in_069875_2
340
0
102
{BLKREFS
331
91
102
}
 70
     0
280
     1
281
     0
  0
BLOCK_RECORD
  5
CE
330
1
100
AcDbSymbolTableRecord
100
AcDbBlockTableRecord
  2
3_ASME_B18_3_10_1_0_in_069875_2
340
0
102
{BLKREFS
331
CF
102
}
 70
     0
280
     1
281
     0
  0
BLOCK_RECORD
  5
F2
330
1
100
AcDbSymbolTableRecord
100
AcDbBlockTableRecord
  2
4_ASME_B18_3_10_2_0_in_069875_2
340
0
102
{BLKREFS
331
F3
102
}
 70
     0
280
     1
281
     0
  0
BLOCK_RECORD
  5
116
330
1
100
AcDbSymbolTableRecord
100
AcDbBlockTableRecord
  2
5_070886LW_0_in_069875_2
340
0
102
{BLKREFS
331
117
102
}
 70
     0
280
     1
281
     0
  0
BLOCK_RECORD
  5
14C
330
1
100
AcDbSymbolTableRecord
100
AcDbBlockTableRecord
  2
6_070918I_0_in_069875_2
340
0
102
{BLKREFS
331
14D
102
}
 70
     0
280
     1
281
     0
  0
BLOCK_RECORD
  5
1D3
330
1
100
AcDbSymbolTableRecord
100
AcDbBlockTableRecord
  2
7_069875H_0_in_069875_2
340
0
102
{BLKREFS
331
1D4
102
}
 70
     0
280
     1
281
     0
  0
ENDTAB
  0
ENDSEC
  0
SECTION
  2
BLOCKS
  0
BLOCK
  5
20
330
1F
100
AcDbEntity
  8
0
100
AcDbBlockBegin
  2
*Model_Space
 70
     0
 10
0.0
 20
0.0
 30
0.0
  3
*Model_Space
  1

  0
ENDBLK
  5
21
330
1F
100
AcDbEntity
  8
0
100
AcDbBlockEnd
  0
BLOCK
  5
1C
330
1B
100
AcDbEntity
 67
     1
  8
0
100
AcDbBlockBegin
  2
*Paper_Space
 70
     0
 10
0.0
 20
0.0
 30
0.0
  3
*Paper_Space
  1

  0
ENDBLK
  5
1D
330
1B
100
AcDbEntity
 67
     1
  8
0
100
AcDbBlockEnd
  0
BLOCK
  5
24
330
23
100
AcDbEntity
  8
0
100
AcDbBlockBegin
  2
*Paper_Space0
 70
     0
 10
0.0
 20
0.0
 30
0.0
  3
*Paper_Space0
  1

  0
ENDBLK
  5
25
330
23
100
AcDbEntity
  8
0
100
AcDbBlockEnd
  0
BLOCK
  5
70
330
6E
100
AcDbEntity
  8
0
100
AcDbBlockBegin
  2
1_069875_2
 70
     2
 10
0.0
 20
0.0
 30
0.0
  3
1_069875_2
  1

  0
ATTDEF
  5
73
330
6E
100
AcDbEntity
  8
AM_6
100
AcDbText
 10
6.670625
 20
3.0625
 30
0.0
 40
0.5
  1
Imperial - IP Piloted Flange Labyrinth Seal
100
AcDbAttributeDefinition
  3

  2
NN
 70
     8
280
     0
  0
ATTDEF
  5
74
330
6E
100
AcDbEntity
  8
AM_6
100
AcDbText
 10
6.670625
 20
2.5625
 30
0.0
 40
0.5
  1
Imperial Piloted Flange Bearings
100
AcDbAttributeDefinition
  3

  2
NT
 70
     8
280
     0
  0
ATTDEF
  5
75
330
6E
100
AcDbEntity
  8
AM_6
100
AcDbText
 10
6.670625
 20
2.0625
 30
0.0
 40
0.5
  1
069875
100
AcDbAttributeDefinition
  3

  2
NB
 70
     8
280
     0
  0
ATTDEF
  5
76
330
6E
100
AcDbEntity
  8
AM_6
100
AcDbText
 10
6.670625
 20
1.5625
 30
0.0
 40
0.5
  1
$PN.
100
AcDbAttributeDefinition
  3

  2
NBSYN
 70
     8
280
     0
  0
ATTDEF
  5
77
330
6E
100
AcDbEntity
  8
AM_6
100
AcDbText
 10
6.670625
 20
1.0625
 30
0.0
 40
0.5
  1
069875
100
AcDbAttributeDefinition
  3

  2
LINA
 70
     8
280
     0
  0
ATTDEF
  5
78
330
6E
100
AcDbEntity
  8
AM_6
100
AcDbText
 10
6.670625
 20
0.5625
 30
0.0
 40
0.5
  1
1-5/8
100
AcDbAttributeDefinition
  3

  2
SS
 70
     8
280
     0
  0
ATTDEF
  5
79
330
6E
100
AcDbEntity
  8
AM_6
100
AcDbText
 10
6.670625
 20
0.0625
 30
0.0
 40
0.5
  1
069875
100
AcDbAttributeDefinition
  3

  2
PN
 70
     8
280
     0
  0
ATTDEF
  5
7A
330
6E
100
AcDbEntity
  8
AM_6
100
AcDbText
 10
6.670625
 20
-0.4375
 30
0.0
 40
0.5
  1
FC-IP-110L
100
AcDbAttributeDefinition
  3

  2
DESCRIPTION
 70
     8
280
     0
  0
ATTDEF
  5
7B
330
6E
100
AcDbEntity
  8
AM_6
100
AcDbText
 10
6.670625
 20
-0.9375
 30
0.0
 40
0.5
  1
Non-Expansion Type
100
AcDbAttributeDefinition
  3

  2
EF
 70
     8
280
     0
  0
ATTDEF
  5
7C
330
6E
100
AcDbEntity
  8
AM_6
100
AcDbText
 10
6.670625
 20
-1.4375
 30
0.0
 40
0.5
  1
Labyrinth Seal
100
AcDbAttributeDefinition
  3

  2
ST
 70
     8
280
     0
  0
ATTDEF
  5
7D
330
6E
100
AcDbEntity
  8
AM_6
100
AcDbText
 10
6.670625
 20
-1.9375
 30
0.0
 40
0.5
  1
2-13/16
100
AcDbAttributeDefinition
  3

  2
A
 70
     8
280
     0
  0
ATTDEF
  5
7E
330
6E
100
AcDbEntity
  8
AM_6
100
AcDbText
 10
6.670625
 20
-2.4375
 30
0.0
 40
0.5
  1
6-1/8
100
AcDbAttributeDefinition
  3

  2
B
 70
     8
280
     0
  0
ATTDEF
  5
7F
330
6E
100
AcDbEntity
  8
AM_6
100
AcDbText
 10
6.670625
 20
-2.9375
 30
0.0
 40
0.5
  1
1-29/32
100
AcDbAttributeDefinition
  3

  2
C
 70
     8
280
     0
  0
ATTDEF
  5
80
330
6E
100
AcDbEntity
  8
AM_6
100
AcDbText
 10
6.670625
 20
-3.4375
 30
0.0
 40
0.5
  1
3-5/8
100
AcDbAttributeDefinition
  3

  2
D
 70
     8
280
     0
  0
ATTDEF
  5
81
330
6E
100
AcDbEntity
  8
AM_6
100
AcDbText
 10
6.670625
 20
-3.9375
 30
0.0
 40
0.5
  1
5-1/8
100
AcDbAttributeDefinition
  3

  2
DD
 70
     8
280
     0
  0
ATTDEF
  5
82
330
6E
100
AcDbEntity
  8
AM_6
100
AcDbText
 10
6.670625
 20
-4.4375
 30
0.0
 40
0.5
  1
7/8
100
AcDbAttributeDefinition
  3

  2
E
 70
     8
280
     0
  0
ATTDEF
  5
83
330
6E
100
AcDbEntity
  8
AM_6
100
AcDbText
 10
6.670625
 20
-4.9375
 30
0.0
 40
0.5
  1
7/16
100
AcDbAttributeDefinition
  3

  2
F
 70
     8
280
     0
  0
ATTDEF
  5
84
330
6E
100
AcDbEntity
  8
AM_6
100
AcDbText
 10
6.670625
 20
-5.4375
 30
0.0
 40
0.5
  1
1-39/64
100
AcDbAttributeDefinition
  3

  2
G
 70
     8
280
     0
  0
ATTDEF
  5
85
330
6E
100
AcDbEntity
  8
AM_6
100
AcDbText
 10
6.670625
 20
-5.9375
 30
0.0
 40
0.5
  1
1/2
100
AcDbAttributeDefinition
  3

  2
H
 70
     8
280
     0
  0
ATTDEF
  5
86
330
6E
100
AcDbEntity
  8
AM_6
100
AcDbText
 10
6.670625
 20
-6.4375
 30
0.0
 40
0.5
  1
4.250
100
AcDbAttributeDefinition
  3

  2
K
 70
     8
280
     0
  0
ATTDEF
  5
87
330
6E
100
AcDbEntity
  8
AM_6
100
AcDbText
 10
6.670625
 20
-6.9375
 30
0.0
 40
0.5
  1
3
100
AcDbAttributeDefinition
  3

  2
L
 70
     8
280
     0
  0
ATTDEF
  5
88
330
6E
100
AcDbEntity
  8
AM_6
100
AcDbText
 10
6.670625
 20
-7.4375
 30
0.0
 40
0.5
  1
7/16-14
100
AcDbAttributeDefinition
  3

  2
M
 70
     8
280
     0
  0
ATTDEF
  5
89
330
6E
100
AcDbEntity
  8
AM_6
100
AcDbText
 10
6.670625
 20
-7.9375
 30
0.0
 40
0.5
  1
2-55/64
100
AcDbAttributeDefinition
  3

  2
N
 70
     8
280
     0
  0
ATTDEF
  5
8A
330
6E
100
AcDbEntity
  8
AM_6
100
AcDbText
 10
6.670625
 20
-8.4375
 30
0.0
 40
0.5
  1
1-13/64
100
AcDbAttributeDefinition
  3

  2
P
 70
     8
280
     0
  0
ATTDEF
  5
8B
330
6E
100
AcDbEntity
  8
AM_6
100
AcDbText
 10
6.670625
 20
-8.9375
 30
0.0
 40
0.5
  1
1-17/64
100
AcDbAttributeDefinition
  3

  2
Q
 70
     8
280
     0
  0
ATTDEF
  5
8C
330
6E
100
AcDbEntity
  8
AM_6
100
AcDbText
 10
6.670625
 20
-9.4375
 30
0.0
 40
0.5
  1
1/4
100
AcDbAttributeDefinition
  3

  2
X
 70
     8
280
     0
  0
ATTDEF
  5
8D
330
6E
100
AcDbEntity
  8
AM_6
100
AcDbText
 10
6.670625
 20
-9.9375
 30
0.0
 40
0.5
  1
0.020
100
AcDbAttributeDefinition
  3

  2
Y
 70
     8
280
     0
  0
ATTDEF
  5
8E
330
6E
100
AcDbEntity
  8
AM_6
100
AcDbText
 10
6.670625
 20
-10.4375
 30
0.0
 40
0.5
  1
2-5/64
100
AcDbAttributeDefinition
  3

  2
Z
 70
     8
280
     0
  0
ATTDEF
  5
8F
330
6E
100
AcDbEntity
  8
AM_6
100
AcDbText
 10
6.670625
 20
-10.9375
 30
0.0
 40
0.5
  1
baldor
100
AcDbAttributeDefinition
  3

  2
COMPANY
 70
     8
280
     0
  0
INSERT
  5
91
330
6E
100
AcDbEntity
  8
0
100
AcDbBlockReference
  2
2_405015E_Inch_0_in_069875_2
 10
0.0
 20
0.0
 30
0.0
  0
INSERT
  5
CF
330
6E
100
AcDbEntity
  8
0
100
AcDbBlockReference
  2
3_ASME_B18_3_10_1_0_in_069875_2
 10
0.0
 20
0.0
 30
0.0
  0
INSERT
  5
F3
330
6E
100
AcDbEntity
  8
0
100
AcDbBlockReference
  2
4_ASME_B18_3_10_2_0_in_069875_2
 10
0.0
 20
0.0
 30
0.0
  0
INSERT
  5
117
330
6E
100
AcDbEntity
  8
0
100
AcDbBlockReference
  2
5_070886LW_0_in_069875_2
 10
0.0
 20
0.0
 30
0.0
  0
INSERT
  5
14D
330
6E
100
AcDbEntity
  8
0
100
AcDbBlockReference
  2
6_070918I_0_in_069875_2
 10
0.0
 20
0.0
 30
0.0
  0
INSERT
  5
1D4
330
6E
100
AcDbEntity
  8
0
100
AcDbBlockReference
  2
7_069875H_0_in_069875_2
 10
0.0
 20
0.0
 30
0.0
  0
ENDBLK
  5
71
330
6E
100
AcDbEntity
  8
0
100
AcDbBlockEnd
  0
BLOCK
  5
92
330
90
100
AcDbEntity
  8
0
100
AcDbBlockBegin
  2
2_405015E_Inch_0_in_069875_2
 70
     2
 10
0.0
 20
0.0
 30
0.0
  3
2_405015E_Inch_0_in_069875_2
  1

  0
ATTDEF
  5
94
330
90
100
AcDbEntity
  8
AM_6
100
AcDbText
 10
4.790635668239011
 20
2.608943008863274
 30
0.0
 40
0.5
  1
405015E -Inch
100
AcDbAttributeDefinition
  3

  2
NN
 70
     8
280
     0
  0
ATTDEF
  5
95
330
90
100
AcDbEntity
  8
AM_6
100
AcDbText
 10
4.790635668239011
 20
2.108943008863274
 30
0.0
 40
0.5
  1
Grease Fitting
100
AcDbAttributeDefinition
  3

  2
NT
 70
     8
280
     0
  0
ATTDEF
  5
96
330
90
100
AcDbEntity
  8
AM_6
100
AcDbText
 10
4.790635668239011
 20
1.608943008863274
 30
0.0
 40
0.5
  1
405015E-Inch
100
AcDbAttributeDefinition
  3

  2
NB
 70
     8
280
     0
  0
ATTDEF
  5
97
330
90
100
AcDbEntity
  8
AM_6
100
AcDbText
 10
4.790635668239011
 20
1.108943008863274
 30
0.0
 40
0.5
  1
$MN.-Inch
100
AcDbAttributeDefinition
  3

  2
NBSYN
 70
     8
280
     0
  0
ATTDEF
  5
98
330
90
100
AcDbEntity
  8
AM_6
100
AcDbText
 10
4.790635668239011
 20
0.6089430088632737
 30
0.0
 40
0.5
  1
405015E
100
AcDbAttributeDefinition
  3

  2
LINA
 70
     8
280
     0
  0
ATTDEF
  5
99
330
90
100
AcDbEntity
  8
AM_6
100
AcDbText
 10
4.790635668239011
 20
0.1089430088632737
 30
0.0
 40
0.5
  1
405015E
100
AcDbAttributeDefinition
  3

  2
MN
 70
     8
280
     0
  0
ATTDEF
  5
9A
330
90
100
AcDbEntity
  8
AM_6
100
AcDbText
 10
4.790635668239011
 20
-0.3910569911367263
 30
0.0
 40
0.5
  1
1/8 x 27PTF
100
AcDbAttributeDefinition
  3

  2
T
 70
     8
280
     0
  0
ATTDEF
  5
9B
330
90
100
AcDbEntity
  8
AM_6
100
AcDbText
 10
4.790635668239011
 20
-0.8910569911367263
 30
0.0
 40
0.5
  1
baldor
100
AcDbAttributeDefinition
  3

  2
COMPANY
 70
     8
280
     0
  0
LINE
  5
9E
330
90
100
AcDbEntity
  8
AM_9
100
AcDbLine
 10
-0.371267204233258
 20
2.059809336875189
 30
0.0
 11
-0.209364331760989
 21
2.340233337888503
 31
0.0
  0
LINE
  5
9F
330
90
100
AcDbEntity
  8
AM_9
100
AcDbLine
 10
-0.209364331760989
 20
2.340233337888503
 30
0.0
 11
-0.2228028645317676
 21
2.390386624968228
 31
0.0
  0
LINE
  5
A0
330
90
100
AcDbEntity
  8
AM_9
100
AcDbLine
 10
-0.421420491312983
 20
2.04637080410441
 30
0.0
 11
-0.371267204233258
 21
2.059809336875189
 31
0.0
  0
LINE
  5
A1
330
90
100
AcDbEntity
  8
AM_9
100
AcDbLine
 10
-0.421420491312983
 20
2.04637080410441
 30
0.0
 11
-0.2228028645317676
 21
2.390386624968228
 31
0.0
  0
LINE
  5
A2
330
90
100
AcDbEntity
  8
AM_9
100
AcDbLine
 10
-0.2228028645317676
 20
2.390386624968228
 30
0.0
 11
-0.416936551388465
 21
2.510707707253869
 31
0.0
  0
LINE
  5
A3
330
90
100
AcDbEntity
  8
AM_9
100
AcDbLine
 10
-0.6226884486115345
 20
2.154334967509823
 30
0.0
 11
-0.421420491312983
 21
2.04637080410441
 31
0.0
  0
LWPOLYLINE
  5
A4
330
90
100
AcDbEntity
  8
AM_9
100
AcDbPolyline
 90
        3
 70
     0
 43
0.0
 10
-0.4402466044175976
 20
2.474963421365021
 10
-0.4519047266886991
 20
2.451370174614343
 10
-0.4651249999999998
 20
2.427242865920769
  0
LWPOLYLINE
  5
A5
330
90
100
AcDbEntity
  8
AM_9
100
AcDbPolyline
 90
        4
 70
     0
 43
0.0
 10
-0.4651249999999998
 20
2.427242865920769
 10
-0.4793229109580774
 20
2.403866190788038
 10
-0.4945603825458295
 20
2.381051699893197
 10
-0.499779845574854
 20
2.373672630238748
  0
LINE
  5
A7
330
90
100
AcDbEntity
  8
AM_5
100
AcDbLine
 10
-0.5474829038700914
 20
2.154334967509823
 30
0.0
 11
-0.3712672042332588
 21
2.059809336875189
 31
0.0
  0
LINE
  5
A8
330
90
100
AcDbEntity
  8
AM_5
100
AcDbLine
 10
-0.6226884486115347
 20
2.154334967509823
 30
0.0
 11
-0.5474829038700914
 21
2.154334967509823
 31
0.0
  0
LINE
  5
A9
330
90
100
AcDbEntity
  8
AM_5
100
AcDbLine
 10
-0.3793337790177435
 20
2.445577795002332
 30
0.0
 11
-0.2093643317609891
 21
2.340233337888503
 31
0.0
  0
LINE
  5
AA
330
90
100
AcDbEntity
  8
AM_5
100
AcDbLine
 10
-0.4169365513884656
 20
2.51070770725387
 30
0.0
 11
-0.3793337790177436
 21
2.445577795002332
 31
0.0
  0
LINE
  5
AB
330
90
100
AcDbEntity
  8
AM_5
100
AcDbLine
 10
-0.5652665843196958
 20
2.123532729425539
 30
0.0
 11
-0.3615500985681392
 21
2.476380033086616
 31
0.0
  0
LINE
  5
AE
330
90
100
AcDbEntity
  8
AM_7
100
AcDbLine
 10
-0.8722848393402663
 20
2.536021337381846
 30
0.0
 11
-0.2626029550760215
 21
2.184021337381846
 31
0.0
  0
LINE
  5
B0
330
90
100
AcDbEntity
  8
AM_4
100
AcDbLine
 10
-0.6448477077758097
 20
2.525954004779212
 30
0.0
 11
-0.6708284698893429
 21
2.540954004779212
 31
0.0
  0
LINE
  5
B1
330
90
100
AcDbEntity
  8
AM_4
100
AcDbLine
 10
-0.7758284698893428
 20
2.35908866998448
 30
0.0
 11
-0.7498477077758098
 21
2.34408866998448
 31
0.0
  0
LINE
  5
B2
330
90
100
AcDbEntity
  8
AM_4
100
AcDbLine
 10
-0.7498477077758098
 20
2.34408866998448
 30
0.0
 11
-0.6448477077758097
 21
2.525954004779212
 31
0.0
  0
LINE
  5
B3
330
90
100
AcDbEntity
  8
AM_4
100
AcDbLine
 10
-0.7498477077758098
 20
2.34408866998448
 30
0.0
 11
-0.728831137272195
 21
2.315996681134739
 31
0.0
  0
LINE
  5
B4
330
90
100
AcDbEntity
  8
AM_4
100
AcDbLine
 10
-0.6100110465372974
 20
2.521799115247525
 30
0.0
 11
-0.6448477077758097
 21
2.525954004779212
 31
0.0
  0
LINE
  5
B5
330
90
100
AcDbEntity
  8
AM_4
100
AcDbLine
 10
-0.7758284698893428
 20
2.35908866998448
 30
0.0
 11
-0.6708284698893429
 21
2.540954004779212
 31
0.0
  0
LINE
  5
B6
330
90
100
AcDbEntity
  8
AM_4
100
AcDbLine
 10
-0.6708284698893429
 20
2.540954004779212
 30
0.0
 11
-0.7077899941164091
 21
2.596934766892745
 31
0.0
  0
LINE
  5
B7
330
90
100
AcDbEntity
  8
AM_4
100
AcDbLine
 10
-0.8427899941164092
 20
2.363107907870947
 30
0.0
 11
-0.7758284698893428
 21
2.35908866998448
 31
0.0
  0
LINE
  5
B8
330
90
100
AcDbEntity
  8
AM_4
100
AcDbLine
 10
-0.895910977385758
 20
2.431099665900418
 30
0.0
 11
-0.7932330754525705
 21
2.608943008863274
 31
0.0
  0
LINE
  5
B9
330
90
100
AcDbEntity
  8
AM_4
100
AcDbLine
 10
-0.8427899941164092
 20
2.363107907870947
 30
0.0
 11
-0.7077899941164091
 21
2.596934766892745
 31
0.0
  0
LINE
  5
BA
330
90
100
AcDbEntity
  8
AM_4
100
AcDbLine
 10
-0.895910977385758
 20
2.431099665900418
 30
0.0
 11
-0.8427899941164092
 21
2.363107907870947
 31
0.0
  0
LINE
  5
BB
330
90
100
AcDbEntity
  8
AM_4
100
AcDbLine
 10
-0.7077899941164091
 20
2.596934766892745
 30
0.0
 11
-0.7932330754525705
 21
2.608943008863274
 31
0.0
  0
LINE
  5
BC
330
90
100
AcDbEntity
  8
AM_4
100
AcDbLine
 10
-0.7288311372721951
 20
2.315996681134739
 30
0.0
 11
-0.6100110465372974
 21
2.521799115247525
 31
0.0
  0
LINE
  5
BD
330
90
100
AcDbEntity
  8
AM_4
100
AcDbLine
 10
-0.7288311372721951
 20
2.315996681134739
 30
0.0
 11
-0.7085460923079222
 21
2.242261563491298
 31
0.0
  0
LINE
  5
BE
330
90
100
AcDbEntity
  8
AM_4
100
AcDbLine
 10
-0.5360120390249068
 20
2.541099309813276
 30
0.0
 11
-0.6100110465372974
 21
2.521799115247525
 31
0.0
  0
LINE
  5
BF
330
90
100
AcDbEntity
  8
AM_4
100
AcDbLine
 10
-0.7157900403784435
 20
2.193078280304
 30
0.0
 11
-0.6291874999999998
 21
2.143078280304
 31
0.0
  0
LINE
  5
C0
330
90
100
AcDbEntity
  8
AM_4
100
AcDbLine
 10
-0.7157900403784435
 20
2.193078280304
 30
0.0
 11
-0.4970400403784436
 21
2.571964394459692
 31
0.0
  0
LINE
  5
C1
330
90
100
AcDbEntity
  8
AM_4
100
AcDbLine
 10
-0.4104374999999997
 20
2.521964394459692
 30
0.0
 11
-0.4970400403784436
 21
2.571964394459692
 31
0.0
  0
LINE
  5
C2
330
90
100
AcDbEntity
  8
AM_4
100
AcDbLine
 10
-0.7085460923079222
 20
2.242261563491298
 30
0.0
 11
-0.5360120390249068
 21
2.541099309813276
 31
0.0
  0
LINE
  5
C3
330
90
100
AcDbEntity
  8
AM_4
100
AcDbLine
 10
-0.7085460923079222
 20
2.242261563491298
 30
0.0
 11
-0.7132900403784437
 21
2.197408407322922
 31
0.0
  0
LINE
  5
C4
330
90
100
AcDbEntity
  8
AM_4
100
AcDbLine
 10
-0.4995400403784436
 20
2.56763426744077
 30
0.0
 11
-0.5360120390249068
 21
2.541099309813276
 31
0.0
  0
LWPOLYLINE
  5
C5
330
90
100
AcDbEntity
  8
AM_4
100
AcDbPolyline
 90
        4
 70
     0
 43
0.0
 10
-0.7079372686898275
 20
2.188544480455693
 10
-0.692164657038139
 20
2.226555818980035
 10
-0.6743228136897443
 20
2.263672500149348
 10
-0.6611025403784435
 20
2.287799808842923
  0
LWPOLYLINE
  5
C6
330
90
100
AcDbEntity
  8
AM_4
100
AcDbPolyline
 90
        4
 70
     0
 43
0.0
 10
-0.5744999999999998
 20
2.237799808842923
 10
-0.5886979109580774
 20
2.214423133710192
 10
-0.6039164785607692
 20
2.191635734965979
 10
-0.637040271688616
 20
2.147612080152307
  0
LWPOLYLINE
  5
C7
330
90
100
AcDbEntity
  8
AM_4
100
AcDbPolyline
 90
        4
 70
     0
 43
0.0
 10
-0.5517275403784436
 20
2.477242865920769
 10
-0.5375296294203659
 20
2.5006195410535
 10
-0.522292157832614
 20
2.523434031948341
 10
-0.4891872686898274
 20
2.567430594611384
  0
LINE
  5
C8
330
90
100
AcDbEntity
  8
AM_4
100
AcDbLine
 10
-0.5985622686898274
 20
2.377987537533539
 30
0.0
 11
-0.527665271688616
 21
2.337055137230153
 31
0.0
  0
LWPOLYLINE
  5
C9
330
90
100
AcDbEntity
  8
AM_4
100
AcDbPolyline
 90
        3
 70
     0
 43
0.0
 10
-0.4182902716886159
 20
2.526498194307999
 10
-0.4340628833403044
 20
2.488486855783656
 10
-0.4402466044175976
 20
2.474963421365021
  0
LINE
  5
CA
330
90
100
AcDbEntity
  8
AM_4
100
AcDbLine
 10
-0.499779845574854
 20
2.373672630238748
 30
0.0
 11
-0.527665271688616
 21
2.337055137230153
 31
0.0
  0
LWPOLYLINE
  5
CB
330
90
100
AcDbEntity
  8
AM_4
100
AcDbPolyline
 90
        4
 70
     0
 43
0.0
 10
-0.527665271688616
 20
2.337055137230153
 10
-0.5434378833403044
 20
2.299043798705811
 10
-0.5612797266886991
 20
2.261927117536497
 10
-0.5744999999999998
 20
2.237799808842923
  0
LWPOLYLINE
  5
CC
330
90
100
AcDbEntity
  8
AM_4
100
AcDbPolyline
 90
        4
 70
     0
 43
0.0
 10
-0.6611025403784435
 20
2.287799808842923
 10
-0.6469046294203659
 20
2.311176483975654
 10
-0.6316671578326138
 20
2.333990974870495
 10
-0.5985622686898274
 20
2.377987537533539
  0
LWPOLYLINE
  5
CD
330
90
100
AcDbEntity
  8
AM_4
100
AcDbPolyline
 90
        4
 70
     0
 43
0.0
 10
-0.5985622686898274
 20
2.377987537533539
 10
-0.582789657038139
 20
2.415998876057881
 10
-0.5649478136897443
 20
2.453115557227195
 10
-0.5517275403784436
 20
2.477242865920769
  0
ENDBLK
  5
93
330
90
100
AcDbEntity
  8
0
100
AcDbBlockEnd
  0
BLOCK
  5
D0
330
CE
100
AcDbEntity
  8
0
100
AcDbBlockBegin
  2
3_ASME_B18_3_10_1_0_in_069875_2
 70
     2
 10
0.0
 20
0.0
 30
0.0
  3
3_ASME_B18_3_10_1_0_in_069875_2
  1

  0
ATTDEF
  5
D2
330
CE
100
AcDbEntity
  8
AM_6
100
AcDbText
 10
4.36525
 20
-1.020888888888889
 30
0.0
 40
0.5
  1
ANSI/ASME B18.3-1998
100
AcDbAttributeDefinition
  3

  2
NN
 70
     8
280
     0
  0
ATTDEF
  5
D3
330
CE
100
AcDbEntity
  8
AM_6
100
AcDbText
 10
4.36525
 20
-1.520888888888889
 30
0.0
 40
0.5
  1
Socket Button Head Cap Screws
100
AcDbAttributeDefinition
  3

  2
NT
 70
     8
280
     0
  0
ATTDEF
  5
D4
330
CE
100
AcDbEntity
  8
AM_6
100
AcDbText
 10
4.36525
 20
-2.020888888888889
 30
0.0
 40
0.5
  1
ASME B18.3-10
100
AcDbAttributeDefinition
  3

  2
NB
 70
     8
280
     0
  0
ATTDEF
  5
D5
330
CE
100
AcDbEntity
  8
AM_6
100
AcDbText
 10
4.36525
 20
-2.520888888888889
 30
0.0
 40
0.5
  1
ASME B18.3-$NS.
100
AcDbAttributeDefinition
  3

  2
NBSYN
 70
     8
280
     0
  0
ATTDEF
  5
D6
330
CE
100
AcDbEntity
  8
AM_6
100
AcDbText
 10
4.36525
 20
-3.020888888888889
 30
0.0
 40
0.5
  1
ASME B18.3-10
100
AcDbAttributeDefinition
  3

  2
LINA
 70
     8
280
     0
  0
ATTDEF
  5
D7
330
CE
100
AcDbEntity
  8
AM_6
100
AcDbText
 10
4.36525
 20
-3.520888888888889
 30
0.0
 40
0.5
  1
10
100
AcDbAttributeDefinition
  3

  2
NS
 70
     8
280
     0
  0
ATTDEF
  5
D8
330
CE
100
AcDbEntity
  8
AM_6
100
AcDbText
 10
4.36525
 20
-4.020888888888889
 30
0.0
 40
0.5
  1
0.361
100
AcDbAttributeDefinition
  3

  2
A
 70
     8
280
     0
  0
ATTDEF
  5
D9
330
CE
100
AcDbEntity
  8
AM_6
100
AcDbText
 10
4.36525
 20
-4.520888888888889
 30
0.0
 40
0.5
  1
0.101
100
AcDbAttributeDefinition
  3

  2
H
 70
     8
280
     0
  0
ATTDEF
  5
DA
330
CE
100
AcDbEntity
  8
AM_6
100
AcDbText
 10
4.36525
 20
-5.020888888888889
 30
0.0
 40
0.5
  1
0.800
100
AcDbAttributeDefinition
  3

  2
L
 70
     8
280
     0
  0
ATTDEF
  5
DB
330
CE
100
AcDbEntity
  8
AM_6
100
AcDbText
 10
4.36525
 20
-5.520888888888889
 30
0.0
 40
0.5
  1
0.020
100
AcDbAttributeDefinition
  3

  2
S
 70
     8
280
     0
  0
ATTDEF
  5
DC
330
CE
100
AcDbEntity
  8
AM_6
100
AcDbText
 10
4.36525
 20
-6.020888888888889
 30
0.0
 40
0.5
  1
0.125000
100
AcDbAttributeDefinition
  3

  2
J
 70
     8
280
     0
  0
ATTDEF
  5
DD
330
CE
100
AcDbEntity
  8
AM_6
100
AcDbText
 10
4.36525
 20
-6.520888888888889
 30
0.0
 40
0.5
  1
baldor
100
AcDbAttributeDefinition
  3

  2
COMPANY
 70
     8
280
     0
  0
LINE
  5
DE
330
CE
100
AcDbEntity
  8
AM_9
100
AcDbLine
 10
-1.47475
 20
-1.129220105240186
 30
0.0
 11
-1.53575
 21
-1.129220105240186
 31
0.0
  0
LINE
  5
DF
330
CE
100
AcDbEntity
  8
AM_9
100
AcDbLine
 10
-1.47475
 20
-1.273557672537592
 30
0.0
 11
-1.53575
 21
-1.273557672537592
 31
0.0
  0
LINE
  5
E0
330
CE
100
AcDbEntity
  8
AM_9
100
AcDbLine
 10
-1.47475
 20
-1.165304497064537
 30
0.0
 11
-1.53575
 21
-1.165304497064537
 31
0.0
  0
LINE
  5
E1
330
CE
100
AcDbEntity
  8
AM_9
100
AcDbLine
 10
-1.47475
 20
-1.129220105240186
 30
0.0
 11
-1.47475
 21
-1.273557672537592
 31
0.0
  0
LINE
  5
E2
330
CE
100
AcDbEntity
  8
AM_9
100
AcDbLine
 10
-1.47475
 20
-1.23747328071324
 30
0.0
 11
-1.53575
 21
-1.23747328071324
 31
0.0
  0
LINE
  5
E3
330
CE
100
AcDbEntity
  8
AM_9
100
AcDbLine
 10
-0.6347499999999999
 20
-1.124988888888889
 30
0.0
 11
-0.6347499999999999
 21
-1.277788888888889
 31
0.0
  0
LINE
  5
E4
330
CE
100
AcDbEntity
  8
AM_9
100
AcDbLine
 10
-0.6347499999999999
 20
-1.124988888888889
 30
0.0
 11
-0.65335
 21
-1.106388888888889
 31
0.0
  0
LINE
  5
E5
330
CE
100
AcDbEntity
  8
AM_9
100
AcDbLine
 10
-0.65335
 20
-1.296388888888889
 30
0.0
 11
-0.6347499999999999
 21
-1.277788888888889
 31
0.0
  0
LINE
  5
E6
330
CE
100
AcDbEntity
  8
AM_9
100
AcDbLine
 10
-0.65335
 20
-1.106388888888889
 30
0.0
 11
-0.65335
 21
-1.296388888888889
 31
0.0
  0
LINE
  5
E7
330
CE
100
AcDbEntity
  8
AM_9
100
AcDbLine
 10
-1.43475
 20
-1.296388888888889
 30
0.0
 11
-0.65335
 21
-1.296388888888889
 31
0.0
  0
LINE
  5
E8
330
CE
100
AcDbEntity
  8
AM_9
100
AcDbLine
 10
-0.65335
 20
-1.106388888888889
 30
0.0
 11
-1.43475
 21
-1.106388888888889
 31
0.0
  0
LINE
  5
E9
330
CE
100
AcDbEntity
  8
AM_5
100
AcDbLine
 10
-1.35475
 20
-1.277788888888889
 30
0.0
 11
-1.386966145020781
 21
-1.296388888888889
 31
0.0
  0
LINE
  5
EA
330
CE
100
AcDbEntity
  8
AM_5
100
AcDbLine
 10
-1.35475
 20
-1.106388888888889
 30
0.0
 11
-1.35475
 21
-1.296389005689807
 31
0.0
  0
LINE
  5
EB
330
CE
100
AcDbEntity
  8
AM_5
100
AcDbLine
 10
-1.35475
 20
-1.124988888888889
 30
0.0
 11
-1.386966145020781
 21
-1.106388888888889
 31
0.0
  0
LINE
  5
EC
330
CE
100
AcDbEntity
  8
AM_4
100
AcDbLine
 10
-1.53575
 20
-1.101888888888889
 30
0.0
 11
-1.53575
 21
-1.300888888888889
 31
0.0
  0
ARC
  5
ED
330
CE
100
AcDbEntity
  8
AM_4
100
AcDbCircle
 10
-1.45475
 20
-1.300888888888888
 30
0.0
 40
0.0810000000000006
100
AcDbArc
 50
180.0
 51
270.0
  0
ARC
  5
EE
330
CE
100
AcDbEntity
  8
AM_4
100
AcDbCircle
 10
-1.45475
 20
-1.101888888888889
 30
0.0
 40
0.0810000000000002
100
AcDbArc
 50
90.0
 51
179.9999991462263
  0
LINE
  5
EF
330
CE
100
AcDbEntity
  8
AM_4
100
AcDbLine
 10
-1.45475
 20
-1.020888888888889
 30
0.0
 11
-1.45475
 21
-1.381888888888889
 31
0.0
  0
LINE
  5
F0
330
CE
100
AcDbEntity
  8
AM_4
100
AcDbLine
 10
-1.45475
 20
-1.381888888888889
 30
0.0
 11
-1.43475
 21
-1.381888888888889
 31
0.0
  0
LINE
  5
F1
330
CE
100
AcDbEntity
  8
AM_4
100
AcDbLine
 10
-1.43475
 20
-1.020888888888889
 30
0.0
 11
-1.45475
 21
-1.020888888888889
 31
0.0
  0
ENDBLK
  5
D1
330
CE
100
AcDbEntity
  8
0
100
AcDbBlockEnd
  0
BLOCK
  5
F4
330
F2
100
AcDbEntity
  8
0
100
AcDbBlockBegin
  2
4_ASME_B18_3_10_2_0_in_069875_2
 70
     2
 10
0.0
 20
0.0
 30
0.0
  3
4_ASME_B18_3_10_2_0_in_069875_2
  1

  0
ATTDEF
  5
F6
330
F2
100
AcDbEntity
  8
AM_6
100
AcDbText
 10
4.36525
 20
1.381888888888889
 30
0.0
 40
0.5
  1
ANSI/ASME B18.3-1998
100
AcDbAttributeDefinition
  3

  2
NN
 70
     8
280
     0
  0
ATTDEF
  5
F7
330
F2
100
AcDbEntity
  8
AM_6
100
AcDbText
 10
4.36525
 20
0.8818888888888889
 30
0.0
 40
0.5
  1
Socket Button Head Cap Screws
100
AcDbAttributeDefinition
  3

  2
NT
 70
     8
280
     0
  0
ATTDEF
  5
F8
330
F2
100
AcDbEntity
  8
AM_6
100
AcDbText
 10
4.36525
 20
0.3818888888888889
 30
0.0
 40
0.5
  1
ASME B18.3-10
100
AcDbAttributeDefinition
  3

  2
NB
 70
     8
280
     0
  0
ATTDEF
  5
F9
330
F2
100
AcDbEntity
  8
AM_6
100
AcDbText
 10
4.36525
 20
-0.1181111111111111
 30
0.0
 40
0.5
  1
ASME B18.3-$NS.
100
AcDbAttributeDefinition
  3

  2
NBSYN
 70
     8
280
     0
  0
ATTDEF
  5
FA
330
F2
100
AcDbEntity
  8
AM_6
100
AcDbText
 10
4.36525
 20
-0.6181111111111111
 30
0.0
 40
0.5
  1
ASME B18.3-10
100
AcDbAttributeDefinition
  3

  2
LINA
 70
     8
280
     0
  0
ATTDEF
  5
FB
330
F2
100
AcDbEntity
  8
AM_6
100
AcDbText
 10
4.36525
 20
-1.118111111111111
 30
0.0
 40
0.5
  1
10
100
AcDbAttributeDefinition
  3

  2
NS
 70
     8
280
     0
  0
ATTDEF
  5
FC
330
F2
100
AcDbEntity
  8
AM_6
100
AcDbText
 10
4.36525
 20
-1.618111111111111
 30
0.0
 40
0.5
  1
0.361
100
AcDbAttributeDefinition
  3

  2
A
 70
     8
280
     0
  0
ATTDEF
  5
FD
330
F2
100
AcDbEntity
  8
AM_6
100
AcDbText
 10
4.36525
 20
-2.118111111111111
 30
0.0
 40
0.5
  1
0.101
100
AcDbAttributeDefinition
  3

  2
H
 70
     8
280
     0
  0
ATTDEF
  5
FE
330
F2
100
AcDbEntity
  8
AM_6
100
AcDbText
 10
4.36525
 20
-2.618111111111111
 30
0.0
 40
0.5
  1
0.800
100
AcDbAttributeDefinition
  3

  2
L
 70
     8
280
     0
  0
ATTDEF
  5
FF
330
F2
100
AcDbEntity
  8
AM_6
100
AcDbText
 10
4.36525
 20
-3.118111111111111
 30
0.0
 40
0.5
  1
0.020
100
AcDbAttributeDefinition
  3

  2
S
 70
     8
280
     0
  0
ATTDEF
  5
100
330
F2
100
AcDbEntity
  8
AM_6
100
AcDbText
 10
4.36525
 20
-3.618111111111111
 30
0.0
 40
0.5
  1
0.125000
100
AcDbAttributeDefinition
  3

  2
J
 70
     8
280
     0
  0
ATTDEF
  5
101
330
F2
100
AcDbEntity
  8
AM_6
100
AcDbText
 10
4.36525
 20
-4.118111111111111
 30
0.0
 40
0.5
  1
baldor
100
AcDbAttributeDefinition
  3

  2
COMPANY
 70
     8
280
     0
  0
LINE
  5
102
330
F2
100
AcDbEntity
  8
AM_9
100
AcDbLine
 10
-1.47475
 20
1.273557672537592
 30
0.0
 11
-1.53575
 21
1.273557672537592
 31
0.0
  0
LINE
  5
103
330
F2
100
AcDbEntity
  8
AM_9
100
AcDbLine
 10
-1.47475
 20
1.129220105240186
 30
0.0
 11
-1.53575
 21
1.129220105240186
 31
0.0
  0
LINE
  5
104
330
F2
100
AcDbEntity
  8
AM_9
100
AcDbLine
 10
-1.47475
 20
1.273557672537592
 30
0.0
 11
-1.47475
 21
1.129220105240186
 31
0.0
  0
LINE
  5
105
330
F2
100
AcDbEntity
  8
AM_9
100
AcDbLine
 10
-1.47475
 20
1.23747328071324
 30
0.0
 11
-1.53575
 21
1.23747328071324
 31
0.0
  0
LINE
  5
106
330
F2
100
AcDbEntity
  8
AM_9
100
AcDbLine
 10
-1.47475
 20
1.165304497064537
 30
0.0
 11
-1.53575
 21
1.165304497064537
 31
0.0
  0
LINE
  5
107
330
F2
100
AcDbEntity
  8
AM_9
100
AcDbLine
 10
-0.6347499999999999
 20
1.277788888888889
 30
0.0
 11
-0.6347499999999999
 21
1.124988888888889
 31
0.0
  0
LINE
  5
108
330
F2
100
AcDbEntity
  8
AM_9
100
AcDbLine
 10
-0.6347499999999999
 20
1.277788888888889
 30
0.0
 11
-0.65335
 21
1.296388888888889
 31
0.0
  0
LINE
  5
109
330
F2
100
AcDbEntity
  8
AM_9
100
AcDbLine
 10
-0.65335
 20
1.106388888888889
 30
0.0
 11
-0.6347499999999999
 21
1.124988888888889
 31
0.0
  0
LINE
  5
10A
330
F2
100
AcDbEntity
  8
AM_9
100
AcDbLine
 10
-0.65335
 20
1.296388888888889
 30
0.0
 11
-0.65335
 21
1.106388888888889
 31
0.0
  0
LINE
  5
10B
330
F2
100
AcDbEntity
  8
AM_9
100
AcDbLine
 10
-1.43475
 20
1.106388888888889
 30
0.0
 11
-0.65335
 21
1.106388888888889
 31
0.0
  0
LINE
  5
10C
330
F2
100
AcDbEntity
  8
AM_9
100
AcDbLine
 10
-0.65335
 20
1.296388888888889
 30
0.0
 11
-1.43475
 21
1.296388888888889
 31
0.0
  0
LINE
  5
10D
330
F2
100
AcDbEntity
  8
AM_5
100
AcDbLine
 10
-1.35475
 20
1.124988888888889
 30
0.0
 11
-1.386966145020782
 21
1.106388888888889
 31
0.0
  0
LINE
  5
10E
330
F2
100
AcDbEntity
  8
AM_5
100
AcDbLine
 10
-1.35475
 20
1.296389005689807
 30
0.0
 11
-1.35475
 21
1.106388888888889
 31
0.0
  0
LINE
  5
10F
330
F2
100
AcDbEntity
  8
AM_5
100
AcDbLine
 10
-1.35475
 20
1.277788888888889
 30
0.0
 11
-1.386966145020781
 21
1.296388888888889
 31
0.0
  0
LINE
  5
110
330
F2
100
AcDbEntity
  8
AM_4
100
AcDbLine
 10
-1.53575
 20
1.300888888888889
 30
0.0
 11
-1.53575
 21
1.101888888888889
 31
0.0
  0
ARC
  5
111
330
F2
100
AcDbEntity
  8
AM_4
100
AcDbCircle
 10
-1.45475
 20
1.101888888888889
 30
0.0
 40
0.0810000000000002
100
AcDbArc
 50
179.9999991462263
 51
270.0
  0
ARC
  5
112
330
F2
100
AcDbEntity
  8
AM_4
100
AcDbCircle
 10
-1.45475
 20
1.300888888888888
 30
0.0
 40
0.0810000000000006
100
AcDbArc
 50
90.0
 51
180.0
  0
LINE
  5
113
330
F2
100
AcDbEntity
  8
AM_4
100
AcDbLine
 10
-1.45475
 20
1.381888888888889
 30
0.0
 11
-1.45475
 21
1.020888888888889
 31
0.0
  0
LINE
  5
114
330
F2
100
AcDbEntity
  8
AM_4
100
AcDbLine
 10
-1.45475
 20
1.020888888888889
 30
0.0
 11
-1.43475
 21
1.020888888888889
 31
0.0
  0
LINE
  5
115
330
F2
100
AcDbEntity
  8
AM_4
100
AcDbLine
 10
-1.43475
 20
1.381888888888889
 30
0.0
 11
-1.45475
 21
1.381888888888889
 31
0.0
  0
ENDBLK
  5
F5
330
F2
100
AcDbEntity
  8
0
100
AcDbBlockEnd
  0
BLOCK
  5
118
330
116
100
AcDbEntity
  8
0
100
AcDbBlockBegin
  2
5_070886LW_0_in_069875_2
 70
     2
 10
0.0
 20
0.0
 30
0.0
  3
5_070886LW_0_in_069875_2
  1

  0
ATTDEF
  5
11A
330
116
100
AcDbEntity
  8
AM_6
100
AcDbText
 10
4.00525
 20
1.5
 30
0.0
 40
0.5
  1
Imperial Insert Lockwasher -Inch
100
AcDbAttributeDefinition
  3

  2
NN
 70
     8
280
     0
  0
ATTDEF
  5
11B
330
116
100
AcDbEntity
  8
AM_6
100
AcDbText
 10
4.00525
 20
0.9999999999999998
 30
0.0
 40
0.5
  1
Imperial Bearings
100
AcDbAttributeDefinition
  3

  2
NT
 70
     8
280
     0
  0
ATTDEF
  5
11C
330
116
100
AcDbEntity
  8
AM_6
100
AcDbText
 10
4.00525
 20
0.4999999999999998
 30
0.0
 40
0.5
  1
070886LW
100
AcDbAttributeDefinition
  3

  2
NB
 70
     8
280
     0
  0
ATTDEF
  5
11D
330
116
100
AcDbEntity
  8
AM_6
100
AcDbText
 10
4.00525
 20
-0.0000000000000002
 30
0.0
 40
0.5
  1
$PN.LW
100
AcDbAttributeDefinition
  3

  2
NBSYN
 70
     8
280
     0
  0
ATTDEF
  5
11E
330
116
100
AcDbEntity
  8
AM_6
100
AcDbText
 10
4.00525
 20
-0.5000000000000002
 30
0.0
 40
0.5
  1
070886
100
AcDbAttributeDefinition
  3

  2
LINA
 70
     8
280
     0
  0
ATTDEF
  5
11F
330
116
100
AcDbEntity
  8
AM_6
100
AcDbText
 10
4.00525
 20
-1.0
 30
0.0
 40
0.5
  1
1-5/8
100
AcDbAttributeDefinition
  3

  2
SS
 70
     8
280
     0
  0
ATTDEF
  5
120
330
116
100
AcDbEntity
  8
AM_6
100
AcDbText
 10
4.00525
 20
-1.5
 30
0.0
 40
0.5
  1
1.625000
100
AcDbAttributeDefinition
  3

  2
SS1
 70
     8
280
     0
  0
ATTDEF
  5
121
330
116
100
AcDbEntity
  8
AM_6
100
AcDbText
 10
4.00525
 20
-2.0
 30
0.0
 40
0.5
  1
070886
100
AcDbAttributeDefinition
  3

  2
PN
 70
     8
280
     0
  0
ATTDEF
  5
122
330
116
100
AcDbEntity
  8
AM_6
100
AcDbText
 10
4.00525
 20
-2.5
 30
0.0
 40
0.5
  1
INS-IP-110R
100
AcDbAttributeDefinition
  3

  2
DESCRIPTION
 70
     8
280
     0
  0
ATTDEF
  5
123
330
116
100
AcDbEntity
  8
AM_6
100
AcDbText
 10
4.00525
 20
-3.0
 30
0.0
 40
0.5
  1
3.3465
100
AcDbAttributeDefinition
  3

  2
A
 70
     8
280
     0
  0
ATTDEF
  5
124
330
116
100
AcDbEntity
  8
AM_6
100
AcDbText
 10
4.00525
 20
-3.5
 30
0.0
 40
0.5
  1
61/64
100
AcDbAttributeDefinition
  3

  2
B
 70
     8
280
     0
  0
ATTDEF
  5
125
330
116
100
AcDbEntity
  8
AM_6
100
AcDbText
 10
4.00525
 20
-4.0
 30
0.0
 40
0.5
  1
2-13/16
100
AcDbAttributeDefinition
  3

  2
C
 70
     8
280
     0
  0
ATTDEF
  5
126
330
116
100
AcDbEntity
  8
AM_6
100
AcDbText
 10
4.00525
 20
-4.5
 30
0.0
 40
0.5
  1
0.954
100
AcDbAttributeDefinition
  3

  2
D
 70
     8
280
     0
  0
ATTDEF
  5
127
330
116
100
AcDbEntity
  8
AM_6
100
AcDbText
 10
4.00525
 20
-5.0
 30
0.0
 40
0.5
  1
3
100
AcDbAttributeDefinition
  3

  2
E
 70
     8
280
     0
  0
ATTDEF
  5
128
330
116
100
AcDbEntity
  8
AM_6
100
AcDbText
 10
4.00525
 20
-5.5
 30
0.0
 40
0.5
  1
0.1900
100
AcDbAttributeDefinition
  3

  2
NDM
 70
     8
280
     0
  0
ATTDEF
  5
129
330
116
100
AcDbEntity
  8
AM_6
100
AcDbText
 10
4.00525
 20
-6.0
 30
0.0
 40
0.5
  1
0.1450
100
AcDbAttributeDefinition
  3

  2
KDM
 70
     8
280
     0
  0
ATTDEF
  5
12A
330
116
100
AcDbEntity
  8
AM_6
100
AcDbText
 10
4.00525
 20
-6.5
 30
0.0
 40
0.5
  1
2.42
100
AcDbAttributeDefinition
  3

  2
AL
 70
     8
280
     0
  0
ATTDEF
  5
12B
330
116
100
AcDbEntity
  8
AM_6
100
AcDbText
 10
4.00525
 20
-7.0
 30
0.0
 40
0.5
  1
0.38
100
AcDbAttributeDefinition
  3

  2
BL
 70
     8
280
     0
  0
ATTDEF
  5
12C
330
116
100
AcDbEntity
  8
AM_6
100
AcDbText
 10
4.00525
 20
-7.5
 30
0.0
 40
0.5
  1
0.07
100
AcDbAttributeDefinition
  3

  2
CL
 70
     8
280
     0
  0
ATTDEF
  5
12D
330
116
100
AcDbEntity
  8
AM_6
100
AcDbText
 10
4.00525
 20
-8.0
 30
0.0
 40
0.5
  1
0.44
100
AcDbAttributeDefinition
  3

  2
DL
 70
     8
280
     0
  0
ATTDEF
  5
12E
330
116
100
AcDbEntity
  8
AM_6
100
AcDbText
 10
4.00525
 20
-8.5
 30
0.0
 40
0.5
  1
baldor
100
AcDbAttributeDefinition
  3

  2
COMPANY
 70
     8
280
     0
  0
LINE
  5
12F
330
116
100
AcDbEntity
  8
AM_9
100
AcDbLine
 10
-1.36475
 20
0.7704006647723406
 30
0.0
 11
-1.43475
 21
0.7704006647723406
 31
0.0
  0
LINE
  5
130
330
116
100
AcDbEntity
  8
AM_9
100
AcDbLine
 10
-0.9947500000000001
 20
0.7489155407992824
 30
0.0
 11
-1.36475
 21
0.7489155407992824
 31
0.0
  0
LINE
  5
131
330
116
100
AcDbEntity
  8
AM_9
100
AcDbLine
 10
-0.9947500000000001
 20
0.7091484516230548
 30
0.0
 11
-1.43475
 21
0.7091484516230548
 31
0.0
  0
LINE
  5
132
330
116
100
AcDbEntity
  8
AM_9
100
AcDbLine
 10
-1.36475
 20
0.8216253929486494
 30
0.0
 11
-0.9947500000000001
 21
0.8216253929486493
 31
0.0
  0
LINE
  5
133
330
116
100
AcDbEntity
  8
AM_9
100
AcDbLine
 10
-0.9947500000000001
 20
0.7818583037724218
 30
0.0
 11
-1.43475
 21
0.7818583037724218
 31
0.0
  0
LINE
  5
134
330
116
100
AcDbEntity
  8
AM_9
100
AcDbLine
 10
-0.9947500000000001
 20
0.7091484516230548
 30
0.0
 11
-0.9947500000000001
 21
0.8216253929486493
 31
0.0
  0
LINE
  5
135
330
116
100
AcDbEntity
  8
AM_9
100
AcDbLine
 10
-1.36475
 20
0.8431105169217075
 30
0.0
 11
-1.43475
 21
0.8431105169217075
 31
0.0
  0
LINE
  5
136
330
116
100
AcDbEntity
  8
AM_9
100
AcDbLine
 10
-1.36475
 20
1.201388888888889
 30
0.0
 11
-1.43475
 21
1.201388888888889
 31
0.0
  0
LINE
  5
137
330
116
100
AcDbEntity
  8
AM_9
100
AcDbLine
 10
-1.36475
 20
1.296463345701357
 30
0.0
 11
-1.43475
 21
1.296463345701357
 31
0.0
  0
LINE
  5
138
330
116
100
AcDbEntity
  8
AM_9
100
AcDbLine
 10
-1.36475
 20
-1.201388888888889
 30
0.0
 11
-1.43475
 21
-1.201388888888889
 31
0.0
  0
LINE
  5
139
330
116
100
AcDbEntity
  8
AM_9
100
AcDbLine
 10
-1.43475
 20
-1.296463345701357
 30
0.0
 11
-1.36475
 21
-1.296463345701357
 31
0.0
  0
LINE
  5
13A
330
116
100
AcDbEntity
  8
AM_9
100
AcDbLine
 10
-1.36475
 20
0.8732259590751008
 30
0.0
 11
-1.43475
 21
0.8732259590751008
 31
0.0
  0
LINE
  5
13B
330
116
100
AcDbEntity
  8
AM_9
100
AcDbLine
 10
-1.36475
 20
-0.8732259590751006
 30
0.0
 11
-1.43475
 21
-0.8732259590751005
 31
0.0
  0
LINE
  5
13C
330
116
100
AcDbEntity
  8
AM_9
100
AcDbLine
 10
-1.36475
 20
-0.6846391413828519
 30
0.0
 11
-1.43475
 21
-0.684639141382852
 31
0.0
  0
LINE
  5
13D
330
116
100
AcDbEntity
  8
AM_9
100
AcDbLine
 10
-1.36475
 20
0.6846391413828523
 30
0.0
 11
-1.43475
 21
0.6846391413828521
 31
0.0
  0
LINE
  5
13E
330
116
100
AcDbEntity
  8
AM_9
100
AcDbLine
 10
-1.36475
 20
0.5502888529574085
 30
0.0
 11
-1.43475
 21
0.5502888529574086
 31
0.0
  0
LINE
  5
13F
330
116
100
AcDbEntity
  8
AM_9
100
AcDbLine
 10
-1.36475
 20
-0.5502888529574078
 30
0.0
 11
-1.43475
 21
-0.550288852957408
 31
0.0
  0
LINE
  5
140
330
116
100
AcDbEntity
  8
AM_9
100
AcDbLine
 10
-1.36475
 20
0.9166853743882272
 30
0.0
 11
-1.43475
 21
0.9166853743882272
 31
0.0
  0
LINE
  5
141
330
116
100
AcDbEntity
  8
AM_9
100
AcDbLine
 10
-1.36475
 20
0.7823350859627831
 30
0.0
 11
-1.43475
 21
0.7823350859627831
 31
0.0
  0
LINE
  5
142
330
116
100
AcDbEntity
  8
AM_9
100
AcDbLine
 10
-1.36475
 20
0.9445628876318475
 30
0.0
 11
-1.43475
 21
0.9445628876318475
 31
0.0
  0
LINE
  5
143
330
116
100
AcDbEntity
  8
AM_9
100
AcDbLine
 10
-1.36475
 20
-0.7823350859627828
 30
0.0
 11
-1.43475
 21
-0.7823350859627826
 31
0.0
  0
LINE
  5
144
330
116
100
AcDbEntity
  8
AM_9
100
AcDbLine
 10
-1.36475
 20
-0.9166853743882151
 30
0.0
 11
-1.43475
 21
-0.9166853743882151
 31
0.0
  0
LINE
  5
145
330
116
100
AcDbEntity
  8
AM_9
100
AcDbLine
 10
-1.43475
 20
-0.9445628876318469
 30
0.0
 11
-1.36475
 21
-0.9445628876318469
 31
0.0
  0
LINE
  5
146
330
116
100
AcDbEntity
  8
AM_9
100
AcDbLine
 10
-1.36475
 20
0.0950744568124685
 30
0.0
 11
-1.43475
 21
0.0950744568124685
 31
0.0
  0
LINE
  5
147
330
116
100
AcDbEntity
  8
AM_9
100
AcDbLine
 10
-1.43475
 20
-0.0950744568124677
 30
0.0
 11
-1.36475
 21
-0.0950744568124677
 31
0.0
  0
LINE
  5
148
330
116
100
AcDbEntity
  8
AM_4
100
AcDbLine
 10
-1.36475
 20
1.5
 30
0.0
 11
-1.43475
 21
1.5
 31
0.0
  0
LINE
  5
149
330
116
100
AcDbEntity
  8
AM_4
100
AcDbLine
 10
-1.43475
 20
-1.5
 30
0.0
 11
-1.36475
 21
-1.5
 31
0.0
  0
LINE
  5
14A
330
116
100
AcDbEntity
  8
AM_4
100
AcDbLine
 10
-1.43475
 20
1.5
 30
0.0
 11
-1.43475
 21
-1.5
 31
0.0
  0
LINE
  5
14B
330
116
100
AcDbEntity
  8
AM_4
100
AcDbLine
 10
-1.36475
 20
1.5
 30
0.0
 11
-1.36475
 21
-1.5
 31
0.0
  0
ENDBLK
  5
119
330
116
100
AcDbEntity
  8
0
100
AcDbBlockEnd
  0
BLOCK
  5
14E
330
14C
100
AcDbEntity
  8
0
100
AcDbBlockBegin
  2
6_070918I_0_in_069875_2
 70
     2
 10
0.0
 20
0.0
 30
0.0
  3
6_070918I_0_in_069875_2
  1

  0
ATTDEF
  5
150
330
14C
100
AcDbEntity
  8
AM_6
100
AcDbText
 10
6.23875
 20
1.67325
 30
0.0
 40
0.5
  1
Imperial Insert -Inch
100
AcDbAttributeDefinition
  3

  2
NN
 70
     8
280
     0
  0
ATTDEF
  5
151
330
14C
100
AcDbEntity
  8
AM_6
100
AcDbText
 10
6.23875
 20
1.17325
 30
0.0
 40
0.5
  1
Imperial Bearings
100
AcDbAttributeDefinition
  3

  2
NT
 70
     8
280
     0
  0
ATTDEF
  5
152
330
14C
100
AcDbEntity
  8
AM_6
100
AcDbText
 10
6.23875
 20
0.6732499999999999
 30
0.0
 40
0.5
  1
070918I
100
AcDbAttributeDefinition
  3

  2
NB
 70
     8
280
     0
  0
ATTDEF
  5
153
330
14C
100
AcDbEntity
  8
AM_6
100
AcDbText
 10
6.23875
 20
0.1732499999999999
 30
0.0
 40
0.5
  1
$PN.I
100
AcDbAttributeDefinition
  3

  2
NBSYN
 70
     8
280
     0
  0
ATTDEF
  5
154
330
14C
100
AcDbEntity
  8
AM_6
100
AcDbText
 10
6.23875
 20
-0.3267500000000001
 30
0.0
 40
0.5
  1
070918
100
AcDbAttributeDefinition
  3

  2
LINA
 70
     8
280
     0
  0
ATTDEF
  5
155
330
14C
100
AcDbEntity
  8
AM_6
100
AcDbText
 10
6.23875
 20
-0.8267500000000001
 30
0.0
 40
0.5
  1
1-5/8
100
AcDbAttributeDefinition
  3

  2
SS
 70
     8
280
     0
  0
ATTDEF
  5
156
330
14C
100
AcDbEntity
  8
AM_6
100
AcDbText
 10
6.23875
 20
-1.32675
 30
0.0
 40
0.5
  1
1.625000
100
AcDbAttributeDefinition
  3

  2
SS1
 70
     8
280
     0
  0
ATTDEF
  5
157
330
14C
100
AcDbEntity
  8
AM_6
100
AcDbText
 10
6.23875
 20
-1.82675
 30
0.0
 40
0.5
  1
070918
100
AcDbAttributeDefinition
  3

  2
PN
 70
     8
280
     0
  0
ATTDEF
  5
158
330
14C
100
AcDbEntity
  8
AM_6
100
AcDbText
 10
6.23875
 20
-2.32675
 30
0.0
 40
0.5
  1
INS-IP-110L
100
AcDbAttributeDefinition
  3

  2
DESCRIPTION
 70
     8
280
     0
  0
ATTDEF
  5
159
330
14C
100
AcDbEntity
  8
AM_6
100
AcDbText
 10
6.23875
 20
-2.82675
 30
0.0
 40
0.5
  1
Labyrinth Seal
100
AcDbAttributeDefinition
  3

  2
ST
 70
     8
280
     0
  0
ATTDEF
  5
15A
330
14C
100
AcDbEntity
  8
AM_6
100
AcDbText
 10
6.23875
 20
-3.32675
 30
0.0
 40
0.5
  1
3.3465
100
AcDbAttributeDefinition
  3

  2
A
 70
     8
280
     0
  0
ATTDEF
  5
15B
330
14C
100
AcDbEntity
  8
AM_6
100
AcDbText
 10
6.23875
 20
-3.82675
 30
0.0
 40
0.5
  1
61/64
100
AcDbAttributeDefinition
  3

  2
B
 70
     8
280
     0
  0
ATTDEF
  5
15C
330
14C
100
AcDbEntity
  8
AM_6
100
AcDbText
 10
6.23875
 20
-4.326750000000001
 30
0.0
 40
0.5
  1
2-13/16
100
AcDbAttributeDefinition
  3

  2
C
 70
     8
280
     0
  0
ATTDEF
  5
15D
330
14C
100
AcDbEntity
  8
AM_6
100
AcDbText
 10
6.23875
 20
-4.826750000000001
 30
0.0
 40
0.5
  1
0.954
100
AcDbAttributeDefinition
  3

  2
D
 70
     8
280
     0
  0
ATTDEF
  5
15E
330
14C
100
AcDbEntity
  8
AM_6
100
AcDbText
 10
6.23875
 20
-5.326750000000001
 30
0.0
 40
0.5
  1
3
100
AcDbAttributeDefinition
  3

  2
E
 70
     8
280
     0
  0
ATTDEF
  5
15F
330
14C
100
AcDbEntity
  8
AM_6
100
AcDbText
 10
6.23875
 20
-5.826750000000001
 30
0.0
 40
0.5
  1
0.1900
100
AcDbAttributeDefinition
  3

  2
NDM
 70
     8
280
     0
  0
ATTDEF
  5
160
330
14C
100
AcDbEntity
  8
AM_6
100
AcDbText
 10
6.23875
 20
-6.326750000000001
 30
0.0
 40
0.5
  1
0.101
100
AcDbAttributeDefinition
  3

  2
H
 70
     8
280
     0
  0
ATTDEF
  5
161
330
14C
100
AcDbEntity
  8
AM_6
100
AcDbText
 10
6.23875
 20
-6.826750000000001
 30
0.0
 40
0.5
  1
0.1450
100
AcDbAttributeDefinition
  3

  2
KDM
 70
     8
280
     0
  0
ATTDEF
  5
162
330
14C
100
AcDbEntity
  8
AM_6
100
AcDbText
 10
6.23875
 20
-7.326750000000001
 30
0.0
 40
0.5
  1
2.42
100
AcDbAttributeDefinition
  3

  2
AL
 70
     8
280
     0
  0
ATTDEF
  5
163
330
14C
100
AcDbEntity
  8
AM_6
100
AcDbText
 10
6.23875
 20
-7.826750000000001
 30
0.0
 40
0.5
  1
0.38
100
AcDbAttributeDefinition
  3

  2
BL
 70
     8
280
     0
  0
ATTDEF
  5
164
330
14C
100
AcDbEntity
  8
AM_6
100
AcDbText
 10
6.23875
 20
-8.32675
 30
0.0
 40
0.5
  1
0.07
100
AcDbAttributeDefinition
  3

  2
CL
 70
     8
280
     0
  0
ATTDEF
  5
165
330
14C
100
AcDbEntity
  8
AM_6
100
AcDbText
 10
6.23875
 20
-8.82675
 30
0.0
 40
0.5
  1
0.44
100
AcDbAttributeDefinition
  3

  2
DL
 70
     8
280
     0
  0
ATTDEF
  5
166
330
14C
100
AcDbEntity
  8
AM_6
100
AcDbText
 10
6.23875
 20
-9.32675
 30
0.0
 40
0.5
  1
0.8000
100
AcDbAttributeDefinition
  3

  2
LL
 70
     8
280
     0
  0
ATTDEF
  5
167
330
14C
100
AcDbEntity
  8
AM_6
100
AcDbText
 10
6.23875
 20
-9.82675
 30
0.0
 40
0.5
  1
0.020
100
AcDbAttributeDefinition
  3

  2
Y
 70
     8
280
     0
  0
ATTDEF
  5
168
330
14C
100
AcDbEntity
  8
AM_6
100
AcDbText
 10
6.23875
 20
-10.32675
 30
0.0
 40
0.5
  1
0.020000
100
AcDbAttributeDefinition
  3

  2
Y1
 70
     8
280
     0
  0
ATTDEF
  5
169
330
14C
100
AcDbEntity
  8
AM_6
100
AcDbText
 10
6.23875
 20
-10.82675
 30
0.0
 40
0.5
  1
2-5/64
100
AcDbAttributeDefinition
  3

  2
Z
 70
     8
280
     0
  0
ATTDEF
  5
16A
330
14C
100
AcDbEntity
  8
AM_6
100
AcDbText
 10
6.23875
 20
-11.32675
 30
0.0
 40
0.5
  1
2.078125
100
AcDbAttributeDefinition
  3

  2
Z1
 70
     8
280
     0
  0
ATTDEF
  5
16B
330
14C
100
AcDbEntity
  8
AM_6
100
AcDbText
 10
6.23875
 20
-11.82675
 30
0.0
 40
0.5
  1
baldor
100
AcDbAttributeDefinition
  3

  2
COMPANY
 70
     8
280
     0
  0
LINE
  5
16C
330
14C
100
AcDbEntity
  8
AM_9
100
AcDbLine
 10
0.7413125
 20
0.8237231954928378
 30
0.0
 11
-1.36475
 21
0.8237231954928378
 31
0.0
  0
LINE
  5
16D
330
14C
100
AcDbEntity
  8
AM_9
100
AcDbLine
 10
0.7413125
 20
0.7510133433434709
 30
0.0
 11
-1.36475
 21
0.7510133433434709
 31
0.0
  0
LINE
  5
16E
330
14C
100
AcDbEntity
  8
AM_9
100
AcDbLine
 10
-0.5247499999999998
 20
1.201388888888889
 30
0.0
 11
-0.5585339898333292
 21
1.273838888888889
 31
0.0
  0
LINE
  5
16F
330
14C
100
AcDbEntity
  8
AM_9
100
AcDbLine
 10
-0.5585339898333292
 20
1.128938888888889
 30
0.0
 11
-0.5247499999999998
 21
1.201388888888889
 31
0.0
  0
LINE
  5
170
330
14C
100
AcDbEntity
  8
AM_9
100
AcDbLine
 10
-0.5247499999999936
 20
-1.201388888888889
 30
0.0
 11
-0.5585339898333128
 21
-1.128938888888889
 31
0.0
  0
LINE
  5
171
330
14C
100
AcDbEntity
  8
AM_9
100
AcDbLine
 10
-0.5585339898333128
 20
-1.273838888888889
 30
0.0
 11
-0.5247499999999936
 21
-1.201388888888889
 31
0.0
  0
LINE
  5
172
330
14C
100
AcDbEntity
  8
AM_9
100
AcDbLine
 10
-1.342199999999996
 20
-1.273838888888889
 30
0.0
 11
-0.5585339898333128
 21
-1.273838888888889
 31
0.0
  0
LINE
  5
173
330
14C
100
AcDbEntity
  8
AM_9
100
AcDbLine
 10
-0.5585339898333128
 20
-1.128938888888889
 30
0.0
 11
-1.342199999999996
 21
-1.128938888888889
 31
0.0
  0
LINE
  5
174
330
14C
100
AcDbEntity
  8
AM_9
100
AcDbLine
 10
-0.5585339898333128
 20
-1.128938888888889
 30
0.0
 11
-0.5585339898333128
 21
-1.273838888888889
 31
0.0
  0
LINE
  5
175
330
14C
100
AcDbEntity
  8
AM_9
100
AcDbLine
 10
-0.5585339898333292
 20
1.128938888888889
 30
0.0
 11
-0.5585339898333292
 21
1.273838888888889
 31
0.0
  0
LINE
  5
176
330
14C
100
AcDbEntity
  8
AM_9
100
AcDbLine
 10
-0.5585339898333292
 20
1.273838888888889
 30
0.0
 11
-1.3422
 21
1.273838888888889
 31
0.0
  0
LINE
  5
177
330
14C
100
AcDbEntity
  8
AM_9
100
AcDbLine
 10
-1.3422
 20
1.128938888888889
 30
0.0
 11
-0.5585339898333292
 21
1.128938888888889
 31
0.0
  0
LINE
  5
178
330
14C
100
AcDbEntity
  8
AM_9
100
AcDbLine
 10
-1.342199999999996
 20
-1.128938888888889
 30
0.0
 11
-1.364750000000001
 21
-1.106388888888889
 31
0.0
  0
LINE
  5
179
330
14C
100
AcDbEntity
  8
AM_9
100
AcDbLine
 10
-1.364750000000001
 20
-1.296388888888889
 30
0.0
 11
-1.342199999999996
 21
-1.273838888888889
 31
0.0
  0
LINE
  5
17A
330
14C
100
AcDbEntity
  8
AM_9
100
AcDbLine
 10
-1.342199999999996
 20
-1.128938888888889
 30
0.0
 11
-1.342199999999996
 21
-1.273838888888889
 31
0.0
  0
LINE
  5
17B
330
14C
100
AcDbEntity
  8
AM_9
100
AcDbLine
 10
-1.3422
 20
1.128938888888889
 30
0.0
 11
-1.3422
 21
1.273838888888889
 31
0.0
  0
LINE
  5
17C
330
14C
100
AcDbEntity
  8
AM_9
100
AcDbLine
 10
-1.3422
 20
1.273838888888889
 30
0.0
 11
-1.36475
 21
1.296388888888889
 31
0.0
  0
LINE
  5
17D
330
14C
100
AcDbEntity
  8
AM_9
100
AcDbLine
 10
-1.36475
 20
1.106388888888889
 30
0.0
 11
-1.3422
 21
1.128938888888889
 31
0.0
  0
LINE
  5
17E
330
14C
100
AcDbEntity
  8
AM_9
100
AcDbLine
 10
0.7413125
 20
0.7818583037724217
 30
0.0
 11
-1.59375
 21
0.7818583037724217
 31
0.0
  0
LINE
  5
17F
330
14C
100
AcDbEntity
  8
AM_9
100
AcDbLine
 10
-1.59375
 20
0.709148451623055
 30
0.0
 11
0.7413125
 21
0.7091484516230547
 31
0.0
  0
LINE
  5
180
330
14C
100
AcDbEntity
  8
AM_9
100
AcDbLine
 10
0.7413124999999998
 20
0.8125
 30
0.0
 11
-1.59375
 21
0.8125
 31
0.0
  0
LINE
  5
181
330
14C
100
AcDbEntity
  8
AM_9
100
AcDbLine
 10
-1.59375
 20
-0.8125
 30
0.0
 11
0.7413124999999998
 21
-0.8125
 31
0.0
  0
LINE
  5
182
330
14C
100
AcDbEntity
  8
AM_9
100
AcDbLine
 10
1.21875
 20
0.8552631578947368
 30
0.0
 11
0.7413125
 21
0.8552631578947368
 31
0.0
  0
LINE
  5
183
330
14C
100
AcDbEntity
  8
AM_9
100
AcDbLine
 10
0.7413125
 20
-0.8552631578947368
 30
0.0
 11
1.21875
 21
-0.8552631578947368
 31
0.0
  0
LINE
  5
184
330
14C
100
AcDbEntity
  8
AM_9
100
AcDbLine
 10
-1.59375
 20
0.8216253929486493
 30
0.0
 11
-1.36475
 21
0.8216253929486493
 31
0.0
  0
LINE
  5
185
330
14C
100
AcDbEntity
  8
AM_9
100
AcDbLine
 10
-1.36475
 20
0.7489155407992825
 30
0.0
 11
-1.59375
 21
0.7489155407992824
 31
0.0
  0
LINE
  5
186
330
14C
100
AcDbEntity
  8
AM_9
100
AcDbLine
 10
-1.36475
 20
0.8552631578947368
 30
0.0
 11
-1.43475
 21
0.8552631578947368
 31
0.0
  0
LINE
  5
187
330
14C
100
AcDbEntity
  8
AM_9
100
AcDbLine
 10
-1.43475
 20
-0.8552631578947368
 30
0.0
 11
-1.36475
 21
-0.8552631578947368
 31
0.0
  0
LINE
  5
188
330
14C
100
AcDbEntity
  8
AM_9
100
AcDbLine
 10
-0.9247500000000001
 20
-0.7212489168102785
 30
0.0
 11
-1.36475
 21
-0.7212489168102785
 31
0.0
  0
LINE
  5
189
330
14C
100
AcDbEntity
  8
AM_9
100
AcDbLine
 10
-0.9247500000000001
 20
0.7212489168102781
 30
0.0
 11
-1.36475
 21
0.7212489168102781
 31
0.0
  0
LINE
  5
18A
330
14C
100
AcDbEntity
  8
AM_9
100
AcDbLine
 10
1.21875
 20
-1.0390625
 30
0.0
 11
1.21875
 21
1.0390625
 31
0.0
  0
LINE
  5
18B
330
14C
100
AcDbEntity
  8
AM_9
100
AcDbLine
 10
1.23875
 20
1.0390625
 30
0.0
 11
1.21875
 21
1.0390625
 31
0.0
  0
LINE
  5
18C
330
14C
100
AcDbEntity
  8
AM_9
100
AcDbLine
 10
1.21875
 20
-1.0390625
 30
0.0
 11
1.23875
 21
-1.0390625
 31
0.0
  0
LINE
  5
18D
330
14C
100
AcDbEntity
  8
AM_9
100
AcDbLine
 10
1.23875
 20
-1.127871260683761
 30
0.0
 11
1.23875
 21
1.127871260683761
 31
0.0
  0
ARC
  5
18E
330
14C
100
AcDbEntity
  8
AM_9
100
AcDbCircle
 10
1.212107371794872
 20
1.127871260683761
 30
0.0
 40
0.0266426282051277
100
AcDbArc
 50
0.0
 51
90.0
  0
ARC
  5
18F
330
14C
100
AcDbEntity
  8
AM_9
100
AcDbCircle
 10
1.212107371794872
 20
-1.127871260683761
 30
0.0
 40
0.0266426282051277
100
AcDbArc
 50
270.0
 51
0.0
  0
LINE
  5
190
330
14C
100
AcDbEntity
  8
AM_9
100
AcDbLine
 10
1.212107371794871
 20
-1.154513888888889
 30
0.0
 11
1.212107371794871
 21
1.154513888888889
 31
0.0
  0
LINE
  5
191
330
14C
100
AcDbEntity
  8
AM_9
100
AcDbLine
 10
1.212107371794871
 20
1.154513888888889
 30
0.0
 11
0.9319375000000002
 21
1.154513888888889
 31
0.0
  0
LINE
  5
192
330
14C
100
AcDbEntity
  8
AM_9
100
AcDbLine
 10
0.9319375000000002
 20
-1.154513888888889
 30
0.0
 11
1.212107371794871
 21
-1.154513888888889
 31
0.0
  0
LINE
  5
193
330
14C
100
AcDbEntity
  8
AM_9
100
AcDbLine
 10
-0.9247499999999997
 20
0.9287187364296167
 30
0.0
 11
-0.9247500000000001
 21
0.7212489168102781
 31
0.0
  0
LINE
  5
194
330
14C
100
AcDbEntity
  8
AM_9
100
AcDbLine
 10
-0.9247500000000001
 20
-0.7212489168102785
 30
0.0
 11
-0.9247499999999997
 21
-0.928718736429617
 31
0.0
  0
LINE
  5
195
330
14C
100
AcDbEntity
  8
AM_9
100
AcDbLine
 10
0.9319374999999996
 20
-1.305457578016765
 30
0.0
 11
0.9319374999999996
 21
1.305457578016765
 31
0.0
  0
ARC
  5
196
330
14C
100
AcDbEntity
  8
AM_9
100
AcDbCircle
 10
0.8319375000000008
 20
1.305457578016766
 30
0.0
 40
0.0999999999999989
100
AcDbArc
 50
0.0
 51
60.00000000000016
  0
ARC
  5
197
330
14C
100
AcDbEntity
  8
AM_9
100
AcDbCircle
 10
0.831937500000001
 20
-1.305457578016766
 30
0.0
 40
0.0999999999999987
100
AcDbArc
 50
299.9999999999998
 51
0.0
  0
LINE
  5
198
330
14C
100
AcDbEntity
  8
AM_9
100
AcDbLine
 10
0.8819374999999999
 20
-1.392060118395209
 30
0.0
 11
0.8819374999999999
 21
1.392060118395209
 31
0.0
  0
LINE
  5
199
330
14C
100
AcDbEntity
  8
AM_9
100
AcDbLine
 10
0.8819374999999999
 20
1.392060118395209
 30
0.0
 11
0.7413124999999998
 21
1.47325
 31
0.0
  0
LINE
  5
19A
330
14C
100
AcDbEntity
  8
AM_9
100
AcDbLine
 10
0.7413124999999998
 20
-1.47325
 30
0.0
 11
0.8819374999999999
 21
-1.392060118395209
 31
0.0
  0
LINE
  5
19B
330
14C
100
AcDbEntity
  8
AM_9
100
AcDbLine
 10
-0.6406250000000002
 20
-1.525287002208212
 30
0.0
 11
-0.2118124999999998
 21
-1.540261464675892
 31
0.0
  0
LINE
  5
19C
330
14C
100
AcDbEntity
  8
AM_9
100
AcDbLine
 10
-0.2118124999999998
 20
1.540261464675892
 30
0.0
 11
-0.6406250000000002
 21
1.525287002208212
 31
0.0
  0
LINE
  5
19D
330
14C
100
AcDbEntity
  8
AM_9
100
AcDbLine
 10
0.292264348766068
 20
1.62559375
 30
0.0
 11
0.2372356512339318
 21
1.62559375
 31
0.0
  0
LINE
  5
19E
330
14C
100
AcDbEntity
  8
AM_9
100
AcDbLine
 10
0.2372356512339318
 20
-1.62559375
 30
0.0
 11
0.292264348766068
 21
-1.62559375
 31
0.0
  0
LINE
  5
19F
330
14C
100
AcDbEntity
  8
AM_9
100
AcDbLine
 10
-0.2118124999999998
 20
-1.623249999999999
 30
0.0
 11
-0.2118124999999998
 21
1.623249999999999
 31
0.0
  0
ARC
  5
1A0
330
14C
100
AcDbEntity
  8
AM_9
100
AcDbCircle
 10
-0.1618124999999994
 20
1.623249999999999
 30
0.0
 40
0.0500000000000005
100
AcDbArc
 50
90.0
 51
180.0
  0
ARC
  5
1A1
330
14C
100
AcDbEntity
  8
AM_9
100
AcDbCircle
 10
-0.1618124999999994
 20
-1.623249999999999
 30
0.0
 40
0.0500000000000005
100
AcDbArc
 50
180.0
 51
270.0
  0
LINE
  5
1A2
330
14C
100
AcDbEntity
  8
AM_9
100
AcDbLine
 10
0.2372356512339318
 20
-1.62559375
 30
0.0
 11
0.2372356512339318
 21
1.62559375
 31
0.0
  0
LINE
  5
1A3
330
14C
100
AcDbEntity
  8
AM_9
100
AcDbLine
 10
0.2372356512339318
 20
1.62559375
 30
0.0
 11
0.2097213024678636
 21
1.67325
 31
0.0
  0
LINE
  5
1A4
330
14C
100
AcDbEntity
  8
AM_9
100
AcDbLine
 10
0.2097213024678636
 20
-1.67325
 30
0.0
 11
0.2372356512339318
 21
-1.62559375
 31
0.0
  0
LINE
  5
1A5
330
14C
100
AcDbEntity
  8
AM_9
100
AcDbLine
 10
0.292264348766068
 20
-1.62559375
 30
0.0
 11
0.292264348766068
 21
1.62559375
 31
0.0
  0
LINE
  5
1A6
330
14C
100
AcDbEntity
  8
AM_9
100
AcDbLine
 10
0.292264348766068
 20
-1.62559375
 30
0.0
 11
0.3197786975321362
 21
-1.67325
 31
0.0
  0
LINE
  5
1A7
330
14C
100
AcDbEntity
  8
AM_9
100
AcDbLine
 10
0.3197786975321362
 20
1.67325
 30
0.0
 11
0.292264348766068
 21
1.62559375
 31
0.0
  0
LINE
  5
1A8
330
14C
100
AcDbEntity
  8
AM_9
100
AcDbLine
 10
0.3197786975321362
 20
-1.67325
 30
0.0
 11
0.3197786975321362
 21
1.67325
 31
0.0
  0
LINE
  5
1A9
330
14C
100
AcDbEntity
  8
AM_9
100
AcDbLine
 10
0.6913124999999998
 20
1.67325
 30
0.0
 11
0.3197786975321362
 21
1.67325
 31
0.0
  0
LINE
  5
1AA
330
14C
100
AcDbEntity
  8
AM_9
100
AcDbLine
 10
0.3197786975321362
 20
-1.67325
 30
0.0
 11
0.6913124999999998
 21
-1.67325
 31
0.0
  0
LINE
  5
1AB
330
14C
100
AcDbEntity
  8
AM_9
100
AcDbLine
 10
0.7413124999999998
 20
-1.623250000000001
 30
0.0
 11
0.7413124999999998
 21
1.623250000000001
 31
0.0
  0
LINE
  5
1AC
330
14C
100
AcDbEntity
  8
AM_9
100
AcDbLine
 10
0.6913124999999998
 20
-1.67325
 30
0.0
 11
0.6913124999999998
 21
1.67325
 31
0.0
  0
ARC
  5
1AD
330
14C
100
AcDbEntity
  8
AM_9
100
AcDbCircle
 10
0.6913125000000001
 20
1.62325
 30
0.0
 40
0.0499999999999998
100
AcDbArc
 50
0.0
 51
90.0
  0
ARC
  5
1AE
330
14C
100
AcDbEntity
  8
AM_9
100
AcDbCircle
 10
0.6913125000000001
 20
-1.62325
 30
0.0
 40
0.0499999999999998
100
AcDbArc
 50
270.0
 51
0.0
  0
LINE
  5
1AF
330
14C
100
AcDbEntity
  8
AM_9
100
AcDbLine
 10
0.2097213024678636
 20
-1.67325
 30
0.0
 11
0.2097213024678636
 21
1.67325
 31
0.0
  0
LINE
  5
1B0
330
14C
100
AcDbEntity
  8
AM_9
100
AcDbLine
 10
-0.1618124999999992
 20
-1.67325
 30
0.0
 11
-0.1618124999999992
 21
1.67325
 31
0.0
  0
LINE
  5
1B1
330
14C
100
AcDbEntity
  8
AM_9
100
AcDbLine
 10
0.2097213024678636
 20
1.67325
 30
0.0
 11
-0.1618124999999992
 21
1.67325
 31
0.0
  0
LINE
  5
1B2
330
14C
100
AcDbEntity
  8
AM_9
100
AcDbLine
 10
-0.1618124999999992
 20
-1.67325
 30
0.0
 11
0.2097213024678636
 21
-1.67325
 31
0.0
  0
LINE
  5
1B3
330
14C
100
AcDbEntity
  8
AM_5
100
AcDbLine
 10
-0.6047499999999999
 20
1.273838888888889
 30
0.0
 11
-0.6047499999999999
 21
1.296388888888889
 31
0.0
  0
LINE
  5
1B4
330
14C
100
AcDbEntity
  8
AM_5
100
AcDbLine
 10
-0.6047499999999999
 20
1.296388888888889
 30
0.0
 11
-0.5917307514297738
 21
1.273838888888889
 31
0.0
  0
LINE
  5
1B5
330
14C
100
AcDbEntity
  8
AM_5
100
AcDbLine
 10
-0.6047499999999999
 20
1.128938888888889
 30
0.0
 11
-0.6047499999999999
 21
1.106388888888889
 31
0.0
  0
LINE
  5
1B6
330
14C
100
AcDbEntity
  8
AM_5
100
AcDbLine
 10
-0.6047499999999999
 20
1.106388888888889
 30
0.0
 11
-0.591730751429774
 21
1.128938888888889
 31
0.0
  0
LINE
  5
1B7
330
14C
100
AcDbEntity
  8
AM_5
100
AcDbLine
 10
-0.6047500000000043
 20
-1.273838888888889
 30
0.0
 11
-0.6047500000000043
 21
-1.296388888888889
 31
0.0
  0
LINE
  5
1B8
330
14C
100
AcDbEntity
  8
AM_5
100
AcDbLine
 10
-0.6047500000000043
 20
-1.296388888888889
 30
0.0
 11
-0.5917307514297685
 21
-1.273838888888889
 31
0.0
  0
LINE
  5
1B9
330
14C
100
AcDbEntity
  8
AM_5
100
AcDbLine
 10
-0.6047500000000043
 20
-1.128938888888889
 30
0.0
 11
-0.6047500000000043
 21
-1.106388888888889
 31
0.0
  0
LINE
  5
1BA
330
14C
100
AcDbEntity
  8
AM_5
100
AcDbLine
 10
-0.6047500000000043
 20
-1.106388888888889
 30
0.0
 11
-0.5917307514297684
 21
-1.128938888888889
 31
0.0
  0
LINE
  5
1BB
330
14C
100
AcDbEntity
  8
AM_7
100
AcDbLine
 10
-0.4827499999999998
 20
1.201388888888889
 30
0.0
 11
-1.5808
 21
1.201388888888889
 31
0.0
  0
LINE
  5
1BC
330
14C
100
AcDbEntity
  8
AM_7
100
AcDbLine
 10
-0.4827499999999932
 20
-1.201388888888889
 30
0.0
 11
-1.5808
 21
-1.201388888888889
 31
0.0
  0
LINE
  5
1BD
330
14C
100
AcDbEntity
  8
AM_4
100
AcDbLine
 10
-1.43475
 20
0.8552631578947368
 30
0.0
 11
-1.59375
 21
0.8552631578947368
 31
0.0
  0
LINE
  5
1BE
330
14C
100
AcDbEntity
  8
AM_4
100
AcDbLine
 10
-1.59375
 20
-0.8552631578947368
 30
0.0
 11
-1.43475
 21
-0.8552631578947368
 31
0.0
  0
LINE
  5
1BF
330
14C
100
AcDbEntity
  8
AM_4
100
AcDbLine
 10
-1.59375
 20
-0.8552631578947368
 30
0.0
 11
-1.59375
 21
0.8552631578947368
 31
0.0
  0
ARC
  5
1C0
330
14C
100
AcDbEntity
  8
AM_4
100
AcDbCircle
 10
-1.31475
 20
-1.451715561259647
 30
0.0
 40
0.05
100
AcDbArc
 50
180.0
 51
267.9999999999998
  0
ARC
  5
1C1
330
14C
100
AcDbEntity
  8
AM_4
100
AcDbCircle
 10
-1.31475
 20
1.451715561259647
 30
0.0
 40
0.0500000000000001
100
AcDbArc
 50
92.00000000000023
 51
180.0
  0
LWPOLYLINE
  5
1C2
330
14C
100
AcDbEntity
  8
AM_4
100
AcDbPolyline
 90
        6
 70
     0
 43
0.0
 10
-1.36475
 20
1.152038371976444
 10
-1.364227677997732
 20
1.157179401881074
 10
-1.358977214874399
 20
1.168670885864119
 10
-1.348649476214343
 20
1.178246925837471
 10
-1.334495490382565
 20
1.184793095789032
 10
-1.316494974835125
 20
1.187668414017759
  0
LWPOLYLINE
  5
1C3
330
14C
100
AcDbEntity
  8
AM_4
100
AcDbPolyline
 90
        6
 70
     0
 43
0.0
 10
-1.316494974835125
 20
-1.187668414017759
 10
-1.332835137763142
 20
-1.185276901611705
 10
-1.347143195988426
 20
-1.179198140676667
 10
-1.357866053567917
 20
-1.170093601500122
 10
-1.363811012141457
 20
-1.158916864064283
 10
-1.36475
 20
-1.152038371976443
  0
LINE
  5
1C4
330
14C
100
AcDbEntity
  8
AM_4
100
AcDbLine
 10
-0.9247500000000001
 20
-0.9899494936611661
 30
0.0
 11
-1.36475
 21
-0.9899494936611661
 31
0.0
  0
LINE
  5
1C5
330
14C
100
AcDbEntity
  8
AM_4
100
AcDbLine
 10
-0.9247500000000001
 20
0.9899494936611664
 30
0.0
 11
-1.36475
 21
0.9899494936611664
 31
0.0
  0
LWPOLYLINE
  5
1C6
330
14C
100
AcDbEntity
  8
AM_4
100
AcDbPolyline
 90
        6
 70
     0
 43
0.0
 10
-1.316494974835125
 20
0.9189678371668707
 10
-1.332835137763146
 20
0.9165763247608155
 10
-1.347143195988429
 20
0.9104975638257776
 10
-1.357866053567919
 20
0.9013930246492315
 10
-1.363811012141458
 20
0.8902162872133924
 10
-1.36475
 20
0.8833377951255553
  0
LWPOLYLINE
  5
1C7
330
14C
100
AcDbEntity
  8
AM_4
100
AcDbPolyline
 90
        6
 70
     0
 43
0.0
 10
-1.36475
 20
-0.8833377951255559
 10
-1.364227677997732
 20
-0.8884788250301864
 10
-1.358977214874399
 20
-0.8999703090132312
 10
-1.348649476214343
 20
-0.9095463489865827
 10
-1.334495490382565
 20
-0.9160925189381443
 10
-1.316494974835125
 20
-0.9189678371668708
  0
LINE
  5
1C8
330
14C
100
AcDbEntity
  8
AM_4
100
AcDbLine
 10
-1.316494974835125
 20
-0.9189678371668708
 30
0.0
 11
-1.316494974835125
 21
0.9189678371668707
 31
0.0
  0
LINE
  5
1C9
330
14C
100
AcDbEntity
  8
AM_4
100
AcDbLine
 10
-1.316494974835125
 20
-0.9189678371668708
 30
0.0
 11
-0.9247499999999997
 21
-0.928718736429617
 31
0.0
  0
LINE
  5
1CA
330
14C
100
AcDbEntity
  8
AM_4
100
AcDbLine
 10
-0.9247499999999997
 20
-0.928718736429617
 30
0.0
 11
-0.9247500000000001
 21
-1.197419313280505
 31
0.0
  0
LINE
  5
1CB
330
14C
100
AcDbEntity
  8
AM_4
100
AcDbLine
 10
-0.9247500000000001
 20
-1.197419313280505
 30
0.0
 11
-1.316494974835125
 21
-1.187668414017759
 31
0.0
  0
LINE
  5
1CC
330
14C
100
AcDbEntity
  8
AM_4
100
AcDbLine
 10
-1.316494974835125
 20
1.187668414017759
 30
0.0
 11
-1.316494974835125
 21
1.501685102610602
 31
0.0
  0
LINE
  5
1CD
330
14C
100
AcDbEntity
  8
AM_4
100
AcDbLine
 10
-1.316494974835125
 20
1.187668414017759
 30
0.0
 11
-0.9247500000000001
 21
1.197419313280505
 31
0.0
  0
LINE
  5
1CE
330
14C
100
AcDbEntity
  8
AM_4
100
AcDbLine
 10
-0.9247500000000001
 20
1.197419313280505
 30
0.0
 11
-0.9247499999999997
 21
0.9287187364296167
 31
0.0
  0
LINE
  5
1CF
330
14C
100
AcDbEntity
  8
AM_4
100
AcDbLine
 10
-0.9247499999999997
 20
0.9287187364296167
 30
0.0
 11
-1.316494974835125
 21
0.9189678371668707
 31
0.0
  0
LINE
  5
1D0
330
14C
100
AcDbEntity
  8
AM_4
100
AcDbLine
 10
-1.316494974835125
 20
-1.501685102610602
 30
0.0
 11
-0.6406250000000002
 21
-1.525287002208212
 31
0.0
  0
LINE
  5
1D1
330
14C
100
AcDbEntity
  8
AM_4
100
AcDbLine
 10
-0.6406250000000002
 20
1.525287002208212
 30
0.0
 11
-1.316494974835125
 21
1.501685102610602
 31
0.0
  0
LINE
  5
1D2
330
14C
100
AcDbEntity
  8
AM_4
100
AcDbLine
 10
-1.316494974835125
 20
-1.501685102610602
 30
0.0
 11
-1.316494974835125
 21
-1.187668414017759
 31
0.0
  0
ENDBLK
  5
14F
330
14C
100
AcDbEntity
  8
0
100
AcDbBlockEnd
  0
BLOCK
  5
1D5
330
1D3
100
AcDbEntity
  8
0
100
AcDbBlockBegin
  2
7_069875H_0_in_069875_2
 70
     2
 10
0.0
 20
0.0
 30
0.0
  3
7_069875H_0_in_069875_2
  1

  0
ATTDEF
  5
1D7
330
1D3
100
AcDbEntity
  8
AM_6
100
AcDbText
 10
6.670625
 20
3.0625
 30
0.0
 40
0.5
  1
FC-IP -(Labyrinth Seal)-Housing -Inch
100
AcDbAttributeDefinition
  3

  2
NN
 70
     8
280
     0
  0
ATTDEF
  5
1D8
330
1D3
100
AcDbEntity
  8
AM_6
100
AcDbText
 10
6.670625
 20
2.5625
 30
0.0
 40
0.5
  1
Imperial Piloted Flange Bearings
100
AcDbAttributeDefinition
  3

  2
NT
 70
     8
280
     0
  0
ATTDEF
  5
1D9
330
1D3
100
AcDbEntity
  8
AM_6
100
AcDbText
 10
6.670625
 20
2.0625
 30
0.0
 40
0.5
  1
069875H
100
AcDbAttributeDefinition
  3

  2
NB
 70
     8
280
     0
  0
ATTDEF
  5
1DA
330
1D3
100
AcDbEntity
  8
AM_6
100
AcDbText
 10
6.670625
 20
1.5625
 30
0.0
 40
0.5
  1
$PN.H
100
AcDbAttributeDefinition
  3

  2
NBSYN
 70
     8
280
     0
  0
ATTDEF
  5
1DB
330
1D3
100
AcDbEntity
  8
AM_6
100
AcDbText
 10
6.670625
 20
1.0625
 30
0.0
 40
0.5
  1
069875
100
AcDbAttributeDefinition
  3

  2
LINA
 70
     8
280
     0
  0
ATTDEF
  5
1DC
330
1D3
100
AcDbEntity
  8
AM_6
100
AcDbText
 10
6.670625
 20
0.5625
 30
0.0
 40
0.5
  1
1-5/8
100
AcDbAttributeDefinition
  3

  2
SS
 70
     8
280
     0
  0
ATTDEF
  5
1DD
330
1D3
100
AcDbEntity
  8
AM_6
100
AcDbText
 10
6.670625
 20
0.0625
 30
0.0
 40
0.5
  1
069875
100
AcDbAttributeDefinition
  3

  2
PN
 70
     8
280
     0
  0
ATTDEF
  5
1DE
330
1D3
100
AcDbEntity
  8
AM_6
100
AcDbText
 10
6.670625
 20
-0.4375
 30
0.0
 40
0.5
  1
FC-IP-110L
100
AcDbAttributeDefinition
  3

  2
DESCRIPTION
 70
     8
280
     0
  0
ATTDEF
  5
1DF
330
1D3
100
AcDbEntity
  8
AM_6
100
AcDbText
 10
6.670625
 20
-0.9375
 30
0.0
 40
0.5
  1
Non-Expansion Type
100
AcDbAttributeDefinition
  3

  2
EF
 70
     8
280
     0
  0
ATTDEF
  5
1E0
330
1D3
100
AcDbEntity
  8
AM_6
100
AcDbText
 10
6.670625
 20
-1.4375
 30
0.0
 40
0.5
  1
Labyrinth Seal
100
AcDbAttributeDefinition
  3

  2
ST
 70
     8
280
     0
  0
ATTDEF
  5
1E1
330
1D3
100
AcDbEntity
  8
AM_6
100
AcDbText
 10
6.670625
 20
-1.9375
 30
0.0
 40
0.5
  1
2-13/16
100
AcDbAttributeDefinition
  3

  2
A
 70
     8
280
     0
  0
ATTDEF
  5
1E2
330
1D3
100
AcDbEntity
  8
AM_6
100
AcDbText
 10
6.670625
 20
-2.4375
 30
0.0
 40
0.5
  1
6-1/8
100
AcDbAttributeDefinition
  3

  2
B
 70
     8
280
     0
  0
ATTDEF
  5
1E3
330
1D3
100
AcDbEntity
  8
AM_6
100
AcDbText
 10
6.670625
 20
-2.9375
 30
0.0
 40
0.5
  1
1-29/32
100
AcDbAttributeDefinition
  3

  2
C
 70
     8
280
     0
  0
ATTDEF
  5
1E4
330
1D3
100
AcDbEntity
  8
AM_6
100
AcDbText
 10
6.670625
 20
-3.4375
 30
0.0
 40
0.5
  1
3-5/8
100
AcDbAttributeDefinition
  3

  2
D
 70
     8
280
     0
  0
ATTDEF
  5
1E5
330
1D3
100
AcDbEntity
  8
AM_6
100
AcDbText
 10
6.670625
 20
-3.9375
 30
0.0
 40
0.5
  1
5-1/8
100
AcDbAttributeDefinition
  3

  2
DD
 70
     8
280
     0
  0
ATTDEF
  5
1E6
330
1D3
100
AcDbEntity
  8
AM_6
100
AcDbText
 10
6.670625
 20
-4.4375
 30
0.0
 40
0.5
  1
7/8
100
AcDbAttributeDefinition
  3

  2
E
 70
     8
280
     0
  0
ATTDEF
  5
1E7
330
1D3
100
AcDbEntity
  8
AM_6
100
AcDbText
 10
6.670625
 20
-4.9375
 30
0.0
 40
0.5
  1
7/16
100
AcDbAttributeDefinition
  3

  2
F
 70
     8
280
     0
  0
ATTDEF
  5
1E8
330
1D3
100
AcDbEntity
  8
AM_6
100
AcDbText
 10
6.670625
 20
-5.4375
 30
0.0
 40
0.5
  1
1-39/64
100
AcDbAttributeDefinition
  3

  2
G
 70
     8
280
     0
  0
ATTDEF
  5
1E9
330
1D3
100
AcDbEntity
  8
AM_6
100
AcDbText
 10
6.670625
 20
-5.9375
 30
0.0
 40
0.5
  1
1/2
100
AcDbAttributeDefinition
  3

  2
H
 70
     8
280
     0
  0
ATTDEF
  5
1EA
330
1D3
100
AcDbEntity
  8
AM_6
100
AcDbText
 10
6.670625
 20
-6.4375
 30
0.0
 40
0.5
  1
4.250
100
AcDbAttributeDefinition
  3

  2
K
 70
     8
280
     0
  0
ATTDEF
  5
1EB
330
1D3
100
AcDbEntity
  8
AM_6
100
AcDbText
 10
6.670625
 20
-6.9375
 30
0.0
 40
0.5
  1
3
100
AcDbAttributeDefinition
  3

  2
L
 70
     8
280
     0
  0
ATTDEF
  5
1EC
330
1D3
100
AcDbEntity
  8
AM_6
100
AcDbText
 10
6.670625
 20
-7.4375
 30
0.0
 40
0.5
  1
7/16-14
100
AcDbAttributeDefinition
  3

  2
M
 70
     8
280
     0
  0
ATTDEF
  5
1ED
330
1D3
100
AcDbEntity
  8
AM_6
100
AcDbText
 10
6.670625
 20
-7.9375
 30
0.0
 40
0.5
  1
2-55/64
100
AcDbAttributeDefinition
  3

  2
N
 70
     8
280
     0
  0
ATTDEF
  5
1EE
330
1D3
100
AcDbEntity
  8
AM_6
100
AcDbText
 10
6.670625
 20
-8.4375
 30
0.0
 40
0.5
  1
1-13/64
100
AcDbAttributeDefinition
  3

  2
P
 70
     8
280
     0
  0
ATTDEF
  5
1EF
330
1D3
100
AcDbEntity
  8
AM_6
100
AcDbText
 10
6.670625
 20
-8.9375
 30
0.0
 40
0.5
  1
1-17/64
100
AcDbAttributeDefinition
  3

  2
Q
 70
     8
280
     0
  0
ATTDEF
  5
1F0
330
1D3
100
AcDbEntity
  8
AM_6
100
AcDbText
 10
6.670625
 20
-9.4375
 30
0.0
 40
0.5
  1
1/4
100
AcDbAttributeDefinition
  3

  2
X
 70
     8
280
     0
  0
ATTDEF
  5
1F1
330
1D3
100
AcDbEntity
  8
AM_6
100
AcDbText
 10
6.670625
 20
-9.9375
 30
0.0
 40
0.5
  1
0.020
100
AcDbAttributeDefinition
  3

  2
Y
 70
     8
280
     0
  0
ATTDEF
  5
1F2
330
1D3
100
AcDbEntity
  8
AM_6
100
AcDbText
 10
6.670625
 20
-10.4375
 30
0.0
 40
0.5
  1
2-5/64
100
AcDbAttributeDefinition
  3

  2
Z
 70
     8
280
     0
  0
ATTDEF
  5
1F3
330
1D3
100
AcDbEntity
  8
AM_6
100
AcDbText
 10
6.670625
 20
-10.9375
 30
0.0
 40
0.5
  1
baldor
100
AcDbAttributeDefinition
  3

  2
COMPANY
 70
     8
280
     0
  0
LINE
  5
1F4
330
1D3
100
AcDbEntity
  8
AM_9
100
AcDbLine
 10
-0.4375002542611731
 20
2.475090329086589
 30
0.0
 11
-0.5000000000000001
 21
2.366837594006804
 31
0.0
  0
LINE
  5
1F5
330
1D3
100
AcDbEntity
  8
AM_9
100
AcDbLine
 10
-0.3999999999999999
 20
-1.950854581151687
 30
0.0
 11
-0.4999999999999999
 21
-1.950854581151687
 31
0.0
  0
LINE
  5
1F6
330
1D3
100
AcDbEntity
  8
AM_9
100
AcDbLine
 10
-0.3999999999999999
 20
-1.932769785580586
 30
0.0
 11
-0.4999999999999999
 21
-1.932769785580586
 31
0.0
  0
LINE
  5
1F7
330
1D3
100
AcDbEntity
  8
AM_9
100
AcDbLine
 10
-0.3999999999999999
 20
1.950854581151687
 30
0.0
 11
-0.4999999999999999
 21
1.950854581151687
 31
0.0
  0
LINE
  5
1F8
330
1D3
100
AcDbEntity
  8
AM_9
100
AcDbLine
 10
-0.4999999999999999
 20
1.932769785580586
 30
0.0
 11
-0.3999999999999999
 21
1.932769785580586
 31
0.0
  0
LINE
  5
1F9
330
1D3
100
AcDbEntity
  8
AM_9
100
AcDbLine
 10
-0.4000000000000001
 20
2.065338955232288
 30
0.0
 11
-0.4999999999999998
 21
2.065338955232288
 31
0.0
  0
LINE
  5
1FA
330
1D3
100
AcDbEntity
  8
AM_9
100
AcDbLine
 10
-0.3999999999999999
 20
1.941409345779211
 30
0.0
 11
-0.4999999999999999
 21
1.941409345779211
 31
0.0
  0
LINE
  5
1FB
330
1D3
100
AcDbEntity
  8
AM_9
100
AcDbLine
 10
-0.3999999999999999
 20
-1.941409345779212
 30
0.0
 11
-0.4999999999999999
 21
-1.941409345779212
 31
0.0
  0
LINE
  5
1FC
330
1D3
100
AcDbEntity
  8
AM_9
100
AcDbLine
 10
-0.4999999999999997
 20
-2.125
 30
0.0
 11
-0.4
 21
-2.125
 31
0.0
  0
LINE
  5
1FD
330
1D3
100
AcDbEntity
  8
AM_9
100
AcDbLine
 10
-0.640625
 20
-1.67325
 30
0.0
 11
1.265625
 21
-1.67325
 31
0.0
  0
LINE
  5
1FE
330
1D3
100
AcDbEntity
  8
AM_9
100
AcDbLine
 10
1.265625
 20
1.67325
 30
0.0
 11
-0.640625
 21
1.67325
 31
0.0
  0
LINE
  5
1FF
330
1D3
100
AcDbEntity
  8
AM_9
100
AcDbLine
 10
-0.3999999999999999
 20
2.435529838774805
 30
0.0
 11
-0.4999999999999999
 21
2.435529838774805
 31
0.0
  0
LINE
  5
200
330
1D3
100
AcDbEntity
  8
AM_9
100
AcDbLine
 10
-0.3999999999999999
 20
2.473542885777586
 30
0.0
 11
-0.3999999999999999
 21
1.932769785580586
 31
0.0
  0
LINE
  5
201
330
1D3
100
AcDbEntity
  8
AM_9
100
AcDbLine
 10
-0.3999999999999999
 20
-2.435529838774805
 30
0.0
 11
-0.4999999999999999
 21
-2.435529838774805
 31
0.0
  0
LINE
  5
202
330
1D3
100
AcDbEntity
  8
AM_9
100
AcDbLine
 10
-0.3999999999999999
 20
-1.932769785580586
 30
0.0
 11
-0.3999999999999999
 21
-2.473542885777586
 31
0.0
  0
LINE
  5
203
330
1D3
100
AcDbEntity
  8
AM_9
100
AcDbLine
 10
-0.5
 20
-2.030711126790528
 30
0.0
 11
0.0000000000000001
 21
-2.030711126790528
 31
0.0
  0
LINE
  5
204
330
1D3
100
AcDbEntity
  8
AM_9
100
AcDbLine
 10
0.0000000000000001
 20
-1.593211126790528
 30
0.0
 11
-0.5
 21
-1.593211126790528
 31
0.0
  0
LINE
  5
205
330
1D3
100
AcDbEntity
  8
AM_9
100
AcDbLine
 10
-0.5
 20
1.593211126790528
 30
0.0
 11
0.0000000000000001
 21
1.593211126790528
 31
0.0
  0
LINE
  5
206
330
1D3
100
AcDbEntity
  8
AM_9
100
AcDbLine
 10
0.0000000000000001
 20
2.030711126790528
 30
0.0
 11
-0.5
 21
2.030711126790528
 31
0.0
  0
LINE
  5
207
330
1D3
100
AcDbEntity
  8
AM_9
100
AcDbLine
 10
-0.0169
 20
0.2018499999999999
 30
0.0
 11
-0.3830999999999997
 21
0.2018499999999999
 31
0.0
  0
LINE
  5
208
330
1D3
100
AcDbEntity
  8
AM_9
100
AcDbLine
 10
-0.3830999999999997
 20
-0.2018499999999999
 30
0.0
 11
-0.0169
 21
-0.2018499999999999
 31
0.0
  0
LINE
  5
209
330
1D3
100
AcDbEntity
  8
AM_9
100
AcDbLine
 10
-0.3830999999999997
 20
-0.2018499999999999
 30
0.0
 11
-0.3830999999999997
 21
0.2018499999999999
 31
0.0
  0
LINE
  5
20A
330
1D3
100
AcDbEntity
  8
AM_9
100
AcDbLine
 10
-0.3830999999999997
 20
0.2018499999999999
 30
0.0
 11
-0.3999999999999999
 21
0.2187499999999999
 31
0.0
  0
LINE
  5
20B
330
1D3
100
AcDbEntity
  8
AM_9
100
AcDbLine
 10
-0.3999999999999999
 20
-0.2187499999999999
 30
0.0
 11
-0.3830999999999997
 21
-0.2018499999999999
 31
0.0
  0
LINE
  5
20C
330
1D3
100
AcDbEntity
  8
AM_9
100
AcDbLine
 10
-0.0169
 20
-0.2018499999999999
 30
0.0
 11
-0.0169
 21
0.2018499999999999
 31
0.0
  0
LINE
  5
20D
330
1D3
100
AcDbEntity
  8
AM_9
100
AcDbLine
 10
-0.0169
 20
-0.2018499999999999
 30
0.0
 11
0.0000000000000002
 21
-0.2187499999999999
 31
0.0
  0
LINE
  5
20E
330
1D3
100
AcDbEntity
  8
AM_9
100
AcDbLine
 10
0.0000000000000002
 20
0.2187499999999999
 30
0.0
 11
-0.0169
 21
0.2018499999999999
 31
0.0
  0
LINE
  5
20F
330
1D3
100
AcDbEntity
  8
AM_5
100
AcDbLine
 10
-0.0000000000000002
 20
-0.2187499999999997
 30
0.0
 11
-0.4000000000000001
 21
-0.2187499999999997
 31
0.0
  0
LINE
  5
210
330
1D3
100
AcDbEntity
  8
AM_5
100
AcDbLine
 10
0.0000000000000001
 20
0.2187499999999999
 30
0.0
 11
-0.4000000000000001
 21
0.2187499999999999
 31
0.0
  0
LINE
  5
211
330
1D3
100
AcDbEntity
  8
AM_7
100
AcDbLine
 10
0.0262499999999999
 20
1.811961126790528
 30
0.0
 11
-0.5512500000000001
 21
1.811961126790528
 31
0.0
  0
LINE
  5
212
330
1D3
100
AcDbEntity
  8
AM_7
100
AcDbLine
 10
0.0262499999999999
 20
-1.811961126790528
 30
0.0
 11
-0.5512500000000001
 21
-1.811961126790528
 31
0.0
  0
LINE
  5
213
330
1D3
100
AcDbEntity
  8
AM_7
100
AcDbLine
 10
1.670625
 20
0.0
 30
0.0
 11
-1.735375
 21
0.0
 31
0.0
  0
LINE
  5
214
330
1D3
100
AcDbEntity
  8
AM_4
100
AcDbLine
 10
-0.5000000000000001
 20
2.366837594006804
 30
0.0
 11
-0.639625
 21
2.125
 31
0.0
  0
LINE
  5
215
330
1D3
100
AcDbEntity
  8
AM_4
100
AcDbLine
 10
-0.3999999999999997
 20
2.540042674763693
 30
0.0
 11
-0.4375002542611731
 21
2.475090329086589
 31
0.0
  0
LINE
  5
216
330
1D3
100
AcDbEntity
  8
AM_4
100
AcDbLine
 10
-0.639625
 20
2.125
 30
0.0
 11
-0.639625
 21
2.039371163131387
 31
0.0
  0
LINE
  5
217
330
1D3
100
AcDbEntity
  8
AM_4
100
AcDbLine
 10
-0.4999999999999998
 20
2.065338955232288
 30
0.0
 11
-0.6072916666666668
 21
2.065338955232288
 31
0.0
  0
LINE
  5
218
330
1D3
100
AcDbEntity
  8
AM_4
100
AcDbLine
 10
-0.6072916666666668
 20
-2.125
 30
0.0
 11
-0.4999999999999997
 21
-2.125
 31
0.0
  0
LINE
  5
219
330
1D3
100
AcDbEntity
  8
AM_4
100
AcDbLine
 10
-0.6072916666666667
 20
1.743290484551277
 30
0.0
 11
-0.4999999999999999
 21
1.743290484551277
 31
0.0
  0
LINE
  5
21A
330
1D3
100
AcDbEntity
  8
AM_4
100
AcDbLine
 10
-0.6072916666666667
 20
-1.743290484551277
 30
0.0
 11
-0.4999999999999999
 21
-1.743290484551277
 31
0.0
  0
LWPOLYLINE
  5
21B
330
1D3
100
AcDbEntity
  8
AM_4
100
AcDbPolyline
 90
        7
 70
     0
 43
0.0
 10
-0.6072916666666667
 20
1.743290484551277
 10
-0.6074934625431377
 20
1.743075333893005
 10
-0.6181103560124831
 20
1.730118466434373
 10
-0.6282173819275865
 20
1.713754567048517
 10
-0.6338749219435572
 20
1.70137980368762
 10
-0.6382949766637946
 20
1.687425432240705
 10
-0.6398841772417552
 20
1.679110496063222
  0
LINE
  5
21C
330
1D3
100
AcDbEntity
  8
AM_4
100
AcDbLine
 10
-0.6072916666666668
 20
2.065338955232288
 30
0.0
 11
-0.6072916666666667
 21
1.743290484551277
 31
0.0
  0
LWPOLYLINE
  5
21D
330
1D3
100
AcDbEntity
  8
AM_4
100
AcDbPolyline
 90
        5
 70
     0
 43
0.0
 10
-0.639625
 20
2.039371163131387
 10
-0.635192467437968
 20
2.049805205202072
 10
-0.6273138805490637
 20
2.058461917425525
 10
-0.6172308020891772
 20
2.063778839115587
 10
-0.6072916666666668
 20
2.065338955232288
  0
ARC
  5
21E
330
1D3
100
AcDbEntity
  8
AM_4
100
AcDbCircle
 10
-0.6072916666666613
 20
2.091666666666664
 30
0.0
 40
0.033333333333339
100
AcDbArc
 50
165.9301322524265
 51
180.0
  0
LINE
  5
21F
330
1D3
100
AcDbEntity
  8
AM_4
100
AcDbLine
 10
-0.640625
 20
2.091666666666667
 30
0.0
 11
-0.640625
 21
-2.091666666666667
 31
0.0
  0
LWPOLYLINE
  5
220
330
1D3
100
AcDbEntity
  8
AM_4
100
AcDbPolyline
 90
        7
 70
     0
 43
0.0
 10
-0.6398841781056354
 20
-1.67911048992142
 10
-0.6372330678983003
 20
-1.691467833777819
 10
-0.6331127561978863
 20
-1.703277281999674
 10
-0.6256177400365743
 20
-1.718485622808208
 10
-0.6167733586342707
 20
-1.73194532183604
 10
-0.6074934625431576
 20
-1.743075333893009
 10
-0.6072916666666667
 20
-1.743290484551277
  0
LINE
  5
221
330
1D3
100
AcDbEntity
  8
AM_4
100
AcDbLine
 10
-0.6072916666666667
 20
-1.743290484551277
 30
0.0
 11
-0.6072916666666668
 21
-2.125
 31
0.0
  0
ARC
  5
222
330
1D3
100
AcDbEntity
  8
AM_4
100
AcDbCircle
 10
-0.6072916666666665
 20
-2.091666666666666
 30
0.0
 40
0.0333333333333335
100
AcDbArc
 50
180.0
 51
270.0
  0
LINE
  5
223
330
1D3
100
AcDbEntity
  8
AM_4
100
AcDbLine
 10
-0.6398841772417552
 20
1.679110496063222
 30
0.0
 11
-0.4999999999999999
 21
1.679110496063222
 31
0.0
  0
LWPOLYLINE
  5
224
330
1D3
100
AcDbEntity
  8
AM_4
100
AcDbPolyline
 90
        3
 70
     0
 43
0.0
 10
-0.6406249999999998
 20
1.66832762890564
 10
-0.6405150344482452
 20
1.672533137121179
 10
-0.6398841772417552
 20
1.679110496063222
  0
LINE
  5
225
330
1D3
100
AcDbEntity
  8
AM_4
100
AcDbLine
 10
-0.6398841781056354
 20
-1.67911048992142
 30
0.0
 11
-0.6406249999999998
 21
-1.668327628905641
 31
0.0
  0
LINE
  5
226
330
1D3
100
AcDbEntity
  8
AM_4
100
AcDbLine
 10
-0.6398841781056354
 20
-1.67911048992142
 30
0.0
 11
-0.4999999999999999
 21
-1.67911048992142
 31
0.0
  0
LINE
  5
227
330
1D3
100
AcDbEntity
  8
AM_4
100
AcDbLine
 10
-0.6398841781056354
 20
1.25894460734154
 30
0.0
 11
-0.4999999999999998
 21
1.25894460734154
 31
0.0
  0
LINE
  5
228
330
1D3
100
AcDbEntity
  8
AM_4
100
AcDbLine
 10
-0.6398841772417552
 20
-1.258944605866101
 30
0.0
 11
-0.4999999999999998
 21
-1.258944605866101
 31
0.0
  0
LINE
  5
229
330
1D3
100
AcDbEntity
  8
AM_4
100
AcDbLine
 10
-0.4999999999999998
 20
0.8640339994011427
 30
0.0
 11
-0.4999999999999998
 21
2.475090329086589
 31
0.0
  0
LINE
  5
22A
330
1D3
100
AcDbEntity
  8
AM_4
100
AcDbLine
 10
-0.3999999999999999
 20
2.475090329086589
 30
0.0
 11
-0.4999999999999998
 21
2.475090329086589
 31
0.0
  0
LINE
  5
22B
330
1D3
100
AcDbEntity
  8
AM_4
100
AcDbLine
 10
-0.4999999999999998
 20
-2.475090329086589
 30
0.0
 11
-0.3999999999999999
 21
-2.475090329086589
 31
0.0
  0
LINE
  5
22C
330
1D3
100
AcDbEntity
  8
AM_4
100
AcDbLine
 10
-0.4999999999999998
 20
-2.475090329086589
 30
0.0
 11
-0.4999999999999998
 21
-0.8640339994011432
 31
0.0
  0
LINE
  5
22D
330
1D3
100
AcDbEntity
  8
AM_4
100
AcDbLine
 10
1.265625
 20
1.961884159486456
 30
0.0
 11
1.265625
 21
-1.961884159486456
 31
0.0
  0
ARC
  5
22E
330
1D3
100
AcDbEntity
  8
AM_4
100
AcDbCircle
 10
1.215624999999999
 20
-1.961884159486455
 30
0.0
 40
0.0500000000000008
100
AcDbArc
 50
272.000000000001
 51
0.0
  0
ARC
  5
22F
330
1D3
100
AcDbEntity
  8
AM_4
100
AcDbCircle
 10
1.215624999999999
 20
1.961884159486455
 30
0.0
 40
0.0500000000000012
100
AcDbArc
 50
0.0
 51
87.99999999999879
  0
LINE
  5
230
330
1D3
100
AcDbEntity
  8
AM_4
100
AcDbLine
 10
1.217369974835125
 20
2.011853700837411
 30
0.0
 11
0.923255025164875
 21
2.022124421198923
 31
0.0
  0
LINE
  5
231
330
1D3
100
AcDbEntity
  8
AM_4
100
AcDbLine
 10
0.923255025164875
 20
-2.022124421198923
 30
0.0
 11
1.217369974835125
 21
-2.011853700837411
 31
0.0
  0
LINE
  5
232
330
1D3
100
AcDbEntity
  8
AM_4
100
AcDbLine
 10
1.217369974835125
 20
2.011853700837411
 30
0.0
 11
1.217369974835125
 21
-2.011853700837411
 31
0.0
  0
ARC
  5
233
330
1D3
100
AcDbEntity
  8
AM_4
100
AcDbCircle
 10
0.9249999999999995
 20
-2.072093962549877
 30
0.0
 40
0.0499999999999994
100
AcDbArc
 50
91.99999999999937
 51
180.0
  0
ARC
  5
234
330
1D3
100
AcDbEntity
  8
AM_4
100
AcDbCircle
 10
0.9249999999999996
 20
2.072093962549878
 30
0.0
 40
0.0499999999999996
100
AcDbArc
 50
180.0
 51
268.0000000000005
  0
LINE
  5
235
330
1D3
100
AcDbEntity
  8
AM_4
100
AcDbLine
 10
0.923255025164875
 20
2.022124421198923
 30
0.0
 11
0.923255025164875
 21
-2.022124421198923
 31
0.0
  0
LINE
  5
236
330
1D3
100
AcDbEntity
  8
AM_4
100
AcDbLine
 10
-0.3999999999999999
 20
0.8640339994011427
 30
0.0
 11
-0.4999999999999998
 21
0.8640339994011427
 31
0.0
  0
LINE
  5
237
330
1D3
100
AcDbEntity
  8
AM_4
100
AcDbLine
 10
-0.6072916666666667
 20
1.21513920456587
 30
0.0
 11
-0.4999999999999998
 21
1.21513920456587
 31
0.0
  0
LINE
  5
238
330
1D3
100
AcDbEntity
  8
AM_4
100
AcDbLine
 10
-0.6072916666666667
 20
-1.215139204565869
 30
0.0
 11
-0.4999999999999998
 21
-1.215139204565869
 31
0.0
  0
LINE
  5
239
330
1D3
100
AcDbEntity
  8
AM_4
100
AcDbLine
 10
-0.3999999999999999
 20
-0.864033999401143
 30
0.0
 11
-0.4999999999999998
 21
-0.8640339994011432
 31
0.0
  0
LINE
  5
23A
330
1D3
100
AcDbEntity
  8
AM_4
100
AcDbLine
 10
0.0
 20
-2.125
 30
0.0
 11
0.875
 21
-2.125
 31
0.0
  0
LINE
  5
23B
330
1D3
100
AcDbEntity
  8
AM_4
100
AcDbLine
 10
0.875
 20
2.125
 30
0.0
 11
0.0
 21
2.125
 31
0.0
  0
LINE
  5
23C
330
1D3
100
AcDbEntity
  8
AM_4
100
AcDbLine
 10
0.875
 20
2.125
 30
0.0
 11
0.875
 21
-2.125
 31
0.0
  0
LWPOLYLINE
  5
23D
330
1D3
100
AcDbEntity
  8
AM_4
100
AcDbPolyline
 90
        7
 70
     0
 43
0.0
 10
-0.6398841781056354
 20
1.25894460734154
 10
-0.6372330678983004
 20
1.25519186828727
 10
-0.6331127561978868
 20
1.250018634415897
 10
-0.6256177400365749
 20
1.240617161407127
 10
-0.6167733586342716
 20
1.228877593809161
 10
-0.6074934625432018
 20
1.21544674270404
 10
-0.6072916666666667
 20
1.215139204565869
  0
LINE
  5
23E
330
1D3
100
AcDbEntity
  8
AM_4
100
AcDbLine
 10
-0.6398841781056354
 20
1.25894460734154
 30
0.0
 11
-0.6406249999999998
 21
1.261646688686864
 31
0.0
  0
LWPOLYLINE
  5
23F
330
1D3
100
AcDbEntity
  8
AM_4
100
AcDbPolyline
 90
        3
 70
     0
 43
0.0
 10
-0.6406249999999998
 20
-1.261646688686864
 10
-0.6405150344482452
 20
-1.260566170160741
 10
-0.6398841772417552
 20
-1.258944605866101
  0
LWPOLYLINE
  5
240
330
1D3
100
AcDbEntity
  8
AM_4
100
AcDbPolyline
 90
        7
 70
     0
 43
0.0
 10
-0.6072916666666667
 20
-1.215139204565869
 10
-0.6074934625431616
 20
-1.215446742704056
 10
-0.6181103560126778
 20
-1.230710853878583
 10
-0.6282173819279266
 20
-1.243917678267793
 10
-0.6338749219438149
 20
-1.250963851000032
 10
-0.6382949766639504
 20
-1.256596134309966
 10
-0.6398841772417552
 20
-1.258944605866101
  0
LINE
  5
241
330
1D3
100
AcDbEntity
  8
AM_4
100
AcDbLine
 10
-0.6072916666666667
 20
1.21513920456587
 30
0.0
 11
-0.6072916666666667
 21
-1.215139204565869
 31
0.0
  0
LINE
  5
242
330
1D3
100
AcDbEntity
  8
AM_4
100
AcDbLine
 10
-0.3999999999999999
 20
0.9620520665374772
 30
0.0
 11
-0.4999999999999998
 21
0.9620520665374772
 31
0.0
  0
LINE
  5
243
330
1D3
100
AcDbEntity
  8
AM_4
100
AcDbLine
 10
-0.3999999999999999
 20
-0.9620520665374782
 30
0.0
 11
-0.4999999999999998
 21
-0.9620520665374782
 31
0.0
  0
LINE
  5
244
330
1D3
100
AcDbEntity
  8
AM_4
100
AcDbLine
 10
-0.3999999999999999
 20
-1.654240069629155
 30
0.0
 11
-0.4999999999999998
 21
-1.654240069629155
 31
0.0
  0
LINE
  5
245
330
1D3
100
AcDbEntity
  8
AM_4
100
AcDbLine
 10
-0.3999999999999999
 20
1.654240069629153
 30
0.0
 11
-0.4999999999999998
 21
1.654240069629153
 31
0.0
  0
LINE
  5
246
330
1D3
100
AcDbEntity
  8
AM_4
100
AcDbLine
 10
-0.3999999999999999
 20
-1.805683206495286
 30
0.0
 11
-0.3999999999999999
 21
1.805683206495284
 31
0.0
  0
LINE
  5
247
330
1D3
100
AcDbEntity
  8
AM_4
100
AcDbLine
 10
-0.3999999999999999
 20
2.473542885777586
 30
0.0
 11
-0.3999999999999999
 21
3.0625
 31
0.0
  0
LINE
  5
248
330
1D3
100
AcDbEntity
  8
AM_4
100
AcDbLine
 10
-0.4999999999999998
 20
2.473542885777586
 30
0.0
 11
-0.3999999999999999
 21
2.473542885777586
 31
0.0
  0
LINE
  5
249
330
1D3
100
AcDbEntity
  8
AM_4
100
AcDbLine
 10
-0.3999999999999999
 20
1.805683206495284
 30
0.0
 11
-0.4999999999999998
 21
1.805683206495284
 31
0.0
  0
LINE
  5
24A
330
1D3
100
AcDbEntity
  8
AM_4
100
AcDbLine
 10
-0.4999999999999998
 20
-1.805683206495286
 30
0.0
 11
-0.3999999999999999
 21
-1.805683206495286
 31
0.0
  0
LINE
  5
24B
330
1D3
100
AcDbEntity
  8
AM_4
100
AcDbLine
 10
-0.3999999999999999
 20
-2.473542885777586
 30
0.0
 11
-0.4999999999999998
 21
-2.473542885777586
 31
0.0
  0
LINE
  5
24C
330
1D3
100
AcDbEntity
  8
AM_4
100
AcDbLine
 10
-0.3999999999999999
 20
-3.0625
 30
0.0
 11
0.0
 21
-3.0625
 31
0.0
  0
LINE
  5
24D
330
1D3
100
AcDbEntity
  8
AM_4
100
AcDbLine
 10
0.0
 20
3.0625
 30
0.0
 11
-0.3999999999999999
 21
3.0625
 31
0.0
  0
LINE
  5
24E
330
1D3
100
AcDbEntity
  8
AM_4
100
AcDbLine
 10
0.0
 20
3.0625
 30
0.0
 11
0.0
 21
-3.0625
 31
0.0
  0
LINE
  5
24F
330
1D3
100
AcDbEntity
  8
AM_4
100
AcDbLine
 10
-0.3999999999999999
 20
-3.0625
 30
0.0
 11
-0.3999999999999999
 21
-2.473542885777586
 31
0.0
  0
ENDBLK
  5
1D6
330
1D3
100
AcDbEntity
  8
0
100
AcDbBlockEnd
  0
ENDSEC
  0
SECTION
  2
ENTITIES
  0
INSERT
  5
6F
330
1F
100
AcDbEntity
  8
0
100
AcDbBlockReference
  2
1_069875_2
 10
0.0
 20
0.0
 30
0.0
  0
POINT
  5
251
330
1F
100
AcDbEntity
  8
ConnectionPoints
100
AcDbPoint
 10
-1.43475
 20
-1.201388888888889
 30
0.0000000000000001
  0
POINT
  5
252
330
1F
100
AcDbEntity
  8
ConnectionPoints
100
AcDbPoint
 10
-1.43475
 20
1.201388888888889
 30
0.0000000000000001
  0
POINT
  5
253
330
1F
100
AcDbEntity
  8
ConnectionPoints
100
AcDbPoint
 10
-1.36475
 20
0.0
 30
0.0000000000000001
  0
POINT
  5
254
330
1F
100
AcDbEntity
  8
ConnectionPoints
100
AcDbPoint
 10
-1.59375
 20
0.0
 30
0.0000000000000001
  0
POINT
  5
255
330
1F
100
AcDbEntity
  8
ConnectionPoints
100
AcDbPoint
 10
-1.56375
 20
0.0
 30
0.0000000000000001
  0
POINT
  5
256
330
1F
100
AcDbEntity
  8
ConnectionPoints
100
AcDbPoint
 10
-1.36475
 20
1.201388888888889
 30
0.0000000000000001
  0
POINT
  5
257
330
1F
100
AcDbEntity
  8
ConnectionPoints
100
AcDbPoint
 10
-1.49275
 20
1.201388888888889
 30
0.0000000000000001
  0
POINT
  5
258
330
1F
100
AcDbEntity
  8
ConnectionPoints
100
AcDbPoint
 10
-1.36475
 20
-1.201388888888889
 30
0.0000000000000001
  0
POINT
  5
259
330
1F
100
AcDbEntity
  8
ConnectionPoints
100
AcDbPoint
 10
-1.49275
 20
-1.201388888888889
 30
0.0000000000000001
  0
POINT
  5
25A
330
1F
100
AcDbEntity
  8
ConnectionPoints
100
AcDbPoint
 10
-1.36475
 20
0.0
 30
0.0000000000000001
  0
POINT
  5
25B
330
1F
100
AcDbEntity
  8
ConnectionPoints
100
AcDbPoint
 10
-0.5198124999999998
 20
2.332521337381846
 30
0.0
  0
POINT
  5
25C
330
1F
100
AcDbEntity
  8
ConnectionPoints
100
AcDbPoint
 10
-0.4110905184457729
 20
2.520833333333333
 30
0.0
  0
POINT
  5
25D
330
1F
100
AcDbEntity
  8
ConnectionPoints
100
AcDbPoint
 10
-1.34375
 20
0.0
 30
0.0000000000000001
  0
POINT
  5
25E
330
1F
100
AcDbEntity
  8
ConnectionPoints
100
AcDbPoint
 10
-1.59375
 20
0.0
 30
0.0000000000000001
  0
ENDSEC
  0
SECTION
  2
OBJECTS
  0
DICTIONARY
  5
C
330
0
100
AcDbDictionary
281
     1
  3
ACAD_DETAILVIEWSTYLE
350
266
  3
ACAD_GROUP
350
D
  3
ACAD_LAYOUT
350
1A
  3
ACAD_MATERIAL
350
43
  3
ACAD_MLEADERSTYLE
350
6B
  3
ACAD_MLINESTYLE
350
17
  3
ACAD_PLOTSETTINGS
350
19
  3
ACAD_PLOTSTYLENAME
350
E
  3
ACAD_SCALELIST
350
47
  3
ACAD_SECTIONVIEWSTYLE
350
267
  3
ACAD_TABLESTYLE
350
69
  3
ACAD_VISUALSTYLE
350
2A
  3
ACDB_RECOMPOSE_DATA
350
263
  3
AcDbVariableDictionary
350
25F
  0
SUN
  5
6D
330
29
100
AcDbSun
 90
        1
290
     0
 63
     7
421
 16777215
 40
1.0
291
     1
 91
  2455826
 92
 54000000
292
     0
 70
     2
 71
   256
280
     1
  0
DICTIONARY
  5
266
102
{ACAD_REACTORS
330
C
102
}
330
C
100
AcDbDictionary
281
     1
  0
DICTIONARY
  5
D
102
{ACAD_REACTORS
330
C
102
}
330
C
100
AcDbDictionary
281
     1
  0
DICTIONARY
  5
1A
102
{ACAD_REACTORS
330
C
102
}
330
C
100
AcDbDictionary
281
     1
  3
Layout1
350
1E
  3
Layout2
350
26
  3
Model
350
22
  0
DICTIONARY
  5
43
102
{ACAD_REACTORS
330
C
102
}
330
C
100
AcDbDictionary
281
     1
  3
ByBlock
350
45
  3
ByLayer
350
44
  3
Global
350
46
  0
DICTIONARY
  5
6B
102
{ACAD_REACTORS
330
C
102
}
330
C
100
AcDbDictionary
281
     1
  3
Standard
350
6C
  0
DICTIONARY
  5
17
102
{ACAD_REACTORS
330
C
102
}
330
C
100
AcDbDictionary
281
     1
  3
Standard
350
18
  0
DICTIONARY
  5
19
102
{ACAD_REACTORS
330
C
102
}
330
C
100
AcDbDictionary
281
     1
  0
ACDBDICTIONARYWDFLT
  5
E
102
{ACAD_REACTORS
330
C
102
}
330
C
100
AcDbDictionary
281
     1
  3
Normal
350
F
100
AcDbDictionaryWithDefault
340
F
  0
DICTIONARY
  5
47
102
{ACAD_REACTORS
330
C
102
}
330
C
100
AcDbDictionary
281
     1
  3
A0
350
48
  3
A1
350
49
  3
A2
350
4A
  3
A3
350
4B
  3
A4
350
4C
  3
A5
350
4D
  3
A6
350
4E
  3
A7
350
4F
  3
A8
350
50
  3
A9
350
51
  3
B0
350
52
  3
B1
350
53
  3
B2
350
54
  3
B3
350
55
  3
B4
350
56
  3
B5
350
57
  3
B6
350
58
  3
B7
350
59
  3
B8
350
5A
  3
B9
350
5B
  3
C0
350
5C
  3
C1
350
5D
  3
C2
350
5E
  3
C3
350
5F
  3
C4
350
60
  3
C5
350
61
  3
C6
350
62
  3
C7
350
63
  3
C8
350
64
  3
C9
350
65
  3
D0
350
66
  3
D1
350
67
  3
D2
350
68
  0
DICTIONARY
  5
267
102
{ACAD_REACTORS
330
C
102
}
330
C
100
AcDbDictionary
281
     1
  0
DICTIONARY
  5
69
102
{ACAD_REACTORS
330
C
102
}
330
C
100
AcDbDictionary
281
     1
  3
Standard
350
6A
  0
DICTIONARY
  5
2A
102
{ACAD_REACTORS
330
C
102
}
330
C
100
AcDbDictionary
281
     1
  3
2dWireframe
350
2F
  3
Basic
350
32
  3
Brighten
350
36
  3
ColorChange
350
3A
  3
Conceptual
350
34
  3
Dim
350
35
  3
EdgeColorOff
350
3D
  3
Facepattern
350
39
  3
Flat
350
2B
  3
FlatWithEdges
350
2C
  3
Gouraud
350
2D
  3
GouraudWithEdges
350
2E
  3
Hidden
350
31
  3
JitterOff
350
3B
  3
Linepattern
350
38
  3
OverhangOff
350
3C
  3
Realistic
350
33
  3
Shaded
350
42
  3
Shaded with edges
350
41
  3
Shades of Gray
350
3E
  3
Sketchy
350
3F
  3
Thicken
350
37
  3
Wireframe
350
30
  3
X-Ray
350
40
  0
XRECORD
  5
263
102
{ACAD_REACTORS
330
C
102
}
330
C
100
AcDbXrecord
280
     1
 90
        1
330
6A
  0
DICTIONARY
  5
25F
102
{ACAD_REACTORS
330
C
102
}
330
C
100
AcDbDictionary
281
     1
  3
CANNOSCALE
350
260
  3
CMLEADERSTYLE
350
265
  3
CTABLESTYLE
350
264
  0
LAYOUT
  5
1E
102
{ACAD_REACTORS
330
1A
102
}
330
1A
100
AcDbPlotSettings
  1

  2
none_device
  4

  6

 40
0.0
 41
0.0
 42
0.0
 43
0.0
 44
0.0
 45
0.0
 46
0.0
 47
0.0
 48
0.0
 49
0.0
140
0.0
141
0.0
142
1.0
143
1.0
 70
   688
 72
     0
 73
     0
 74
     5
  7

 75
    16
 76
     0
 77
     2
 78
   300
147
1.0
148
0.0
149
0.0
100
AcDbLayout
  1
Layout1
 70
     1
 71
     1
 10
0.0
 20
0.0
 11
12.0
 21
9.0
 12
0.0
 22
0.0
 32
0.0
 14
1.000000000000000E+20
 24
1.000000000000000E+20
 34
1.000000000000000E+20
 15
-1.000000000000000E+20
 25
-1.000000000000000E+20
 35
-1.000000000000000E+20
146
0.0
 13
0.0
 23
0.0
 33
0.0
 16
1.0
 26
0.0
 36
0.0
 17
0.0
 27
1.0
 37
0.0
 76
     0
330
1B
  0
LAYOUT
  5
26
102
{ACAD_REACTORS
330
1A
102
}
330
1A
100
AcDbPlotSettings
  1

  2
none_device
  4

  6

 40
0.0
 41
0.0
 42
0.0
 43
0.0
 44
0.0
 45
0.0
 46
0.0
 47
0.0
 48
0.0
 49
0.0
140
0.0
141
0.0
142
1.0
143
1.0
 70
   688
 72
     0
 73
     0
 74
     5
  7

 75
    16
 76
     0
 77
     2
 78
   300
147
1.0
148
0.0
149
0.0
100
AcDbLayout
  1
Layout2
 70
     1
 71
     2
 10
0.0
 20
0.0
 11
0.0
 21
0.0
 12
0.0
 22
0.0
 32
0.0
 14
0.0
 24
0.0
 34
0.0
 15
0.0
 25
0.0
 35
0.0
146
0.0
 13
0.0
 23
0.0
 33
0.0
 16
1.0
 26
0.0
 36
0.0
 17
0.0
 27
1.0
 37
0.0
 76
     0
330
23
  0
LAYOUT
  5
22
102
{ACAD_REACTORS
330
1A
102
}
330
1A
100
AcDbPlotSettings
  1

  2
none_device
  4
Letter_(8.50_x_11.00_Inches)
  6

 40
6.35
 41
6.35
 42
6.35000508
 43
6.35000508
 44
215.9
 45
279.4
 46
0.0
 47
0.0
 48
0.0
 49
0.0
140
0.0
141
0.0
142
1.0
143
1.0
 70
  1712
 72
     0
 73
     0
 74
     0
  7

 75
     0
 76
     0
 77
     2
 78
   300
147
1.0
148
0.0
149
0.0
100
AcDbLayout
  1
Model
 70
     1
 71
     0
 10
0.0
 20
0.0
 11
12.0
 21
9.0
 12
0.0
 22
0.0
 32
0.0
 14
1.000000000000000E+20
 24
1.000000000000000E+20
 34
1.000000000000000E+20
 15
-1.000000000000000E+20
 25
-1.000000000000000E+20
 35
-1.000000000000000E+20
146
0.0
 13
0.0
 23
0.0
 33
0.0
 16
1.0
 26
0.0
 36
0.0
 17
0.0
 27
1.0
 37
0.0
 76
     0
330
1F
331
29
  0
MATERIAL
  5
45
102
{ACAD_REACTORS
330
43
102
}
330
43
100
AcDbMaterial
  1
ByBlock
 72
     1
 94
      127
  0
MATERIAL
  5
44
102
{ACAD_REACTORS
330
43
102
}
330
43
100
AcDbMaterial
  1
ByLayer
 72
     1
 94
      127
  0
MATERIAL
  5
46
102
{ACAD_REACTORS
330
43
102
}
330
43
100
AcDbMaterial
  1
Global
 72
     1
 94
      127
  0
MLEADERSTYLE
  5
6C
102
{ACAD_REACTORS
330
6B
102
}
330
6B
100
AcDbMLeaderStyle
179
     2
170
     2
171
     1
172
     0
 90
        2
 40
0.0
 41
0.0
173
     1
 91
-1056964608
340
14
 92
       -2
290
     1
 42
0.09
291
     1
 43
0.36
  3
Standard
341
0
 44
0.18
300

342
11
174
     1
178
     6
175
     1
176
     0
 93
-1056964608
 45
0.18
292
     0
297
     0
 46
0.18
343
0
 94
-1056964608
 47
1.0
 49
1.0
140
1.0
293
     1
141
0.0
294
     1
177
     0
142
1.0
295
     0
296
     0
143
0.125
271
     0
272
     9
273
     9
298
     0
  0
MLINESTYLE
  5
18
102
{ACAD_REACTORS
330
17
102
}
330
17
100
AcDbMlineStyle
  2
Standard
 70
     0
  3

 62
   256
 51
90.0
 52
90.0
 71
     2
 49
0.5
 62
   256
  6
BYLAYER
 49
-0.5
 62
   256
  6
BYLAYER
  0
ACDBPLACEHOLDER
  5
F
102
{ACAD_REACTORS
330
E
102
}
330
E
  0
SCALE
  5
48
102
{ACAD_REACTORS
330
47
102
}
330
47
100
AcDbScale
 70
     0
300
1:1
140
1.0
141
1.0
290
     1
  0
SCALE
  5
49
102
{ACAD_REACTORS
330
47
102
}
330
47
100
AcDbScale
 70
     0
300
1:2
140
1.0
141
2.0
290
     0
  0
SCALE
  5
4A
102
{ACAD_REACTORS
330
47
102
}
330
47
100
AcDbScale
 70
     0
300
1:4
140
1.0
141
4.0
290
     0
  0
SCALE
  5
4B
102
{ACAD_REACTORS
330
47
102
}
330
47
100
AcDbScale
 70
     0
300
1:5
140
1.0
141
5.0
290
     0
  0
SCALE
  5
4C
102
{ACAD_REACTORS
330
47
102
}
330
47
100
AcDbScale
 70
     0
300
1:8
140
1.0
141
8.0
290
     0
  0
SCALE
  5
4D
102
{ACAD_REACTORS
330
47
102
}
330
47
100
AcDbScale
 70
     0
300
1:10
140
1.0
141
10.0
290
     0
  0
SCALE
  5
4E
102
{ACAD_REACTORS
330
47
102
}
330
47
100
AcDbScale
 70
     0
300
1:16
140
1.0
141
16.0
290
     0
  0
SCALE
  5
4F
102
{ACAD_REACTORS
330
47
102
}
330
47
100
AcDbScale
 70
     0
300
1:20
140
1.0
141
20.0
290
     0
  0
SCALE
  5
50
102
{ACAD_REACTORS
330
47
102
}
330
47
100
AcDbScale
 70
     0
300
1:30
140
1.0
141
30.0
290
     0
  0
SCALE
  5
51
102
{ACAD_REACTORS
330
47
102
}
330
47
100
AcDbScale
 70
     0
300
1:40
140
1.0
141
40.0
290
     0
  0
SCALE
  5
52
102
{ACAD_REACTORS
330
47
102
}
330
47
100
AcDbScale
 70
     0
300
1:50
140
1.0
141
50.0
290
     0
  0
SCALE
  5
53
102
{ACAD_REACTORS
330
47
102
}
330
47
100
AcDbScale
 70
     0
300
1:100
140
1.0
141
100.0
290
     0
  0
SCALE
  5
54
102
{ACAD_REACTORS
330
47
102
}
330
47
100
AcDbScale
 70
     0
300
2:1
140
2.0
141
1.0
290
     0
  0
SCALE
  5
55
102
{ACAD_REACTORS
330
47
102
}
330
47
100
AcDbScale
 70
     0
300
4:1
140
4.0
141
1.0
290
     0
  0
SCALE
  5
56
102
{ACAD_REACTORS
330
47
102
}
330
47
100
AcDbScale
 70
     0
300
8:1
140
8.0
141
1.0
290
     0
  0
SCALE
  5
57
102
{ACAD_REACTORS
330
47
102
}
330
47
100
AcDbScale
 70
     0
300
10:1
140
10.0
141
1.0
290
     0
  0
SCALE
  5
58
102
{ACAD_REACTORS
330
47
102
}
330
47
100
AcDbScale
 70
     0
300
100:1
140
100.0
141
1.0
290
     0
  0
SCALE
  5
59
102
{ACAD_REACTORS
330
47
102
}
330
47
100
AcDbScale
 70
     0
300
1/128" = 1'-0"
140
0.0078125
141
12.0
290
     0
  0
SCALE
  5
5A
102
{ACAD_REACTORS
330
47
102
}
330
47
100
AcDbScale
 70
     0
300
1/64" = 1'-0"
140
0.015625
141
12.0
290
     0
  0
SCALE
  5
5B
102
{ACAD_REACTORS
330
47
102
}
330
47
100
AcDbScale
 70
     0
300
1/32" = 1'-0"
140
0.03125
141
12.0
290
     0
  0
SCALE
  5
5C
102
{ACAD_REACTORS
330
47
102
}
330
47
100
AcDbScale
 70
     0
300
1/16" = 1'-0"
140
0.0625
141
12.0
290
     0
  0
SCALE
  5
5D
102
{ACAD_REACTORS
330
47
102
}
330
47
100
AcDbScale
 70
     0
300
3/32" = 1'-0"
140
0.09375
141
12.0
290
     0
  0
SCALE
  5
5E
102
{ACAD_REACTORS
330
47
102
}
330
47
100
AcDbScale
 70
     0
300
1/8" = 1'-0"
140
0.125
141
12.0
290
     0
  0
SCALE
  5
5F
102
{ACAD_REACTORS
330
47
102
}
330
47
100
AcDbScale
 70
     0
300
3/16" = 1'-0"
140
0.1875
141
12.0
290
     0
  0
SCALE
  5
60
102
{ACAD_REACTORS
330
47
102
}
330
47
100
AcDbScale
 70
     0
300
1/4" = 1'-0"
140
0.25
141
12.0
290
     0
  0
SCALE
  5
61
102
{ACAD_REACTORS
330
47
102
}
330
47
100
AcDbScale
 70
     0
300
3/8" = 1'-0"
140
0.375
141
12.0
290
     0
  0
SCALE
  5
62
102
{ACAD_REACTORS
330
47
102
}
330
47
100
AcDbScale
 70
     0
300
1/2" = 1'-0"
140
0.5
141
12.0
290
     0
  0
SCALE
  5
63
102
{ACAD_REACTORS
330
47
102
}
330
47
100
AcDbScale
 70
     0
300
3/4" = 1'-0"
140
0.75
141
12.0
290
     0
  0
SCALE
  5
64
102
{ACAD_REACTORS
330
47
102
}
330
47
100
AcDbScale
 70
     0
300
1" = 1'-0"
140
1.0
141
12.0
290
     0
  0
SCALE
  5
65
102
{ACAD_REACTORS
330
47
102
}
330
47
100
AcDbScale
 70
     0
300
1-1/2" = 1'-0"
140
1.5
141
12.0
290
     0
  0
SCALE
  5
66
102
{ACAD_REACTORS
330
47
102
}
330
47
100
AcDbScale
 70
     0
300
3" = 1'-0"
140
3.0
141
12.0
290
     0
  0
SCALE
  5
67
102
{ACAD_REACTORS
330
47
102
}
330
47
100
AcDbScale
 70
     0
300
6" = 1'-0"
140
6.0
141
12.0
290
     0
  0
SCALE
  5
68
102
{ACAD_REACTORS
330
47
102
}
330
47
100
AcDbScale
 70
     0
300
1'-0" = 1'-0"
140
12.0
141
12.0
290
     0
  0
TABLESTYLE
  5
6A
102
{ACAD_REACTORS
330
69
102
}
102
{ACAD_XDICTIONARY
360
261
102
}
330
69
100
AcDbTableStyle
  3
Standard
 70
     0
 71
     0
 40
0.06
 41
0.06
280
     0
281
     0
  7
Standard
140
0.18
170
     2
 62
     0
 63
   257
283
     0
 90
        4
 91
        0
  1

274
    -2
284
     1
 64
     0
275
    -2
285
     1
 65
     0
276
    -2
286
     1
 66
     0
277
    -2
287
     1
 67
     0
278
    -2
288
     1
 68
     0
279
    -2
289
     1
 69
     0
  7
Standard
140
0.25
170
     5
 62
     0
 63
   257
283
     0
 90
        4
 91
        0
  1

274
    -2
284
     1
 64
     0
275
    -2
285
     1
 65
     0
276
    -2
286
     1
 66
     0
277
    -2
287
     1
 67
     0
278
    -2
288
     1
 68
     0
279
    -2
289
     1
 69
     0
  7
Standard
140
0.18
170
     5
 62
     0
 63
   257
283
     0
 90
        4
 91
        0
  1

274
    -2
284
     1
 64
     0
275
    -2
285
     1
 65
     0
276
    -2
286
     1
 66
     0
277
    -2
287
     1
 67
     0
278
    -2
288
     1
 68
     0
279
    -2
289
     1
 69
     0
  0
VISUALSTYLE
  5
2F
102
{ACAD_REACTORS
330
2A
102
}
330
2A
100
AcDbVisualStyle
  2
2dWireframe
 70
     4
177
     3
291
     0
 70
    58
 90
        0
176
     1
 90
        2
176
     1
 90
        0
176
     1
 90
        0
176
     1
 40
0.6
176
     1
 40
30.0
176
     1
 62
     7
420
 16777215
176
     1
 90
        1
176
     1
 90
        4
176
     1
 62
     7
176
     1
 62
   257
176
     1
 90
        1
176
     1
 90
        1
176
     1
 40
1.0
176
     1
 90
        0
176
     1
 62
   257
176
     1
 40
1.0
176
     1
 90
        1
176
     1
 90
        6
176
     1
 90
        2
176
     1
 62
     7
176
     1
 90
        5
176
     1
 90
        0
176
     1
 90
        0
176
     1
290
     0
176
     1
 90
        1
176
     1
 40
0.0
176
     1
 90
        0
176
     1
290
     1
176
     1
290
     1
176
     1
290
     0
176
     1
290
     0
176
     1
290
     0
176
     1
290
     0
176
     1
290
     0
176
     1
290
     0
176
     1
290
     0
176
     1
 90
       50
176
     1
 40
0.0
176
     1
 40
1.0
176
     1
 90
        0
176
     1
 62
    18
420
        0
176
     1
 90
       50
176
     1
 90
        3
176
     1
 62
     5
420
      255
176
     1
290
     0
176
     1
 90
       50
176
     1
 90
       50
176
     1
 90
       50
176
     1
290
     0
176
     1
 90
       50
176
     1
 62
   256
176
     0
 40
1.0
176
     0
 90
        2
176
     1
  1
strokes_ogs.tif
176
     1
290
     0
176
     1
 40
1.0
176
     1
 40
1.0
176
     1
  0
VISUALSTYLE
  5
32
102
{ACAD_REACTORS
330
2A
102
}
330
2A
100
AcDbVisualStyle
  2
Basic
 70
     7
177
     3
291
     1
 70
    58
 90
        1
176
     1
 90
        0
176
     1
 90
        1
176
     1
 90
        0
176
     1
 40
0.6
176
     1
 40
30.0
176
     1
 62
     7
420
 16777215
176
     1
 90
        0
176
     1
 90
        4
176
     1
 62
     7
176
     1
 62
   257
176
     1
 90
        1
176
     1
 90
        1
176
     1
 40
1.0
176
     1
 90
        8
176
     1
 62
     7
176
     1
 40
1.0
176
     1
 90
        1
176
     1
 90
        6
176
     1
 90
        2
176
     1
 62
     7
176
     1
 90
        5
176
     1
 90
        0
176
     1
 90
        0
176
     1
290
     0
176
     1
 90
        1
176
     1
 40
0.0
176
     1
 90
        0
176
     1
290
     0
176
     1
290
     1
176
     1
290
     1
176
     1
290
     0
176
     1
290
     0
176
     1
290
     0
176
     1
290
     0
176
     1
290
     0
176
     1
290
     0
176
     1
 90
       50
176
     1
 40
0.0
176
     1
 40
1.0
176
     1
 90
        0
176
     1
 62
    18
420
        0
176
     1
 90
       50
176
     1
 90
        3
176
     1
 62
     5
420
      255
176
     1
290
     0
176
     1
 90
       50
176
     1
 90
       50
176
     1
 90
       50
176
     1
290
     0
176
     1
 90
       50
176
     1
 62
   256
176
     0
 40
1.0
176
     0
 90
        2
176
     1
  1
strokes_ogs.tif
176
     1
290
     0
176
     1
 40
1.0
176
     1
 40
1.0
176
     1
  0
VISUALSTYLE
  5
36
102
{ACAD_REACTORS
330
2A
102
}
330
2A
100
AcDbVisualStyle
  2
Brighten
 70
    12
177
     3
291
     1
 70
    58
 90
        2
176
     1
 90
        2
176
     1
 90
        0
176
     1
 90
        0
176
     1
 40
0.6
176
     1
 40
30.0
176
     1
 62
     7
420
 16777215
176
     1
 90
        1
176
     1
 90
        4
176
     1
 62
     7
176
     1
 62
   257
176
     1
 90
        1
176
     1
 90
        1
176
     1
 40
1.0
176
     1
 90
        8
176
     1
 62
     7
176
     1
 40
1.0
176
     1
 90
        1
176
     1
 90
        6
176
     1
 90
        2
176
     1
 62
     7
176
     1
 90
        5
176
     1
 90
        0
176
     1
 90
        0
176
     1
290
     0
176
     1
 90
        1
176
     1
 40
50.0
176
     1
 90
        0
176
     1
290
     0
176
     1
290
     1
176
     1
290
     1
176
     1
290
     0
176
     1
290
     0
176
     1
290
     0
176
     1
290
     0
176
     1
290
     0
176
     1
290
     0
176
     1
 90
       50
176
     1
 40
0.0
176
     1
 40
1.0
176
     1
 90
        0
176
     1
 62
    18
420
        0
176
     1
 90
       50
176
     1
 90
        3
176
     1
 62
     5
420
      255
176
     1
290
     0
176
     1
 90
       50
176
     1
 90
       50
176
     1
 90
       50
176
     1
290
     0
176
     1
 90
       50
176
     1
 62
   256
176
     0
 40
1.0
176
     0
 90
        2
176
     1
  1
strokes_ogs.tif
176
     1
290
     0
176
     1
 40
1.0
176
     1
 40
1.0
176
     1
  0
VISUALSTYLE
  5
3A
102
{ACAD_REACTORS
330
2A
102
}
330
2A
100
AcDbVisualStyle
  2
ColorChange
 70
    16
177
     3
291
     1
 70
    58
 90
        2
176
     1
 90
        2
176
     1
 90
        3
176
     1
 90
        0
176
     1
 40
0.6
176
     1
 40
30.0
176
     1
 62
     8
420
  8421504
176
     1
 90
        1
176
     1
 90
        4
176
     1
 62
     7
176
     1
 62
   257
176
     1
 90
        1
176
     1
 90
        1
176
     1
 40
1.0
176
     1
 90
        8
176
     1
 62
     8
420
  8421504
176
     1
 40
1.0
176
     1
 90
        1
176
     1
 90
        6
176
     1
 90
        2
176
     1
 62
     7
176
     1
 90
        5
176
     1
 90
        0
176
     1
 90
        0
176
     1
290
     0
176
     1
 90
        1
176
     1
 40
0.0
176
     1
 90
        0
176
     1
290
     0
176
     1
290
     1
176
     1
290
     1
176
     1
290
     0
176
     1
290
     0
176
     1
290
     0
176
     1
290
     0
176
     1
290
     0
176
     1
290
     0
176
     1
 90
       50
176
     1
 40
0.0
176
     1
 40
1.0
176
     1
 90
        0
176
     1
 62
    18
420
        0
176
     1
 90
       50
176
     1
 90
        3
176
     1
 62
     5
420
      255
176
     1
290
     0
176
     1
 90
       50
176
     1
 90
       50
176
     1
 90
       50
176
     1
290
     0
176
     1
 90
       50
176
     1
 62
   256
176
     0
 40
1.0
176
     0
 90
        2
176
     1
  1
strokes_ogs.tif
176
     1
290
     0
176
     1
 40
1.0
176
     1
 40
1.0
176
     1
  0
VISUALSTYLE
  5
34
102
{ACAD_REACTORS
330
2A
102
}
330
2A
100
AcDbVisualStyle
  2
Conceptual
 70
     9
177
     3
291
     0
 70
    58
 90
        3
176
     1
 90
        2
176
     1
 90
        0
176
     1
 90
        0
176
     1
 40
0.6
176
     1
 40
30.0
176
     1
 62
     7
420
 16777215
176
     1
 90
        2
176
     1
 90
        2
176
     1
 62
     7
176
     1
 62
   257
176
     1
 90
        1
176
     1
 90
        1
176
     1
 40
179.0
176
     1
 90
        8
176
     1
 62
     7
176
     1
 40
1.0
176
     1
 90
        1
176
     1
 90
        6
176
     1
 90
        2
176
     1
 62
     7
176
     1
 90
        3
176
     1
 90
        0
176
     1
 90
        0
176
     1
290
     0
176
     1
 90
        1
176
     1
 40
0.0
176
     1
 90
        0
176
     1
290
     0
176
     1
290
     1
176
     1
290
     1
176
     1
290
     0
176
     1
290
     0
176
     1
290
     0
176
     1
290
     0
176
     1
290
     0
176
     1
290
     0
176
     1
 90
       50
176
     1
 40
0.0
176
     1
 40
1.0
176
     1
 90
        0
176
     1
 62
    18
420
        0
176
     1
 90
       50
176
     1
 90
        3
176
     1
 62
     5
420
      255
176
     1
290
     0
176
     1
 90
       50
176
     1
 90
       50
176
     1
 90
       50
176
     1
290
     0
176
     1
 90
       50
176
     1
 62
   256
176
     0
 40
1.0
176
     0
 90
        2
176
     1
  1
strokes_ogs.tif
176
     1
290
     0
176
     1
 40
1.0
176
     1
 40
1.0
176
     1
  0
VISUALSTYLE
  5
35
102
{ACAD_REACTORS
330
2A
102
}
330
2A
100
AcDbVisualStyle
  2
Dim
 70
    11
177
     3
291
     1
 70
    58
 90
        2
176
     1
 90
        2
176
     1
 90
        0
176
     1
 90
        0
176
     1
 40
0.6
176
     1
 40
30.0
176
     1
 62
     7
420
 16777215
176
     1
 90
        1
176
     1
 90
        4
176
     1
 62
     7
176
     1
 62
   257
176
     1
 90
        1
176
     1
 90
        1
176
     1
 40
1.0
176
     1
 90
        8
176
     1
 62
     7
176
     1
 40
1.0
176
     1
 90
        1
176
     1
 90
        6
176
     1
 90
        2
176
     1
 62
     7
176
     1
 90
        5
176
     1
 90
        0
176
     1
 90
        0
176
     1
290
     0
176
     1
 90
        1
176
     1
 40
-50.0
176
     1
 90
        0
176
     1
290
     0
176
     1
290
     1
176
     1
290
     1
176
     1
290
     0
176
     1
290
     0
176
     1
290
     0
176
     1
290
     0
176
     1
290
     0
176
     1
290
     0
176
     1
 90
       50
176
     1
 40
0.0
176
     1
 40
1.0
176
     1
 90
        0
176
     1
 62
    18
420
        0
176
     1
 90
       50
176
     1
 90
        3
176
     1
 62
     5
420
      255
176
     1
290
     0
176
     1
 90
       50
176
     1
 90
       50
176
     1
 90
       50
176
     1
290
     0
176
     1
 90
       50
176
     1
 62
   256
176
     0
 40
1.0
176
     0
 90
        2
176
     1
  1
strokes_ogs.tif
176
     1
290
     0
176
     1
 40
1.0
176
     1
 40
1.0
176
     1
  0
VISUALSTYLE
  5
3D
102
{ACAD_REACTORS
330
2A
102
}
330
2A
100
AcDbVisualStyle
  2
EdgeColorOff
 70
    22
177
     3
291
     1
 70
    58
 90
        2
176
     0
 90
        2
176
     0
 90
        0
176
     0
 90
        0
176
     0
 40
0.6
176
     0
 40
30.0
176
     0
 62
     7
420
 16777215
176
     0
 90
        1
176
     0
 90
        4
176
     0
 62
     7
176
     0
 62
   257
176
     0
 90
        1
176
     0
 90
        1
176
     0
 40
1.0
176
     0
 90
        8
176
     2
 62
     7
176
     0
 40
1.0
176
     0
 90
        1
176
     0
 90
        6
176
     0
 90
        2
176
     0
 62
     7
176
     0
 90
        5
176
     0
 90
        0
176
     0
 90
        0
176
     0
290
     0
176
     0
 90
        1
176
     0
 40
0.0
176
     0
 90
        0
176
     0
290
     0
176
     0
290
     1
176
     0
290
     1
176
     0
290
     0
176
     0
290
     0
176
     0
290
     0
176
     0
290
     0
176
     0
290
     0
176
     0
290
     0
176
     0
 90
       50
176
     0
 40
0.0
176
     0
 40
1.0
176
     0
 90
        0
176
     0
 62
    18
420
        0
176
     0
 90
       50
176
     0
 90
        3
176
     0
 62
     5
420
      255
176
     0
290
     0
176
     0
 90
       50
176
     0
 90
       50
176
     0
 90
       50
176
     0
290
     0
176
     0
 90
       50
176
     0
 62
   256
176
     0
 40
1.0
176
     0
 90
        2
176
     0
  1
strokes_ogs.tif
176
     0
290
     0
176
     0
 40
1.0
176
     0
 40
1.0
176
     0
  0
VISUALSTYLE
  5
39
102
{ACAD_REACTORS
330
2A
102
}
330
2A
100
AcDbVisualStyle
  2
Facepattern
 70
    15
177
     3
291
     1
 70
    58
 90
        2
176
     1
 90
        2
176
     1
 90
        0
176
     1
 90
        0
176
     1
 40
0.6
176
     1
 40
30.0
176
     1
 62
     7
420
 16777215
176
     1
 90
        1
176
     1
 90
        4
176
     1
 62
     7
176
     1
 62
   257
176
     1
 90
        1
176
     1
 90
        1
176
     1
 40
1.0
176
     1
 90
        8
176
     1
 62
     7
176
     1
 40
1.0
176
     1
 90
        1
176
     1
 90
        6
176
     1
 90
        2
176
     1
 62
     7
176
     1
 90
        5
176
     1
 90
        0
176
     1
 90
        0
176
     1
290
     0
176
     1
 90
        1
176
     1
 40
0.0
176
     1
 90
        0
176
     1
290
     0
176
     1
290
     1
176
     1
290
     1
176
     1
290
     0
176
     1
290
     0
176
     1
290
     0
176
     1
290
     0
176
     1
290
     0
176
     1
290
     0
176
     1
 90
       50
176
     1
 40
0.0
176
     1
 40
1.0
176
     1
 90
        0
176
     1
 62
    18
420
        0
176
     1
 90
       50
176
     1
 90
        3
176
     1
 62
     5
420
      255
176
     1
290
     0
176
     1
 90
       50
176
     1
 90
       50
176
     1
 90
       50
176
     1
290
     0
176
     1
 90
       50
176
     1
 62
   256
176
     0
 40
1.0
176
     0
 90
        2
176
     1
  1
strokes_ogs.tif
176
     1
290
     0
176
     1
 40
1.0
176
     1
 40
1.0
176
     1
  0
VISUALSTYLE
  5
2B
102
{ACAD_REACTORS
330
2A
102
}
330
2A
100
AcDbVisualStyle
  2
Flat
 70
     0
177
     3
291
     1
 70
    58
 90
        2
176
     1
 90
        1
176
     1
 90
        1
176
     1
 90
        2
176
     1
 40
0.6
176
     1
 40
30.0
176
     1
 62
     7
420
 16777215
176
     1
 90
        0
176
     1
 90
        0
176
     1
 62
     7
176
     1
 62
   257
176
     1
 90
        1
176
     1
 90
        1
176
     1
 40
1.0
176
     1
 90
        8
176
     1
 62
     7
176
     1
 40
1.0
176
     1
 90
        1
176
     1
 90
        6
176
     1
 90
        2
176
     1
 62
     7
176
     1
 90
        5
176
     1
 90
        0
176
     1
 90
        0
176
     1
290
     0
176
     1
 90
       13
176
     1
 40
0.0
176
     1
 90
        0
176
     1
290
     0
176
     1
290
     1
176
     1
290
     1
176
     1
290
     0
176
     1
290
     0
176
     1
290
     0
176
     1
290
     0
176
     1
290
     0
176
     1
290
     0
176
     1
 90
       50
176
     1
 40
0.0
176
     1
 40
1.0
176
     1
 90
        0
176
     1
 62
    18
420
        0
176
     1
 90
       50
176
     1
 90
        3
176
     1
 62
     5
420
      255
176
     1
290
     0
176
     1
 90
       50
176
     1
 90
       50
176
     1
 90
       50
176
     1
290
     0
176
     1
 90
       50
176
     1
 62
   256
176
     0
 40
1.0
176
     0
 90
        2
176
     1
  1
strokes_ogs.tif
176
     1
290
     0
176
     1
 40
1.0
176
     1
 40
1.0
176
     1
  0
VISUALSTYLE
  5
2C
102
{ACAD_REACTORS
330
2A
102
}
330
2A
100
AcDbVisualStyle
  2
FlatWithEdges
 70
     1
177
     3
291
     1
 70
    58
 90
        2
176
     1
 90
        1
176
     1
 90
        1
176
     1
 90
        2
176
     1
 40
0.6
176
     1
 40
30.0
176
     1
 62
     7
420
 16777215
176
     1
 90
        1
176
     1
 90
        0
176
     1
 62
     7
176
     1
 62
   257
176
     1
 90
        1
176
     1
 90
        1
176
     1
 40
1.0
176
     1
 90
        0
176
     1
 62
   257
176
     1
 40
1.0
176
     1
 90
        1
176
     1
 90
        6
176
     1
 90
        2
176
     1
 62
     7
176
     1
 90
        5
176
     1
 90
        0
176
     1
 90
        0
176
     1
290
     0
176
     1
 90
       13
176
     1
 40
0.0
176
     1
 90
        0
176
     1
290
     0
176
     1
290
     1
176
     1
290
     1
176
     1
290
     0
176
     1
290
     0
176
     1
290
     0
176
     1
290
     0
176
     1
290
     0
176
     1
290
     0
176
     1
 90
       50
176
     1
 40
0.0
176
     1
 40
1.0
176
     1
 90
        0
176
     1
 62
    18
420
        0
176
     1
 90
       50
176
     1
 90
        3
176
     1
 62
     5
420
      255
176
     1
290
     0
176
     1
 90
       50
176
     1
 90
       50
176
     1
 90
       50
176
     1
290
     0
176
     1
 90
       50
176
     1
 62
   256
176
     0
 40
1.0
176
     0
 90
        2
176
     1
  1
strokes_ogs.tif
176
     1
290
     0
176
     1
 40
1.0
176
     1
 40
1.0
176
     1
  0
VISUALSTYLE
  5
2D
102
{ACAD_REACTORS
330
2A
102
}
330
2A
100
AcDbVisualStyle
  2
Gouraud
 70
     2
177
     3
291
     1
 70
    58
 90
        2
176
     1
 90
        2
176
     1
 90
        1
176
     1
 90
        2
176
     1
 40
0.6
176
     1
 40
30.0
176
     1
 62
     7
420
 16777215
176
     1
 90
        0
176
     1
 90
        0
176
     1
 62
     7
176
     1
 62
   257
176
     1
 90
        1
176
     1
 90
        1
176
     1
 40
1.0
176
     1
 90
        0
176
     1
 62
     7
176
     1
 40
1.0
176
     1
 90
        1
176
     1
 90
        6
176
     1
 90
        2
176
     1
 62
     7
176
     1
 90
        5
176
     1
 90
        0
176
     1
 90
        0
176
     1
290
     0
176
     1
 90
       13
176
     1
 40
0.0
176
     1
 90
        0
176
     1
290
     0
176
     1
290
     1
176
     1
290
     1
176
     1
290
     0
176
     1
290
     0
176
     1
290
     0
176
     1
290
     0
176
     1
290
     0
176
     1
290
     0
176
     1
 90
       50
176
     1
 40
0.0
176
     1
 40
1.0
176
     1
 90
        0
176
     1
 62
    18
420
        0
176
     1
 90
       50
176
     1
 90
        3
176
     1
 62
     5
420
      255
176
     1
290
     0
176
     1
 90
       50
176
     1
 90
       50
176
     1
 90
       50
176
     1
290
     0
176
     1
 90
       50
176
     1
 62
   256
176
     0
 40
1.0
176
     0
 90
        2
176
     1
  1
strokes_ogs.tif
176
     1
290
     0
176
     1
 40
1.0
176
     1
 40
1.0
176
     1
  0
VISUALSTYLE
  5
2E
102
{ACAD_REACTORS
330
2A
102
}
330
2A
100
AcDbVisualStyle
  2
GouraudWithEdges
 70
     3
177
     3
291
     1
 70
    58
 90
        2
176
     1
 90
        2
176
     1
 90
        1
176
     1
 90
        2
176
     1
 40
0.6
176
     1
 40
30.0
176
     1
 62
     7
420
 16777215
176
     1
 90
        1
176
     1
 90
        0
176
     1
 62
     7
176
     1
 62
   257
176
     1
 90
        1
176
     1
 90
        1
176
     1
 40
1.0
176
     1
 90
        0
176
     1
 62
   257
176
     1
 40
1.0
176
     1
 90
        1
176
     1
 90
        6
176
     1
 90
        2
176
     1
 62
     7
176
     1
 90
        5
176
     1
 90
        0
176
     1
 90
        0
176
     1
290
     0
176
     1
 90
       13
176
     1
 40
0.0
176
     1
 90
        0
176
     1
290
     0
176
     1
290
     1
176
     1
290
     1
176
     1
290
     0
176
     1
290
     0
176
     1
290
     0
176
     1
290
     0
176
     1
290
     0
176
     1
290
     0
176
     1
 90
       50
176
     1
 40
0.0
176
     1
 40
1.0
176
     1
 90
        0
176
     1
 62
    18
420
        0
176
     1
 90
       50
176
     1
 90
        3
176
     1
 62
     5
420
      255
176
     1
290
     0
176
     1
 90
       50
176
     1
 90
       50
176
     1
 90
       50
176
     1
290
     0
176
     1
 90
       50
176
     1
 62
   256
176
     0
 40
1.0
176
     0
 90
        2
176
     1
  1
strokes_ogs.tif
176
     1
290
     0
176
     1
 40
1.0
176
     1
 40
1.0
176
     1
  0
VISUALSTYLE
  5
31
102
{ACAD_REACTORS
330
2A
102
}
330
2A
100
AcDbVisualStyle
  2
Hidden
 70
     6
177
     3
291
     0
 70
    58
 90
        1
176
     1
 90
        2
176
     1
 90
        2
176
     1
 90
        0
176
     1
 40
0.6
176
     1
 40
30.0
176
     1
 62
     7
420
 16777215
176
     1
 90
        2
176
     1
 90
        2
176
     1
 62
     7
176
     1
 62
   257
176
     1
 90
        2
176
     1
 90
        1
176
     1
 40
40.0
176
     1
 90
        0
176
     1
 62
   257
176
     1
 40
1.0
176
     1
 90
        1
176
     1
 90
        6
176
     1
 90
        2
176
     1
 62
     7
176
     1
 90
        3
176
     1
 90
        0
176
     1
 90
        0
176
     1
290
     0
176
     1
 90
        1
176
     1
 40
0.0
176
     1
 90
        0
176
     1
290
     0
176
     1
290
     1
176
     1
290
     1
176
     1
290
     0
176
     1
290
     0
176
     1
290
     0
176
     1
290
     0
176
     1
290
     0
176
     1
290
     0
176
     1
 90
       50
176
     1
 40
0.0
176
     1
 40
1.0
176
     1
 90
        0
176
     1
 62
    18
420
        0
176
     1
 90
       50
176
     1
 90
        3
176
     1
 62
     5
420
      255
176
     1
290
     0
176
     1
 90
       50
176
     1
 90
       50
176
     1
 90
       50
176
     1
290
     0
176
     1
 90
       50
176
     1
 62
   256
176
     0
 40
1.0
176
     0
 90
        2
176
     1
  1
strokes_ogs.tif
176
     1
290
     0
176
     1
 40
1.0
176
     1
 40
1.0
176
     1
  0
VISUALSTYLE
  5
3B
102
{ACAD_REACTORS
330
2A
102
}
330
2A
100
AcDbVisualStyle
  2
JitterOff
 70
    20
177
     3
291
     1
 70
    58
 90
        2
176
     0
 90
        2
176
     0
 90
        0
176
     0
 90
        0
176
     0
 40
0.6
176
     0
 40
30.0
176
     0
 62
     7
420
 16777215
176
     0
 90
        1
176
     0
 90
        4
176
     0
 62
     7
176
     0
 62
   257
176
     0
 90
        1
176
     0
 90
        1
176
     0
 40
1.0
176
     0
 90
       10
176
     2
 62
     7
176
     0
 40
1.0
176
     0
 90
        1
176
     0
 90
        6
176
     0
 90
        2
176
     0
 62
     7
176
     0
 90
        5
176
     0
 90
        0
176
     0
 90
        0
176
     0
290
     0
176
     0
 90
        1
176
     0
 40
0.0
176
     0
 90
        0
176
     0
290
     0
176
     0
290
     1
176
     0
290
     1
176
     0
290
     0
176
     0
290
     0
176
     0
290
     0
176
     0
290
     0
176
     0
290
     0
176
     0
290
     0
176
     0
 90
       50
176
     0
 40
0.0
176
     0
 40
1.0
176
     0
 90
        0
176
     0
 62
    18
420
        0
176
     0
 90
       50
176
     0
 90
        3
176
     0
 62
     5
420
      255
176
     0
290
     0
176
     0
 90
       50
176
     0
 90
       50
176
     0
 90
       50
176
     0
290
     0
176
     0
 90
       50
176
     0
 62
   256
176
     0
 40
1.0
176
     0
 90
        2
176
     0
  1
strokes_ogs.tif
176
     0
290
     0
176
     0
 40
1.0
176
     0
 40
1.0
176
     0
  0
VISUALSTYLE
  5
38
102
{ACAD_REACTORS
330
2A
102
}
330
2A
100
AcDbVisualStyle
  2
Linepattern
 70
    14
177
     3
291
     1
 70
    58
 90
        2
176
     1
 90
        2
176
     1
 90
        0
176
     1
 90
        0
176
     1
 40
0.6
176
     1
 40
30.0
176
     1
 62
     7
420
 16777215
176
     1
 90
        1
176
     1
 90
        4
176
     1
 62
     7
176
     1
 62
   257
176
     1
 90
        7
176
     1
 90
        7
176
     1
 40
1.0
176
     1
 90
        8
176
     1
 62
     7
176
     1
 40
1.0
176
     1
 90
        1
176
     1
 90
        6
176
     1
 90
        2
176
     1
 62
     7
176
     1
 90
        5
176
     1
 90
        0
176
     1
 90
        0
176
     1
290
     0
176
     1
 90
        1
176
     1
 40
0.0
176
     1
 90
        0
176
     1
290
     0
176
     1
290
     1
176
     1
290
     1
176
     1
290
     0
176
     1
290
     0
176
     1
290
     0
176
     1
290
     0
176
     1
290
     0
176
     1
290
     0
176
     1
 90
       50
176
     1
 40
0.0
176
     1
 40
1.0
176
     1
 90
        0
176
     1
 62
    18
420
        0
176
     1
 90
       50
176
     1
 90
        3
176
     1
 62
     5
420
      255
176
     1
290
     0
176
     1
 90
       50
176
     1
 90
       50
176
     1
 90
       50
176
     1
290
     0
176
     1
 90
       50
176
     1
 62
   256
176
     0
 40
1.0
176
     0
 90
        2
176
     1
  1
strokes_ogs.tif
176
     1
290
     0
176
     1
 40
1.0
176
     1
 40
1.0
176
     1
  0
VISUALSTYLE
  5
3C
102
{ACAD_REACTORS
330
2A
102
}
330
2A
100
AcDbVisualStyle
  2
OverhangOff
 70
    21
177
     3
291
     1
 70
    58
 90
        2
176
     0
 90
        2
176
     0
 90
        0
176
     0
 90
        0
176
     0
 40
0.6
176
     0
 40
30.0
176
     0
 62
     7
420
 16777215
176
     0
 90
        1
176
     0
 90
        4
176
     0
 62
     7
176
     0
 62
   257
176
     0
 90
        1
176
     0
 90
        1
176
     0
 40
1.0
176
     0
 90
        9
176
     2
 62
     7
176
     0
 40
1.0
176
     0
 90
        1
176
     0
 90
        6
176
     0
 90
        2
176
     0
 62
     7
176
     0
 90
        5
176
     0
 90
        0
176
     0
 90
        0
176
     0
290
     0
176
     0
 90
        1
176
     0
 40
0.0
176
     0
 90
        0
176
     0
290
     0
176
     0
290
     1
176
     0
290
     1
176
     0
290
     0
176
     0
290
     0
176
     0
290
     0
176
     0
290
     0
176
     0
290
     0
176
     0
290
     0
176
     0
 90
       50
176
     0
 40
0.0
176
     0
 40
1.0
176
     0
 90
        0
176
     0
 62
    18
420
        0
176
     0
 90
       50
176
     0
 90
        3
176
     0
 62
     5
420
      255
176
     0
290
     0
176
     0
 90
       50
176
     0
 90
       50
176
     0
 90
       50
176
     0
290
     0
176
     0
 90
       50
176
     0
 62
   256
176
     0
 40
1.0
176
     0
 90
        2
176
     0
  1
strokes_ogs.tif
176
     0
290
     0
176
     0
 40
1.0
176
     0
 40
1.0
176
     0
  0
VISUALSTYLE
  5
33
102
{ACAD_REACTORS
330
2A
102
}
330
2A
100
AcDbVisualStyle
  2
Realistic
 70
     8
177
     3
291
     0
 70
    58
 90
        2
176
     1
 90
        3
176
     1
 90
        0
176
     1
 90
        2
176
     1
 40
0.6
176
     1
 40
30.0
176
     1
 62
     7
420
 16777215
176
     1
 90
        0
176
     1
 90
        0
176
     1
 62
     7
176
     1
 62
   257
176
     1
 90
        1
176
     1
 90
        1
176
     1
 40
1.0
176
     1
 90
        8
176
     1
 62
   257
176
     1
 40
1.0
176
     1
 90
        1
176
     1
 90
        6
176
     1
 90
        2
176
     1
 62
     7
176
     1
 90
        3
176
     1
 90
        0
176
     1
 90
        0
176
     1
290
     0
176
     1
 90
       13
176
     1
 40
0.0
176
     1
 90
        0
176
     1
290
     0
176
     1
290
     1
176
     1
290
     1
176
     1
290
     0
176
     1
290
     0
176
     1
290
     0
176
     1
290
     0
176
     1
290
     0
176
     1
290
     0
176
     1
 90
       50
176
     1
 40
0.0
176
     1
 40
1.0
176
     1
 90
        0
176
     1
 62
    18
420
        0
176
     1
 90
       50
176
     1
 90
        3
176
     1
 62
     5
420
      255
176
     1
290
     0
176
     1
 90
       50
176
     1
 90
       50
176
     1
 90
       50
176
     1
290
     0
176
     1
 90
       50
176
     1
 62
   256
176
     0
 40
1.0
176
     0
 90
        2
176
     1
  1
strokes_ogs.tif
176
     1
290
     0
176
     1
 40
1.0
176
     1
 40
1.0
176
     1
  0
VISUALSTYLE
  5
42
102
{ACAD_REACTORS
330
2A
102
}
330
2A
100
AcDbVisualStyle
  2
Shaded
 70
    27
177
     3
291
     0
 70
    58
 90
        2
176
     1
 90
        2
176
     1
 90
        1
176
     1
 90
        2
176
     1
 40
0.6
176
     1
 40
30.0
176
     1
 62
     7
420
 16777215
176
     1
 90
        0
176
     1
 90
        4
176
     1
 62
     7
176
     1
 62
   257
176
     1
 90
        1
176
     1
 90
        1
176
     1
 40
1.0
176
     1
 90
        8
176
     1
 62
   257
176
     1
 40
1.0
176
     1
 90
        1
176
     1
 90
        6
176
     1
 90
        2
176
     1
 62
     8
420
  7895160
176
     1
 90
        3
176
     1
 90
        0
176
     1
 90
        0
176
     1
290
     0
176
     1
 90
        5
176
     1
 40
0.0
176
     1
 90
        0
176
     1
290
     0
176
     1
290
     1
176
     1
290
     1
176
     1
290
     0
176
     1
290
     0
176
     1
290
     0
176
     1
290
     0
176
     1
290
     0
176
     1
290
     0
176
     1
 90
       50
176
     1
 40
0.0
176
     1
 40
1.0
176
     1
 90
        0
176
     1
 62
    18
420
        0
176
     1
 90
       50
176
     1
 90
        3
176
     1
 62
     5
420
      255
176
     1
290
     0
176
     1
 90
       50
176
     1
 90
       50
176
     1
 90
       50
176
     1
290
     0
176
     1
 90
       50
176
     1
 62
   256
176
     0
 40
1.0
176
     0
 90
        2
176
     1
  1
strokes_ogs.tif
176
     1
290
     0
176
     1
 40
1.0
176
     1
 40
1.0
176
     1
  0
VISUALSTYLE
  5
41
102
{ACAD_REACTORS
330
2A
102
}
330
2A
100
AcDbVisualStyle
  2
Shaded with edges
 70
    26
177
     3
291
     0
 70
    58
 90
        2
176
     1
 90
        2
176
     1
 90
        1
176
     1
 90
        2
176
     1
 40
0.6
176
     1
 40
30.0
176
     1
 62
     7
420
 16777215
176
     1
 90
        1
176
     1
 90
       10
176
     1
 62
     7
176
     1
 62
   257
176
     1
 90
        2
176
     1
 90
        1
176
     1
 40
1.0
176
     1
 90
        8
176
     1
 62
   257
176
     1
 40
1.0
176
     1
 90
        1
176
     1
 90
        6
176
     1
 90
        2
176
     1
 62
     7
176
     1
 90
        3
176
     1
 90
        0
176
     1
 90
        0
176
     1
290
     0
176
     1
 90
        5
176
     1
 40
0.0
176
     1
 90
        0
176
     1
290
     0
176
     1
290
     1
176
     1
290
     1
176
     1
290
     0
176
     1
290
     0
176
     1
290
     0
176
     1
290
     0
176
     1
290
     0
176
     1
290
     0
176
     1
 90
       50
176
     1
 40
0.0
176
     1
 40
1.0
176
     1
 90
        0
176
     1
 62
    18
420
        0
176
     1
 90
       50
176
     1
 90
        3
176
     1
 62
     5
420
      255
176
     1
290
     0
176
     1
 90
       50
176
     1
 90
       50
176
     1
 90
       50
176
     1
290
     0
176
     1
 90
       50
176
     1
 62
   256
176
     0
 40
1.0
176
     0
 90
        2
176
     1
  1
strokes_ogs.tif
176
     1
290
     0
176
     1
 40
1.0
176
     1
 40
1.0
176
     1
  0
VISUALSTYLE
  5
3E
102
{ACAD_REACTORS
330
2A
102
}
330
2A
100
AcDbVisualStyle
  2
Shades of Gray
 70
    23
177
     3
291
     0
 70
    58
 90
        2
176
     1
 90
        2
176
     1
 90
        3
176
     1
 90
        0
176
     1
 40
0.6
176
     1
 40
30.0
176
     1
 62
     7
420
 16777215
176
     1
 90
        2
176
     1
 90
        2
176
     1
 62
     7
176
     1
 62
     7
176
     1
 90
        1
176
     1
 90
        1
176
     1
 40
40.0
176
     1
 90
        8
176
     1
 62
     7
176
     1
 40
1.0
176
     1
 90
        1
176
     1
 90
        6
176
     1
 90
        2
176
     1
 62
     7
176
     1
 90
        3
176
     1
 90
        0
176
     1
 90
        0
176
     1
290
     0
176
     1
 90
        1
176
     1
 40
0.0
176
     1
 90
        0
176
     1
290
     0
176
     1
290
     1
176
     1
290
     1
176
     1
290
     0
176
     1
290
     0
176
     1
290
     0
176
     1
290
     0
176
     1
290
     0
176
     1
290
     0
176
     1
 90
       50
176
     1
 40
0.0
176
     1
 40
1.0
176
     1
 90
        0
176
     1
 62
    18
420
        0
176
     1
 90
       50
176
     1
 90
        3
176
     1
 62
     5
420
      255
176
     1
290
     0
176
     1
 90
       50
176
     1
 90
       50
176
     1
 90
       50
176
     1
290
     0
176
     1
 90
       50
176
     1
 62
   256
176
     0
 40
1.0
176
     0
 90
        2
176
     1
  1
strokes_ogs.tif
176
     1
290
     0
176
     1
 40
1.0
176
     1
 40
1.0
176
     1
  0
VISUALSTYLE
  5
3F
102
{ACAD_REACTORS
330
2A
102
}
330
2A
100
AcDbVisualStyle
  2
Sketchy
 70
    24
177
     3
291
     0
 70
    58
 90
        1
176
     1
 90
        2
176
     1
 90
        2
176
     1
 90
        0
176
     1
 40
0.6
176
     1
 40
30.0
176
     1
 62
     7
420
 16777215
176
     1
 90
        2
176
     1
 90
        2
176
     1
 62
     7
176
     1
 62
     7
176
     1
 90
        1
176
     1
 90
        1
176
     1
 40
40.0
176
     1
 90
       11
176
     1
 62
     7
176
     1
 40
1.0
176
     1
 90
        1
176
     1
 90
        6
176
     1
 90
        2
176
     1
 62
     7
176
     1
 90
        6
176
     1
 90
        0
176
     1
 90
        0
176
     1
290
     0
176
     1
 90
        1
176
     1
 40
0.0
176
     1
 90
        0
176
     1
290
     0
176
     1
290
     1
176
     1
290
     1
176
     1
290
     0
176
     1
290
     0
176
     1
290
     0
176
     1
290
     0
176
     1
290
     0
176
     1
290
     0
176
     1
 90
       50
176
     1
 40
0.0
176
     1
 40
1.0
176
     1
 90
        0
176
     1
 62
    18
420
        0
176
     1
 90
       50
176
     1
 90
        3
176
     1
 62
     5
420
      255
176
     1
290
     0
176
     1
 90
       50
176
     1
 90
       50
176
     1
 90
       50
176
     1
290
     0
176
     1
 90
       50
176
     1
 62
   256
176
     0
 40
1.0
176
     0
 90
        2
176
     1
  1
strokes_ogs.tif
176
     1
290
     0
176
     1
 40
1.0
176
     1
 40
1.0
176
     1
  0
VISUALSTYLE
  5
37
102
{ACAD_REACTORS
330
2A
102
}
330
2A
100
AcDbVisualStyle
  2
Thicken
 70
    13
177
     3
291
     1
 70
    58
 90
        2
176
     1
 90
        2
176
     1
 90
        0
176
     1
 90
        0
176
     1
 40
0.6
176
     1
 40
30.0
176
     1
 62
     7
420
 16777215
176
     1
 90
        1
176
     1
 90
        4
176
     1
 62
     7
176
     1
 62
   257
176
     1
 90
        1
176
     1
 90
        1
176
     1
 40
1.0
176
     1
 90
       12
176
     1
 62
     7
176
     1
 40
1.0
176
     1
 90
        1
176
     1
 90
        6
176
     1
 90
        2
176
     1
 62
     7
176
     1
 90
        5
176
     1
 90
        0
176
     1
 90
        0
176
     1
290
     0
176
     1
 90
        1
176
     1
 40
0.0
176
     1
 90
        0
176
     1
290
     0
176
     1
290
     1
176
     1
290
     1
176
     1
290
     0
176
     1
290
     0
176
     1
290
     0
176
     1
290
     0
176
     1
290
     0
176
     1
290
     0
176
     1
 90
       50
176
     1
 40
0.0
176
     1
 40
1.0
176
     1
 90
        0
176
     1
 62
    18
420
        0
176
     1
 90
       50
176
     1
 90
        3
176
     1
 62
     5
420
      255
176
     1
290
     0
176
     1
 90
       50
176
     1
 90
       50
176
     1
 90
       50
176
     1
290
     0
176
     1
 90
       50
176
     1
 62
   256
176
     0
 40
1.0
176
     0
 90
        2
176
     1
  1
strokes_ogs.tif
176
     1
290
     0
176
     1
 40
1.0
176
     1
 40
1.0
176
     1
  0
VISUALSTYLE
  5
30
102
{ACAD_REACTORS
330
2A
102
}
330
2A
100
AcDbVisualStyle
  2
Wireframe
 70
     5
177
     3
291
     0
 70
    58
 90
        0
176
     1
 90
        2
176
     1
 90
        0
176
     1
 90
        0
176
     1
 40
0.6
176
     1
 40
30.0
176
     1
 62
     7
420
 16777215
176
     1
 90
        1
176
     1
 90
        4
176
     1
 62
     7
176
     1
 62
   257
176
     1
 90
        1
176
     1
 90
        1
176
     1
 40
1.0
176
     1
 90
        0
176
     1
 62
   257
176
     1
 40
1.0
176
     1
 90
        1
176
     1
 90
        6
176
     1
 90
        2
176
     1
 62
     7
176
     1
 90
        3
176
     1
 90
        0
176
     1
 90
        0
176
     1
290
     0
176
     1
 90
        1
176
     1
 40
0.0
176
     1
 90
        0
176
     1
290
     0
176
     1
290
     1
176
     1
290
     1
176
     1
290
     0
176
     1
290
     0
176
     1
290
     0
176
     1
290
     0
176
     1
290
     0
176
     1
290
     0
176
     1
 90
       50
176
     1
 40
0.0
176
     1
 40
1.0
176
     1
 90
        0
176
     1
 62
    18
420
        0
176
     1
 90
       50
176
     1
 90
        3
176
     1
 62
     5
420
      255
176
     1
290
     0
176
     1
 90
       50
176
     1
 90
       50
176
     1
 90
       50
176
     1
290
     0
176
     1
 90
       50
176
     1
 62
   256
176
     0
 40
1.0
176
     0
 90
        2
176
     1
  1
strokes_ogs.tif
176
     1
290
     0
176
     1
 40
1.0
176
     1
 40
1.0
176
     1
  0
VISUALSTYLE
  5
40
102
{ACAD_REACTORS
330
2A
102
}
330
2A
100
AcDbVisualStyle
  2
X-Ray
 70
    25
177
     3
291
     0
 70
    58
 90
        2
176
     1
 90
        2
176
     1
 90
        1
176
     1
 90
        1
176
     1
 40
0.5
176
     1
 40
30.0
176
     1
 62
     7
420
 16777215
176
     1
 90
        1
176
     1
 90
        0
176
     1
 62
     7
176
     1
 62
   257
176
     1
 90
        1
176
     1
 90
        1
176
     1
 40
1.0
176
     1
 90
        8
176
     1
 62
     7
176
     1
 40
1.0
176
     1
 90
        1
176
     1
 90
        6
176
     1
 90
        2
176
     1
 62
     7
176
     1
 90
        3
176
     1
 90
        0
176
     1
 90
        0
176
     1
290
     0
176
     1
 90
       13
176
     1
 40
0.0
176
     1
 90
        0
176
     1
290
     0
176
     1
290
     1
176
     1
290
     1
176
     1
290
     0
176
     1
290
     0
176
     1
290
     0
176
     1
290
     0
176
     1
290
     0
176
     1
290
     0
176
     1
 90
       50
176
     1
 40
0.0
176
     1
 40
1.0
176
     1
 90
        0
176
     1
 62
    18
420
        0
176
     1
 90
       50
176
     1
 90
        3
176
     1
 62
     5
420
      255
176
     1
290
     0
176
     1
 90
       50
176
     1
 90
       50
176
     1
 90
       50
176
     1
290
     0
176
     1
 90
       50
176
     1
 62
   256
176
     0
 40
1.0
176
     0
 90
        2
176
     1
  1
strokes_ogs.tif
176
     1
290
     0
176
     1
 40
1.0
176
     1
 40
1.0
176
     1
  0
DICTIONARYVAR
  5
260
102
{ACAD_REACTORS
330
25F
102
}
330
25F
100
DictionaryVariables
280
     0
  1
1:1
  0
DICTIONARYVAR
  5
265
102
{ACAD_REACTORS
330
25F
102
}
330
25F
100
DictionaryVariables
280
     0
  1
Standard
  0
DICTIONARYVAR
  5
264
102
{ACAD_REACTORS
330
25F
102
}
330
25F
100
DictionaryVariables
280
     0
  1
Standard
  0
DICTIONARY
  5
261
330
6A
100
AcDbDictionary
280
     1
281
     1
  3
ACAD_ROUNDTRIP_2008_TABLESTYLE_CELLSTYLEMAP
360
262
  0
CELLSTYLEMAP
  5
262
102
{ACAD_REACTORS
330
261
102
}
330
261
100
AcDbCellStyleMap
 90
        3
300
CELLSTYLE
  1
TABLEFORMAT_BEGIN
 90
        5
170
     1
 91
        0
 92
    32768
 62
   257
 93
        1
300
CONTENTFORMAT
  1
CONTENTFORMAT_BEGIN
 90
        0
 91
        0
 92
        4
 93
        0
300

 40
0.0
140
1.0
 94
        5
 62
     0
340
11
144
0.25
309
CONTENTFORMAT_END
171
     1
301
MARGIN
  1
CELLMARGIN_BEGIN
 40
0.06
 40
0.06
 40
0.06
 40
0.06
 40
0.06
 40
0.06
309
CELLMARGIN_END
 94
        6
 95
        1
302
GRIDFORMAT
  1
GRIDFORMAT_BEGIN
 90
        0
 91
        1
 62
     0
 92
       -2
340
14
 93
        0
 40
0.045
309
GRIDFORMAT_END
 95
        2
302
GRIDFORMAT
  1
GRIDFORMAT_BEGIN
 90
        0
 91
        1
 62
     0
 92
       -2
340
14
 93
        0
 40
0.045
309
GRIDFORMAT_END
 95
        4
302
GRIDFORMAT
  1
GRIDFORMAT_BEGIN
 90
        0
 91
        1
 62
     0
 92
       -2
340
14
 93
        0
 40
0.045
309
GRIDFORMAT_END
 95
        8
302
GRIDFORMAT
  1
GRIDFORMAT_BEGIN
 90
        0
 91
        1
 62
     0
 92
       -2
340
14
 93
        0
 40
0.045
309
GRIDFORMAT_END
 95
       16
302
GRIDFORMAT
  1
GRIDFORMAT_BEGIN
 90
        0
 91
        1
 62
     0
 92
       -2
340
14
 93
        0
 40
0.045
309
GRIDFORMAT_END
 95
       32
302
GRIDFORMAT
  1
GRIDFORMAT_BEGIN
 90
        0
 91
        1
 62
     0
 92
       -2
340
14
 93
        0
 40
0.045
309
GRIDFORMAT_END
309
TABLEFORMAT_END
  1
CELLSTYLE_BEGIN
 90
        1
 91
        1
300
_TITLE
309
CELLSTYLE_END
300
CELLSTYLE
  1
TABLEFORMAT_BEGIN
 90
        5
170
     1
 91
        0
 92
        0
 62
   257
 93
        1
300
CONTENTFORMAT
  1
CONTENTFORMAT_BEGIN
 90
        0
 91
        0
 92
        4
 93
        0
300

 40
0.0
140
1.0
 94
        5
 62
     0
340
11
144
0.18
309
CONTENTFORMAT_END
171
     1
301
MARGIN
  1
CELLMARGIN_BEGIN
 40
0.06
 40
0.06
 40
0.06
 40
0.06
 40
0.06
 40
0.06
309
CELLMARGIN_END
 94
        6
 95
        1
302
GRIDFORMAT
  1
GRIDFORMAT_BEGIN
 90
        0
 91
        1
 62
     0
 92
       -2
340
14
 93
        0
 40
0.045
309
GRIDFORMAT_END
 95
        2
302
GRIDFORMAT
  1
GRIDFORMAT_BEGIN
 90
        0
 91
        1
 62
     0
 92
       -2
340
14
 93
        0
 40
0.045
309
GRIDFORMAT_END
 95
        4
302
GRIDFORMAT
  1
GRIDFORMAT_BEGIN
 90
        0
 91
        1
 62
     0
 92
       -2
340
14
 93
        0
 40
0.045
309
GRIDFORMAT_END
 95
        8
302
GRIDFORMAT
  1
GRIDFORMAT_BEGIN
 90
        0
 91
        1
 62
     0
 92
       -2
340
14
 93
        0
 40
0.045
309
GRIDFORMAT_END
 95
       16
302
GRIDFORMAT
  1
GRIDFORMAT_BEGIN
 90
        0
 91
        1
 62
     0
 92
       -2
340
14
 93
        0
 40
0.045
309
GRIDFORMAT_END
 95
       32
302
GRIDFORMAT
  1
GRIDFORMAT_BEGIN
 90
        0
 91
        1
 62
     0
 92
       -2
340
14
 93
        0
 40
0.045
309
GRIDFORMAT_END
309
TABLEFORMAT_END
  1
CELLSTYLE_BEGIN
 90
        2
 91
        1
300
_HEADER
309
CELLSTYLE_END
300
CELLSTYLE
  1
TABLEFORMAT_BEGIN
 90
        5
170
     1
 91
        0
 92
        0
 62
   257
 93
        1
300
CONTENTFORMAT
  1
CONTENTFORMAT_BEGIN
 90
        0
 91
        0
 92
        4
 93
        0
300

 40
0.0
140
1.0
 94
        2
 62
     0
340
11
144
0.18
309
CONTENTFORMAT_END
171
     1
301
MARGIN
  1
CELLMARGIN_BEGIN
 40
0.06
 40
0.06
 40
0.06
 40
0.06
 40
0.06
 40
0.06
309
CELLMARGIN_END
 94
        6
 95
        1
302
GRIDFORMAT
  1
GRIDFORMAT_BEGIN
 90
        0
 91
        1
 62
     0
 92
       -2
340
14
 93
        0
 40
0.045
309
GRIDFORMAT_END
 95
        2
302
GRIDFORMAT
  1
GRIDFORMAT_BEGIN
 90
        0
 91
        1
 62
     0
 92
       -2
340
14
 93
        0
 40
0.045
309
GRIDFORMAT_END
 95
        4
302
GRIDFORMAT
  1
GRIDFORMAT_BEGIN
 90
        0
 91
        1
 62
     0
 92
       -2
340
14
 93
        0
 40
0.045
309
GRIDFORMAT_END
 95
        8
302
GRIDFORMAT
  1
GRIDFORMAT_BEGIN
 90
        0
 91
        1
 62
     0
 92
       -2
340
14
 93
        0
 40
0.045
309
GRIDFORMAT_END
 95
       16
302
GRIDFORMAT
  1
GRIDFORMAT_BEGIN
 90
        0
 91
        1
 62
     0
 92
       -2
340
14
 93
        0
 40
0.045
309
GRIDFORMAT_END
 95
       32
302
GRIDFORMAT
  1
GRIDFORMAT_BEGIN
 90
        0
 91
        1
 62
     0
 92
       -2
340
14
 93
        0
 40
0.045
309
GRIDFORMAT_END
309
TABLEFORMAT_END
  1
CELLSTYLE_BEGIN
 90
        3
 91
        2
300
_DATA
309
CELLSTYLE_END
  0
ENDSEC
  0
EOF