0
SECTION
  2
HEADER
  9
$ACADVER
  1
AC1027
  9
$ACADMAINTVER
 70
     8
  9
$DWGCODEPAGE
  3
ANSI_1252
  9
$REQUIREDVERSIONS
160
                 0
  9
$COMMENTS
  1
File was created by Cadenas
  9
$CUSTOMPROPERTYTAG
  1
NN
  9
$CUSTOMPROPERTY
  1
Imperial - IP Piloted Flange Labyrinth Seal
  9
$CUSTOMPROPERTYTAG
  1
NT
  9
$CUSTOMPROPERTY
  1
Imperial Piloted Flange Bearings
  9
$CUSTOMPROPERTYTAG
  1
NB
  9
$CUSTOMPROPERTY
  1
069874
  9
$CUSTOMPROPERTYTAG
  1
NBSYN
  9
$CUSTOMPROPERTY
  1
$PN.
  9
$CUSTOMPROPERTYTAG
  1
LINA
  9
$CUSTOMPROPERTY
  1
069874
  9
$CUSTOMPROPERTYTAG
  1
SS
  9
$CUSTOMPROPERTY
  1
1-1/2
  9
$CUSTOMPROPERTYTAG
  1
PN
  9
$CUSTOMPROPERTY
  1
069874
  9
$CUSTOMPROPERTYTAG
  1
DESCRIPTION
  9
$CUSTOMPROPERTY
  1
FC-IP-108L
  9
$CUSTOMPROPERTYTAG
  1
EF
  9
$CUSTOMPROPERTY
  1
Non-Expansion Type
  9
$CUSTOMPROPERTYTAG
  1
ST
  9
$CUSTOMPROPERTY
  1
Labyrinth Seal
  9
$CUSTOMPROPERTYTAG
  1
A
  9
$CUSTOMPROPERTY
  1
2-5/8
  9
$CUSTOMPROPERTYTAG
  1
B
  9
$CUSTOMPROPERTY
  1
5-1/4
  9
$CUSTOMPROPERTYTAG
  1
C
  9
$CUSTOMPROPERTY
  1
1-27/32
  9
$CUSTOMPROPERTYTAG
  1
D
  9
$CUSTOMPROPERTY
  1
3-3/32
  9
$CUSTOMPROPERTYTAG
  1
DD
  9
$CUSTOMPROPERTY
  1
4-3/8
  9
$CUSTOMPROPERTYTAG
  1
E
  9
$CUSTOMPROPERTY
  1
3/4
  9
$CUSTOMPROPERTYTAG
  1
F
  9
$CUSTOMPROPERTY
  1
3/8
  9
$CUSTOMPROPERTYTAG
  1
G
  9
$CUSTOMPROPERTY
  1
1-25/64
  9
$CUSTOMPROPERTYTAG
  1
H
  9
$CUSTOMPROPERTY
  1
1/2
  9
$CUSTOMPROPERTYTAG
  1
K
  9
$CUSTOMPROPERTY
  1
3.625
  9
$CUSTOMPROPERTYTAG
  1
L
  9
$CUSTOMPROPERTY
  1
2-23/32
  9
$CUSTOMPROPERTYTAG
  1
M
  9
$CUSTOMPROPERTY
  1
3/8-16
  9
$CUSTOMPROPERTYTAG
  1
N
  9
$CUSTOMPROPERTY
  1
2-39/64
  9
$CUSTOMPROPERTYTAG
  1
P
  9
$CUSTOMPROPERTY
  1
1-15/64
  9
$CUSTOMPROPERTYTAG
  1
Q
  9
$CUSTOMPROPERTY
  1
1-7/32
  9
$CUSTOMPROPERTYTAG
  1
X
  9
$CUSTOMPROPERTY
  1
3/16
  9
$CUSTOMPROPERTYTAG
  1
Y
  9
$CUSTOMPROPERTY
  1
0.020
  9
$CUSTOMPROPERTYTAG
  1
Z
  9
$CUSTOMPROPERTY
  1
1-51/64
  9
$CUSTOMPROPERTYTAG
  1
COMPANY
  9
$CUSTOMPROPERTY
  1
baldor
  9
$INSBASE
 10
0.0
 20
0.0
 30
0.0
  9
$EXTMIN
 10
1.000000000000000E+20
 20
1.000000000000000E+20
 30
1.000000000000000E+20
  9
$EXTMAX
 10
-1.000000000000000E+20
 20
-1.000000000000000E+20
 30
-1.000000000000000E+20
  9
$LIMMIN
 10
0.0
 20
0.0
  9
$LIMMAX
 10
12.0
 20
9.0
  9
$ORTHOMODE
 70
     0
  9
$REGENMODE
 70
     1
  9
$FILLMODE
 70
     1
  9
$QTEXTMODE
 70
     0
  9
$MIRRTEXT
 70
     1
  9
$LTSCALE
 40
1.0
  9
$ATTMODE
 70
     1
  9
$TEXTSIZE
 40
0.2
  9
$TRACEWID
 40
0.05
  9
$TEXTSTYLE
  7
Standard
  9
$CLAYER
  8
0
  9
$CELTYPE
  6
ByLayer
  9
$CECOLOR
 62
   256
  9
$CELTSCALE
 40
1.0
  9
$DISPSILH
 70
     0
  9
$DIMSCALE
 40
1.0
  9
$DIMASZ
 40
0.18
  9
$DIMEXO
 40
0.0625
  9
$DIMDLI
 40
0.38
  9
$DIMRND
 40
0.0
  9
$DIMDLE
 40
0.0
  9
$DIMEXE
 40
0.18
  9
$DIMTP
 40
0.0
  9
$DIMTM
 40
0.0
  9
$DIMTXT
 40
0.18
  9
$DIMCEN
 40
0.09
  9
$DIMTSZ
 40
0.0
  9
$DIMTOL
 70
     0
  9
$DIMLIM
 70
     0
  9
$DIMTIH
 70
     1
  9
$DIMTOH
 70
     1
  9
$DIMSE1
 70
     0
  9
$DIMSE2
 70
     0
  9
$DIMTAD
 70
     0
  9
$DIMZIN
 70
     0
  9
$DIMBLK
  1

  9
$DIMASO
 70
     1
  9
$DIMSHO
 70
     1
  9
$DIMPOST
  1

  9
$DIMAPOST
  1

  9
$DIMALT
 70
     0
  9
$DIMALTD
 70
     2
  9
$DIMALTF
 40
25.4
  9
$DIMLFAC
 40
1.0
  9
$DIMTOFL
 70
     0
  9
$DIMTVP
 40
0.0
  9
$DIMTIX
 70
     0
  9
$DIMSOXD
 70
     0
  9
$DIMSAH
 70
     0
  9
$DIMBLK1
  1

  9
$DIMBLK2
  1

  9
$DIMSTYLE
  2
Standard
  9
$DIMCLRD
 70
     0
  9
$DIMCLRE
 70
     0
  9
$DIMCLRT
 70
     0
  9
$DIMTFAC
 40
1.0
  9
$DIMGAP
 40
0.09
  9
$DIMJUST
 70
     0
  9
$DIMSD1
 70
     0
  9
$DIMSD2
 70
     0
  9
$DIMTOLJ
 70
     1
  9
$DIMTZIN
 70
     0
  9
$DIMALTZ
 70
     0
  9
$DIMALTTZ
 70
     0
  9
$DIMUPT
 70
     0
  9
$DIMDEC
 70
     4
  9
$DIMTDEC
 70
     4
  9
$DIMALTU
 70
     2
  9
$DIMALTTD
 70
     2
  9
$DIMTXSTY
  7
Standard
  9
$DIMAUNIT
 70
     0
  9
$DIMADEC
 70
     0
  9
$DIMALTRND
 40
0.0
  9
$DIMAZIN
 70
     0
  9
$DIMDSEP
 70
    46
  9
$DIMATFIT
 70
     3
  9
$DIMFRAC
 70
     0
  9
$DIMLDRBLK
  1

  9
$DIMLUNIT
 70
     2
  9
$DIMLWD
 70
    -2
  9
$DIMLWE
 70
    -2
  9
$DIMTMOVE
 70
     0
  9
$DIMFXL
 40
1.0
  9
$DIMFXLON
 70
     0
  9
$DIMJOGANG
 40
0.7853981633974483
  9
$DIMTFILL
 70
     0
  9
$DIMTFILLCLR
 70
     0
  9
$DIMARCSYM
 70
     0
  9
$DIMLTYPE
  6

  9
$DIMLTEX1
  6

  9
$DIMLTEX2
  6

  9
$DIMTXTDIRECTION
 70
     0
  9
$LUNITS
 70
     2
  9
$LUPREC
 70
     4
  9
$SKETCHINC
 40
0.1
  9
$FILLETRAD
 40
0.5
  9
$AUNITS
 70
     0
  9
$AUPREC
 70
     0
  9
$MENU
  1
.
  9
$ELEVATION
 40
0.0
  9
$PELEVATION
 40
0.0
  9
$THICKNESS
 40
0.0
  9
$LIMCHECK
 70
     0
  9
$CHAMFERA
 40
0.0
  9
$CHAMFERB
 40
0.0
  9
$CHAMFERC
 40
0.0
  9
$CHAMFERD
 40
0.0
  9
$SKPOLY
 70
     0
  9
$TDCREATE
 40
2458168.989587824
  9
$TDUCREATE
 40
2458168.947921157
  9
$TDUPDATE
 40
2458168.989587998
  9
$TDUUPDATE
 40
2458168.947921331
  9
$TDINDWG
 40
0.0000000116
  9
$TDUSRTIMER
 40
0.0000000116
  9
$USRTIMER
 70
     1
  9
$ANGBASE
 50
0.0
  9
$ANGDIR
 70
     0
  9
$PDMODE
 70
     0
  9
$PDSIZE
 40
0.0
  9
$PLINEWID
 40
0.0
  9
$SPLFRAME
 70
     0
  9
$SPLINETYPE
 70
     6
  9
$SPLINESEGS
 70
     8
  9
$HANDSEED
  5
261
  9
$SURFTAB1
 70
     6
  9
$SURFTAB2
 70
     6
  9
$SURFTYPE
 70
     6
  9
$SURFU
 70
     6
  9
$SURFV
 70
     6
  9
$UCSBASE
  2

  9
$UCSNAME
  2

  9
$UCSORG
 10
0.0
 20
0.0
 30
0.0
  9
$UCSXDIR
 10
1.0
 20
0.0
 30
0.0
  9
$UCSYDIR
 10
0.0
 20
1.0
 30
0.0
  9
$UCSORTHOREF
  2

  9
$UCSORTHOVIEW
 70
     0
  9
$UCSORGTOP
 10
0.0
 20
0.0
 30
0.0
  9
$UCSORGBOTTOM
 10
0.0
 20
0.0
 30
0.0
  9
$UCSORGLEFT
 10
0.0
 20
0.0
 30
0.0
  9
$UCSORGRIGHT
 10
0.0
 20
0.0
 30
0.0
  9
$UCSORGFRONT
 10
0.0
 20
0.0
 30
0.0
  9
$UCSORGBACK
 10
0.0
 20
0.0
 30
0.0
  9
$PUCSBASE
  2

  9
$PUCSNAME
  2

  9
$PUCSORG
 10
0.0
 20
0.0
 30
0.0
  9
$PUCSXDIR
 10
1.0
 20
0.0
 30
0.0
  9
$PUCSYDIR
 10
0.0
 20
1.0
 30
0.0
  9
$PUCSORTHOREF
  2

  9
$PUCSORTHOVIEW
 70
     0
  9
$PUCSORGTOP
 10
0.0
 20
0.0
 30
0.0
  9
$PUCSORGBOTTOM
 10
0.0
 20
0.0
 30
0.0
  9
$PUCSORGLEFT
 10
0.0
 20
0.0
 30
0.0
  9
$PUCSORGRIGHT
 10
0.0
 20
0.0
 30
0.0
  9
$PUCSORGFRONT
 10
0.0
 20
0.0
 30
0.0
  9
$PUCSORGBACK
 10
0.0
 20
0.0
 30
0.0
  9
$USERI1
 70
     0
  9
$USERI2
 70
     0
  9
$USERI3
 70
     0
  9
$USERI4
 70
     0
  9
$USERI5
 70
     0
  9
$USERR1
 40
0.0
  9
$USERR2
 40
0.0
  9
$USERR3
 40
0.0
  9
$USERR4
 40
0.0
  9
$USERR5
 40
0.0
  9
$WORLDVIEW
 70
     1
  9
$SHADEDGE
 70
     3
  9
$SHADEDIF
 70
    70
  9
$TILEMODE
 70
     1
  9
$MAXACTVP
 70
    64
  9
$PINSBASE
 10
0.0
 20
0.0
 30
0.0
  9
$PLIMCHECK
 70
     0
  9
$PEXTMIN
 10
1.000000000000000E+20
 20
1.000000000000000E+20
 30
1.000000000000000E+20
  9
$PEXTMAX
 10
-1.000000000000000E+20
 20
-1.000000000000000E+20
 30
-1.000000000000000E+20
  9
$PLIMMIN
 10
0.0
 20
0.0
  9
$PLIMMAX
 10
12.0
 20
9.0
  9
$UNITMODE
 70
     0
  9
$VISRETAIN
 70
     1
  9
$PLINEGEN
 70
     0
  9
$PSLTSCALE
 70
     1
  9
$TREEDEPTH
 70
  3020
  9
$CMLSTYLE
  2
Standard
  9
$CMLJUST
 70
     0
  9
$CMLSCALE
 40
1.0
  9
$PROXYGRAPHICS
 70
     1
  9
$MEASUREMENT
 70
     0
  9
$CELWEIGHT
370
    -1
  9
$ENDCAPS
280
     0
  9
$JOINSTYLE
280
     0
  9
$LWDISPLAY
290
     0
  9
$INSUNITS
 70
     1
  9
$HYPERLINKBASE
  1

  9
$STYLESHEET
  1

  9
$XEDIT
290
     1
  9
$CEPSNTYPE
380
     0
  9
$PSTYLEMODE
290
     1
  9
$FINGERPRINTGUID
  2
{CB199428-6128-4CCC-9168-9E72D677C9BE}
  9
$VERSIONGUID
  2
{FAEB1C32-E019-11D5-929B-00C0DF256EC4}
  9
$EXTNAMES
290
     1
  9
$PSVPSCALE
 40
0.0
  9
$OLESTARTUP
290
     0
  9
$SORTENTS
280
   127
  9
$INDEXCTL
280
     0
  9
$HIDETEXT
280
     1
  9
$XCLIPFRAME
280
     2
  9
$HALOGAP
280
     0
  9
$OBSCOLOR
 70
   257
  9
$OBSLTYPE
280
     0
  9
$INTERSECTIONDISPLAY
280
     0
  9
$INTERSECTIONCOLOR
 70
   257
  9
$DIMASSOC
280
     2
  9
$PROJECTNAME
  1

  9
$CAMERADISPLAY
290
     0
  9
$LENSLENGTH
 40
50.0
  9
$CAMERAHEIGHT
 40
0.0
  9
$STEPSPERSEC
 40
2.0
  9
$STEPSIZE
 40
6.0
  9
$3DDWFPREC
 40
2.0
  9
$PSOLWIDTH
 40
0.25
  9
$PSOLHEIGHT
 40
4.0
  9
$LOFTANG1
 40
1.570796326794897
  9
$LOFTANG2
 40
1.570796326794897
  9
$LOFTMAG1
 40
0.0
  9
$LOFTMAG2
 40
0.0
  9
$LOFTPARAM
 70
     7
  9
$LOFTNORMALS
280
     1
  9
$LATITUDE
 40
37.795
  9
$LONGITUDE
 40
-122.394
  9
$NORTHDIRECTION
 40
0.0
  9
$TIMEZONE
 70
 -8000
  9
$LIGHTGLYPHDISPLAY
280
     1
  9
$TILEMODELIGHTSYNCH
280
     1
  9
$CMATERIAL
347
44
  9
$SOLIDHIST
280
     0
  9
$SHOWHIST
280
     1
  9
$DWFFRAME
280
     2
  9
$DGNFRAME
280
     2
  9
$REALWORLDSCALE
290
     1
  9
$INTERFERECOLOR
 62
   256
  9
$CSHADOW
280
     0
  9
$SHADOWPLANELOCATION
 40
0.0
  0
ENDSEC
  0
SECTION
  2
CLASSES
  0
CLASS
  1
ACDBDICTIONARYWDFLT
  2
AcDbDictionaryWithDefault
  3
ObjectDBX Classes
 90
        0
 91
        4
280
     0
281
     0
  0
CLASS
  1
VISUALSTYLE
  2
AcDbVisualStyle
  3
ObjectDBX Classes
 90
     4095
 91
        4
280
     0
281
     0
  0
CLASS
  1
MATERIAL
  2
AcDbMaterial
  3
ObjectDBX Classes
 90
     1153
 91
        4
280
     0
281
     0
  0
CLASS
  1
SCALE
  2
AcDbScale
  3
ObjectDBX Classes
 90
     1153
 91
        4
280
     0
281
     0
  0
CLASS
  1
TABLESTYLE
  2
AcDbTableStyle
  3
ObjectDBX Classes
 90
     4095
 91
        4
280
     0
281
     0
  0
CLASS
  1
MLEADERSTYLE
  2
AcDbMLeaderStyle
  3
ACDB_MLEADERSTYLE_CLASS
 90
     4095
 91
        4
280
     0
281
     0
  0
CLASS
  1
SUN
  2
AcDbSun
  3
SCENEOE
 90
     1153
 91
        4
280
     0
281
     0
  0
CLASS
  1
DICTIONARYVAR
  2
AcDbDictionaryVar
  3
ObjectDBX Classes
 90
        0
 91
        4
280
     0
281
     0
  0
CLASS
  1
CELLSTYLEMAP
  2
AcDbCellStyleMap
  3
ObjectDBX Classes
 90
     1152
 91
        4
280
     0
281
     0
  0
ENDSEC
  0
SECTION
  2
TABLES
  0
TABLE
  2
VPORT
  5
8
330
0
100
AcDbSymbolTable
 70
     1
  0
VPORT
  5
29
330
8
100
AcDbSymbolTableRecord
100
AcDbViewportTableRecord
  2
*Active
 70
     0
 10
0.0
 20
0.0
 11
1.0
 21
1.0
 12
0.0
 22
0.0
 13
0.0
 23
0.0
 14
0.5
 24
0.5
 15
0.5
 25
0.5
 16
0.0
 26
0.0
 36
1.0
 17
0.0
 27
0.0
 37
0.0
 40
5.355
 41
1.0
 42
50.0
 43
0.0
 44
0.0
 50
0.0
 51
0.0
 71
     0
 72
   100
 73
     1
 74
     3
 75
     0
 76
     0
 77
     0
 78
     0
281
     0
 65
     1
110
0.0
120
0.0
130
0.0
111
1.0
121
0.0
131
0.0
112
0.0
122
1.0
132
0.0
 79
     0
146
0.0
348
2F
 60
     3
 61
     5
292
     1
282
     1
141
0.0
142
0.0
 63
   250
361
6D
  0
ENDTAB
  0
TABLE
  2
LTYPE
  5
5
330
0
100
AcDbSymbolTable
 70
     3
  0
LTYPE
  5
14
330
5
100
AcDbSymbolTableRecord
100
AcDbLinetypeTableRecord
  2
ByBlock
 70
     0
  3

 72
    65
 73
     0
 40
0.0
  0
LTYPE
  5
15
330
5
100
AcDbSymbolTableRecord
100
AcDbLinetypeTableRecord
  2
ByLayer
 70
     0
  3

 72
    65
 73
     0
 40
0.0
  0
LTYPE
  5
16
330
5
100
AcDbSymbolTableRecord
100
AcDbLinetypeTableRecord
  2
Continuous
 70
     0
  3
Solid line
 72
    65
 73
     0
 40
0.0
  0
LTYPE
  5
9C
330
5
100
AcDbSymbolTableRecord
100
AcDbLinetypeTableRecord
  2
Dashed
 70
     0
  3

 72
    65
 73
     2
 40
2.0
 49
1.0
 74
     0
 49
-1.0
 74
     0
  0
LTYPE
  5
FB
330
5
100
AcDbSymbolTableRecord
100
AcDbLinetypeTableRecord
  2
Center
 70
     0
  3

 72
    65
 73
     4
 40
1.5
 49
0.45
 74
     0
 49
-0.5
 74
     0
 49
0.05
 74
     0
 49
-0.5
 74
     0
  0
ENDTAB
  0
TABLE
  2
LAYER
  5
2
330
0
100
AcDbSymbolTable
 70
     7
  0
LAYER
  5
10
330
2
100
AcDbSymbolTableRecord
100
AcDbLayerTableRecord
  2
0
 70
     0
 62
     7
  6
Continuous
370
    -3
390
F
347
46
348
0
  0
LAYER
  5
72
330
2
100
AcDbSymbolTableRecord
100
AcDbLayerTableRecord
  2
AM_6
 70
     0
 62
    -2
  6
Continuous
370
    35
390
F
347
46
348
0
  0
LAYER
  5
9D
330
2
100
AcDbSymbolTableRecord
100
AcDbLayerTableRecord
  2
AM_9
 70
     0
 62
     6
  6
Dashed
370
    25
390
F
347
46
348
0
  0
LAYER
  5
C1
330
2
100
AcDbSymbolTableRecord
100
AcDbLayerTableRecord
  2
AM_4
 70
     0
 62
     7
  6
Continuous
370
    50
390
F
347
46
348
0
  0
LAYER
  5
F9
330
2
100
AcDbSymbolTableRecord
100
AcDbLayerTableRecord
  2
AM_5
 70
     0
 62
     3
  6
Continuous
370
    25
390
F
347
46
348
0
  0
LAYER
  5
FC
330
2
100
AcDbSymbolTableRecord
100
AcDbLayerTableRecord
  2
AM_7
 70
     0
 62
     7
  6
Center
370
    25
390
F
347
46
348
0
  0
LAYER
  5
249
330
2
100
AcDbSymbolTableRecord
100
AcDbLayerTableRecord
  2
ConnectionPoints
 70
     0
 62
     7
  6
Continuous
370
    50
390
F
347
46
348
0
  0
ENDTAB
  0
TABLE
  2
STYLE
  5
3
330
0
100
AcDbSymbolTable
 70
     1
  0
STYLE
  5
11
330
3
100
AcDbSymbolTableRecord
100
AcDbTextStyleTableRecord
  2
Standard
 70
     0
 40
0.0
 41
1.0
 50
0.0
 71
     0
 42
0.2
  3
txt
  4

  0
ENDTAB
  0
TABLE
  2
VIEW
  5
6
330
0
100
AcDbSymbolTable
 70
     0
  0
ENDTAB
  0
TABLE
  2
UCS
  5
7
330
0
100
AcDbSymbolTable
 70
     0
  0
ENDTAB
  0
TABLE
  2
APPID
  5
9
330
0
100
AcDbSymbolTable
 70
     1
  0
APPID
  5
12
330
9
100
AcDbSymbolTableRecord
100
AcDbRegAppTableRecord
  2
ACAD
 70
     0
  0
ENDTAB
  0
TABLE
  2
DIMSTYLE
  5
A
330
0
100
AcDbSymbolTable
 70
     1
100
AcDbDimStyleTable
  0
DIMSTYLE
105
27
330
A
100
AcDbSymbolTableRecord
100
AcDbDimStyleTableRecord
  2
Standard
 70
     0
178
     0
340
11
  0
ENDTAB
  0
TABLE
  2
BLOCK_RECORD
  5
1
330
0
100
AcDbSymbolTable
 70
     8
  0
BLOCK_RECORD
  5
1F
330
1
100
AcDbSymbolTableRecord
100
AcDbBlockTableRecord
  2
*Model_Space
340
22
 70
     0
280
     1
281
     0
  0
BLOCK_RECORD
  5
1B
330
1
100
AcDbSymbolTableRecord
100
AcDbBlockTableRecord
  2
*Paper_Space
340
1E
 70
     0
280
     1
281
     0
  0
BLOCK_RECORD
  5
23
330
1
100
AcDbSymbolTableRecord
100
AcDbBlockTableRecord
  2
*Paper_Space0
340
26
 70
     0
280
     1
281
     0
  0
BLOCK_RECORD
  5
6E
330
1
100
AcDbSymbolTableRecord
100
AcDbBlockTableRecord
  2
1_069874_0
340
0
102
{BLKREFS
331
6F
102
}
 70
     0
280
     1
281
     0
  0
BLOCK_RECORD
  5
90
330
1
100
AcDbSymbolTableRecord
100
AcDbBlockTableRecord
  2
2_405015E_Inch_0_in_069874_0
340
0
102
{BLKREFS
331
91
102
}
 70
     0
280
     1
281
     0
  0
BLOCK_RECORD
  5
E9
330
1
100
AcDbSymbolTableRecord
100
AcDbBlockTableRecord
  2
3_ASME_B18_3_10_1_0_in_069874_0
340
0
102
{BLKREFS
331
EA
102
}
 70
     0
280
     1
281
     0
  0
BLOCK_RECORD
  5
108
330
1
100
AcDbSymbolTableRecord
100
AcDbBlockTableRecord
  2
4_ASME_B18_3_10_2_0_in_069874_0
340
0
102
{BLKREFS
331
109
102
}
 70
     0
280
     1
281
     0
  0
BLOCK_RECORD
  5
124
330
1
100
AcDbSymbolTableRecord
100
AcDbBlockTableRecord
  2
5_070885LW_0_in_069874_0
340
0
102
{BLKREFS
331
125
102
}
 70
     0
280
     1
281
     0
  0
BLOCK_RECORD
  5
170
330
1
100
AcDbSymbolTableRecord
100
AcDbBlockTableRecord
  2
6_070917I_0_in_069874_0
340
0
102
{BLKREFS
331
171
102
}
 70
     0
280
     1
281
     0
  0
BLOCK_RECORD
  5
1CA
330
1
100
AcDbSymbolTableRecord
100
AcDbBlockTableRecord
  2
7_069874H_0_in_069874_0
340
0
102
{BLKREFS
331
1CB
102
}
 70
     0
280
     1
281
     0
  0
ENDTAB
  0
ENDSEC
  0
SECTION
  2
BLOCKS
  0
BLOCK
  5
20
330
1F
100
AcDbEntity
  8
0
100
AcDbBlockBegin
  2
*Model_Space
 70
     0
 10
0.0
 20
0.0
 30
0.0
  3
*Model_Space
  1

  0
ENDBLK
  5
21
330
1F
100
AcDbEntity
  8
0
100
AcDbBlockEnd
  0
BLOCK
  5
1C
330
1B
100
AcDbEntity
 67
     1
  8
0
100
AcDbBlockBegin
  2
*Paper_Space
 70
     0
 10
0.0
 20
0.0
 30
0.0
  3
*Paper_Space
  1

  0
ENDBLK
  5
1D
330
1B
100
AcDbEntity
 67
     1
  8
0
100
AcDbBlockEnd
  0
BLOCK
  5
24
330
23
100
AcDbEntity
  8
0
100
AcDbBlockBegin
  2
*Paper_Space0
 70
     0
 10
0.0
 20
0.0
 30
0.0
  3
*Paper_Space0
  1

  0
ENDBLK
  5
25
330
23
100
AcDbEntity
  8
0
100
AcDbBlockEnd
  0
BLOCK
  5
70
330
6E
100
AcDbEntity
  8
0
100
AcDbBlockBegin
  2
1_069874_0
 70
     2
 10
0.0
 20
0.0
 30
0.0
  3
1_069874_0
  1

  0
ATTDEF
  5
73
330
6E
100
AcDbEntity
  8
AM_6
100
AcDbText
 10
7.625
 20
2.625
 30
0.0
 40
0.5
  1
Imperial - IP Piloted Flange Labyrinth Seal
100
AcDbAttributeDefinition
  3

  2
NN
 70
     8
280
     0
  0
ATTDEF
  5
74
330
6E
100
AcDbEntity
  8
AM_6
100
AcDbText
 10
7.625
 20
2.125
 30
0.0
 40
0.5
  1
Imperial Piloted Flange Bearings
100
AcDbAttributeDefinition
  3

  2
NT
 70
     8
280
     0
  0
ATTDEF
  5
75
330
6E
100
AcDbEntity
  8
AM_6
100
AcDbText
 10
7.625
 20
1.625
 30
0.0
 40
0.5
  1
069874
100
AcDbAttributeDefinition
  3

  2
NB
 70
     8
280
     0
  0
ATTDEF
  5
76
330
6E
100
AcDbEntity
  8
AM_6
100
AcDbText
 10
7.625
 20
1.125
 30
0.0
 40
0.5
  1
$PN.
100
AcDbAttributeDefinition
  3

  2
NBSYN
 70
     8
280
     0
  0
ATTDEF
  5
77
330
6E
100
AcDbEntity
  8
AM_6
100
AcDbText
 10
7.625
 20
0.625
 30
0.0
 40
0.5
  1
069874
100
AcDbAttributeDefinition
  3

  2
LINA
 70
     8
280
     0
  0
ATTDEF
  5
78
330
6E
100
AcDbEntity
  8
AM_6
100
AcDbText
 10
7.625
 20
0.125
 30
0.0
 40
0.5
  1
1-1/2
100
AcDbAttributeDefinition
  3

  2
SS
 70
     8
280
     0
  0
ATTDEF
  5
79
330
6E
100
AcDbEntity
  8
AM_6
100
AcDbText
 10
7.625
 20
-0.375
 30
0.0
 40
0.5
  1
069874
100
AcDbAttributeDefinition
  3

  2
PN
 70
     8
280
     0
  0
ATTDEF
  5
7A
330
6E
100
AcDbEntity
  8
AM_6
100
AcDbText
 10
7.625
 20
-0.875
 30
0.0
 40
0.5
  1
FC-IP-108L
100
AcDbAttributeDefinition
  3

  2
DESCRIPTION
 70
     8
280
     0
  0
ATTDEF
  5
7B
330
6E
100
AcDbEntity
  8
AM_6
100
AcDbText
 10
7.625
 20
-1.375
 30
0.0
 40
0.5
  1
Non-Expansion Type
100
AcDbAttributeDefinition
  3

  2
EF
 70
     8
280
     0
  0
ATTDEF
  5
7C
330
6E
100
AcDbEntity
  8
AM_6
100
AcDbText
 10
7.625
 20
-1.875
 30
0.0
 40
0.5
  1
Labyrinth Seal
100
AcDbAttributeDefinition
  3

  2
ST
 70
     8
280
     0
  0
ATTDEF
  5
7D
330
6E
100
AcDbEntity
  8
AM_6
100
AcDbText
 10
7.625
 20
-2.375
 30
0.0
 40
0.5
  1
2-5/8
100
AcDbAttributeDefinition
  3

  2
A
 70
     8
280
     0
  0
ATTDEF
  5
7E
330
6E
100
AcDbEntity
  8
AM_6
100
AcDbText
 10
7.625
 20
-2.875
 30
0.0
 40
0.5
  1
5-1/4
100
AcDbAttributeDefinition
  3

  2
B
 70
     8
280
     0
  0
ATTDEF
  5
7F
330
6E
100
AcDbEntity
  8
AM_6
100
AcDbText
 10
7.625
 20
-3.375
 30
0.0
 40
0.5
  1
1-27/32
100
AcDbAttributeDefinition
  3

  2
C
 70
     8
280
     0
  0
ATTDEF
  5
80
330
6E
100
AcDbEntity
  8
AM_6
100
AcDbText
 10
7.625
 20
-3.875
 30
0.0
 40
0.5
  1
3-3/32
100
AcDbAttributeDefinition
  3

  2
D
 70
     8
280
     0
  0
ATTDEF
  5
81
330
6E
100
AcDbEntity
  8
AM_6
100
AcDbText
 10
7.625
 20
-4.375
 30
0.0
 40
0.5
  1
4-3/8
100
AcDbAttributeDefinition
  3

  2
DD
 70
     8
280
     0
  0
ATTDEF
  5
82
330
6E
100
AcDbEntity
  8
AM_6
100
AcDbText
 10
7.625
 20
-4.875
 30
0.0
 40
0.5
  1
3/4
100
AcDbAttributeDefinition
  3

  2
E
 70
     8
280
     0
  0
ATTDEF
  5
83
330
6E
100
AcDbEntity
  8
AM_6
100
AcDbText
 10
7.625
 20
-5.375
 30
0.0
 40
0.5
  1
3/8
100
AcDbAttributeDefinition
  3

  2
F
 70
     8
280
     0
  0
ATTDEF
  5
84
330
6E
100
AcDbEntity
  8
AM_6
100
AcDbText
 10
7.625
 20
-5.875
 30
0.0
 40
0.5
  1
1-25/64
100
AcDbAttributeDefinition
  3

  2
G
 70
     8
280
     0
  0
ATTDEF
  5
85
330
6E
100
AcDbEntity
  8
AM_6
100
AcDbText
 10
7.625
 20
-6.375
 30
0.0
 40
0.5
  1
1/2
100
AcDbAttributeDefinition
  3

  2
H
 70
     8
280
     0
  0
ATTDEF
  5
86
330
6E
100
AcDbEntity
  8
AM_6
100
AcDbText
 10
7.625
 20
-6.875
 30
0.0
 40
0.5
  1
3.625
100
AcDbAttributeDefinition
  3

  2
K
 70
     8
280
     0
  0
ATTDEF
  5
87
330
6E
100
AcDbEntity
  8
AM_6
100
AcDbText
 10
7.625
 20
-7.375
 30
0.0
 40
0.5
  1
2-23/32
100
AcDbAttributeDefinition
  3

  2
L
 70
     8
280
     0
  0
ATTDEF
  5
88
330
6E
100
AcDbEntity
  8
AM_6
100
AcDbText
 10
7.625
 20
-7.875
 30
0.0
 40
0.5
  1
3/8-16
100
AcDbAttributeDefinition
  3

  2
M
 70
     8
280
     0
  0
ATTDEF
  5
89
330
6E
100
AcDbEntity
  8
AM_6
100
AcDbText
 10
7.625
 20
-8.375
 30
0.0
 40
0.5
  1
2-39/64
100
AcDbAttributeDefinition
  3

  2
N
 70
     8
280
     0
  0
ATTDEF
  5
8A
330
6E
100
AcDbEntity
  8
AM_6
100
AcDbText
 10
7.625
 20
-8.875
 30
0.0
 40
0.5
  1
1-15/64
100
AcDbAttributeDefinition
  3

  2
P
 70
     8
280
     0
  0
ATTDEF
  5
8B
330
6E
100
AcDbEntity
  8
AM_6
100
AcDbText
 10
7.625
 20
-9.375
 30
0.0
 40
0.5
  1
1-7/32
100
AcDbAttributeDefinition
  3

  2
Q
 70
     8
280
     0
  0
ATTDEF
  5
8C
330
6E
100
AcDbEntity
  8
AM_6
100
AcDbText
 10
7.625
 20
-9.875
 30
0.0
 40
0.5
  1
3/16
100
AcDbAttributeDefinition
  3

  2
X
 70
     8
280
     0
  0
ATTDEF
  5
8D
330
6E
100
AcDbEntity
  8
AM_6
100
AcDbText
 10
7.625
 20
-10.375
 30
0.0
 40
0.5
  1
0.020
100
AcDbAttributeDefinition
  3

  2
Y
 70
     8
280
     0
  0
ATTDEF
  5
8E
330
6E
100
AcDbEntity
  8
AM_6
100
AcDbText
 10
7.625
 20
-10.875
 30
0.0
 40
0.5
  1
1-51/64
100
AcDbAttributeDefinition
  3

  2
Z
 70
     8
280
     0
  0
ATTDEF
  5
8F
330
6E
100
AcDbEntity
  8
AM_6
100
AcDbText
 10
7.625
 20
-11.375
 30
0.0
 40
0.5
  1
baldor
100
AcDbAttributeDefinition
  3

  2
COMPANY
 70
     8
280
     0
  0
INSERT
  5
91
330
6E
100
AcDbEntity
  8
0
100
AcDbBlockReference
  2
2_405015E_Inch_0_in_069874_0
 10
0.0
 20
0.0
 30
0.0
  0
INSERT
  5
EA
330
6E
100
AcDbEntity
  8
0
100
AcDbBlockReference
  2
3_ASME_B18_3_10_1_0_in_069874_0
 10
0.0
 20
0.0
 30
0.0
  0
INSERT
  5
109
330
6E
100
AcDbEntity
  8
0
100
AcDbBlockReference
  2
4_ASME_B18_3_10_2_0_in_069874_0
 10
0.0
 20
0.0
 30
0.0
  0
INSERT
  5
125
330
6E
100
AcDbEntity
  8
0
100
AcDbBlockReference
  2
5_070885LW_0_in_069874_0
 10
0.0
 20
0.0
 30
0.0
  0
INSERT
  5
171
330
6E
100
AcDbEntity
  8
0
100
AcDbBlockReference
  2
6_070917I_0_in_069874_0
 10
0.0
 20
0.0
 30
0.0
  0
INSERT
  5
1CB
330
6E
100
AcDbEntity
  8
0
100
AcDbBlockReference
  2
7_069874H_0_in_069874_0
 10
0.0
 20
0.0
 30
0.0
  0
ENDBLK
  5
71
330
6E
100
AcDbEntity
  8
0
100
AcDbBlockEnd
  0
BLOCK
  5
92
330
90
100
AcDbEntity
  8
0
100
AcDbBlockBegin
  2
2_405015E_Inch_0_in_069874_0
 70
     2
 10
0.0
 20
0.0
 30
0.0
  3
2_405015E_Inch_0_in_069874_0
  1

  0
ATTDEF
  5
94
330
90
100
AcDbEntity
  8
AM_6
100
AcDbText
 10
5.252590742770462
 20
2.282911361929142
 30
0.0
 40
0.5
  1
405015E -Inch
100
AcDbAttributeDefinition
  3

  2
NN
 70
     8
280
     0
  0
ATTDEF
  5
95
330
90
100
AcDbEntity
  8
AM_6
100
AcDbText
 10
5.252590742770462
 20
1.782911361929142
 30
0.0
 40
0.5
  1
Grease Fitting
100
AcDbAttributeDefinition
  3

  2
NT
 70
     8
280
     0
  0
ATTDEF
  5
96
330
90
100
AcDbEntity
  8
AM_6
100
AcDbText
 10
5.252590742770462
 20
1.282911361929142
 30
0.0
 40
0.5
  1
405015E-Inch
100
AcDbAttributeDefinition
  3

  2
NB
 70
     8
280
     0
  0
ATTDEF
  5
97
330
90
100
AcDbEntity
  8
AM_6
100
AcDbText
 10
5.252590742770462
 20
0.7829113619291421
 30
0.0
 40
0.5
  1
$MN.-Inch
100
AcDbAttributeDefinition
  3

  2
NBSYN
 70
     8
280
     0
  0
ATTDEF
  5
98
330
90
100
AcDbEntity
  8
AM_6
100
AcDbText
 10
5.252590742770462
 20
0.2829113619291421
 30
0.0
 40
0.5
  1
405015E
100
AcDbAttributeDefinition
  3

  2
LINA
 70
     8
280
     0
  0
ATTDEF
  5
99
330
90
100
AcDbEntity
  8
AM_6
100
AcDbText
 10
5.252590742770462
 20
-0.2170886380708579
 30
0.0
 40
0.5
  1
405015E
100
AcDbAttributeDefinition
  3

  2
MN
 70
     8
280
     0
  0
ATTDEF
  5
9A
330
90
100
AcDbEntity
  8
AM_6
100
AcDbText
 10
5.252590742770462
 20
-0.7170886380708579
 30
0.0
 40
0.5
  1
1/8 x 27PTF
100
AcDbAttributeDefinition
  3

  2
T
 70
     8
280
     0
  0
ATTDEF
  5
9B
330
90
100
AcDbEntity
  8
AM_6
100
AcDbText
 10
5.252590742770462
 20
-1.217088638070858
 30
0.0
 40
0.5
  1
baldor
100
AcDbAttributeDefinition
  3

  2
COMPANY
 70
     8
280
     0
  0
ELLIPSE
  5
9E
330
90
100
AcDbEntity
  8
AM_9
100
AcDbEllipse
 10
0.0
 20
1.873989690447714
 30
0.0
 11
-0.161902872472269
 21
1.982738345459263E-17
 31
0.0
210
0.0
220
0.0
230
1.0
 40
0.8660254037844383
 41
0.0
 42
6.283185307179586
  0
ELLIPSE
  5
9F
330
90
100
AcDbEntity
  8
AM_9
100
AcDbEllipse
 10
-0.0000000000000005
 20
2.006489690447714
 30
0.0
 11
0.2187500000000006
 21
0.0
 31
0.0
210
0.0
220
0.0
230
1.0
 40
0.8660254037844357
 41
0.5235987755982983
 42
1.570796326794897
  0
LWPOLYLINE
  5
A0
330
90
100
AcDbEntity
  8
AM_9
100
AcDbPolyline
 90
        3
 70
     0
 43
0.0
 10
0.1262953713852306
 20
2.200466547373867
 10
0.1577272497321276
 20
2.149992192480025
 10
0.1894430570778459
 20
2.101211218986637
  0
LWPOLYLINE
  5
A1
330
90
100
AcDbEntity
  8
AM_9
100
AcDbPolyline
 90
        3
 70
     0
 43
0.0
 10
0.0
 20
2.19593274752556
 10
0.0631476856926153
 20
2.197129437918078
 10
0.1262953713852306
 20
2.200466547373867
  0
ELLIPSE
  5
A2
330
90
100
AcDbEntity
  8
AM_9
100
AcDbEllipse
 10
0.0000000000000005
 20
2.006489690447714
 30
0.0
 11
0.2187500000000006
 21
0.0
 31
0.0
210
0.0
220
0.0
230
1.0
 40
0.8660254037844355
 41
1.570796326794897
 42
2.617993877991495
  0
LWPOLYLINE
  5
A3
330
90
100
AcDbEntity
  8
AM_9
100
AcDbPolyline
 90
        3
 70
     0
 43
0.0
 10
-0.1894430570778459
 20
2.101211218986637
 10
-0.1578692142315383
 20
2.149768673648616
 10
-0.1262953713852306
 20
2.200466547373867
  0
LINE
  5
A4
330
90
100
AcDbEntity
  8
AM_9
100
AcDbLine
 10
-0.021098491834213
 20
2.196068748088669
 30
0.0
 11
0.0
 21
2.19593274752556
 31
0.0
  0
LWPOLYLINE
  5
A5
330
90
100
AcDbEntity
  8
AM_9
100
AcDbPolyline
 90
        4
 70
     0
 43
0.0
 10
-0.1262953713852306
 20
2.200466547373867
 10
-0.0967996321117978
 20
2.198673953784482
 10
-0.0485424412477544
 20
2.196645661647096
 10
-0.021098491834213
 20
2.196068748088669
  0
LINE
  5
A6
330
90
100
AcDbEntity
  8
AM_9
100
AcDbLine
 10
-0.1262953713852306
 20
2.241398947677253
 30
0.0
 11
-0.1262953713852306
 21
2.200466547373867
 31
0.0
  0
LINE
  5
A7
330
90
100
AcDbEntity
  8
AM_9
100
AcDbLine
 10
0.1262953713852306
 20
2.241398947677253
 30
0.0
 11
0.1262953713852306
 21
2.200466547373867
 31
0.0
  0
LWPOLYLINE
  5
A8
330
90
100
AcDbEntity
  8
AM_9
100
AcDbPolyline
 90
        3
 70
     0
 43
0.0
 10
0.0878491423263088
 20
2.243657744814229
 10
0.0634316146914367
 20
2.24472548505075
 10
0.0
 20
2.24593274752556
  0
LWPOLYLINE
  5
A9
330
90
100
AcDbEntity
  8
AM_9
100
AcDbPolyline
 90
        3
 70
     0
 43
0.0
 10
0.0
 20
2.24593274752556
 10
-0.0483998160558989
 20
2.245223967166991
 10
-0.0876643906215059
 20
2.243666960729419
  0
ELLIPSE
  5
AA
330
90
100
AcDbEntity
  8
AM_9
100
AcDbEllipse
 10
0.0000000000000007
 20
2.006489690447714
 30
0.0
 11
0.2187499999999993
 21
0.0
 31
0.0
210
0.0
220
0.0
230
1.0
 40
0.8660254037844387
 41
4.71238898038469
 42
6.806784082777884
  0
LWPOLYLINE
  5
AB
330
90
100
AcDbEntity
  8
AM_9
100
AcDbPolyline
 90
        3
 70
     0
 43
0.0
 10
0.1894430570778459
 20
2.101211218986637
 10
0.2210168999241536
 20
2.055047145109693
 10
0.2525907427704612
 20
2.011023490296021
  0
ELLIPSE
  5
AC
330
90
100
AcDbEntity
  8
AM_9
100
AcDbEllipse
 10
-0.0000000000000009
 20
2.006489690447714
 30
0.0
 11
0.218749999999999
 21
3.259629011154161E-9
 31
0.0
210
0.0
220
0.0
230
1.0
 40
0.8660254037844376
 41
2.617993861860513
 42
4.712388967479909
  0
LWPOLYLINE
  5
AD
330
90
100
AcDbEntity
  8
AM_9
100
AcDbPolyline
 90
        3
 70
     0
 43
0.0
 10
-0.2525907427704612
 20
2.011023490296021
 10
-0.2211588644235643
 20
2.05484477044287
 10
-0.1894430570778459
 20
2.101211218986637
  0
LINE
  5
AE
330
90
100
AcDbEntity
  8
AM_9
100
AcDbLine
 10
0.1983264404626879
 20
1.883036401073869
 30
0.0
 11
0.2054502516015135
 21
1.996844588280004
 31
0.0
  0
LINE
  5
AF
330
90
100
AcDbEntity
  8
AM_9
100
AcDbLine
 10
-0.2054502516015135
 20
1.996844588280004
 30
0.0
 11
-0.1983264404626879
 21
1.883036401073869
 31
0.0
  0
ELLIPSE
  5
B0
330
90
100
AcDbEntity
  8
AM_9
100
AcDbEllipse
 10
-0.0000000000000004
 20
2.056489690447712
 30
0.0
 11
0.2187500000000026
 21
0.0
 31
0.0
210
0.0
220
0.0
230
1.0
 40
0.8660254037844357
 41
1.032970329615024
 42
1.570796326794897
  0
ELLIPSE
  5
B1
330
90
100
AcDbEntity
  8
AM_9
100
AcDbEllipse
 10
0.0000000000000004
 20
2.056489690447712
 30
0.0
 11
0.2187500000000026
 21
0.0
 31
0.0
210
0.0
220
0.0
230
1.0
 40
0.8660254037844357
 41
1.570796326794897
 42
2.10862232397477
  0
ELLIPSE
  5
B2
330
90
100
AcDbEntity
  8
AM_9
100
AcDbEllipse
 10
0.0
 20
2.056489690447715
 30
0.0
 11
0.213749999999999
 21
0.0
 31
0.0
210
0.0
220
0.0
230
1.0
 40
0.8660254037844388
 41
0.9862868522353541
 42
2.155305801354439
  0
ELLIPSE
  5
B3
330
90
100
AcDbEntity
  8
AM_9
100
AcDbEllipse
 10
0.0
 20
2.065648789718155
 30
0.0
 11
0.1725340532830156
 21
0.0
 31
0.0
210
0.0
220
0.0
230
1.0
 40
0.8660254037844395
 41
0.673270410147496
 42
2.468322243442297
  0
ELLIPSE
  5
B4
330
90
100
AcDbEntity
  8
AM_9
100
AcDbEllipse
 10
-0.0000000000000006
 20
2.092866251257002
 30
0.0
 11
0.1188200907348981
 21
0.0
 31
0.0
210
0.0
220
0.0
230
1.0
 40
0.866025403784432
 41
0.0521714424105841
 42
2.30508512437439
  0
LINE
  5
B5
330
90
100
AcDbEntity
  8
AM_9
100
AcDbLine
 10
-0.0703562363973515
 20
2.176489690447714
 30
0.0
 11
-0.079616518023802
 21
2.169250595300863
 31
0.0
  0
LINE
  5
B6
330
90
100
AcDbEntity
  8
AM_9
100
AcDbLine
 10
0.079616518023802
 20
2.169250595300863
 30
0.0
 11
0.0703562363973515
 21
2.176489690447714
 31
0.0
  0
ELLIPSE
  5
B7
330
90
100
AcDbEntity
  8
AM_9
100
AcDbEllipse
 10
0.0000000000000007
 20
2.092866251257002
 30
0.0
 11
0.1188200907348981
 21
1.770557325108322E-9
 31
0.0
210
0.0
220
0.0
230
1.0
 40
0.8660254037844317
 41
2.305085109538284
 42
3.089421193984529
  0
LINE
  5
B8
330
90
100
AcDbEntity
  8
AM_9
100
AcDbLine
 10
0.105
 20
2.108989690447714
 30
0.0
 11
0.105
 21
2.123989690447714
 31
0.0
  0
LINE
  5
B9
330
90
100
AcDbEntity
  8
AM_9
100
AcDbLine
 10
-0.105
 20
2.123989690447714
 30
0.0
 11
-0.105
 21
2.108989690447714
 31
0.0
  0
ELLIPSE
  5
BA
330
90
100
AcDbEntity
  8
AM_9
100
AcDbEllipse
 10
0.000000000000001
 20
2.123989690447714
 30
0.0
 11
0.1050000000000011
 21
0.0
 31
0.0
210
0.0
220
0.0
230
1.0
 40
0.866025403784436
 41
0.0
 42
4.188790204786386
  0
ELLIPSE
  5
BB
330
90
100
AcDbEntity
  8
AM_9
100
AcDbEllipse
 10
-0.0000000000000023
 20
2.108989690447716
 30
0.0
 11
0.1050000000000024
 21
0.0
 31
0.0
210
0.0
220
0.0
230
1.0
 40
0.866025403784442
 41
5.858105981271176
 42
9.42477796076938
  0
ELLIPSE
  5
BC
330
90
100
AcDbEntity
  8
AM_9
100
AcDbEllipse
 10
0.0000000000000008
 20
2.108989690447716
 30
0.0
 11
0.1050000000000008
 21
1.564621925354016E-9
 31
0.0
210
0.0
220
0.0
230
1.0
 40
0.8660254037844424
 41
3.141592638688632
 42
3.566671963023391
  0
ELLIPSE
  5
BD
330
90
100
AcDbEntity
  8
AM_9
100
AcDbEllipse
 10
-0.000000000000001
 20
2.123989690447714
 30
0.0
 11
0.1050000000000011
 21
0.0
 31
0.0
210
0.0
220
0.0
230
1.0
 40
0.866025403784436
 41
5.235987755982993
 42
6.283185307179586
  0
ELLIPSE
  5
BE
330
90
100
AcDbEntity
  8
AM_9
100
AcDbEllipse
 10
0.0
 20
2.153989690447714
 30
0.0
 11
0.1350000000000001
 21
0.0
 31
0.0
210
0.0
220
0.0
230
1.0
 40
0.8660254037844374
 41
0.7751090107151226
 42
2.366483642874671
  0
ELLIPSE
  5
BF
330
90
100
AcDbEntity
  8
AM_9
100
AcDbEllipse
 10
-0.0000000000000002
 20
2.006489690447714
 30
0.0
 11
0.2057518972230694
 21
0.0
 31
0.0
210
0.0
220
0.0
230
1.0
 40
0.8660254037844405
 41
0.0
 42
6.283185307179586
  0
ELLIPSE
  5
C0
330
90
100
AcDbEntity
  8
AM_9
100
AcDbEllipse
 10
0.0
 20
1.892347067602188
 30
0.0
 11
0.1986176267812156
 21
0.0
 31
0.0
210
0.0
220
0.0
230
1.0
 40
0.8660254037844434
 41
0.0
 42
6.283185307179586
  0
LWPOLYLINE
  5
C2
330
90
100
AcDbEntity
  8
AM_4
100
AcDbPolyline
 90
        3
 70
     0
 43
0.0
 10
0.1894430570778459
 20
2.151211218986637
 10
0.1578692142315383
 20
2.197375292863581
 10
0.1262953713852306
 20
2.241398947677253
  0
LINE
  5
C3
330
90
100
AcDbEntity
  8
AM_4
100
AcDbLine
 10
0.1262953713852306
 20
2.241398947677253
 30
0.0
 11
0.0878491423263088
 21
2.243657744814229
 31
0.0
  0
LWPOLYLINE
  5
C4
330
90
100
AcDbEntity
  8
AM_4
100
AcDbPolyline
 90
        3
 70
     0
 43
0.0
 10
-0.1262953713852306
 20
2.241398947677253
 10
-0.1577272497321276
 20
2.197577667530405
 10
-0.1894430570778459
 20
2.151211218986637
  0
LINE
  5
C5
330
90
100
AcDbEntity
  8
AM_4
100
AcDbLine
 10
-0.0876643906215059
 20
2.243666960729419
 30
0.0
 11
-0.1262953713852306
 21
2.241398947677253
 31
0.0
  0
LWPOLYLINE
  5
C6
330
90
100
AcDbEntity
  8
AM_4
100
AcDbPolyline
 90
        3
 70
     0
 43
0.0
 10
0.2525907427704612
 20
2.051955890599407
 10
0.2211588644235643
 20
2.10243024549325
 10
0.1894430570778459
 20
2.151211218986637
  0
LWPOLYLINE
  5
C7
330
90
100
AcDbEntity
  8
AM_4
100
AcDbPolyline
 90
        3
 70
     0
 43
0.0
 10
-0.1894430570778459
 20
2.151211218986637
 10
-0.2210168999241536
 20
2.102653764324658
 10
-0.2525907427704612
 20
2.051955890599407
  0
ELLIPSE
  5
C8
330
90
100
AcDbEntity
  8
AM_4
100
AcDbEllipse
 10
0.0000000000000008
 20
2.056489690447714
 30
0.0
 11
0.2187499999999992
 21
0.0
 31
0.0
210
0.0
220
0.0
230
1.0
 40
0.866025403784439
 41
5.759586531581288
 42
7.316155636794608
  0
ELLIPSE
  5
C9
330
90
100
AcDbEntity
  8
AM_4
100
AcDbEllipse
 10
-0.000000000000002
 20
2.056489690447715
 30
0.0
 11
0.2187499999999968
 21
0.0
 31
0.0
210
0.0
220
0.0
230
1.0
 40
0.8660254037844427
 41
2.108622323974773
 42
5.759586531581287
  0
LINE
  5
CA
330
90
100
AcDbEntity
  8
AM_4
100
AcDbLine
 10
0.2525907427704612
 20
2.051955890599407
 30
0.0
 11
0.2525907427704612
 21
2.011023490296021
 31
0.0
  0
LWPOLYLINE
  5
CB
330
90
100
AcDbEntity
  8
AM_4
100
AcDbPolyline
 90
        3
 70
     0
 43
0.0
 10
0.1894430570778459
 20
1.961768161908791
 10
0.2210168999241535
 20
2.007932235785736
 10
0.2525907427704612
 20
2.051955890599407
  0
LWPOLYLINE
  5
CC
330
90
100
AcDbEntity
  8
AM_4
100
AcDbPolyline
 90
        3
 70
     0
 43
0.0
 10
0.1262953713852306
 20
1.862512833521561
 10
0.1577272497321276
 20
1.912987188415404
 10
0.1894430570778459
 20
1.961768161908791
  0
LWPOLYLINE
  5
CD
330
90
100
AcDbEntity
  8
AM_4
100
AcDbPolyline
 90
        3
 70
     0
 43
0.0
 10
0.1894430570778459
 20
1.911768161908791
 10
0.1578692142315383
 20
1.865604088031847
 10
0.1262953713852306
 20
1.821580433218176
  0
LWPOLYLINE
  5
CE
330
90
100
AcDbEntity
  8
AM_4
100
AcDbPolyline
 90
        3
 70
     0
 43
0.0
 10
0.2525907427704612
 20
2.011023490296021
 10
0.2211588644235643
 20
1.960549135402179
 10
0.1894430570778459
 20
1.911768161908791
  0
LINE
  5
CF
330
90
100
AcDbEntity
  8
AM_4
100
AcDbLine
 10
0.1262953713852306
 20
1.862512833521561
 30
0.0
 11
0.1262953713852306
 21
1.821580433218176
 31
0.0
  0
LWPOLYLINE
  5
D0
330
90
100
AcDbEntity
  8
AM_4
100
AcDbPolyline
 90
        3
 70
     0
 43
0.0
 10
0.0
 20
1.867046633369868
 10
0.0631476856926153
 20
1.865849942977351
 10
0.1262953713852306
 20
1.862512833521561
  0
LWPOLYLINE
  5
D1
330
90
100
AcDbEntity
  8
AM_4
100
AcDbPolyline
 90
        4
 70
     0
 43
0.0
 10
0.0
 20
1.817046633369868
 10
-0.0483998160558989
 20
1.817755413728437
 10
-0.0967996321117978
 20
1.81978783962879
 10
-0.1262953713852306
 20
1.821580433218176
  0
LWPOLYLINE
  5
D2
330
90
100
AcDbEntity
  8
AM_4
100
AcDbPolyline
 90
        3
 70
     0
 43
0.0
 10
0.1262953713852306
 20
1.821580433218176
 10
0.0634316146914367
 20
1.818253895844678
 10
0.0
 20
1.817046633369868
  0
LWPOLYLINE
  5
D3
330
90
100
AcDbEntity
  8
AM_4
100
AcDbPolyline
 90
        4
 70
     0
 43
0.0
 10
-0.1262953713852306
 20
1.862512833521561
 10
-0.0967996321117978
 20
1.864305427110946
 10
-0.0485424412477544
 20
1.866333719248332
 10
0.0
 20
1.867046633369868
  0
LINE
  5
D4
330
90
100
AcDbEntity
  8
AM_4
100
AcDbLine
 10
-0.1262953713852306
 20
1.862512833521561
 30
0.0
 11
-0.1262953713852306
 21
1.821580433218176
 31
0.0
  0
LWPOLYLINE
  5
D5
330
90
100
AcDbEntity
  8
AM_4
100
AcDbPolyline
 90
        3
 70
     0
 43
0.0
 10
-0.1894430570778459
 20
1.961768161908791
 10
-0.1578692142315383
 20
1.913210707246812
 10
-0.1262953713852306
 20
1.862512833521561
  0
LWPOLYLINE
  5
D6
330
90
100
AcDbEntity
  8
AM_4
100
AcDbPolyline
 90
        3
 70
     0
 43
0.0
 10
-0.2525907427704612
 20
2.051955890599407
 10
-0.2211588644235643
 20
2.008134610452559
 10
-0.1894430570778459
 20
1.961768161908791
  0
LINE
  5
D7
330
90
100
AcDbEntity
  8
AM_4
100
AcDbLine
 10
-0.2525907427704612
 20
2.051955890599407
 30
0.0
 11
-0.2525907427704612
 21
2.011023490296021
 31
0.0
  0
LWPOLYLINE
  5
D8
330
90
100
AcDbEntity
  8
AM_4
100
AcDbPolyline
 90
        3
 70
     0
 43
0.0
 10
-0.1894430570778459
 20
1.911768161908791
 10
-0.2210168999241536
 20
1.96032561657077
 10
-0.2525907427704612
 20
2.011023490296021
  0
LWPOLYLINE
  5
D9
330
90
100
AcDbEntity
  8
AM_4
100
AcDbPolyline
 90
        3
 70
     0
 43
0.0
 10
-0.1262953713852306
 20
1.821580433218176
 10
-0.1577272497321276
 20
1.865401713365024
 10
-0.1894430570778459
 20
1.911768161908791
  0
ELLIPSE
  5
DA
330
90
100
AcDbEntity
  8
AM_4
100
AcDbEllipse
 10
0.0
 20
2.056489690447714
 30
0.0
 11
0.2137499999999998
 21
0.0
 31
0.0
210
0.0
220
0.0
230
1.0
 40
0.8660254037844375
 41
2.155305801354435
 42
6.283185307179586
  0
ELLIPSE
  5
DB
330
90
100
AcDbEntity
  8
AM_4
100
AcDbEllipse
 10
0.0000000000000002
 20
2.056489690447714
 30
0.0
 11
0.2137499999999998
 21
0.0
 31
0.0
210
0.0
220
0.0
230
1.0
 40
0.8660254037844398
 41
0.0
 42
0.9862868522353582
  0
ELLIPSE
  5
DC
330
90
100
AcDbEntity
  8
AM_4
100
AcDbEllipse
 10
0.0
 20
2.065648789718155
 30
0.0
 11
0.1725340532830155
 21
0.0
 31
0.0
210
0.0
220
0.0
230
1.0
 40
0.8660254037844375
 41
2.468322243442298
 42
6.283185307179586
  0
ELLIPSE
  5
DD
330
90
100
AcDbEntity
  8
AM_4
100
AcDbEllipse
 10
0.000000000000002
 20
2.065648789718155
 30
0.0
 11
0.1725340532830135
 21
2.570957739398084E-9
 31
0.0
210
0.0
220
0.0
230
1.0
 40
0.8660254037844398
 41
0.0000017304280906
 42
0.6732703946136243
  0
ELLIPSE
  5
DE
330
90
100
AcDbEntity
  8
AM_4
100
AcDbEllipse
 10
-0.000000000000034
 20
2.092866251257082
 30
0.0
 11
0.1188200907349315
 21
1.770557325108819E-9
 31
0.0
210
0.0
220
0.0
230
1.0
 40
0.8660254037844392
 41
3.089421193985296
 42
6.33535673239469
  0
ELLIPSE
  5
DF
330
90
100
AcDbEntity
  8
AM_4
100
AcDbEllipse
 10
0.0
 20
2.108989690447714
 30
0.0
 11
0.1049999999999998
 21
1.564621925354002E-9
 31
0.0
210
0.0
220
0.0
230
1.0
 40
0.8660254037844377
 41
3.566671963023378
 42
5.858105964796371
  0
LINE
  5
E0
330
90
100
AcDbEntity
  8
AM_4
100
AcDbLine
 10
0.0525
 20
2.045239690447714
 30
0.0
 11
0.0675000000000001
 21
2.052739690447714
 31
0.0
  0
LINE
  5
E1
330
90
100
AcDbEntity
  8
AM_4
100
AcDbLine
 10
-0.0675000000000001
 20
2.052739690447714
 30
0.0
 11
-0.0525
 21
2.045239690447714
 31
0.0
  0
ELLIPSE
  5
E2
330
90
100
AcDbEntity
  8
AM_4
100
AcDbEllipse
 10
0.0
 20
2.153989690447712
 30
0.0
 11
0.1349999999999969
 21
0.0
 31
0.0
210
0.0
220
0.0
230
1.0
 40
0.8660254037844415
 41
4.188790204786375
 42
5.235987755983002
  0
ELLIPSE
  5
E3
330
90
100
AcDbEntity
  8
AM_4
100
AcDbEllipse
 10
0.0000000000000002
 20
2.153989690447714
 30
0.0
 11
0.1349999999999999
 21
0.0
 31
0.0
210
0.0
220
0.0
230
1.0
 40
0.8660254037844385
 41
5.235987755982988
 42
7.058294317894708
  0
ELLIPSE
  5
E4
330
90
100
AcDbEntity
  8
AM_4
100
AcDbEllipse
 10
0.0
 20
2.123989690447715
 30
0.0
 11
0.1050000000000009
 21
1.564621925354018E-9
 31
0.0
210
0.0
220
0.0
230
1.0
 40
0.866025403784437
 41
4.188790190806213
 42
5.235987742002801
  0
LINE
  5
E5
330
90
100
AcDbEntity
  8
AM_4
100
AcDbLine
 10
-0.0733474205218687
 20
2.256216538239821
 30
0.0
 11
-0.0964365416902991
 21
2.235805001179334
 31
0.0
  0
LINE
  5
E6
330
90
100
AcDbEntity
  8
AM_4
100
AcDbLine
 10
0.0964365416902991
 20
2.235805001179334
 30
0.0
 11
0.0733474205218687
 21
2.256216538239821
 31
0.0
  0
ELLIPSE
  5
E7
330
90
100
AcDbEntity
  8
AM_4
100
AcDbEllipse
 10
-0.0000000000000002
 20
2.153989690447714
 30
0.0
 11
0.1349999999999998
 21
0.0
 31
0.0
210
0.0
220
0.0
230
1.0
 40
0.8660254037844392
 41
2.36648364287467
 42
4.18879020478639
  0
ELLIPSE
  5
E8
330
90
100
AcDbEntity
  8
AM_4
100
AcDbEllipse
 10
0.0
 20
2.193989690447715
 30
0.0
 11
0.1026779019331871
 21
1.530019967752503E-9
 31
0.0
210
0.0
220
0.0
230
1.0
 40
0.8660254037844392
 41
0.0
 42
6.283185307179586
  0
ENDBLK
  5
93
330
90
100
AcDbEntity
  8
0
100
AcDbBlockEnd
  0
BLOCK
  5
EB
330
E9
100
AcDbEntity
  8
0
100
AcDbBlockBegin
  2
3_ASME_B18_3_10_1_0_in_069874_0
 70
     2
 10
0.0
 20
0.0
 30
0.0
  3
3_ASME_B18_3_10_1_0_in_069874_0
  1

  0
ATTDEF
  5
ED
330
E9
100
AcDbEntity
  8
AM_6
100
AcDbText
 10
5.189525
 20
-0.9158541666666666
 30
0.0
 40
0.5
  1
ANSI/ASME B18.3-1998
100
AcDbAttributeDefinition
  3

  2
NN
 70
     8
280
     0
  0
ATTDEF
  5
EE
330
E9
100
AcDbEntity
  8
AM_6
100
AcDbText
 10
5.189525
 20
-1.415854166666667
 30
0.0
 40
0.5
  1
Socket Button Head Cap Screws
100
AcDbAttributeDefinition
  3

  2
NT
 70
     8
280
     0
  0
ATTDEF
  5
EF
330
E9
100
AcDbEntity
  8
AM_6
100
AcDbText
 10
5.189525
 20
-1.915854166666667
 30
0.0
 40
0.5
  1
ASME B18.3-10
100
AcDbAttributeDefinition
  3

  2
NB
 70
     8
280
     0
  0
ATTDEF
  5
F0
330
E9
100
AcDbEntity
  8
AM_6
100
AcDbText
 10
5.189525
 20
-2.415854166666667
 30
0.0
 40
0.5
  1
ASME B18.3-$NS.
100
AcDbAttributeDefinition
  3

  2
NBSYN
 70
     8
280
     0
  0
ATTDEF
  5
F1
330
E9
100
AcDbEntity
  8
AM_6
100
AcDbText
 10
5.189525
 20
-2.915854166666667
 30
0.0
 40
0.5
  1
ASME B18.3-10
100
AcDbAttributeDefinition
  3

  2
LINA
 70
     8
280
     0
  0
ATTDEF
  5
F2
330
E9
100
AcDbEntity
  8
AM_6
100
AcDbText
 10
5.189525
 20
-3.415854166666667
 30
0.0
 40
0.5
  1
10
100
AcDbAttributeDefinition
  3

  2
NS
 70
     8
280
     0
  0
ATTDEF
  5
F3
330
E9
100
AcDbEntity
  8
AM_6
100
AcDbText
 10
5.189525
 20
-3.915854166666667
 30
0.0
 40
0.5
  1
0.361
100
AcDbAttributeDefinition
  3

  2
A
 70
     8
280
     0
  0
ATTDEF
  5
F4
330
E9
100
AcDbEntity
  8
AM_6
100
AcDbText
 10
5.189525
 20
-4.415854166666667
 30
0.0
 40
0.5
  1
0.101
100
AcDbAttributeDefinition
  3

  2
H
 70
     8
280
     0
  0
ATTDEF
  5
F5
330
E9
100
AcDbEntity
  8
AM_6
100
AcDbText
 10
5.189525
 20
-4.915854166666667
 30
0.0
 40
0.5
  1
0.800
100
AcDbAttributeDefinition
  3

  2
L
 70
     8
280
     0
  0
ATTDEF
  5
F6
330
E9
100
AcDbEntity
  8
AM_6
100
AcDbText
 10
5.189525
 20
-5.415854166666667
 30
0.0
 40
0.5
  1
0.020
100
AcDbAttributeDefinition
  3

  2
S
 70
     8
280
     0
  0
ATTDEF
  5
F7
330
E9
100
AcDbEntity
  8
AM_6
100
AcDbText
 10
5.189525
 20
-5.915854166666667
 30
0.0
 40
0.5
  1
0.125000
100
AcDbAttributeDefinition
  3

  2
J
 70
     8
280
     0
  0
ATTDEF
  5
F8
330
E9
100
AcDbEntity
  8
AM_6
100
AcDbText
 10
5.189525
 20
-6.415854166666667
 30
0.0
 40
0.5
  1
baldor
100
AcDbAttributeDefinition
  3

  2
COMPANY
 70
     8
280
     0
  0
ARC
  5
FA
330
E9
100
AcDbEntity
  8
AM_5
100
AcDbCircle
 10
-0.0000000000000001
 20
-1.096354166666667
 30
0.0
 40
0.0702000000000003
100
AcDbArc
 50
75.0000000000001
 51
15.00000000000019
  0
LINE
  5
FD
330
E9
100
AcDbEntity
  8
AM_7
100
AcDbLine
 10
-0.1895249999999999
 20
-1.096354166666667
 30
0.0
 11
0.1895249999999999
 21
-1.096354166666667
 31
0.0
  0
LINE
  5
FE
330
E9
100
AcDbEntity
  8
AM_4
100
AcDbLine
 10
0.0
 20
-1.024185383017963
 30
0.0
 11
0.0625
 21
-1.060269774842315
 31
0.0
  0
LINE
  5
FF
330
E9
100
AcDbEntity
  8
AM_4
100
AcDbLine
 10
-0.0625
 20
-1.060269774842315
 30
0.0
 11
0.0
 21
-1.024185383017963
 31
0.0
  0
LINE
  5
100
330
E9
100
AcDbEntity
  8
AM_4
100
AcDbLine
 10
0.0
 20
-1.16852295031537
 30
0.0
 11
-0.0625
 21
-1.132438558491018
 31
0.0
  0
CIRCLE
  5
101
330
E9
100
AcDbEntity
  8
AM_4
100
AcDbCircle
 10
0.0
 20
-1.096354166666667
 30
0.0
 40
0.0995
  0
LINE
  5
102
330
E9
100
AcDbEntity
  8
AM_4
100
AcDbLine
 10
-0.0625
 20
-1.132438558491018
 30
0.0
 11
-0.0625
 21
-1.060269774842315
 31
0.0
  0
LINE
  5
103
330
E9
100
AcDbEntity
  8
AM_4
100
AcDbLine
 10
0.0625
 20
-1.060269774842315
 30
0.0
 11
0.0625
 21
-1.132438558491018
 31
0.0
  0
LINE
  5
104
330
E9
100
AcDbEntity
  8
AM_4
100
AcDbLine
 10
0.0625
 20
-1.132438558491018
 30
0.0
 11
0.0
 21
-1.16852295031537
 31
0.0
  0
ARC
  5
105
330
E9
100
AcDbEntity
  8
AM_5
100
AcDbCircle
 10
0.0
 20
-1.096354166666666
 30
0.0
 40
0.0702
100
AcDbArc
 50
344.9999999999998
 51
284.9999999999999
  0
CIRCLE
  5
106
330
E9
100
AcDbEntity
  8
AM_4
100
AcDbCircle
 10
0.0
 20
-1.096354166666667
 30
0.0
 40
0.1804999999999999
  0
CIRCLE
  5
107
330
E9
100
AcDbEntity
  8
AM_5
100
AcDbCircle
 10
0.0
 20
-1.096354166666667
 30
0.0
 40
0.0764
  0
ENDBLK
  5
EC
330
E9
100
AcDbEntity
  8
0
100
AcDbBlockEnd
  0
BLOCK
  5
10A
330
108
100
AcDbEntity
  8
0
100
AcDbBlockBegin
  2
4_ASME_B18_3_10_2_0_in_069874_0
 70
     2
 10
0.0
 20
0.0
 30
0.0
  3
4_ASME_B18_3_10_2_0_in_069874_0
  1

  0
ATTDEF
  5
10C
330
108
100
AcDbEntity
  8
AM_6
100
AcDbText
 10
5.189525
 20
1.276854166666666
 30
0.0
 40
0.5
  1
ANSI/ASME B18.3-1998
100
AcDbAttributeDefinition
  3

  2
NN
 70
     8
280
     0
  0
ATTDEF
  5
10D
330
108
100
AcDbEntity
  8
AM_6
100
AcDbText
 10
5.189525
 20
0.7768541666666664
 30
0.0
 40
0.5
  1
Socket Button Head Cap Screws
100
AcDbAttributeDefinition
  3

  2
NT
 70
     8
280
     0
  0
ATTDEF
  5
10E
330
108
100
AcDbEntity
  8
AM_6
100
AcDbText
 10
5.189525
 20
0.2768541666666664
 30
0.0
 40
0.5
  1
ASME B18.3-10
100
AcDbAttributeDefinition
  3

  2
NB
 70
     8
280
     0
  0
ATTDEF
  5
10F
330
108
100
AcDbEntity
  8
AM_6
100
AcDbText
 10
5.189525
 20
-0.2231458333333336
 30
0.0
 40
0.5
  1
ASME B18.3-$NS.
100
AcDbAttributeDefinition
  3

  2
NBSYN
 70
     8
280
     0
  0
ATTDEF
  5
110
330
108
100
AcDbEntity
  8
AM_6
100
AcDbText
 10
5.189525
 20
-0.7231458333333336
 30
0.0
 40
0.5
  1
ASME B18.3-10
100
AcDbAttributeDefinition
  3

  2
LINA
 70
     8
280
     0
  0
ATTDEF
  5
111
330
108
100
AcDbEntity
  8
AM_6
100
AcDbText
 10
5.189525
 20
-1.223145833333334
 30
0.0
 40
0.5
  1
10
100
AcDbAttributeDefinition
  3

  2
NS
 70
     8
280
     0
  0
ATTDEF
  5
112
330
108
100
AcDbEntity
  8
AM_6
100
AcDbText
 10
5.189525
 20
-1.723145833333334
 30
0.0
 40
0.5
  1
0.361
100
AcDbAttributeDefinition
  3

  2
A
 70
     8
280
     0
  0
ATTDEF
  5
113
330
108
100
AcDbEntity
  8
AM_6
100
AcDbText
 10
5.189525
 20
-2.223145833333334
 30
0.0
 40
0.5
  1
0.101
100
AcDbAttributeDefinition
  3

  2
H
 70
     8
280
     0
  0
ATTDEF
  5
114
330
108
100
AcDbEntity
  8
AM_6
100
AcDbText
 10
5.189525
 20
-2.723145833333334
 30
0.0
 40
0.5
  1
0.800
100
AcDbAttributeDefinition
  3

  2
L
 70
     8
280
     0
  0
ATTDEF
  5
115
330
108
100
AcDbEntity
  8
AM_6
100
AcDbText
 10
5.189525
 20
-3.223145833333334
 30
0.0
 40
0.5
  1
0.020
100
AcDbAttributeDefinition
  3

  2
S
 70
     8
280
     0
  0
ATTDEF
  5
116
330
108
100
AcDbEntity
  8
AM_6
100
AcDbText
 10
5.189525
 20
-3.723145833333334
 30
0.0
 40
0.5
  1
0.125000
100
AcDbAttributeDefinition
  3

  2
J
 70
     8
280
     0
  0
ATTDEF
  5
117
330
108
100
AcDbEntity
  8
AM_6
100
AcDbText
 10
5.189525
 20
-4.223145833333334
 30
0.0
 40
0.5
  1
baldor
100
AcDbAttributeDefinition
  3

  2
COMPANY
 70
     8
280
     0
  0
ARC
  5
118
330
108
100
AcDbEntity
  8
AM_5
100
AcDbCircle
 10
0.0000000000000003
 20
1.096354166666667
 30
0.0
 40
0.0702
100
AcDbArc
 50
75.00000000000023
 51
15.00000000000027
  0
LINE
  5
119
330
108
100
AcDbEntity
  8
AM_7
100
AcDbLine
 10
-0.1895249999999999
 20
1.096354166666667
 30
0.0
 11
0.1895249999999999
 21
1.096354166666667
 31
0.0
  0
LINE
  5
11A
330
108
100
AcDbEntity
  8
AM_4
100
AcDbLine
 10
0.0
 20
1.16852295031537
 30
0.0
 11
0.0625
 21
1.132438558491018
 31
0.0
  0
CIRCLE
  5
11B
330
108
100
AcDbEntity
  8
AM_4
100
AcDbCircle
 10
0.0
 20
1.096354166666667
 30
0.0
 40
0.0995
  0
LINE
  5
11C
330
108
100
AcDbEntity
  8
AM_4
100
AcDbLine
 10
-0.0625
 20
1.060269774842315
 30
0.0
 11
-0.0625
 21
1.132438558491018
 31
0.0
  0
LINE
  5
11D
330
108
100
AcDbEntity
  8
AM_4
100
AcDbLine
 10
-0.0625
 20
1.132438558491018
 30
0.0
 11
0.0
 21
1.16852295031537
 31
0.0
  0
LINE
  5
11E
330
108
100
AcDbEntity
  8
AM_4
100
AcDbLine
 10
0.0625
 20
1.132438558491018
 30
0.0
 11
0.0625
 21
1.060269774842315
 31
0.0
  0
LINE
  5
11F
330
108
100
AcDbEntity
  8
AM_4
100
AcDbLine
 10
0.0625
 20
1.060269774842315
 30
0.0
 11
0.0
 21
1.024185383017963
 31
0.0
  0
LINE
  5
120
330
108
100
AcDbEntity
  8
AM_4
100
AcDbLine
 10
0.0
 20
1.024185383017963
 30
0.0
 11
-0.0625
 21
1.060269774842315
 31
0.0
  0
ARC
  5
121
330
108
100
AcDbEntity
  8
AM_5
100
AcDbCircle
 10
0.0
 20
1.096354166666667
 30
0.0
 40
0.0702
100
AcDbArc
 50
344.9999999999998
 51
284.9999999999999
  0
CIRCLE
  5
122
330
108
100
AcDbEntity
  8
AM_4
100
AcDbCircle
 10
0.0
 20
1.096354166666667
 30
0.0
 40
0.1804999999999999
  0
CIRCLE
  5
123
330
108
100
AcDbEntity
  8
AM_5
100
AcDbCircle
 10
0.0
 20
1.096354166666667
 30
0.0
 40
0.0764
  0
ENDBLK
  5
10B
330
108
100
AcDbEntity
  8
0
100
AcDbBlockEnd
  0
BLOCK
  5
126
330
124
100
AcDbEntity
  8
0
100
AcDbBlockBegin
  2
5_070885LW_0_in_069874_0
 70
     2
 10
0.0
 20
0.0
 30
0.0
  3
5_070885LW_0_in_069874_0
  1

  0
ATTDEF
  5
128
330
124
100
AcDbEntity
  8
AM_6
100
AcDbText
 10
6.359375
 20
1.359375
 30
0.0
 40
0.5
  1
Imperial Insert Lockwasher -Inch
100
AcDbAttributeDefinition
  3

  2
NN
 70
     8
280
     0
  0
ATTDEF
  5
129
330
124
100
AcDbEntity
  8
AM_6
100
AcDbText
 10
6.359375
 20
0.859375
 30
0.0
 40
0.5
  1
Imperial Bearings
100
AcDbAttributeDefinition
  3

  2
NT
 70
     8
280
     0
  0
ATTDEF
  5
12A
330
124
100
AcDbEntity
  8
AM_6
100
AcDbText
 10
6.359375
 20
0.359375
 30
0.0
 40
0.5
  1
070885LW
100
AcDbAttributeDefinition
  3

  2
NB
 70
     8
280
     0
  0
ATTDEF
  5
12B
330
124
100
AcDbEntity
  8
AM_6
100
AcDbText
 10
6.359375
 20
-0.140625
 30
0.0
 40
0.5
  1
$PN.LW
100
AcDbAttributeDefinition
  3

  2
NBSYN
 70
     8
280
     0
  0
ATTDEF
  5
12C
330
124
100
AcDbEntity
  8
AM_6
100
AcDbText
 10
6.359375
 20
-0.640625
 30
0.0
 40
0.5
  1
070885
100
AcDbAttributeDefinition
  3

  2
LINA
 70
     8
280
     0
  0
ATTDEF
  5
12D
330
124
100
AcDbEntity
  8
AM_6
100
AcDbText
 10
6.359375
 20
-1.140625
 30
0.0
 40
0.5
  1
1-1/2
100
AcDbAttributeDefinition
  3

  2
SS
 70
     8
280
     0
  0
ATTDEF
  5
12E
330
124
100
AcDbEntity
  8
AM_6
100
AcDbText
 10
6.359375
 20
-1.640625
 30
0.0
 40
0.5
  1
1.500000
100
AcDbAttributeDefinition
  3

  2
SS1
 70
     8
280
     0
  0
ATTDEF
  5
12F
330
124
100
AcDbEntity
  8
AM_6
100
AcDbText
 10
6.359375
 20
-2.140625
 30
0.0
 40
0.5
  1
070885
100
AcDbAttributeDefinition
  3

  2
PN
 70
     8
280
     0
  0
ATTDEF
  5
130
330
124
100
AcDbEntity
  8
AM_6
100
AcDbText
 10
6.359375
 20
-2.640625
 30
0.0
 40
0.5
  1
INS-IP-108R
100
AcDbAttributeDefinition
  3

  2
DESCRIPTION
 70
     8
280
     0
  0
ATTDEF
  5
131
330
124
100
AcDbEntity
  8
AM_6
100
AcDbText
 10
6.359375
 20
-3.140625
 30
0.0
 40
0.5
  1
3.1496
100
AcDbAttributeDefinition
  3

  2
A
 70
     8
280
     0
  0
ATTDEF
  5
132
330
124
100
AcDbEntity
  8
AM_6
100
AcDbText
 10
6.359375
 20
-3.640625
 30
0.0
 40
0.5
  1
61/64
100
AcDbAttributeDefinition
  3

  2
B
 70
     8
280
     0
  0
ATTDEF
  5
133
330
124
100
AcDbEntity
  8
AM_6
100
AcDbText
 10
6.359375
 20
-4.140625
 30
0.0
 40
0.5
  1
2-5/8
100
AcDbAttributeDefinition
  3

  2
C
 70
     8
280
     0
  0
ATTDEF
  5
134
330
124
100
AcDbEntity
  8
AM_6
100
AcDbText
 10
6.359375
 20
-4.640625
 30
0.0
 40
0.5
  1
0.970
100
AcDbAttributeDefinition
  3

  2
D
 70
     8
280
     0
  0
ATTDEF
  5
135
330
124
100
AcDbEntity
  8
AM_6
100
AcDbText
 10
6.359375
 20
-5.140625
 30
0.0
 40
0.5
  1
2-23/32
100
AcDbAttributeDefinition
  3

  2
E
 70
     8
280
     0
  0
ATTDEF
  5
136
330
124
100
AcDbEntity
  8
AM_6
100
AcDbText
 10
6.359375
 20
-5.640625
 30
0.0
 40
0.5
  1
0.1900
100
AcDbAttributeDefinition
  3

  2
NDM
 70
     8
280
     0
  0
ATTDEF
  5
137
330
124
100
AcDbEntity
  8
AM_6
100
AcDbText
 10
6.359375
 20
-6.140625
 30
0.0
 40
0.5
  1
0.1450
100
AcDbAttributeDefinition
  3

  2
KDM
 70
     8
280
     0
  0
ATTDEF
  5
138
330
124
100
AcDbEntity
  8
AM_6
100
AcDbText
 10
6.359375
 20
-6.640625
 30
0.0
 40
0.5
  1
2.22
100
AcDbAttributeDefinition
  3

  2
AL
 70
     8
280
     0
  0
ATTDEF
  5
139
330
124
100
AcDbEntity
  8
AM_6
100
AcDbText
 10
6.359375
 20
-7.140625
 30
0.0
 40
0.5
  1
0.38
100
AcDbAttributeDefinition
  3

  2
BL
 70
     8
280
     0
  0
ATTDEF
  5
13A
330
124
100
AcDbEntity
  8
AM_6
100
AcDbText
 10
6.359375
 20
-7.640625
 30
0.0
 40
0.5
  1
0.07
100
AcDbAttributeDefinition
  3

  2
CL
 70
     8
280
     0
  0
ATTDEF
  5
13B
330
124
100
AcDbEntity
  8
AM_6
100
AcDbText
 10
6.359375
 20
-8.140625
 30
0.0
 40
0.5
  1
0.44
100
AcDbAttributeDefinition
  3

  2
DL
 70
     8
280
     0
  0
ATTDEF
  5
13C
330
124
100
AcDbEntity
  8
AM_6
100
AcDbText
 10
6.359375
 20
-8.640625
 30
0.0
 40
0.5
  1
baldor
100
AcDbAttributeDefinition
  3

  2
COMPANY
 70
     8
280
     0
  0
ARC
  5
13D
330
124
100
AcDbEntity
  8
AM_9
100
AcDbCircle
 10
-0.0000000000000121
 20
0.0000000000000281
 30
0.0
 40
0.7894736842104957
100
AcDbArc
 50
105.5886594237052
 51
119.4113405762947
  0
LINE
  5
13E
330
124
100
AcDbEntity
  8
AM_9
100
AcDbLine
 10
-0.0950000000000002
 20
0.9428769696633333
 30
0.0
 11
-0.0950000000000002
 21
1.096354166666667
 31
0.0
  0
LINE
  5
13F
330
124
100
AcDbEntity
  8
AM_9
100
AcDbLine
 10
0.0949999999999996
 20
1.096354166666667
 30
0.0
 11
0.0949999999999998
 21
0.9428769696633332
 31
0.0
  0
ARC
  5
140
330
124
100
AcDbEntity
  8
AM_9
100
AcDbCircle
 10
-0.0000000000000003
 20
1.092230497087204
 30
0.0
 40
0.0950894560442985
100
AcDbArc
 50
2.485480422748181
 51
177.5145195772521
  0
LINE
  5
141
330
124
100
AcDbEntity
  8
AM_9
100
AcDbLine
 10
0.0950000000000004
 20
-0.9428769696633335
 30
0.0
 11
0.0950000000000006
 21
-1.096354166666667
 31
0.0
  0
LINE
  5
142
330
124
100
AcDbEntity
  8
AM_9
100
AcDbLine
 10
-0.0949999999999994
 20
-1.096354166666667
 30
0.0
 11
-0.0949999999999996
 21
-0.942876969663333
 31
0.0
  0
LINE
  5
143
330
124
100
AcDbEntity
  8
AM_7
100
AcDbLine
 10
0.6755526468717997
 20
-0.775302691053896
 30
0.0
 11
0.8750527352359933
 21
-0.775302691053896
 31
0.0
  0
LINE
  5
144
330
124
100
AcDbEntity
  8
AM_7
100
AcDbLine
 10
0.7753026910538965
 20
-0.8750527352359928
 30
0.0
 11
0.7753026910538965
 21
-0.6755526468717993
 31
0.0
  0
LINE
  5
145
330
124
100
AcDbEntity
  8
AM_7
100
AcDbLine
 10
-0.8750527352359928
 20
0.7753026910538963
 30
0.0
 11
-0.6755526468717997
 21
0.7753026910538963
 31
0.0
  0
LINE
  5
146
330
124
100
AcDbEntity
  8
AM_7
100
AcDbLine
 10
-0.7753026910538963
 20
0.6755526468717997
 30
0.0
 11
-0.7753026910538963
 21
0.8750527352359928
 31
0.0
  0
LINE
  5
147
330
124
100
AcDbEntity
  8
AM_7
100
AcDbLine
 10
-0.8750527352359925
 20
-0.7753026910538968
 30
0.0
 11
-0.6755526468717994
 21
-0.7753026910538968
 31
0.0
  0
LINE
  5
148
330
124
100
AcDbEntity
  8
AM_7
100
AcDbLine
 10
-0.7753026910538959
 20
-0.8750527352359934
 30
0.0
 11
-0.7753026910538959
 21
-0.6755526468718003
 31
0.0
  0
LINE
  5
149
330
124
100
AcDbEntity
  8
AM_7
100
AcDbLine
 10
-1.096443580632778
 20
-0.0997500441820973
 30
0.0
 11
-1.096443580632778
 21
0.0997500441820958
 31
0.0
  0
LINE
  5
14A
330
124
100
AcDbEntity
  8
AM_7
100
AcDbLine
 10
1.096443580632778
 20
-0.0997500441820961
 30
0.0
 11
1.096443580632778
 21
0.0997500441820969
 31
0.0
  0
LINE
  5
14B
330
124
100
AcDbEntity
  8
AM_7
100
AcDbLine
 10
0.6755526468717995
 20
0.7753026910538965
 30
0.0
 11
0.8750527352359926
 21
0.7753026910538965
 31
0.0
  0
LINE
  5
14C
330
124
100
AcDbEntity
  8
AM_7
100
AcDbLine
 10
0.775302691053896
 20
0.6755526468717999
 30
0.0
 11
0.775302691053896
 21
0.875052735235993
 31
0.0
  0
ARC
  5
14D
330
124
100
AcDbEntity
  8
AM_4
100
AcDbCircle
 10
0.0000000000000001
 20
-0.0000000000000001
 30
0.0
 40
0.8108108108108107
100
AcDbArc
 50
51.7286108996216
 51
83.27138910037844
  0
ARC
  5
14E
330
124
100
AcDbEntity
  8
AM_4
100
AcDbCircle
 10
-0.0000000000000004
 20
-0.0000000000000008
 30
0.0
 40
0.8108108108108099
100
AcDbArc
 50
231.7286108996215
 51
263.2713891003785
  0
LINE
  5
14F
330
124
100
AcDbEntity
  8
AM_4
100
AcDbLine
 10
-0.0950000000000002
 20
0.8052261613532463
 30
0.0
 11
-0.0950000000000002
 21
0.9428769696633333
 31
0.0
  0
LINE
  5
150
330
124
100
AcDbEntity
  8
AM_4
100
AcDbLine
 10
0.0949999999999998
 20
0.9428769696633332
 30
0.0
 11
0.0949999999999999
 21
0.8052261613532463
 31
0.0
  0
ARC
  5
151
330
124
100
AcDbEntity
  8
AM_4
100
AcDbCircle
 10
-0.0000000000000049
 20
-0.0000000000000028
 30
0.0
 40
0.8108108108108053
100
AcDbArc
 50
186.7286108996214
 51
218.2713891003786
  0
ARC
  5
152
330
124
100
AcDbEntity
  8
AM_4
100
AcDbCircle
 10
-0.7753026910538959
 20
-0.7753026910538968
 30
0.0
 40
0.0950000420781873
100
AcDbArc
 50
134.9460732486849
 51
315.0539267513153
  0
LINE
  5
153
330
124
100
AcDbEntity
  8
AM_4
100
AcDbLine
 10
-0.5022057348689721
 20
-0.6365560232944151
 30
0.0
 11
-0.7080643216194037
 21
-0.8424146100448486
 31
0.0
  0
ARC
  5
154
330
124
100
AcDbEntity
  8
AM_4
100
AcDbCircle
 10
-1.096443580632777
 20
-0.0000000000000008
 30
0.0
 40
0.0950000420781873
100
AcDbArc
 50
89.94607324868488
 51
270.053926751315
  0
LINE
  5
155
330
124
100
AcDbEntity
  8
AM_4
100
AcDbLine
 10
-0.8052261613532461
 20
-0.0950000000000004
 30
0.0
 11
-1.096354166666666
 21
-0.0950000000000008
 31
0.0
  0
LINE
  5
156
330
124
100
AcDbEntity
  8
AM_4
100
AcDbLine
 10
0.0950000000000008
 20
-0.8052261613532463
 30
0.0
 11
0.0950000000000004
 21
-0.9428769696633335
 31
0.0
  0
ARC
  5
157
330
124
100
AcDbEntity
  8
AM_4
100
AcDbCircle
 10
-0.0000000000000021
 20
0.0000000000000043
 30
0.0
 40
0.8108108108108153
100
AcDbArc
 50
276.7286108996217
 51
308.2713891003783
  0
LINE
  5
158
330
124
100
AcDbEntity
  8
AM_4
100
AcDbLine
 10
0.7080643216193958
 20
-0.8424146100448394
 30
0.0
 11
0.5022057348689718
 21
-0.6365560232944153
 31
0.0
  0
ARC
  5
159
330
124
100
AcDbEntity
  8
AM_4
100
AcDbCircle
 10
0.7753026910538966
 20
-0.775302691053896
 30
0.0
 40
0.0950000420781873
100
AcDbArc
 50
224.9460732486774
 51
45.05392675131527
  0
LINE
  5
15A
330
124
100
AcDbEntity
  8
AM_4
100
AcDbLine
 10
0.6365560232944156
 20
-0.5022057348689714
 30
0.0
 11
0.8424146100448485
 21
-0.7080643216194038
 31
0.0
  0
ARC
  5
15B
330
124
100
AcDbEntity
  8
AM_4
100
AcDbCircle
 10
0.0000000000000003
 20
-0.0000000000000004
 30
0.0
 40
0.8108108108108101
100
AcDbArc
 50
321.7286108996217
 51
353.2713891003784
  0
LINE
  5
15C
330
124
100
AcDbEntity
  8
AM_4
100
AcDbLine
 10
1.096354166666667
 20
-0.0949999999999996
 30
0.0
 11
0.8052261613532461
 21
-0.0949999999999997
 31
0.0
  0
ARC
  5
15D
330
124
100
AcDbEntity
  8
AM_4
100
AcDbCircle
 10
1.096443580632777
 20
0.0000000000000004
 30
0.0
 40
0.0950000420781871
100
AcDbArc
 50
269.946073248685
 51
90.05392675131498
  0
LINE
  5
15E
330
124
100
AcDbEntity
  8
AM_4
100
AcDbLine
 10
0.8052261613532462
 20
0.095000000000001
 30
0.0
 11
1.096354166666667
 21
0.0950000000000003
 31
0.0
  0
ARC
  5
15F
330
124
100
AcDbEntity
  8
AM_4
100
AcDbCircle
 10
-0.0000000000000006
 20
-0.0000000000000002
 30
0.0
 40
0.8108108108108113
100
AcDbArc
 50
6.728610899621682
 51
38.27138910037845
  0
LINE
  5
160
330
124
100
AcDbEntity
  8
AM_4
100
AcDbLine
 10
0.8424146100448481
 20
0.7080643216194045
 30
0.0
 11
0.6365560232944154
 21
0.5022057348689717
 31
0.0
  0
ARC
  5
161
330
124
100
AcDbEntity
  8
AM_4
100
AcDbCircle
 10
0.7753026910538962
 20
0.7753026910538965
 30
0.0
 40
0.0950000420781871
100
AcDbArc
 50
314.9460732486849
 51
135.0539267513153
  0
LINE
  5
162
330
124
100
AcDbEntity
  8
AM_4
100
AcDbLine
 10
-0.0949999999999996
 20
-0.942876969663333
 30
0.0
 11
-0.0949999999999997
 21
-0.8052261613532463
 31
0.0
  0
LINE
  5
163
330
124
100
AcDbEntity
  8
AM_4
100
AcDbLine
 10
-0.2121546127903875
 20
0.7604335068450776
 30
0.0
 11
-0.2203781556682536
 21
0.7802868955915786
 31
0.0
  0
ARC
  5
164
330
124
100
AcDbEntity
  8
AM_4
100
AcDbCircle
 10
-0.0000000000000067
 20
0.0000000000000157
 30
0.0
 40
0.749999999999983
100
AcDbArc
 50
105.2229861234302
 51
119.7770138765697
  0
LINE
  5
165
330
124
100
AcDbEntity
  8
AM_4
100
AcDbLine
 10
-0.3959152668453984
 20
0.7075770434422116
 30
0.0
 11
-0.3876917239675322
 21
0.6877236546957104
 31
0.0
  0
LINE
  5
166
330
124
100
AcDbEntity
  8
AM_4
100
AcDbLine
 10
0.5022057348689712
 20
0.6365560232944159
 30
0.0
 11
0.7080643216194039
 21
0.8424146100448484
 31
0.0
  0
LINE
  5
167
330
124
100
AcDbEntity
  8
AM_4
100
AcDbLine
 10
-0.842414610044848
 20
-0.7080643216194047
 30
0.0
 11
-0.6365560232944154
 21
-0.5022057348689721
 31
0.0
  0
LINE
  5
168
330
124
100
AcDbEntity
  8
AM_4
100
AcDbLine
 10
-1.096354166666666
 20
0.0949999999999993
 30
0.0
 11
-0.8052261613532461
 21
0.0949999999999994
 31
0.0
  0
ARC
  5
169
330
124
100
AcDbEntity
  8
AM_4
100
AcDbCircle
 10
0.0000000000000004
 20
0.000000000000001
 30
0.0
 40
0.8108108108108107
100
AcDbArc
 50
141.7286108996216
 51
173.2713891003785
  0
LINE
  5
16A
330
124
100
AcDbEntity
  8
AM_4
100
AcDbLine
 10
-0.6365560232944159
 20
0.5022057348689717
 30
0.0
 11
-0.8424146100448483
 21
0.7080643216194041
 31
0.0
  0
ARC
  5
16B
330
124
100
AcDbEntity
  8
AM_4
100
AcDbCircle
 10
-0.7753026910538963
 20
0.7753026910538963
 30
0.0
 40
0.0950000420781872
100
AcDbArc
 50
44.9460732486775
 51
225.0539267513151
  0
LINE
  5
16C
330
124
100
AcDbEntity
  8
AM_4
100
AcDbLine
 10
-0.7080643216193956
 20
0.8424146100448396
 30
0.0
 11
-0.5022057348689716
 21
0.6365560232944155
 31
0.0
  0
ARC
  5
16D
330
124
100
AcDbEntity
  8
AM_4
100
AcDbCircle
 10
-0.0000000000000143
 20
0.0000000000000225
 30
0.0
 40
0.8108108108107842
100
AcDbArc
 50
119.2286108996215
 51
128.2713891003787
  0
ARC
  5
16E
330
124
100
AcDbEntity
  8
AM_4
100
AcDbCircle
 10
-0.0000000000000186
 20
0.0000000000000975
 30
0.0
 40
0.8108108108107117
100
AcDbArc
 50
96.72861089962109
 51
105.7713891003791
  0
CIRCLE
  5
16F
330
124
100
AcDbEntity
  8
AM_4
100
AcDbCircle
 10
0.0
 20
0.0
 30
0.0
 40
1.359375
  0
ENDBLK
  5
127
330
124
100
AcDbEntity
  8
0
100
AcDbBlockEnd
  0
BLOCK
  5
172
330
170
100
AcDbEntity
  8
0
100
AcDbBlockBegin
  2
6_070917I_0_in_069874_0
 70
     2
 10
0.0
 20
0.0
 30
0.0
  3
6_070917I_0_in_069874_0
  1

  0
ATTDEF
  5
174
330
170
100
AcDbEntity
  8
AM_6
100
AcDbText
 10
6.52714375
 20
1.52714375
 30
0.0
 40
0.5
  1
Imperial Insert -Inch
100
AcDbAttributeDefinition
  3

  2
NN
 70
     8
280
     0
  0
ATTDEF
  5
175
330
170
100
AcDbEntity
  8
AM_6
100
AcDbText
 10
6.52714375
 20
1.02714375
 30
0.0
 40
0.5
  1
Imperial Bearings
100
AcDbAttributeDefinition
  3

  2
NT
 70
     8
280
     0
  0
ATTDEF
  5
176
330
170
100
AcDbEntity
  8
AM_6
100
AcDbText
 10
6.52714375
 20
0.5271437500000002
 30
0.0
 40
0.5
  1
070917I
100
AcDbAttributeDefinition
  3

  2
NB
 70
     8
280
     0
  0
ATTDEF
  5
177
330
170
100
AcDbEntity
  8
AM_6
100
AcDbText
 10
6.52714375
 20
0.0271437500000002
 30
0.0
 40
0.5
  1
$PN.I
100
AcDbAttributeDefinition
  3

  2
NBSYN
 70
     8
280
     0
  0
ATTDEF
  5
178
330
170
100
AcDbEntity
  8
AM_6
100
AcDbText
 10
6.52714375
 20
-0.4728562499999998
 30
0.0
 40
0.5
  1
070917
100
AcDbAttributeDefinition
  3

  2
LINA
 70
     8
280
     0
  0
ATTDEF
  5
179
330
170
100
AcDbEntity
  8
AM_6
100
AcDbText
 10
6.52714375
 20
-0.9728562499999998
 30
0.0
 40
0.5
  1
1-1/2
100
AcDbAttributeDefinition
  3

  2
SS
 70
     8
280
     0
  0
ATTDEF
  5
17A
330
170
100
AcDbEntity
  8
AM_6
100
AcDbText
 10
6.52714375
 20
-1.47285625
 30
0.0
 40
0.5
  1
1.500000
100
AcDbAttributeDefinition
  3

  2
SS1
 70
     8
280
     0
  0
ATTDEF
  5
17B
330
170
100
AcDbEntity
  8
AM_6
100
AcDbText
 10
6.52714375
 20
-1.97285625
 30
0.0
 40
0.5
  1
070917
100
AcDbAttributeDefinition
  3

  2
PN
 70
     8
280
     0
  0
ATTDEF
  5
17C
330
170
100
AcDbEntity
  8
AM_6
100
AcDbText
 10
6.52714375
 20
-2.47285625
 30
0.0
 40
0.5
  1
INS-IP-108L
100
AcDbAttributeDefinition
  3

  2
DESCRIPTION
 70
     8
280
     0
  0
ATTDEF
  5
17D
330
170
100
AcDbEntity
  8
AM_6
100
AcDbText
 10
6.52714375
 20
-2.97285625
 30
0.0
 40
0.5
  1
Labyrinth Seal
100
AcDbAttributeDefinition
  3

  2
ST
 70
     8
280
     0
  0
ATTDEF
  5
17E
330
170
100
AcDbEntity
  8
AM_6
100
AcDbText
 10
6.52714375
 20
-3.47285625
 30
0.0
 40
0.5
  1
3.1496
100
AcDbAttributeDefinition
  3

  2
A
 70
     8
280
     0
  0
ATTDEF
  5
17F
330
170
100
AcDbEntity
  8
AM_6
100
AcDbText
 10
6.52714375
 20
-3.97285625
 30
0.0
 40
0.5
  1
61/64
100
AcDbAttributeDefinition
  3

  2
B
 70
     8
280
     0
  0
ATTDEF
  5
180
330
170
100
AcDbEntity
  8
AM_6
100
AcDbText
 10
6.52714375
 20
-4.47285625
 30
0.0
 40
0.5
  1
2-5/8
100
AcDbAttributeDefinition
  3

  2
C
 70
     8
280
     0
  0
ATTDEF
  5
181
330
170
100
AcDbEntity
  8
AM_6
100
AcDbText
 10
6.52714375
 20
-4.97285625
 30
0.0
 40
0.5
  1
0.970
100
AcDbAttributeDefinition
  3

  2
D
 70
     8
280
     0
  0
ATTDEF
  5
182
330
170
100
AcDbEntity
  8
AM_6
100
AcDbText
 10
6.52714375
 20
-5.47285625
 30
0.0
 40
0.5
  1
2-23/32
100
AcDbAttributeDefinition
  3

  2
E
 70
     8
280
     0
  0
ATTDEF
  5
183
330
170
100
AcDbEntity
  8
AM_6
100
AcDbText
 10
6.52714375
 20
-5.97285625
 30
0.0
 40
0.5
  1
0.1900
100
AcDbAttributeDefinition
  3

  2
NDM
 70
     8
280
     0
  0
ATTDEF
  5
184
330
170
100
AcDbEntity
  8
AM_6
100
AcDbText
 10
6.52714375
 20
-6.47285625
 30
0.0
 40
0.5
  1
0.101
100
AcDbAttributeDefinition
  3

  2
H
 70
     8
280
     0
  0
ATTDEF
  5
185
330
170
100
AcDbEntity
  8
AM_6
100
AcDbText
 10
6.52714375
 20
-6.97285625
 30
0.0
 40
0.5
  1
0.1450
100
AcDbAttributeDefinition
  3

  2
KDM
 70
     8
280
     0
  0
ATTDEF
  5
186
330
170
100
AcDbEntity
  8
AM_6
100
AcDbText
 10
6.52714375
 20
-7.47285625
 30
0.0
 40
0.5
  1
2.22
100
AcDbAttributeDefinition
  3

  2
AL
 70
     8
280
     0
  0
ATTDEF
  5
187
330
170
100
AcDbEntity
  8
AM_6
100
AcDbText
 10
6.52714375
 20
-7.97285625
 30
0.0
 40
0.5
  1
0.38
100
AcDbAttributeDefinition
  3

  2
BL
 70
     8
280
     0
  0
ATTDEF
  5
188
330
170
100
AcDbEntity
  8
AM_6
100
AcDbText
 10
6.52714375
 20
-8.47285625
 30
0.0
 40
0.5
  1
0.07
100
AcDbAttributeDefinition
  3

  2
CL
 70
     8
280
     0
  0
ATTDEF
  5
189
330
170
100
AcDbEntity
  8
AM_6
100
AcDbText
 10
6.52714375
 20
-8.97285625
 30
0.0
 40
0.5
  1
0.44
100
AcDbAttributeDefinition
  3

  2
DL
 70
     8
280
     0
  0
ATTDEF
  5
18A
330
170
100
AcDbEntity
  8
AM_6
100
AcDbText
 10
6.52714375
 20
-9.47285625
 30
0.0
 40
0.5
  1
0.8000
100
AcDbAttributeDefinition
  3

  2
LL
 70
     8
280
     0
  0
ATTDEF
  5
18B
330
170
100
AcDbEntity
  8
AM_6
100
AcDbText
 10
6.52714375
 20
-9.97285625
 30
0.0
 40
0.5
  1
0.020
100
AcDbAttributeDefinition
  3

  2
Y
 70
     8
280
     0
  0
ATTDEF
  5
18C
330
170
100
AcDbEntity
  8
AM_6
100
AcDbText
 10
6.52714375
 20
-10.47285625
 30
0.0
 40
0.5
  1
0.020000
100
AcDbAttributeDefinition
  3

  2
Y1
 70
     8
280
     0
  0
ATTDEF
  5
18D
330
170
100
AcDbEntity
  8
AM_6
100
AcDbText
 10
6.52714375
 20
-10.97285625
 30
0.0
 40
0.5
  1
1-51/64
100
AcDbAttributeDefinition
  3

  2
Z
 70
     8
280
     0
  0
ATTDEF
  5
18E
330
170
100
AcDbEntity
  8
AM_6
100
AcDbText
 10
6.52714375
 20
-11.47285625
 30
0.0
 40
0.5
  1
1.796875
100
AcDbAttributeDefinition
  3

  2
Z1
 70
     8
280
     0
  0
ATTDEF
  5
18F
330
170
100
AcDbEntity
  8
AM_6
100
AcDbText
 10
6.52714375
 20
-11.97285625
 30
0.0
 40
0.5
  1
baldor
100
AcDbAttributeDefinition
  3

  2
COMPANY
 70
     8
280
     0
  0
CIRCLE
  5
190
330
170
100
AcDbEntity
  8
AM_9
100
AcDbCircle
 10
0.0
 20
0.0
 30
0.0
 40
0.8984375
  0
CIRCLE
  5
191
330
170
100
AcDbEntity
  8
AM_9
100
AcDbCircle
 10
0.0
 20
0.0
 30
0.0
 40
0.9752270299145298
  0
CIRCLE
  5
192
330
170
100
AcDbEntity
  8
AM_9
100
AcDbCircle
 10
0.0
 20
0.0
 30
0.0
 40
0.9982638888888888
  0
CIRCLE
  5
193
330
170
100
AcDbEntity
  8
AM_9
100
AcDbCircle
 10
0.0
 20
0.0
 30
0.0
 40
1.207007578016764
  0
CIRCLE
  5
194
330
170
100
AcDbEntity
  8
AM_9
100
AcDbCircle
 10
0.0
 20
0.0
 30
0.0
 40
1.293610118395209
  0
CIRCLE
  5
195
330
170
100
AcDbEntity
  8
AM_9
100
AcDbCircle
 10
0.0
 20
0.0
 30
0.0
 40
1.3748
  0
CIRCLE
  5
196
330
170
100
AcDbEntity
  8
AM_9
100
AcDbCircle
 10
0.0
 20
0.0
 30
0.0
 40
1.52714375
  0
CIRCLE
  5
197
330
170
100
AcDbEntity
  8
AM_9
100
AcDbCircle
 10
0.0
 20
-1.096354166666667
 30
0.0
 40
0.0724499999999998
  0
LINE
  5
198
330
170
100
AcDbEntity
  8
AM_9
100
AcDbLine
 10
0.9192388155425119
 20
-0.6505382386916239
 30
0.0
 11
1.087341527345923
 21
-0.8186409504950352
 31
0.0
  0
LINE
  5
199
330
170
100
AcDbEntity
  8
AM_9
100
AcDbLine
 10
1.087341527345923
 20
0.8186409504950346
 30
0.0
 11
0.9192388155425123
 21
0.6505382386916234
 31
0.0
  0
LINE
  5
19A
330
170
100
AcDbEntity
  8
AM_9
100
AcDbLine
 10
0.818640950495035
 20
-1.087341527345923
 30
0.0
 11
0.6505382386916237
 21
-0.9192388155425117
 31
0.0
  0
LINE
  5
19B
330
170
100
AcDbEntity
  8
AM_9
100
AcDbLine
 10
-0.650538238691624
 20
-0.9192388155425117
 30
0.0
 11
-0.8186409504950352
 21
-1.087341527345923
 31
0.0
  0
LINE
  5
19C
330
170
100
AcDbEntity
  8
AM_9
100
AcDbLine
 10
-0.9192388155425117
 20
0.650538238691624
 30
0.0
 11
-1.087341527345923
 21
0.8186409504950352
 31
0.0
  0
LINE
  5
19D
330
170
100
AcDbEntity
  8
AM_9
100
AcDbLine
 10
-1.087341527345923
 20
-0.818640950495035
 30
0.0
 11
-0.9192388155425121
 21
-0.6505382386916243
 31
0.0
  0
LINE
  5
19E
330
170
100
AcDbEntity
  8
AM_9
100
AcDbLine
 10
0.650538238691624
 20
0.9192388155425117
 30
0.0
 11
0.8186409504950352
 21
1.087341527345923
 31
0.0
  0
LINE
  5
19F
330
170
100
AcDbEntity
  8
AM_9
100
AcDbLine
 10
-0.8186409504950352
 20
1.087341527345923
 30
0.0
 11
-0.6505382386916237
 21
0.9192388155425117
 31
0.0
  0
LINE
  5
1A0
330
170
100
AcDbEntity
  8
AM_9
100
AcDbLine
 10
-0.8513762383455248
 20
0.7184008158886109
 30
0.0
 11
-0.9192388155425117
 21
0.650538238691624
 31
0.0
  0
LINE
  5
1A1
330
170
100
AcDbEntity
  8
AM_9
100
AcDbLine
 10
-0.6505382386916237
 20
0.9192388155425117
 30
0.0
 11
-0.7184008158886113
 21
0.8513762383455246
 31
0.0
  0
ARC
  5
1A2
330
170
100
AcDbEntity
  8
AM_9
100
AcDbCircle
 10
0.0000000000000018
 20
0.0000000000000003
 30
0.0
 40
1.311090561259647
100
AcDbArc
 50
143.3325033106765
 51
216.6674966893235
  0
LINE
  5
1A3
330
170
100
AcDbEntity
  8
AM_9
100
AcDbLine
 10
-0.7184008158886106
 20
-0.8513762383455252
 30
0.0
 11
-0.650538238691624
 21
-0.9192388155425117
 31
0.0
  0
LINE
  5
1A4
330
170
100
AcDbEntity
  8
AM_9
100
AcDbLine
 10
-0.9192388155425121
 20
-0.6505382386916243
 30
0.0
 11
-0.8513762383455242
 21
-0.7184008158886115
 31
0.0
  0
ARC
  5
1A5
330
170
100
AcDbEntity
  8
AM_9
100
AcDbCircle
 10
0.0
 20
0.0000000000000027
 30
0.0
 40
1.311090561259648
100
AcDbArc
 50
233.3325033106765
 51
306.6674966893235
  0
LINE
  5
1A6
330
170
100
AcDbEntity
  8
AM_9
100
AcDbLine
 10
0.8513762383455251
 20
-0.7184008158886107
 30
0.0
 11
0.9192388155425119
 21
-0.6505382386916239
 31
0.0
  0
LINE
  5
1A7
330
170
100
AcDbEntity
  8
AM_9
100
AcDbLine
 10
0.6505382386916237
 20
-0.9192388155425117
 30
0.0
 11
0.7184008158886113
 21
-0.8513762383455244
 31
0.0
  0
ARC
  5
1A8
330
170
100
AcDbEntity
  8
AM_9
100
AcDbCircle
 10
-0.0000000000000024
 20
-0.0000000000000003
 30
0.0
 40
1.311090561259648
100
AcDbArc
 50
323.3325033106765
 51
36.66749668932346
  0
LINE
  5
1A9
330
170
100
AcDbEntity
  8
AM_9
100
AcDbLine
 10
0.7184008158886107
 20
0.8513762383455251
 30
0.0
 11
0.650538238691624
 21
0.9192388155425117
 31
0.0
  0
LINE
  5
1AA
330
170
100
AcDbEntity
  8
AM_9
100
AcDbLine
 10
0.9192388155425123
 20
0.6505382386916234
 30
0.0
 11
0.8513762383455246
 21
0.7184008158886113
 31
0.0
  0
ARC
  5
1AB
330
170
100
AcDbEntity
  8
AM_9
100
AcDbCircle
 10
-0.0000000000000087
 20
0.0000000000000215
 30
0.0
 40
0.7915567282321669
100
AcDbArc
 50
105.6069355393676
 51
119.3930644606324
  0
CIRCLE
  5
1AC
330
170
100
AcDbEntity
  8
AM_9
100
AcDbCircle
 10
0.0
 20
1.096354166666667
 30
0.0
 40
0.0724499999999998
  0
ARC
  5
1AD
330
170
100
AcDbEntity
  8
AM_9
100
AcDbCircle
 10
0.0000000000000001
 20
-0.0000000000000027
 30
0.0
 40
1.311090561259648
100
AcDbArc
 50
53.33250331067652
 51
126.6674966893235
  0
CIRCLE
  5
1AE
330
170
100
AcDbEntity
  8
AM_4
100
AcDbCircle
 10
0.0
 20
0.0
 30
0.0
 40
1.5248
  0
LINE
  5
1AF
330
170
100
AcDbEntity
  8
AM_4
100
AcDbLine
 10
0.8284088841127804
 20
-1.097109460963668
 30
0.0
 11
0.818640950495035
 21
-1.087341527345923
 31
0.0
  0
LINE
  5
1B0
330
170
100
AcDbEntity
  8
AM_4
100
AcDbLine
 10
-1.087341527345923
 20
0.8186409504950352
 30
0.0
 11
-1.097109460963668
 21
0.8284088841127804
 31
0.0
  0
LINE
  5
1B1
330
170
100
AcDbEntity
  8
AM_4
100
AcDbLine
 10
-0.8284088841127804
 20
1.097109460963668
 30
0.0
 11
-0.8186409504950352
 21
1.087341527345923
 31
0.0
  0
LINE
  5
1B2
330
170
100
AcDbEntity
  8
AM_4
100
AcDbLine
 10
0.8186409504950352
 20
1.087341527345923
 30
0.0
 11
0.8284088841127804
 21
1.097109460963668
 31
0.0
  0
LINE
  5
1B3
330
170
100
AcDbEntity
  8
AM_4
100
AcDbLine
 10
1.087341527345923
 20
-0.8186409504950352
 30
0.0
 11
1.097109460963668
 21
-0.8284088841127804
 31
0.0
  0
LINE
  5
1B4
330
170
100
AcDbEntity
  8
AM_4
100
AcDbLine
 10
1.097109460963669
 20
0.8284088841127797
 30
0.0
 11
1.087341527345923
 21
0.8186409504950346
 31
0.0
  0
LINE
  5
1B5
330
170
100
AcDbEntity
  8
AM_4
100
AcDbLine
 10
-1.097109460963668
 20
-0.8284088841127802
 30
0.0
 11
-1.087341527345923
 21
-0.818640950495035
 31
0.0
  0
LINE
  5
1B6
330
170
100
AcDbEntity
  8
AM_4
100
AcDbLine
 10
-0.8186409504950352
 20
-1.087341527345923
 30
0.0
 11
-0.8284088841127804
 21
-1.097109460963668
 31
0.0
  0
CIRCLE
  5
1B7
330
170
100
AcDbEntity
  8
AM_4
100
AcDbCircle
 10
0.0
 20
0.0
 30
0.0
 40
1.392436966032342
  0
ARC
  5
1B8
330
170
100
AcDbEntity
  8
AM_4
100
AcDbCircle
 10
-0.0000000000000001
 20
0.0000000000000009
 30
0.0
 40
1.374740138576369
100
AcDbArc
 50
307.0558394045187
 51
322.9441605954813
  0
ARC
  5
1B9
330
170
100
AcDbEntity
  8
AM_4
100
AcDbCircle
 10
-0.0000000000000169
 20
-0.0000000000000171
 30
0.0
 40
1.374740138576344
100
AcDbArc
 50
217.0558394045185
 51
232.9441605954814
  0
ARC
  5
1BA
330
170
100
AcDbEntity
  8
AM_4
100
AcDbCircle
 10
-0.0000000000000091
 20
0.0000000000000087
 30
0.0
 40
1.374740138576356
100
AcDbArc
 50
127.0558394045186
 51
142.9441605954813
  0
ARC
  5
1BB
330
170
100
AcDbEntity
  8
AM_4
100
AcDbCircle
 10
-0.0000000000000069
 20
-0.0000000000000089
 30
0.0
 40
1.374740138576379
100
AcDbArc
 50
37.05583940451876
 51
52.94416059548131
  0
ARC
  5
1BC
330
170
100
AcDbEntity
  8
AM_4
100
AcDbCircle
 10
0.0000000000000004
 20
-0.0000000000000001
 30
0.0
 40
1.3610601026106
100
AcDbArc
 50
323.0245310004395
 51
36.97546899956054
  0
ARC
  5
1BD
330
170
100
AcDbEntity
  8
AM_4
100
AcDbCircle
 10
0.0000000000000002
 20
0.0000000000000004
 30
0.0
 40
1.361060102610601
100
AcDbArc
 50
233.0245310004395
 51
306.9754689995605
  0
ARC
  5
1BE
330
170
100
AcDbEntity
  8
AM_4
100
AcDbCircle
 10
0.0
 20
0.0
 30
0.0
 40
1.361060102610601
100
AcDbArc
 50
143.0245310004395
 51
216.9754689995605
  0
LINE
  5
1BF
330
170
100
AcDbEntity
  8
AM_4
100
AcDbLine
 10
-0.7184008158886113
 20
0.8513762383455246
 30
0.0
 11
-0.8513762383455248
 21
0.7184008158886109
 31
0.0
  0
LINE
  5
1C0
330
170
100
AcDbEntity
  8
AM_4
100
AcDbLine
 10
-0.8513762383455242
 20
-0.7184008158886115
 30
0.0
 11
-0.7184008158886106
 21
-0.8513762383455252
 31
0.0
  0
LINE
  5
1C1
330
170
100
AcDbEntity
  8
AM_4
100
AcDbLine
 10
0.7184008158886113
 20
-0.8513762383455244
 30
0.0
 11
0.8513762383455251
 21
-0.7184008158886107
 31
0.0
  0
LINE
  5
1C2
330
170
100
AcDbEntity
  8
AM_4
100
AcDbLine
 10
0.8513762383455246
 20
0.7184008158886113
 30
0.0
 11
0.7184008158886107
 21
0.8513762383455251
 31
0.0
  0
ARC
  5
1C3
330
170
100
AcDbEntity
  8
AM_4
100
AcDbCircle
 10
-0.0000000000000001
 20
-0.0000000000000004
 30
0.0
 40
1.361060102610601
100
AcDbArc
 50
53.02453100043946
 51
126.9754689995605
  0
LINE
  5
1C4
330
170
100
AcDbEntity
  8
AM_4
100
AcDbLine
 10
-0.387691723967532
 20
0.6877236546957105
 30
0.0
 11
-0.3724693408726803
 21
0.6509735709764806
 31
0.0
  0
LINE
  5
1C5
330
170
100
AcDbEntity
  8
AM_4
100
AcDbLine
 10
-0.1969322296955358
 20
0.7236834231258474
 30
0.0
 11
-0.2121546127903875
 21
0.7604335068450774
 31
0.0
  0
ARC
  5
1C6
330
170
100
AcDbEntity
  8
AM_4
100
AcDbCircle
 10
-0.0000000000000011
 20
-0.0000000000000005
 30
0.0
 40
0.7894736842105262
100
AcDbArc
 50
119.4113405762944
 51
105.5886594237055
  0
ARC
  5
1C7
330
170
100
AcDbEntity
  8
AM_4
100
AcDbCircle
 10
-0.0000000000000012
 20
-0.0000000000000005
 30
0.0
 40
0.7499999999999999
100
AcDbArc
 50
119.7770138765695
 51
105.2229861234303
  0
CIRCLE
  5
1C8
330
170
100
AcDbEntity
  8
AM_5
100
AcDbCircle
 10
0.0
 20
1.096354166666667
 30
0.0
 40
0.0950000000000001
  0
CIRCLE
  5
1C9
330
170
100
AcDbEntity
  8
AM_5
100
AcDbCircle
 10
0.0
 20
-1.096354166666667
 30
0.0
 40
0.0950000000000001
  0
ENDBLK
  5
173
330
170
100
AcDbEntity
  8
0
100
AcDbBlockEnd
  0
BLOCK
  5
1CC
330
1CA
100
AcDbEntity
  8
0
100
AcDbBlockBegin
  2
7_069874H_0_in_069874_0
 70
     2
 10
0.0
 20
0.0
 30
0.0
  3
7_069874H_0_in_069874_0
  1

  0
ATTDEF
  5
1CE
330
1CA
100
AcDbEntity
  8
AM_6
100
AcDbText
 10
7.625
 20
2.625
 30
0.0
 40
0.5
  1
FC-IP -(Labyrinth Seal)-Housing -Inch
100
AcDbAttributeDefinition
  3

  2
NN
 70
     8
280
     0
  0
ATTDEF
  5
1CF
330
1CA
100
AcDbEntity
  8
AM_6
100
AcDbText
 10
7.625
 20
2.125
 30
0.0
 40
0.5
  1
Imperial Piloted Flange Bearings
100
AcDbAttributeDefinition
  3

  2
NT
 70
     8
280
     0
  0
ATTDEF
  5
1D0
330
1CA
100
AcDbEntity
  8
AM_6
100
AcDbText
 10
7.625
 20
1.625
 30
0.0
 40
0.5
  1
069874H
100
AcDbAttributeDefinition
  3

  2
NB
 70
     8
280
     0
  0
ATTDEF
  5
1D1
330
1CA
100
AcDbEntity
  8
AM_6
100
AcDbText
 10
7.625
 20
1.125
 30
0.0
 40
0.5
  1
$PN.H
100
AcDbAttributeDefinition
  3

  2
NBSYN
 70
     8
280
     0
  0
ATTDEF
  5
1D2
330
1CA
100
AcDbEntity
  8
AM_6
100
AcDbText
 10
7.625
 20
0.625
 30
0.0
 40
0.5
  1
069874
100
AcDbAttributeDefinition
  3

  2
LINA
 70
     8
280
     0
  0
ATTDEF
  5
1D3
330
1CA
100
AcDbEntity
  8
AM_6
100
AcDbText
 10
7.625
 20
0.125
 30
0.0
 40
0.5
  1
1-1/2
100
AcDbAttributeDefinition
  3

  2
SS
 70
     8
280
     0
  0
ATTDEF
  5
1D4
330
1CA
100
AcDbEntity
  8
AM_6
100
AcDbText
 10
7.625
 20
-0.375
 30
0.0
 40
0.5
  1
069874
100
AcDbAttributeDefinition
  3

  2
PN
 70
     8
280
     0
  0
ATTDEF
  5
1D5
330
1CA
100
AcDbEntity
  8
AM_6
100
AcDbText
 10
7.625
 20
-0.875
 30
0.0
 40
0.5
  1
FC-IP-108L
100
AcDbAttributeDefinition
  3

  2
DESCRIPTION
 70
     8
280
     0
  0
ATTDEF
  5
1D6
330
1CA
100
AcDbEntity
  8
AM_6
100
AcDbText
 10
7.625
 20
-1.375
 30
0.0
 40
0.5
  1
Non-Expansion Type
100
AcDbAttributeDefinition
  3

  2
EF
 70
     8
280
     0
  0
ATTDEF
  5
1D7
330
1CA
100
AcDbEntity
  8
AM_6
100
AcDbText
 10
7.625
 20
-1.875
 30
0.0
 40
0.5
  1
Labyrinth Seal
100
AcDbAttributeDefinition
  3

  2
ST
 70
     8
280
     0
  0
ATTDEF
  5
1D8
330
1CA
100
AcDbEntity
  8
AM_6
100
AcDbText
 10
7.625
 20
-2.375
 30
0.0
 40
0.5
  1
2-5/8
100
AcDbAttributeDefinition
  3

  2
A
 70
     8
280
     0
  0
ATTDEF
  5
1D9
330
1CA
100
AcDbEntity
  8
AM_6
100
AcDbText
 10
7.625
 20
-2.875
 30
0.0
 40
0.5
  1
5-1/4
100
AcDbAttributeDefinition
  3

  2
B
 70
     8
280
     0
  0
ATTDEF
  5
1DA
330
1CA
100
AcDbEntity
  8
AM_6
100
AcDbText
 10
7.625
 20
-3.375
 30
0.0
 40
0.5
  1
1-27/32
100
AcDbAttributeDefinition
  3

  2
C
 70
     8
280
     0
  0
ATTDEF
  5
1DB
330
1CA
100
AcDbEntity
  8
AM_6
100
AcDbText
 10
7.625
 20
-3.875
 30
0.0
 40
0.5
  1
3-3/32
100
AcDbAttributeDefinition
  3

  2
D
 70
     8
280
     0
  0
ATTDEF
  5
1DC
330
1CA
100
AcDbEntity
  8
AM_6
100
AcDbText
 10
7.625
 20
-4.375
 30
0.0
 40
0.5
  1
4-3/8
100
AcDbAttributeDefinition
  3

  2
DD
 70
     8
280
     0
  0
ATTDEF
  5
1DD
330
1CA
100
AcDbEntity
  8
AM_6
100
AcDbText
 10
7.625
 20
-4.875
 30
0.0
 40
0.5
  1
3/4
100
AcDbAttributeDefinition
  3

  2
E
 70
     8
280
     0
  0
ATTDEF
  5
1DE
330
1CA
100
AcDbEntity
  8
AM_6
100
AcDbText
 10
7.625
 20
-5.375
 30
0.0
 40
0.5
  1
3/8
100
AcDbAttributeDefinition
  3

  2
F
 70
     8
280
     0
  0
ATTDEF
  5
1DF
330
1CA
100
AcDbEntity
  8
AM_6
100
AcDbText
 10
7.625
 20
-5.875
 30
0.0
 40
0.5
  1
1-25/64
100
AcDbAttributeDefinition
  3

  2
G
 70
     8
280
     0
  0
ATTDEF
  5
1E0
330
1CA
100
AcDbEntity
  8
AM_6
100
AcDbText
 10
7.625
 20
-6.375
 30
0.0
 40
0.5
  1
1/2
100
AcDbAttributeDefinition
  3

  2
H
 70
     8
280
     0
  0
ATTDEF
  5
1E1
330
1CA
100
AcDbEntity
  8
AM_6
100
AcDbText
 10
7.625
 20
-6.875
 30
0.0
 40
0.5
  1
3.625
100
AcDbAttributeDefinition
  3

  2
K
 70
     8
280
     0
  0
ATTDEF
  5
1E2
330
1CA
100
AcDbEntity
  8
AM_6
100
AcDbText
 10
7.625
 20
-7.375
 30
0.0
 40
0.5
  1
2-23/32
100
AcDbAttributeDefinition
  3

  2
L
 70
     8
280
     0
  0
ATTDEF
  5
1E3
330
1CA
100
AcDbEntity
  8
AM_6
100
AcDbText
 10
7.625
 20
-7.875
 30
0.0
 40
0.5
  1
3/8-16
100
AcDbAttributeDefinition
  3

  2
M
 70
     8
280
     0
  0
ATTDEF
  5
1E4
330
1CA
100
AcDbEntity
  8
AM_6
100
AcDbText
 10
7.625
 20
-8.375
 30
0.0
 40
0.5
  1
2-39/64
100
AcDbAttributeDefinition
  3

  2
N
 70
     8
280
     0
  0
ATTDEF
  5
1E5
330
1CA
100
AcDbEntity
  8
AM_6
100
AcDbText
 10
7.625
 20
-8.875
 30
0.0
 40
0.5
  1
1-15/64
100
AcDbAttributeDefinition
  3

  2
P
 70
     8
280
     0
  0
ATTDEF
  5
1E6
330
1CA
100
AcDbEntity
  8
AM_6
100
AcDbText
 10
7.625
 20
-9.375
 30
0.0
 40
0.5
  1
1-7/32
100
AcDbAttributeDefinition
  3

  2
Q
 70
     8
280
     0
  0
ATTDEF
  5
1E7
330
1CA
100
AcDbEntity
  8
AM_6
100
AcDbText
 10
7.625
 20
-9.875
 30
0.0
 40
0.5
  1
3/16
100
AcDbAttributeDefinition
  3

  2
X
 70
     8
280
     0
  0
ATTDEF
  5
1E8
330
1CA
100
AcDbEntity
  8
AM_6
100
AcDbText
 10
7.625
 20
-10.375
 30
0.0
 40
0.5
  1
0.020
100
AcDbAttributeDefinition
  3

  2
Y
 70
     8
280
     0
  0
ATTDEF
  5
1E9
330
1CA
100
AcDbEntity
  8
AM_6
100
AcDbText
 10
7.625
 20
-10.875
 30
0.0
 40
0.5
  1
1-51/64
100
AcDbAttributeDefinition
  3

  2
Z
 70
     8
280
     0
  0
ATTDEF
  5
1EA
330
1CA
100
AcDbEntity
  8
AM_6
100
AcDbText
 10
7.625
 20
-11.375
 30
0.0
 40
0.5
  1
baldor
100
AcDbAttributeDefinition
  3

  2
COMPANY
 70
     8
280
     0
  0
CIRCLE
  5
1EB
330
1CA
100
AcDbEntity
  8
AM_9
100
AcDbCircle
 10
0.0
 20
0.0
 30
0.0
 40
1.661536926750866
  0
CIRCLE
  5
1EC
330
1CA
100
AcDbEntity
  8
AM_9
100
AcDbCircle
 10
0.0
 20
0.0
 30
0.0
 40
1.71150646810182
  0
CIRCLE
  5
1ED
330
1CA
100
AcDbEntity
  8
AM_9
100
AcDbCircle
 10
0.0
 20
0.0
 30
0.0
 40
1.724505373579875
  0
CIRCLE
  5
1EE
330
1CA
100
AcDbEntity
  8
AM_9
100
AcDbCircle
 10
0.0
 20
0.0
 30
0.0
 40
1.774474914930829
  0
ARC
  5
1EF
330
1CA
100
AcDbEntity
  8
AM_9
100
AcDbCircle
 10
0.0000000000000544
 20
-0.0000000000000553
 30
0.0
 40
1.812499999999924
100
AcDbArc
 50
304.830880937547
 51
325.1691192827654
  0
ARC
  5
1F0
330
1CA
100
AcDbEntity
  8
AM_9
100
AcDbCircle
 10
0.0000000000000369
 20
0.0000000000000375
 30
0.0
 40
1.812499999999948
100
AcDbArc
 50
34.83088093754705
 51
55.16911906245295
  0
ARC
  5
1F1
330
1CA
100
AcDbEntity
  8
AM_9
100
AcDbCircle
 10
0.0000000000000866
 20
-0.0000000000006137
 30
0.0
 40
1.812500000000615
100
AcDbArc
 50
73.98660557605993
 51
106.0133944239458
  0
ARC
  5
1F2
330
1CA
100
AcDbEntity
  8
AM_9
100
AcDbCircle
 10
0.0000000000000349
 20
0.0000000000000002
 30
0.0
 40
1.81250000000002
100
AcDbArc
 50
124.8308809375482
 51
235.1691190624518
  0
LINE
  5
1F3
330
1CA
100
AcDbEntity
  8
AM_9
100
AcDbLine
 10
0.1556429568225735
 20
2.200479380895429
 30
0.0
 11
-0.1556459252892688
 21
2.200479380895429
 31
0.0
  0
ARC
  5
1F4
330
1CA
100
AcDbEntity
  8
AM_5
100
AcDbCircle
 10
-2.187500000000001
 20
0.0000000000000011
 30
0.0
 40
0.1874999999999998
100
AcDbArc
 50
74.9999999999999
 51
14.99999999999982
  0
LINE
  5
1F5
330
1CA
100
AcDbEntity
  8
AM_7
100
AcDbLine
 10
-1.863198660677371
 20
0.0
 30
0.0
 11
1.863198660677371
 21
0.0
 31
0.0
  0
LINE
  5
1F6
330
1CA
100
AcDbEntity
  8
AM_7
100
AcDbLine
 10
0.0
 20
-1.863198660677371
 30
0.0
 11
0.0
 21
1.863198660677371
 31
0.0
  0
LINE
  5
1F7
330
1CA
100
AcDbEntity
  8
AM_7
100
AcDbLine
 10
-2.384375
 20
0.0
 30
0.0
 11
-1.990625
 21
0.0
 31
0.0
  0
LINE
  5
1F8
330
1CA
100
AcDbEntity
  8
AM_7
100
AcDbLine
 10
-2.1875
 20
-0.1968750000000001
 30
0.0
 11
-2.1875
 21
0.1968750000000001
 31
0.0
  0
LINE
  5
1F9
330
1CA
100
AcDbEntity
  8
AM_7
100
AcDbLine
 10
1.990625
 20
0.0
 30
0.0
 11
2.384375
 21
0.0
 31
0.0
  0
LINE
  5
1FA
330
1CA
100
AcDbEntity
  8
AM_7
100
AcDbLine
 10
2.1875
 20
-0.1968749999999998
 30
0.0
 11
2.1875
 21
0.1968749999999998
 31
0.0
  0
LINE
  5
1FB
330
1CA
100
AcDbEntity
  8
AM_7
100
AcDbLine
 10
1.349921083845573
 20
1.546796083845573
 30
0.0
 11
1.743671083845573
 21
1.546796083845573
 31
0.0
  0
LINE
  5
1FC
330
1CA
100
AcDbEntity
  8
AM_7
100
AcDbLine
 10
1.546796083845573
 20
1.349921083845573
 30
0.0
 11
1.546796083845573
 21
1.743671083845573
 31
0.0
  0
LINE
  5
1FD
330
1CA
100
AcDbEntity
  8
AM_7
100
AcDbLine
 10
-1.743671083845573
 20
1.546796083845573
 30
0.0
 11
-1.349921083845573
 21
1.546796083845573
 31
0.0
  0
LINE
  5
1FE
330
1CA
100
AcDbEntity
  8
AM_7
100
AcDbLine
 10
-1.546796083845573
 20
1.349921083845573
 30
0.0
 11
-1.546796083845573
 21
1.743671083845573
 31
0.0
  0
LINE
  5
1FF
330
1CA
100
AcDbEntity
  8
AM_7
100
AcDbLine
 10
1.349921083845573
 20
-1.546796083845573
 30
0.0
 11
1.743671083845573
 21
-1.546796083845573
 31
0.0
  0
LINE
  5
200
330
1CA
100
AcDbEntity
  8
AM_7
100
AcDbLine
 10
1.546796083845573
 20
-1.743671083845573
 30
0.0
 11
1.546796083845573
 21
-1.349921083845573
 31
0.0
  0
LINE
  5
201
330
1CA
100
AcDbEntity
  8
AM_7
100
AcDbLine
 10
-1.743671083845573
 20
-1.546796083845573
 30
0.0
 11
-1.349921083845573
 21
-1.546796083845573
 31
0.0
  0
LINE
  5
202
330
1CA
100
AcDbEntity
  8
AM_7
100
AcDbLine
 10
-1.546796083845573
 20
-1.743671083845573
 30
0.0
 11
-1.546796083845573
 21
-1.349921083845573
 31
0.0
  0
CIRCLE
  5
203
330
1CA
100
AcDbEntity
  8
AM_4
100
AcDbCircle
 10
-2.1875
 20
0.0
 30
0.0
 40
0.1706000000000001
  0
CIRCLE
  5
204
330
1CA
100
AcDbEntity
  8
AM_4
100
AcDbCircle
 10
2.1875
 20
0.0
 30
0.0
 40
0.1705999999999998
  0
CIRCLE
  5
205
330
1CA
100
AcDbEntity
  8
AM_4
100
AcDbCircle
 10
1.546796083845573
 20
1.546796083845573
 30
0.0
 40
0.1875
  0
LINE
  5
206
330
1CA
100
AcDbEntity
  8
AM_4
100
AcDbLine
 10
1.42096679972405
 20
2.090652223000127
 30
0.0
 11
0.8218459004313892
 21
1.671143253016425
 31
0.0
  0
ARC
  5
207
330
1CA
100
AcDbEntity
  8
AM_4
100
AcDbCircle
 10
0.7644882567962847
 20
1.753058457445322
 30
0.0
 40
0.0999999999999986
100
AcDbArc
 50
246.4385480562548
 51
305.0000000000005
  0
ARC
  5
208
330
1CA
100
AcDbEntity
  8
AM_4
100
AcDbCircle
 10
1.93706121469594
 20
1.528512381539871
 30
0.0
 40
0.1875000000000007
100
AcDbArc
 50
325.0000000000001
 51
4.25371822467258
  0
ARC
  5
209
330
1CA
100
AcDbEntity
  8
AM_4
100
AcDbCircle
 10
1.753058457445322
 20
0.764488256796285
 30
0.0
 40
0.0999999999999978
100
AcDbArc
 50
144.9999999999994
 51
203.5614519437462
  0
ARC
  5
20A
330
1CA
100
AcDbEntity
  8
AM_4
100
AcDbCircle
 10
1.528512381539874
 20
1.937061214695943
 30
0.0
 40
0.1874999999999997
100
AcDbArc
 50
85.74628177533
 51
125.0000000000012
  0
LINE
  5
20B
330
1CA
100
AcDbEntity
  8
AM_4
100
AcDbLine
 10
1.671143253016425
 20
0.821845900431389
 30
0.0
 11
2.090652223000126
 21
1.42096679972405
 31
0.0
  0
CIRCLE
  5
20C
330
1CA
100
AcDbEntity
  8
AM_4
100
AcDbCircle
 10
-1.546796083845573
 20
1.546796083845573
 30
0.0
 40
0.1875
  0
LINE
  5
20D
330
1CA
100
AcDbEntity
  8
AM_4
100
AcDbLine
 10
-2.090652223000126
 20
1.42096679972405
 30
0.0
 11
-1.671143253016425
 21
0.8218459004313893
 31
0.0
  0
LINE
  5
20E
330
1CA
100
AcDbEntity
  8
AM_4
100
AcDbLine
 10
-0.8218459004313889
 20
1.671143253016425
 30
0.0
 11
-1.420966799724049
 21
2.090652223000126
 31
0.0
  0
ARC
  5
20F
330
1CA
100
AcDbEntity
  8
AM_4
100
AcDbCircle
 10
-0.7644882567962845
 20
1.753058457445323
 30
0.0
 40
0.0999999999999989
100
AcDbArc
 50
234.9999999999997
 51
293.5614519437455
  0
ARC
  5
210
330
1CA
100
AcDbEntity
  8
AM_4
100
AcDbCircle
 10
-1.753058457445322
 20
0.7644882567962847
 30
0.0
 40
0.0999999999999985
100
AcDbArc
 50
336.4385480562548
 51
35.0000000000005
  0
ARC
  5
211
330
1CA
100
AcDbEntity
  8
AM_4
100
AcDbCircle
 10
-1.528512381539869
 20
1.937061214695942
 30
0.0
 40
0.1874999999999976
100
AcDbArc
 50
55.00000000000016
 51
94.25371822467358
  0
ARC
  5
212
330
1CA
100
AcDbEntity
  8
AM_4
100
AcDbCircle
 10
-1.937061214695944
 20
1.52851238153987
 30
0.0
 40
0.1874999999999965
100
AcDbArc
 50
175.7462817753268
 51
215.0000000000001
  0
CIRCLE
  5
213
330
1CA
100
AcDbEntity
  8
AM_4
100
AcDbCircle
 10
1.546796083845573
 20
-1.546796083845573
 30
0.0
 40
0.1875
  0
LINE
  5
214
330
1CA
100
AcDbEntity
  8
AM_4
100
AcDbLine
 10
2.090652223000126
 20
-1.42096679972405
 30
0.0
 11
1.671143253016425
 21
-0.8218459004313896
 31
0.0
  0
ARC
  5
215
330
1CA
100
AcDbEntity
  8
AM_4
100
AcDbCircle
 10
1.753058457445323
 20
-0.7644882567962844
 30
0.0
 40
0.0999999999999993
100
AcDbArc
 50
156.4385480562554
 51
215.0000000000007
  0
ARC
  5
216
330
1CA
100
AcDbEntity
  8
AM_4
100
AcDbCircle
 10
0.7644882567962848
 20
-1.753058457445321
 30
0.0
 40
0.0999999999999976
100
AcDbArc
 50
54.99999999999947
 51
113.5614519437467
  0
LINE
  5
217
330
1CA
100
AcDbEntity
  8
AM_4
100
AcDbLine
 10
0.8218459004313888
 20
-1.671143253016425
 30
0.0
 11
1.420966799724049
 21
-2.090652223000126
 31
0.0
  0
ARC
  5
218
330
1CA
100
AcDbEntity
  8
AM_4
100
AcDbCircle
 10
1.528512381539871
 20
-1.937061214695939
 30
0.0
 40
0.187500000000002
100
AcDbArc
 50
235.0000000000001
 51
274.2537182246725
  0
ARC
  5
219
330
1CA
100
AcDbEntity
  8
AM_4
100
AcDbCircle
 10
1.937061214695937
 20
-1.528512381539872
 30
0.0
 40
0.1875000000000033
100
AcDbArc
 50
355.7462817753278
 51
34.99999999999941
  0
CIRCLE
  5
21A
330
1CA
100
AcDbEntity
  8
AM_4
100
AcDbCircle
 10
-1.546796083845573
 20
-1.546796083845573
 30
0.0
 40
0.1875
  0
LINE
  5
21B
330
1CA
100
AcDbEntity
  8
AM_4
100
AcDbLine
 10
-1.42096679972405
 20
-2.090652223000127
 30
0.0
 11
-0.8218459004313893
 21
-1.671143253016425
 31
0.0
  0
ARC
  5
21C
330
1CA
100
AcDbEntity
  8
AM_4
100
AcDbCircle
 10
-0.7644882567962851
 20
-1.753058457445323
 30
0.0
 40
0.0999999999999992
100
AcDbArc
 50
66.43854805625489
 51
125.0000000000001
  0
ARC
  5
21D
330
1CA
100
AcDbEntity
  8
AM_4
100
AcDbCircle
 10
-1.753058457445321
 20
-0.764488256796285
 30
0.0
 40
0.0999999999999975
100
AcDbArc
 50
324.9999999999995
 51
23.56145194374673
  0
LINE
  5
21E
330
1CA
100
AcDbEntity
  8
AM_4
100
AcDbLine
 10
-1.671143253016425
 20
-0.8218459004313888
 30
0.0
 11
-2.090652223000126
 21
-1.420966799724049
 31
0.0
  0
ARC
  5
21F
330
1CA
100
AcDbEntity
  8
AM_4
100
AcDbCircle
 10
-1.93706121469594
 20
-1.52851238153987
 30
0.0
 40
0.1875000000000007
100
AcDbArc
 50
145.0000000000001
 51
184.2537182246726
  0
ARC
  5
220
330
1CA
100
AcDbEntity
  8
AM_4
100
AcDbCircle
 10
-1.52851238153987
 20
-1.93706121469594
 30
0.0
 40
0.1875000000000002
100
AcDbArc
 50
265.746281775327
 51
304.9999999999995
  0
LINE
  5
221
330
1CA
100
AcDbEntity
  8
AM_4
100
AcDbLine
 10
-0.5
 20
2.200479380895429
 30
0.0
 11
-0.5
 21
1.715906360674458
 31
0.0
  0
LINE
  5
222
330
1CA
100
AcDbEntity
  8
AM_4
100
AcDbLine
 10
0.5
 20
2.200479380895429
 30
0.0
 11
0.5
 21
1.715906360674458
 31
0.0
  0
LINE
  5
223
330
1CA
100
AcDbEntity
  8
AM_4
100
AcDbLine
 10
0.5
 20
1.8125
 30
0.0
 11
-0.5
 21
1.8125
 31
0.0
  0
LINE
  5
224
330
1CA
100
AcDbEntity
  8
AM_4
100
AcDbLine
 10
-0.1556459252892688
 20
2.200479380895429
 30
0.0
 11
-0.5
 21
2.200479380895429
 31
0.0
  0
LINE
  5
225
330
1CA
100
AcDbEntity
  8
AM_4
100
AcDbLine
 10
0.5
 20
2.200479380895429
 30
0.0
 11
0.1556429568225735
 21
2.200479380895429
 31
0.0
  0
ARC
  5
226
330
1CA
100
AcDbEntity
  8
AM_4
100
AcDbCircle
 10
1.546796083845571
 20
1.54679608384557
 30
0.0
 40
0.487499999999997
100
AcDbArc
 50
195.5585880698721
 51
254.4414119301278
  0
ARC
  5
227
330
1CA
100
AcDbEntity
  8
AM_4
100
AcDbCircle
 10
-1.54679608384557
 20
1.54679608384557
 30
0.0
 40
0.4874999999999963
100
AcDbArc
 50
285.5585880698721
 51
344.4414119301279
  0
ARC
  5
228
330
1CA
100
AcDbEntity
  8
AM_4
100
AcDbCircle
 10
-1.546796083845572
 20
-1.546796083845571
 30
0.0
 40
0.4874999999999982
100
AcDbArc
 50
15.55858806987221
 51
74.4414119301278
  0
ARC
  5
229
330
1CA
100
AcDbEntity
  8
AM_4
100
AcDbCircle
 10
1.546796083845571
 20
-1.546796083845571
 30
0.0
 40
0.4874999999999976
100
AcDbArc
 50
105.5585880698722
 51
164.4414119301278
  0
CIRCLE
  5
22A
330
1CA
100
AcDbEntity
  8
AM_4
100
AcDbCircle
 10
0.0
 20
0.0
 30
0.0
 40
1.5748
  0
LWPOLYLINE
  5
22B
330
1CA
100
AcDbEntity
  8
AM_4
100
AcDbPolyline
 90
        5
 70
     0
 43
0.0
 10
1.432752734916195
 20
1.072823126215106
 10
1.455452697564405
 20
1.064119021029829
 10
1.480846309596323
 20
1.044008760014326
 10
1.487579799032969
 20
1.035500099896185
 10
1.487775200777971
 20
1.035220363956423
  0
LWPOLYLINE
  5
22C
330
1CA
100
AcDbEntity
  8
AM_4
100
AcDbPolyline
 90
        5
 70
     0
 43
0.0
 10
1.487775204758575
 20
-1.035220358235666
 10
1.48757979903264
 20
-1.035500099896652
 10
1.467176478082514
 20
-1.05659549248143
 10
1.443149009334755
 20
-1.069674383208176
 10
1.432752733288179
 20
-1.072823126606825
  0
LINE
  5
22D
330
1CA
100
AcDbEntity
  8
AM_4
100
AcDbLine
 10
1.432752734916195
 20
1.072823126215106
 30
0.0
 11
1.416037078327962
 21
1.077159700591416
 31
0.0
  0
LWPOLYLINE
  5
22E
330
1CA
100
AcDbEntity
  8
AM_4
100
AcDbPolyline
 90
        3
 70
     0
 43
0.0
 10
1.416037078327963
 20
-1.077159700591416
 10
1.419577049824052
 20
-1.07618842625527
 10
1.432752733288179
 20
-1.072823126606825
  0
ARC
  5
22F
330
1CA
100
AcDbEntity
  8
AM_4
100
AcDbCircle
 10
-0.0000000000000002
 20
-0.0000000000000003
 30
0.0
 40
1.779166666666668
100
AcDbArc
 50
322.7402568181582
 51
37.25974318184184
  0
ARC
  5
230
330
1CA
100
AcDbEntity
  8
AM_4
100
AcDbCircle
 10
0.0000000000000042
 20
0.0000000000000001
 30
0.0
 40
1.812499999999997
100
AcDbArc
 50
325.1691192827649
 51
34.83088093754743
  0
LWPOLYLINE
  5
231
330
1CA
100
AcDbEntity
  8
AM_4
100
AcDbPolyline
 90
        5
 70
     0
 43
0.0
 10
-1.432752733174095
 20
-1.072823126634275
 10
-1.455452695497955
 20
-1.064119022148502
 10
-1.480846307633765
 20
-1.044008762219022
 10
-1.487579799032964
 20
-1.035500099896191
 10
-1.487775200777972
 20
-1.035220363956422
  0
LWPOLYLINE
  5
232
330
1CA
100
AcDbEntity
  8
AM_4
100
AcDbPolyline
 90
        5
 70
     0
 43
0.0
 10
-1.487775200777971
 20
1.035220363956422
 10
-1.487579799032627
 20
1.03550009989667
 10
-1.467176478082489
 20
1.056595492481449
 10
-1.443149012358361
 20
1.069674382097422
 10
-1.432752718800491
 20
1.07282313009273
  0
LWPOLYLINE
  5
233
330
1CA
100
AcDbEntity
  8
AM_4
100
AcDbPolyline
 90
        3
 70
     0
 43
0.0
 10
-1.416037078327962
 20
1.077159700591416
 10
-1.419577049824051
 20
1.076188426255271
 10
-1.432752718800491
 20
1.07282313009273
  0
LINE
  5
234
330
1CA
100
AcDbEntity
  8
AM_4
100
AcDbLine
 10
-1.432752733174095
 20
-1.072823126634275
 30
0.0
 11
-1.416037078327963
 21
-1.077159700591416
 31
0.0
  0
ARC
  5
235
330
1CA
100
AcDbEntity
  8
AM_4
100
AcDbCircle
 10
-0.0000000000000033
 20
-0.0000000000000001
 30
0.0
 40
1.812499999999997
100
AcDbArc
 50
145.1691190624526
 51
214.8308809375474
  0
ARC
  5
236
330
1CA
100
AcDbEntity
  8
AM_4
100
AcDbCircle
 10
0.0000000000000007
 20
0.0000000000000001
 30
0.0
 40
1.779166666666668
100
AcDbArc
 50
142.7402568181582
 51
217.2597431818418
  0
LWPOLYLINE
  5
237
330
1CA
100
AcDbEntity
  8
AM_4
100
AcDbPolyline
 90
        5
 70
     0
 43
0.0
 10
1.072823127042564
 20
-1.432752731477217
 10
1.064119023238137
 20
-1.455452693485147
 10
1.04400876436649
 20
-1.480846305722149
 10
1.03550009989618
 20
-1.487579799032972
 10
1.035220363956423
 20
-1.487775200777971
  0
LWPOLYLINE
  5
238
330
1CA
100
AcDbEntity
  8
AM_4
100
AcDbPolyline
 90
        5
 70
     0
 43
0.0
 10
-1.035220363956422
 20
-1.487775200777971
 10
-1.035500099896657
 20
-1.487579799032636
 10
-1.056595492481435
 20
-1.467176478082508
 10
-1.069674382097415
 20
-1.443149012358381
 10
-1.07282313009273
 20
-1.432752718800492
  0
LWPOLYLINE
  5
239
330
1CA
100
AcDbEntity
  8
AM_4
100
AcDbPolyline
 90
        3
 70
     0
 43
0.0
 10
-1.077159700591416
 20
-1.416037078327962
 10
-1.076188426255271
 20
-1.41957704982405
 10
-1.07282313009273
 20
-1.432752718800492
  0
LINE
  5
23A
330
1CA
100
AcDbEntity
  8
AM_4
100
AcDbLine
 10
1.072823127042564
 20
-1.432752731477217
 30
0.0
 11
1.077159700591416
 21
-1.416037078327962
 31
0.0
  0
ARC
  5
23B
330
1CA
100
AcDbEntity
  8
AM_4
100
AcDbCircle
 10
0.0
 20
0.0000000000000011
 30
0.0
 40
1.779166666666668
100
AcDbArc
 50
232.7402568181582
 51
307.2597431818418
  0
ARC
  5
23C
330
1CA
100
AcDbEntity
  8
AM_4
100
AcDbCircle
 10
0.0
 20
-0.0000000000000036
 30
0.0
 40
1.812499999999997
100
AcDbArc
 50
235.1691190624526
 51
304.8308809375474
  0
LINE
  5
23D
330
1CA
100
AcDbEntity
  8
AM_4
100
AcDbLine
 10
-1.072823126401098
 20
1.432752734143198
 30
0.0
 11
-1.077159700591416
 21
1.416037078327962
 31
0.0
  0
ARC
  5
23E
330
1CA
100
AcDbEntity
  8
AM_4
100
AcDbCircle
 10
0.0000000000000003
 20
-0.0000000000000002
 30
0.0
 40
1.779166666666668
100
AcDbArc
 50
52.74025681815818
 51
127.2597431818419
  0
LWPOLYLINE
  5
23F
330
1CA
100
AcDbEntity
  8
AM_4
100
AcDbPolyline
 90
        3
 70
     0
 43
0.0
 10
1.077159700591416
 20
1.416037078327963
 10
1.076188426255271
 20
1.41957704982405
 10
1.072823128349777
 20
1.432752726044335
  0
LWPOLYLINE
  5
240
330
1CA
100
AcDbEntity
  8
AM_4
100
AcDbPolyline
 90
        5
 70
     0
 43
0.0
 10
1.035220363956422
 20
1.487775200777971
 10
1.035500099896658
 20
1.487579799032635
 10
1.056595492481436
 20
1.467176478082506
 10
1.069674382652797
 20
1.443149010846564
 10
1.072823128349777
 20
1.432752726044335
  0
ARC
  5
241
330
1CA
100
AcDbEntity
  8
AM_4
100
AcDbCircle
 10
-0.0000000000008742
 20
-0.0000000000014937
 30
0.0
 40
1.812500000001725
100
AcDbArc
 50
55.16911906245696
 51
73.98660557603839
  0
ARC
  5
242
330
1CA
100
AcDbEntity
  8
AM_4
100
AcDbCircle
 10
0.0000000000000001
 20
-0.0000000000001128
 30
0.0
 40
1.787270163854209
100
AcDbArc
 50
73.75434246888109
 51
106.2456575311189
  0
ARC
  5
243
330
1CA
100
AcDbEntity
  8
AM_4
100
AcDbCircle
 10
-0.0000000000000061
 20
0.0000000000000164
 30
0.0
 40
1.812499999999983
100
AcDbArc
 50
106.0133944239485
 51
124.8308809375475
  0
LWPOLYLINE
  5
244
330
1CA
100
AcDbEntity
  8
AM_4
100
AcDbPolyline
 90
        5
 70
     0
 43
0.0
 10
-1.072823126401098
 20
1.432752734143198
 10
-1.064119021526202
 20
1.455452696647489
 10
-1.044008760992585
 20
1.480846308725504
 10
-1.035500099896184
 20
1.487579799032969
 10
-1.035220363956423
 20
1.487775200777971
  0
ARC
  5
245
330
1CA
100
AcDbEntity
  8
AM_5
100
AcDbCircle
 10
-2.1875
 20
0.0
 30
0.0
 40
0.1875
100
AcDbArc
 50
165.0
 51
105.0
  0
ARC
  5
246
330
1CA
100
AcDbEntity
  8
AM_5
100
AcDbCircle
 10
-2.1875
 20
0.0000000000000001
 30
0.0
 40
0.1874999999999998
100
AcDbArc
 50
104.9999999999998
 51
195.0
  0
CIRCLE
  5
247
330
1CA
100
AcDbEntity
  8
AM_4
100
AcDbCircle
 10
0.0000000000000004
 20
0.0000000000000003
 30
0.0
 40
2.625
  0
CIRCLE
  5
248
330
1CA
100
AcDbEntity
  8
AM_5
100
AcDbCircle
 10
2.1875
 20
0.0
 30
0.0
 40
0.1874999999999999
  0
ENDBLK
  5
1CD
330
1CA
100
AcDbEntity
  8
0
100
AcDbBlockEnd
  0
ENDSEC
  0
SECTION
  2
ENTITIES
  0
INSERT
  5
6F
330
1F
100
AcDbEntity
  8
0
100
AcDbBlockReference
  2
1_069874_0
 10
0.0
 20
0.0
 30
0.0
  0
POINT
  5
24A
330
1F
100
AcDbEntity
  8
ConnectionPoints
100
AcDbPoint
 10
0.0
 20
-1.096354166666667
 30
1.228958333333333
  0
POINT
  5
24B
330
1F
100
AcDbEntity
  8
ConnectionPoints
100
AcDbPoint
 10
0.0
 20
1.096354166666667
 30
1.228958333333333
  0
POINT
  5
24C
330
1F
100
AcDbEntity
  8
ConnectionPoints
100
AcDbPoint
 10
0.0
 20
0.0
 30
1.158958333333333
  0
POINT
  5
24D
330
1F
100
AcDbEntity
  8
ConnectionPoints
100
AcDbPoint
 10
0.0
 20
0.0
 30
1.390625
  0
POINT
  5
24E
330
1F
100
AcDbEntity
  8
ConnectionPoints
100
AcDbPoint
 10
0.0
 20
0.0
 30
1.357958333333333
  0
POINT
  5
24F
330
1F
100
AcDbEntity
  8
ConnectionPoints
100
AcDbPoint
 10
0.0
 20
1.096354166666667
 30
1.158958333333333
  0
POINT
  5
250
330
1F
100
AcDbEntity
  8
ConnectionPoints
100
AcDbPoint
 10
0.0
 20
1.096354166666667
 30
1.289625
  0
POINT
  5
251
330
1F
100
AcDbEntity
  8
ConnectionPoints
100
AcDbPoint
 10
0.0
 20
-1.096354166666667
 30
1.158958333333333
  0
POINT
  5
252
330
1F
100
AcDbEntity
  8
ConnectionPoints
100
AcDbPoint
 10
0.0
 20
-1.096354166666667
 30
1.289625
  0
POINT
  5
253
330
1F
100
AcDbEntity
  8
ConnectionPoints
100
AcDbPoint
 10
0.0
 20
0.0
 30
1.158958333333333
  0
POINT
  5
254
330
1F
100
AcDbEntity
  8
ConnectionPoints
100
AcDbPoint
 10
0.0
 20
2.006489690447714
 30
0.512
  0
POINT
  5
255
330
1F
100
AcDbEntity
  8
ConnectionPoints
100
AcDbPoint
 10
0.0
 20
2.15625
 30
0.4255358449660662
  0
POINT
  5
256
330
1F
100
AcDbEntity
  8
ConnectionPoints
100
AcDbPoint
 10
0.0
 20
0.0
 30
1.203125
  0
POINT
  5
257
330
1F
100
AcDbEntity
  8
ConnectionPoints
100
AcDbPoint
 10
0.0
 20
0.0
 30
1.390625
  0
ENDSEC
  0
SECTION
  2
OBJECTS
  0
DICTIONARY
  5
C
330
0
100
AcDbDictionary
281
     1
  3
ACAD_DETAILVIEWSTYLE
350
25F
  3
ACAD_GROUP
350
D
  3
ACAD_LAYOUT
350
1A
  3
ACAD_MATERIAL
350
43
  3
ACAD_MLEADERSTYLE
350
6B
  3
ACAD_MLINESTYLE
350
17
  3
ACAD_PLOTSETTINGS
350
19
  3
ACAD_PLOTSTYLENAME
350
E
  3
ACAD_SCALELIST
350
47
  3
ACAD_SECTIONVIEWSTYLE
350
260
  3
ACAD_TABLESTYLE
350
69
  3
ACAD_VISUALSTYLE
350
2A
  3
ACDB_RECOMPOSE_DATA
350
25C
  3
AcDbVariableDictionary
350
258
  0
SUN
  5
6D
330
29
100
AcDbSun
 90
        1
290
     0
 63
     7
421
 16777215
 40
1.0
291
     1
 91
  2455826
 92
 54000000
292
     0
 70
     2
 71
   256
280
     1
  0
DICTIONARY
  5
25F
102
{ACAD_REACTORS
330
C
102
}
330
C
100
AcDbDictionary
281
     1
  0
DICTIONARY
  5
D
102
{ACAD_REACTORS
330
C
102
}
330
C
100
AcDbDictionary
281
     1
  0
DICTIONARY
  5
1A
102
{ACAD_REACTORS
330
C
102
}
330
C
100
AcDbDictionary
281
     1
  3
Layout1
350
1E
  3
Layout2
350
26
  3
Model
350
22
  0
DICTIONARY
  5
43
102
{ACAD_REACTORS
330
C
102
}
330
C
100
AcDbDictionary
281
     1
  3
ByBlock
350
45
  3
ByLayer
350
44
  3
Global
350
46
  0
DICTIONARY
  5
6B
102
{ACAD_REACTORS
330
C
102
}
330
C
100
AcDbDictionary
281
     1
  3
Standard
350
6C
  0
DICTIONARY
  5
17
102
{ACAD_REACTORS
330
C
102
}
330
C
100
AcDbDictionary
281
     1
  3
Standard
350
18
  0
DICTIONARY
  5
19
102
{ACAD_REACTORS
330
C
102
}
330
C
100
AcDbDictionary
281
     1
  0
ACDBDICTIONARYWDFLT
  5
E
102
{ACAD_REACTORS
330
C
102
}
330
C
100
AcDbDictionary
281
     1
  3
Normal
350
F
100
AcDbDictionaryWithDefault
340
F
  0
DICTIONARY
  5
47
102
{ACAD_REACTORS
330
C
102
}
330
C
100
AcDbDictionary
281
     1
  3
A0
350
48
  3
A1
350
49
  3
A2
350
4A
  3
A3
350
4B
  3
A4
350
4C
  3
A5
350
4D
  3
A6
350
4E
  3
A7
350
4F
  3
A8
350
50
  3
A9
350
51
  3
B0
350
52
  3
B1
350
53
  3
B2
350
54
  3
B3
350
55
  3
B4
350
56
  3
B5
350
57
  3
B6
350
58
  3
B7
350
59
  3
B8
350
5A
  3
B9
350
5B
  3
C0
350
5C
  3
C1
350
5D
  3
C2
350
5E
  3
C3
350
5F
  3
C4
350
60
  3
C5
350
61
  3
C6
350
62
  3
C7
350
63
  3
C8
350
64
  3
C9
350
65
  3
D0
350
66
  3
D1
350
67
  3
D2
350
68
  0
DICTIONARY
  5
260
102
{ACAD_REACTORS
330
C
102
}
330
C
100
AcDbDictionary
281
     1
  0
DICTIONARY
  5
69
102
{ACAD_REACTORS
330
C
102
}
330
C
100
AcDbDictionary
281
     1
  3
Standard
350
6A
  0
DICTIONARY
  5
2A
102
{ACAD_REACTORS
330
C
102
}
330
C
100
AcDbDictionary
281
     1
  3
2dWireframe
350
2F
  3
Basic
350
32
  3
Brighten
350
36
  3
ColorChange
350
3A
  3
Conceptual
350
34
  3
Dim
350
35
  3
EdgeColorOff
350
3D
  3
Facepattern
350
39
  3
Flat
350
2B
  3
FlatWithEdges
350
2C
  3
Gouraud
350
2D
  3
GouraudWithEdges
350
2E
  3
Hidden
350
31
  3
JitterOff
350
3B
  3
Linepattern
350
38
  3
OverhangOff
350
3C
  3
Realistic
350
33
  3
Shaded
350
42
  3
Shaded with edges
350
41
  3
Shades of Gray
350
3E
  3
Sketchy
350
3F
  3
Thicken
350
37
  3
Wireframe
350
30
  3
X-Ray
350
40
  0
XRECORD
  5
25C
102
{ACAD_REACTORS
330
C
102
}
330
C
100
AcDbXrecord
280
     1
 90
        1
330
6A
  0
DICTIONARY
  5
258
102
{ACAD_REACTORS
330
C
102
}
330
C
100
AcDbDictionary
281
     1
  3
CANNOSCALE
350
259
  3
CMLEADERSTYLE
350
25E
  3
CTABLESTYLE
350
25D
  0
LAYOUT
  5
1E
102
{ACAD_REACTORS
330
1A
102
}
330
1A
100
AcDbPlotSettings
  1

  2
none_device
  4

  6

 40
0.0
 41
0.0
 42
0.0
 43
0.0
 44
0.0
 45
0.0
 46
0.0
 47
0.0
 48
0.0
 49
0.0
140
0.0
141
0.0
142
1.0
143
1.0
 70
   688
 72
     0
 73
     0
 74
     5
  7

 75
    16
 76
     0
 77
     2
 78
   300
147
1.0
148
0.0
149
0.0
100
AcDbLayout
  1
Layout1
 70
     1
 71
     1
 10
0.0
 20
0.0
 11
12.0
 21
9.0
 12
0.0
 22
0.0
 32
0.0
 14
1.000000000000000E+20
 24
1.000000000000000E+20
 34
1.000000000000000E+20
 15
-1.000000000000000E+20
 25
-1.000000000000000E+20
 35
-1.000000000000000E+20
146
0.0
 13
0.0
 23
0.0
 33
0.0
 16
1.0
 26
0.0
 36
0.0
 17
0.0
 27
1.0
 37
0.0
 76
     0
330
1B
  0
LAYOUT
  5
26
102
{ACAD_REACTORS
330
1A
102
}
330
1A
100
AcDbPlotSettings
  1

  2
none_device
  4

  6

 40
0.0
 41
0.0
 42
0.0
 43
0.0
 44
0.0
 45
0.0
 46
0.0
 47
0.0
 48
0.0
 49
0.0
140
0.0
141
0.0
142
1.0
143
1.0
 70
   688
 72
     0
 73
     0
 74
     5
  7

 75
    16
 76
     0
 77
     2
 78
   300
147
1.0
148
0.0
149
0.0
100
AcDbLayout
  1
Layout2
 70
     1
 71
     2
 10
0.0
 20
0.0
 11
0.0
 21
0.0
 12
0.0
 22
0.0
 32
0.0
 14
0.0
 24
0.0
 34
0.0
 15
0.0
 25
0.0
 35
0.0
146
0.0
 13
0.0
 23
0.0
 33
0.0
 16
1.0
 26
0.0
 36
0.0
 17
0.0
 27
1.0
 37
0.0
 76
     0
330
23
  0
LAYOUT
  5
22
102
{ACAD_REACTORS
330
1A
102
}
330
1A
100
AcDbPlotSettings
  1

  2
none_device
  4
Letter_(8.50_x_11.00_Inches)
  6

 40
6.35
 41
6.35
 42
6.35000508
 43
6.35000508
 44
215.9
 45
279.4
 46
0.0
 47
0.0
 48
0.0
 49
0.0
140
0.0
141
0.0
142
1.0
143
1.0
 70
  1712
 72
     0
 73
     0
 74
     0
  7

 75
     0
 76
     0
 77
     2
 78
   300
147
1.0
148
0.0
149
0.0
100
AcDbLayout
  1
Model
 70
     1
 71
     0
 10
0.0
 20
0.0
 11
12.0
 21
9.0
 12
0.0
 22
0.0
 32
0.0
 14
1.000000000000000E+20
 24
1.000000000000000E+20
 34
1.000000000000000E+20
 15
-1.000000000000000E+20
 25
-1.000000000000000E+20
 35
-1.000000000000000E+20
146
0.0
 13
0.0
 23
0.0
 33
0.0
 16
1.0
 26
0.0
 36
0.0
 17
0.0
 27
1.0
 37
0.0
 76
     0
330
1F
331
29
  0
MATERIAL
  5
45
102
{ACAD_REACTORS
330
43
102
}
330
43
100
AcDbMaterial
  1
ByBlock
 72
     1
 94
      127
  0
MATERIAL
  5
44
102
{ACAD_REACTORS
330
43
102
}
330
43
100
AcDbMaterial
  1
ByLayer
 72
     1
 94
      127
  0
MATERIAL
  5
46
102
{ACAD_REACTORS
330
43
102
}
330
43
100
AcDbMaterial
  1
Global
 72
     1
 94
      127
  0
MLEADERSTYLE
  5
6C
102
{ACAD_REACTORS
330
6B
102
}
330
6B
100
AcDbMLeaderStyle
179
     2
170
     2
171
     1
172
     0
 90
        2
 40
0.0
 41
0.0
173
     1
 91
-1056964608
340
14
 92
       -2
290
     1
 42
0.09
291
     1
 43
0.36
  3
Standard
341
0
 44
0.18
300

342
11
174
     1
178
     6
175
     1
176
     0
 93
-1056964608
 45
0.18
292
     0
297
     0
 46
0.18
343
0
 94
-1056964608
 47
1.0
 49
1.0
140
1.0
293
     1
141
0.0
294
     1
177
     0
142
1.0
295
     0
296
     0
143
0.125
271
     0
272
     9
273
     9
298
     0
  0
MLINESTYLE
  5
18
102
{ACAD_REACTORS
330
17
102
}
330
17
100
AcDbMlineStyle
  2
Standard
 70
     0
  3

 62
   256
 51
90.0
 52
90.0
 71
     2
 49
0.5
 62
   256
  6
BYLAYER
 49
-0.5
 62
   256
  6
BYLAYER
  0
ACDBPLACEHOLDER
  5
F
102
{ACAD_REACTORS
330
E
102
}
330
E
  0
SCALE
  5
48
102
{ACAD_REACTORS
330
47
102
}
330
47
100
AcDbScale
 70
     0
300
1:1
140
1.0
141
1.0
290
     1
  0
SCALE
  5
49
102
{ACAD_REACTORS
330
47
102
}
330
47
100
AcDbScale
 70
     0
300
1:2
140
1.0
141
2.0
290
     0
  0
SCALE
  5
4A
102
{ACAD_REACTORS
330
47
102
}
330
47
100
AcDbScale
 70
     0
300
1:4
140
1.0
141
4.0
290
     0
  0
SCALE
  5
4B
102
{ACAD_REACTORS
330
47
102
}
330
47
100
AcDbScale
 70
     0
300
1:5
140
1.0
141
5.0
290
     0
  0
SCALE
  5
4C
102
{ACAD_REACTORS
330
47
102
}
330
47
100
AcDbScale
 70
     0
300
1:8
140
1.0
141
8.0
290
     0
  0
SCALE
  5
4D
102
{ACAD_REACTORS
330
47
102
}
330
47
100
AcDbScale
 70
     0
300
1:10
140
1.0
141
10.0
290
     0
  0
SCALE
  5
4E
102
{ACAD_REACTORS
330
47
102
}
330
47
100
AcDbScale
 70
     0
300
1:16
140
1.0
141
16.0
290
     0
  0
SCALE
  5
4F
102
{ACAD_REACTORS
330
47
102
}
330
47
100
AcDbScale
 70
     0
300
1:20
140
1.0
141
20.0
290
     0
  0
SCALE
  5
50
102
{ACAD_REACTORS
330
47
102
}
330
47
100
AcDbScale
 70
     0
300
1:30
140
1.0
141
30.0
290
     0
  0
SCALE
  5
51
102
{ACAD_REACTORS
330
47
102
}
330
47
100
AcDbScale
 70
     0
300
1:40
140
1.0
141
40.0
290
     0
  0
SCALE
  5
52
102
{ACAD_REACTORS
330
47
102
}
330
47
100
AcDbScale
 70
     0
300
1:50
140
1.0
141
50.0
290
     0
  0
SCALE
  5
53
102
{ACAD_REACTORS
330
47
102
}
330
47
100
AcDbScale
 70
     0
300
1:100
140
1.0
141
100.0
290
     0
  0
SCALE
  5
54
102
{ACAD_REACTORS
330
47
102
}
330
47
100
AcDbScale
 70
     0
300
2:1
140
2.0
141
1.0
290
     0
  0
SCALE
  5
55
102
{ACAD_REACTORS
330
47
102
}
330
47
100
AcDbScale
 70
     0
300
4:1
140
4.0
141
1.0
290
     0
  0
SCALE
  5
56
102
{ACAD_REACTORS
330
47
102
}
330
47
100
AcDbScale
 70
     0
300
8:1
140
8.0
141
1.0
290
     0
  0
SCALE
  5
57
102
{ACAD_REACTORS
330
47
102
}
330
47
100
AcDbScale
 70
     0
300
10:1
140
10.0
141
1.0
290
     0
  0
SCALE
  5
58
102
{ACAD_REACTORS
330
47
102
}
330
47
100
AcDbScale
 70
     0
300
100:1
140
100.0
141
1.0
290
     0
  0
SCALE
  5
59
102
{ACAD_REACTORS
330
47
102
}
330
47
100
AcDbScale
 70
     0
300
1/128" = 1'-0"
140
0.0078125
141
12.0
290
     0
  0
SCALE
  5
5A
102
{ACAD_REACTORS
330
47
102
}
330
47
100
AcDbScale
 70
     0
300
1/64" = 1'-0"
140
0.015625
141
12.0
290
     0
  0
SCALE
  5
5B
102
{ACAD_REACTORS
330
47
102
}
330
47
100
AcDbScale
 70
     0
300
1/32" = 1'-0"
140
0.03125
141
12.0
290
     0
  0
SCALE
  5
5C
102
{ACAD_REACTORS
330
47
102
}
330
47
100
AcDbScale
 70
     0
300
1/16" = 1'-0"
140
0.0625
141
12.0
290
     0
  0
SCALE
  5
5D
102
{ACAD_REACTORS
330
47
102
}
330
47
100
AcDbScale
 70
     0
300
3/32" = 1'-0"
140
0.09375
141
12.0
290
     0
  0
SCALE
  5
5E
102
{ACAD_REACTORS
330
47
102
}
330
47
100
AcDbScale
 70
     0
300
1/8" = 1'-0"
140
0.125
141
12.0
290
     0
  0
SCALE
  5
5F
102
{ACAD_REACTORS
330
47
102
}
330
47
100
AcDbScale
 70
     0
300
3/16" = 1'-0"
140
0.1875
141
12.0
290
     0
  0
SCALE
  5
60
102
{ACAD_REACTORS
330
47
102
}
330
47
100
AcDbScale
 70
     0
300
1/4" = 1'-0"
140
0.25
141
12.0
290
     0
  0
SCALE
  5
61
102
{ACAD_REACTORS
330
47
102
}
330
47
100
AcDbScale
 70
     0
300
3/8" = 1'-0"
140
0.375
141
12.0
290
     0
  0
SCALE
  5
62
102
{ACAD_REACTORS
330
47
102
}
330
47
100
AcDbScale
 70
     0
300
1/2" = 1'-0"
140
0.5
141
12.0
290
     0
  0
SCALE
  5
63
102
{ACAD_REACTORS
330
47
102
}
330
47
100
AcDbScale
 70
     0
300
3/4" = 1'-0"
140
0.75
141
12.0
290
     0
  0
SCALE
  5
64
102
{ACAD_REACTORS
330
47
102
}
330
47
100
AcDbScale
 70
     0
300
1" = 1'-0"
140
1.0
141
12.0
290
     0
  0
SCALE
  5
65
102
{ACAD_REACTORS
330
47
102
}
330
47
100
AcDbScale
 70
     0
300
1-1/2" = 1'-0"
140
1.5
141
12.0
290
     0
  0
SCALE
  5
66
102
{ACAD_REACTORS
330
47
102
}
330
47
100
AcDbScale
 70
     0
300
3" = 1'-0"
140
3.0
141
12.0
290
     0
  0
SCALE
  5
67
102
{ACAD_REACTORS
330
47
102
}
330
47
100
AcDbScale
 70
     0
300
6" = 1'-0"
140
6.0
141
12.0
290
     0
  0
SCALE
  5
68
102
{ACAD_REACTORS
330
47
102
}
330
47
100
AcDbScale
 70
     0
300
1'-0" = 1'-0"
140
12.0
141
12.0
290
     0
  0
TABLESTYLE
  5
6A
102
{ACAD_REACTORS
330
69
102
}
102
{ACAD_XDICTIONARY
360
25A
102
}
330
69
100
AcDbTableStyle
  3
Standard
 70
     0
 71
     0
 40
0.06
 41
0.06
280
     0
281
     0
  7
Standard
140
0.18
170
     2
 62
     0
 63
   257
283
     0
 90
        4
 91
        0
  1

274
    -2
284
     1
 64
     0
275
    -2
285
     1
 65
     0
276
    -2
286
     1
 66
     0
277
    -2
287
     1
 67
     0
278
    -2
288
     1
 68
     0
279
    -2
289
     1
 69
     0
  7
Standard
140
0.25
170
     5
 62
     0
 63
   257
283
     0
 90
        4
 91
        0
  1

274
    -2
284
     1
 64
     0
275
    -2
285
     1
 65
     0
276
    -2
286
     1
 66
     0
277
    -2
287
     1
 67
     0
278
    -2
288
     1
 68
     0
279
    -2
289
     1
 69
     0
  7
Standard
140
0.18
170
     5
 62
     0
 63
   257
283
     0
 90
        4
 91
        0
  1

274
    -2
284
     1
 64
     0
275
    -2
285
     1
 65
     0
276
    -2
286
     1
 66
     0
277
    -2
287
     1
 67
     0
278
    -2
288
     1
 68
     0
279
    -2
289
     1
 69
     0
  0
VISUALSTYLE
  5
2F
102
{ACAD_REACTORS
330
2A
102
}
330
2A
100
AcDbVisualStyle
  2
2dWireframe
 70
     4
177
     3
291
     0
 70
    58
 90
        0
176
     1
 90
        2
176
     1
 90
        0
176
     1
 90
        0
176
     1
 40
0.6
176
     1
 40
30.0
176
     1
 62
     7
420
 16777215
176
     1
 90
        1
176
     1
 90
        4
176
     1
 62
     7
176
     1
 62
   257
176
     1
 90
        1
176
     1
 90
        1
176
     1
 40
1.0
176
     1
 90
        0
176
     1
 62
   257
176
     1
 40
1.0
176
     1
 90
        1
176
     1
 90
        6
176
     1
 90
        2
176
     1
 62
     7
176
     1
 90
        5
176
     1
 90
        0
176
     1
 90
        0
176
     1
290
     0
176
     1
 90
        1
176
     1
 40
0.0
176
     1
 90
        0
176
     1
290
     1
176
     1
290
     1
176
     1
290
     0
176
     1
290
     0
176
     1
290
     0
176
     1
290
     0
176
     1
290
     0
176
     1
290
     0
176
     1
290
     0
176
     1
 90
       50
176
     1
 40
0.0
176
     1
 40
1.0
176
     1
 90
        0
176
     1
 62
    18
420
        0
176
     1
 90
       50
176
     1
 90
        3
176
     1
 62
     5
420
      255
176
     1
290
     0
176
     1
 90
       50
176
     1
 90
       50
176
     1
 90
       50
176
     1
290
     0
176
     1
 90
       50
176
     1
 62
   256
176
     0
 40
1.0
176
     0
 90
        2
176
     1
  1
strokes_ogs.tif
176
     1
290
     0
176
     1
 40
1.0
176
     1
 40
1.0
176
     1
  0
VISUALSTYLE
  5
32
102
{ACAD_REACTORS
330
2A
102
}
330
2A
100
AcDbVisualStyle
  2
Basic
 70
     7
177
     3
291
     1
 70
    58
 90
        1
176
     1
 90
        0
176
     1
 90
        1
176
     1
 90
        0
176
     1
 40
0.6
176
     1
 40
30.0
176
     1
 62
     7
420
 16777215
176
     1
 90
        0
176
     1
 90
        4
176
     1
 62
     7
176
     1
 62
   257
176
     1
 90
        1
176
     1
 90
        1
176
     1
 40
1.0
176
     1
 90
        8
176
     1
 62
     7
176
     1
 40
1.0
176
     1
 90
        1
176
     1
 90
        6
176
     1
 90
        2
176
     1
 62
     7
176
     1
 90
        5
176
     1
 90
        0
176
     1
 90
        0
176
     1
290
     0
176
     1
 90
        1
176
     1
 40
0.0
176
     1
 90
        0
176
     1
290
     0
176
     1
290
     1
176
     1
290
     1
176
     1
290
     0
176
     1
290
     0
176
     1
290
     0
176
     1
290
     0
176
     1
290
     0
176
     1
290
     0
176
     1
 90
       50
176
     1
 40
0.0
176
     1
 40
1.0
176
     1
 90
        0
176
     1
 62
    18
420
        0
176
     1
 90
       50
176
     1
 90
        3
176
     1
 62
     5
420
      255
176
     1
290
     0
176
     1
 90
       50
176
     1
 90
       50
176
     1
 90
       50
176
     1
290
     0
176
     1
 90
       50
176
     1
 62
   256
176
     0
 40
1.0
176
     0
 90
        2
176
     1
  1
strokes_ogs.tif
176
     1
290
     0
176
     1
 40
1.0
176
     1
 40
1.0
176
     1
  0
VISUALSTYLE
  5
36
102
{ACAD_REACTORS
330
2A
102
}
330
2A
100
AcDbVisualStyle
  2
Brighten
 70
    12
177
     3
291
     1
 70
    58
 90
        2
176
     1
 90
        2
176
     1
 90
        0
176
     1
 90
        0
176
     1
 40
0.6
176
     1
 40
30.0
176
     1
 62
     7
420
 16777215
176
     1
 90
        1
176
     1
 90
        4
176
     1
 62
     7
176
     1
 62
   257
176
     1
 90
        1
176
     1
 90
        1
176
     1
 40
1.0
176
     1
 90
        8
176
     1
 62
     7
176
     1
 40
1.0
176
     1
 90
        1
176
     1
 90
        6
176
     1
 90
        2
176
     1
 62
     7
176
     1
 90
        5
176
     1
 90
        0
176
     1
 90
        0
176
     1
290
     0
176
     1
 90
        1
176
     1
 40
50.0
176
     1
 90
        0
176
     1
290
     0
176
     1
290
     1
176
     1
290
     1
176
     1
290
     0
176
     1
290
     0
176
     1
290
     0
176
     1
290
     0
176
     1
290
     0
176
     1
290
     0
176
     1
 90
       50
176
     1
 40
0.0
176
     1
 40
1.0
176
     1
 90
        0
176
     1
 62
    18
420
        0
176
     1
 90
       50
176
     1
 90
        3
176
     1
 62
     5
420
      255
176
     1
290
     0
176
     1
 90
       50
176
     1
 90
       50
176
     1
 90
       50
176
     1
290
     0
176
     1
 90
       50
176
     1
 62
   256
176
     0
 40
1.0
176
     0
 90
        2
176
     1
  1
strokes_ogs.tif
176
     1
290
     0
176
     1
 40
1.0
176
     1
 40
1.0
176
     1
  0
VISUALSTYLE
  5
3A
102
{ACAD_REACTORS
330
2A
102
}
330
2A
100
AcDbVisualStyle
  2
ColorChange
 70
    16
177
     3
291
     1
 70
    58
 90
        2
176
     1
 90
        2
176
     1
 90
        3
176
     1
 90
        0
176
     1
 40
0.6
176
     1
 40
30.0
176
     1
 62
     8
420
  8421504
176
     1
 90
        1
176
     1
 90
        4
176
     1
 62
     7
176
     1
 62
   257
176
     1
 90
        1
176
     1
 90
        1
176
     1
 40
1.0
176
     1
 90
        8
176
     1
 62
     8
420
  8421504
176
     1
 40
1.0
176
     1
 90
        1
176
     1
 90
        6
176
     1
 90
        2
176
     1
 62
     7
176
     1
 90
        5
176
     1
 90
        0
176
     1
 90
        0
176
     1
290
     0
176
     1
 90
        1
176
     1
 40
0.0
176
     1
 90
        0
176
     1
290
     0
176
     1
290
     1
176
     1
290
     1
176
     1
290
     0
176
     1
290
     0
176
     1
290
     0
176
     1
290
     0
176
     1
290
     0
176
     1
290
     0
176
     1
 90
       50
176
     1
 40
0.0
176
     1
 40
1.0
176
     1
 90
        0
176
     1
 62
    18
420
        0
176
     1
 90
       50
176
     1
 90
        3
176
     1
 62
     5
420
      255
176
     1
290
     0
176
     1
 90
       50
176
     1
 90
       50
176
     1
 90
       50
176
     1
290
     0
176
     1
 90
       50
176
     1
 62
   256
176
     0
 40
1.0
176
     0
 90
        2
176
     1
  1
strokes_ogs.tif
176
     1
290
     0
176
     1
 40
1.0
176
     1
 40
1.0
176
     1
  0
VISUALSTYLE
  5
34
102
{ACAD_REACTORS
330
2A
102
}
330
2A
100
AcDbVisualStyle
  2
Conceptual
 70
     9
177
     3
291
     0
 70
    58
 90
        3
176
     1
 90
        2
176
     1
 90
        0
176
     1
 90
        0
176
     1
 40
0.6
176
     1
 40
30.0
176
     1
 62
     7
420
 16777215
176
     1
 90
        2
176
     1
 90
        2
176
     1
 62
     7
176
     1
 62
   257
176
     1
 90
        1
176
     1
 90
        1
176
     1
 40
179.0
176
     1
 90
        8
176
     1
 62
     7
176
     1
 40
1.0
176
     1
 90
        1
176
     1
 90
        6
176
     1
 90
        2
176
     1
 62
     7
176
     1
 90
        3
176
     1
 90
        0
176
     1
 90
        0
176
     1
290
     0
176
     1
 90
        1
176
     1
 40
0.0
176
     1
 90
        0
176
     1
290
     0
176
     1
290
     1
176
     1
290
     1
176
     1
290
     0
176
     1
290
     0
176
     1
290
     0
176
     1
290
     0
176
     1
290
     0
176
     1
290
     0
176
     1
 90
       50
176
     1
 40
0.0
176
     1
 40
1.0
176
     1
 90
        0
176
     1
 62
    18
420
        0
176
     1
 90
       50
176
     1
 90
        3
176
     1
 62
     5
420
      255
176
     1
290
     0
176
     1
 90
       50
176
     1
 90
       50
176
     1
 90
       50
176
     1
290
     0
176
     1
 90
       50
176
     1
 62
   256
176
     0
 40
1.0
176
     0
 90
        2
176
     1
  1
strokes_ogs.tif
176
     1
290
     0
176
     1
 40
1.0
176
     1
 40
1.0
176
     1
  0
VISUALSTYLE
  5
35
102
{ACAD_REACTORS
330
2A
102
}
330
2A
100
AcDbVisualStyle
  2
Dim
 70
    11
177
     3
291
     1
 70
    58
 90
        2
176
     1
 90
        2
176
     1
 90
        0
176
     1
 90
        0
176
     1
 40
0.6
176
     1
 40
30.0
176
     1
 62
     7
420
 16777215
176
     1
 90
        1
176
     1
 90
        4
176
     1
 62
     7
176
     1
 62
   257
176
     1
 90
        1
176
     1
 90
        1
176
     1
 40
1.0
176
     1
 90
        8
176
     1
 62
     7
176
     1
 40
1.0
176
     1
 90
        1
176
     1
 90
        6
176
     1
 90
        2
176
     1
 62
     7
176
     1
 90
        5
176
     1
 90
        0
176
     1
 90
        0
176
     1
290
     0
176
     1
 90
        1
176
     1
 40
-50.0
176
     1
 90
        0
176
     1
290
     0
176
     1
290
     1
176
     1
290
     1
176
     1
290
     0
176
     1
290
     0
176
     1
290
     0
176
     1
290
     0
176
     1
290
     0
176
     1
290
     0
176
     1
 90
       50
176
     1
 40
0.0
176
     1
 40
1.0
176
     1
 90
        0
176
     1
 62
    18
420
        0
176
     1
 90
       50
176
     1
 90
        3
176
     1
 62
     5
420
      255
176
     1
290
     0
176
     1
 90
       50
176
     1
 90
       50
176
     1
 90
       50
176
     1
290
     0
176
     1
 90
       50
176
     1
 62
   256
176
     0
 40
1.0
176
     0
 90
        2
176
     1
  1
strokes_ogs.tif
176
     1
290
     0
176
     1
 40
1.0
176
     1
 40
1.0
176
     1
  0
VISUALSTYLE
  5
3D
102
{ACAD_REACTORS
330
2A
102
}
330
2A
100
AcDbVisualStyle
  2
EdgeColorOff
 70
    22
177
     3
291
     1
 70
    58
 90
        2
176
     0
 90
        2
176
     0
 90
        0
176
     0
 90
        0
176
     0
 40
0.6
176
     0
 40
30.0
176
     0
 62
     7
420
 16777215
176
     0
 90
        1
176
     0
 90
        4
176
     0
 62
     7
176
     0
 62
   257
176
     0
 90
        1
176
     0
 90
        1
176
     0
 40
1.0
176
     0
 90
        8
176
     2
 62
     7
176
     0
 40
1.0
176
     0
 90
        1
176
     0
 90
        6
176
     0
 90
        2
176
     0
 62
     7
176
     0
 90
        5
176
     0
 90
        0
176
     0
 90
        0
176
     0
290
     0
176
     0
 90
        1
176
     0
 40
0.0
176
     0
 90
        0
176
     0
290
     0
176
     0
290
     1
176
     0
290
     1
176
     0
290
     0
176
     0
290
     0
176
     0
290
     0
176
     0
290
     0
176
     0
290
     0
176
     0
290
     0
176
     0
 90
       50
176
     0
 40
0.0
176
     0
 40
1.0
176
     0
 90
        0
176
     0
 62
    18
420
        0
176
     0
 90
       50
176
     0
 90
        3
176
     0
 62
     5
420
      255
176
     0
290
     0
176
     0
 90
       50
176
     0
 90
       50
176
     0
 90
       50
176
     0
290
     0
176
     0
 90
       50
176
     0
 62
   256
176
     0
 40
1.0
176
     0
 90
        2
176
     0
  1
strokes_ogs.tif
176
     0
290
     0
176
     0
 40
1.0
176
     0
 40
1.0
176
     0
  0
VISUALSTYLE
  5
39
102
{ACAD_REACTORS
330
2A
102
}
330
2A
100
AcDbVisualStyle
  2
Facepattern
 70
    15
177
     3
291
     1
 70
    58
 90
        2
176
     1
 90
        2
176
     1
 90
        0
176
     1
 90
        0
176
     1
 40
0.6
176
     1
 40
30.0
176
     1
 62
     7
420
 16777215
176
     1
 90
        1
176
     1
 90
        4
176
     1
 62
     7
176
     1
 62
   257
176
     1
 90
        1
176
     1
 90
        1
176
     1
 40
1.0
176
     1
 90
        8
176
     1
 62
     7
176
     1
 40
1.0
176
     1
 90
        1
176
     1
 90
        6
176
     1
 90
        2
176
     1
 62
     7
176
     1
 90
        5
176
     1
 90
        0
176
     1
 90
        0
176
     1
290
     0
176
     1
 90
        1
176
     1
 40
0.0
176
     1
 90
        0
176
     1
290
     0
176
     1
290
     1
176
     1
290
     1
176
     1
290
     0
176
     1
290
     0
176
     1
290
     0
176
     1
290
     0
176
     1
290
     0
176
     1
290
     0
176
     1
 90
       50
176
     1
 40
0.0
176
     1
 40
1.0
176
     1
 90
        0
176
     1
 62
    18
420
        0
176
     1
 90
       50
176
     1
 90
        3
176
     1
 62
     5
420
      255
176
     1
290
     0
176
     1
 90
       50
176
     1
 90
       50
176
     1
 90
       50
176
     1
290
     0
176
     1
 90
       50
176
     1
 62
   256
176
     0
 40
1.0
176
     0
 90
        2
176
     1
  1
strokes_ogs.tif
176
     1
290
     0
176
     1
 40
1.0
176
     1
 40
1.0
176
     1
  0
VISUALSTYLE
  5
2B
102
{ACAD_REACTORS
330
2A
102
}
330
2A
100
AcDbVisualStyle
  2
Flat
 70
     0
177
     3
291
     1
 70
    58
 90
        2
176
     1
 90
        1
176
     1
 90
        1
176
     1
 90
        2
176
     1
 40
0.6
176
     1
 40
30.0
176
     1
 62
     7
420
 16777215
176
     1
 90
        0
176
     1
 90
        0
176
     1
 62
     7
176
     1
 62
   257
176
     1
 90
        1
176
     1
 90
        1
176
     1
 40
1.0
176
     1
 90
        8
176
     1
 62
     7
176
     1
 40
1.0
176
     1
 90
        1
176
     1
 90
        6
176
     1
 90
        2
176
     1
 62
     7
176
     1
 90
        5
176
     1
 90
        0
176
     1
 90
        0
176
     1
290
     0
176
     1
 90
       13
176
     1
 40
0.0
176
     1
 90
        0
176
     1
290
     0
176
     1
290
     1
176
     1
290
     1
176
     1
290
     0
176
     1
290
     0
176
     1
290
     0
176
     1
290
     0
176
     1
290
     0
176
     1
290
     0
176
     1
 90
       50
176
     1
 40
0.0
176
     1
 40
1.0
176
     1
 90
        0
176
     1
 62
    18
420
        0
176
     1
 90
       50
176
     1
 90
        3
176
     1
 62
     5
420
      255
176
     1
290
     0
176
     1
 90
       50
176
     1
 90
       50
176
     1
 90
       50
176
     1
290
     0
176
     1
 90
       50
176
     1
 62
   256
176
     0
 40
1.0
176
     0
 90
        2
176
     1
  1
strokes_ogs.tif
176
     1
290
     0
176
     1
 40
1.0
176
     1
 40
1.0
176
     1
  0
VISUALSTYLE
  5
2C
102
{ACAD_REACTORS
330
2A
102
}
330
2A
100
AcDbVisualStyle
  2
FlatWithEdges
 70
     1
177
     3
291
     1
 70
    58
 90
        2
176
     1
 90
        1
176
     1
 90
        1
176
     1
 90
        2
176
     1
 40
0.6
176
     1
 40
30.0
176
     1
 62
     7
420
 16777215
176
     1
 90
        1
176
     1
 90
        0
176
     1
 62
     7
176
     1
 62
   257
176
     1
 90
        1
176
     1
 90
        1
176
     1
 40
1.0
176
     1
 90
        0
176
     1
 62
   257
176
     1
 40
1.0
176
     1
 90
        1
176
     1
 90
        6
176
     1
 90
        2
176
     1
 62
     7
176
     1
 90
        5
176
     1
 90
        0
176
     1
 90
        0
176
     1
290
     0
176
     1
 90
       13
176
     1
 40
0.0
176
     1
 90
        0
176
     1
290
     0
176
     1
290
     1
176
     1
290
     1
176
     1
290
     0
176
     1
290
     0
176
     1
290
     0
176
     1
290
     0
176
     1
290
     0
176
     1
290
     0
176
     1
 90
       50
176
     1
 40
0.0
176
     1
 40
1.0
176
     1
 90
        0
176
     1
 62
    18
420
        0
176
     1
 90
       50
176
     1
 90
        3
176
     1
 62
     5
420
      255
176
     1
290
     0
176
     1
 90
       50
176
     1
 90
       50
176
     1
 90
       50
176
     1
290
     0
176
     1
 90
       50
176
     1
 62
   256
176
     0
 40
1.0
176
     0
 90
        2
176
     1
  1
strokes_ogs.tif
176
     1
290
     0
176
     1
 40
1.0
176
     1
 40
1.0
176
     1
  0
VISUALSTYLE
  5
2D
102
{ACAD_REACTORS
330
2A
102
}
330
2A
100
AcDbVisualStyle
  2
Gouraud
 70
     2
177
     3
291
     1
 70
    58
 90
        2
176
     1
 90
        2
176
     1
 90
        1
176
     1
 90
        2
176
     1
 40
0.6
176
     1
 40
30.0
176
     1
 62
     7
420
 16777215
176
     1
 90
        0
176
     1
 90
        0
176
     1
 62
     7
176
     1
 62
   257
176
     1
 90
        1
176
     1
 90
        1
176
     1
 40
1.0
176
     1
 90
        0
176
     1
 62
     7
176
     1
 40
1.0
176
     1
 90
        1
176
     1
 90
        6
176
     1
 90
        2
176
     1
 62
     7
176
     1
 90
        5
176
     1
 90
        0
176
     1
 90
        0
176
     1
290
     0
176
     1
 90
       13
176
     1
 40
0.0
176
     1
 90
        0
176
     1
290
     0
176
     1
290
     1
176
     1
290
     1
176
     1
290
     0
176
     1
290
     0
176
     1
290
     0
176
     1
290
     0
176
     1
290
     0
176
     1
290
     0
176
     1
 90
       50
176
     1
 40
0.0
176
     1
 40
1.0
176
     1
 90
        0
176
     1
 62
    18
420
        0
176
     1
 90
       50
176
     1
 90
        3
176
     1
 62
     5
420
      255
176
     1
290
     0
176
     1
 90
       50
176
     1
 90
       50
176
     1
 90
       50
176
     1
290
     0
176
     1
 90
       50
176
     1
 62
   256
176
     0
 40
1.0
176
     0
 90
        2
176
     1
  1
strokes_ogs.tif
176
     1
290
     0
176
     1
 40
1.0
176
     1
 40
1.0
176
     1
  0
VISUALSTYLE
  5
2E
102
{ACAD_REACTORS
330
2A
102
}
330
2A
100
AcDbVisualStyle
  2
GouraudWithEdges
 70
     3
177
     3
291
     1
 70
    58
 90
        2
176
     1
 90
        2
176
     1
 90
        1
176
     1
 90
        2
176
     1
 40
0.6
176
     1
 40
30.0
176
     1
 62
     7
420
 16777215
176
     1
 90
        1
176
     1
 90
        0
176
     1
 62
     7
176
     1
 62
   257
176
     1
 90
        1
176
     1
 90
        1
176
     1
 40
1.0
176
     1
 90
        0
176
     1
 62
   257
176
     1
 40
1.0
176
     1
 90
        1
176
     1
 90
        6
176
     1
 90
        2
176
     1
 62
     7
176
     1
 90
        5
176
     1
 90
        0
176
     1
 90
        0
176
     1
290
     0
176
     1
 90
       13
176
     1
 40
0.0
176
     1
 90
        0
176
     1
290
     0
176
     1
290
     1
176
     1
290
     1
176
     1
290
     0
176
     1
290
     0
176
     1
290
     0
176
     1
290
     0
176
     1
290
     0
176
     1
290
     0
176
     1
 90
       50
176
     1
 40
0.0
176
     1
 40
1.0
176
     1
 90
        0
176
     1
 62
    18
420
        0
176
     1
 90
       50
176
     1
 90
        3
176
     1
 62
     5
420
      255
176
     1
290
     0
176
     1
 90
       50
176
     1
 90
       50
176
     1
 90
       50
176
     1
290
     0
176
     1
 90
       50
176
     1
 62
   256
176
     0
 40
1.0
176
     0
 90
        2
176
     1
  1
strokes_ogs.tif
176
     1
290
     0
176
     1
 40
1.0
176
     1
 40
1.0
176
     1
  0
VISUALSTYLE
  5
31
102
{ACAD_REACTORS
330
2A
102
}
330
2A
100
AcDbVisualStyle
  2
Hidden
 70
     6
177
     3
291
     0
 70
    58
 90
        1
176
     1
 90
        2
176
     1
 90
        2
176
     1
 90
        0
176
     1
 40
0.6
176
     1
 40
30.0
176
     1
 62
     7
420
 16777215
176
     1
 90
        2
176
     1
 90
        2
176
     1
 62
     7
176
     1
 62
   257
176
     1
 90
        2
176
     1
 90
        1
176
     1
 40
40.0
176
     1
 90
        0
176
     1
 62
   257
176
     1
 40
1.0
176
     1
 90
        1
176
     1
 90
        6
176
     1
 90
        2
176
     1
 62
     7
176
     1
 90
        3
176
     1
 90
        0
176
     1
 90
        0
176
     1
290
     0
176
     1
 90
        1
176
     1
 40
0.0
176
     1
 90
        0
176
     1
290
     0
176
     1
290
     1
176
     1
290
     1
176
     1
290
     0
176
     1
290
     0
176
     1
290
     0
176
     1
290
     0
176
     1
290
     0
176
     1
290
     0
176
     1
 90
       50
176
     1
 40
0.0
176
     1
 40
1.0
176
     1
 90
        0
176
     1
 62
    18
420
        0
176
     1
 90
       50
176
     1
 90
        3
176
     1
 62
     5
420
      255
176
     1
290
     0
176
     1
 90
       50
176
     1
 90
       50
176
     1
 90
       50
176
     1
290
     0
176
     1
 90
       50
176
     1
 62
   256
176
     0
 40
1.0
176
     0
 90
        2
176
     1
  1
strokes_ogs.tif
176
     1
290
     0
176
     1
 40
1.0
176
     1
 40
1.0
176
     1
  0
VISUALSTYLE
  5
3B
102
{ACAD_REACTORS
330
2A
102
}
330
2A
100
AcDbVisualStyle
  2
JitterOff
 70
    20
177
     3
291
     1
 70
    58
 90
        2
176
     0
 90
        2
176
     0
 90
        0
176
     0
 90
        0
176
     0
 40
0.6
176
     0
 40
30.0
176
     0
 62
     7
420
 16777215
176
     0
 90
        1
176
     0
 90
        4
176
     0
 62
     7
176
     0
 62
   257
176
     0
 90
        1
176
     0
 90
        1
176
     0
 40
1.0
176
     0
 90
       10
176
     2
 62
     7
176
     0
 40
1.0
176
     0
 90
        1
176
     0
 90
        6
176
     0
 90
        2
176
     0
 62
     7
176
     0
 90
        5
176
     0
 90
        0
176
     0
 90
        0
176
     0
290
     0
176
     0
 90
        1
176
     0
 40
0.0
176
     0
 90
        0
176
     0
290
     0
176
     0
290
     1
176
     0
290
     1
176
     0
290
     0
176
     0
290
     0
176
     0
290
     0
176
     0
290
     0
176
     0
290
     0
176
     0
290
     0
176
     0
 90
       50
176
     0
 40
0.0
176
     0
 40
1.0
176
     0
 90
        0
176
     0
 62
    18
420
        0
176
     0
 90
       50
176
     0
 90
        3
176
     0
 62
     5
420
      255
176
     0
290
     0
176
     0
 90
       50
176
     0
 90
       50
176
     0
 90
       50
176
     0
290
     0
176
     0
 90
       50
176
     0
 62
   256
176
     0
 40
1.0
176
     0
 90
        2
176
     0
  1
strokes_ogs.tif
176
     0
290
     0
176
     0
 40
1.0
176
     0
 40
1.0
176
     0
  0
VISUALSTYLE
  5
38
102
{ACAD_REACTORS
330
2A
102
}
330
2A
100
AcDbVisualStyle
  2
Linepattern
 70
    14
177
     3
291
     1
 70
    58
 90
        2
176
     1
 90
        2
176
     1
 90
        0
176
     1
 90
        0
176
     1
 40
0.6
176
     1
 40
30.0
176
     1
 62
     7
420
 16777215
176
     1
 90
        1
176
     1
 90
        4
176
     1
 62
     7
176
     1
 62
   257
176
     1
 90
        7
176
     1
 90
        7
176
     1
 40
1.0
176
     1
 90
        8
176
     1
 62
     7
176
     1
 40
1.0
176
     1
 90
        1
176
     1
 90
        6
176
     1
 90
        2
176
     1
 62
     7
176
     1
 90
        5
176
     1
 90
        0
176
     1
 90
        0
176
     1
290
     0
176
     1
 90
        1
176
     1
 40
0.0
176
     1
 90
        0
176
     1
290
     0
176
     1
290
     1
176
     1
290
     1
176
     1
290
     0
176
     1
290
     0
176
     1
290
     0
176
     1
290
     0
176
     1
290
     0
176
     1
290
     0
176
     1
 90
       50
176
     1
 40
0.0
176
     1
 40
1.0
176
     1
 90
        0
176
     1
 62
    18
420
        0
176
     1
 90
       50
176
     1
 90
        3
176
     1
 62
     5
420
      255
176
     1
290
     0
176
     1
 90
       50
176
     1
 90
       50
176
     1
 90
       50
176
     1
290
     0
176
     1
 90
       50
176
     1
 62
   256
176
     0
 40
1.0
176
     0
 90
        2
176
     1
  1
strokes_ogs.tif
176
     1
290
     0
176
     1
 40
1.0
176
     1
 40
1.0
176
     1
  0
VISUALSTYLE
  5
3C
102
{ACAD_REACTORS
330
2A
102
}
330
2A
100
AcDbVisualStyle
  2
OverhangOff
 70
    21
177
     3
291
     1
 70
    58
 90
        2
176
     0
 90
        2
176
     0
 90
        0
176
     0
 90
        0
176
     0
 40
0.6
176
     0
 40
30.0
176
     0
 62
     7
420
 16777215
176
     0
 90
        1
176
     0
 90
        4
176
     0
 62
     7
176
     0
 62
   257
176
     0
 90
        1
176
     0
 90
        1
176
     0
 40
1.0
176
     0
 90
        9
176
     2
 62
     7
176
     0
 40
1.0
176
     0
 90
        1
176
     0
 90
        6
176
     0
 90
        2
176
     0
 62
     7
176
     0
 90
        5
176
     0
 90
        0
176
     0
 90
        0
176
     0
290
     0
176
     0
 90
        1
176
     0
 40
0.0
176
     0
 90
        0
176
     0
290
     0
176
     0
290
     1
176
     0
290
     1
176
     0
290
     0
176
     0
290
     0
176
     0
290
     0
176
     0
290
     0
176
     0
290
     0
176
     0
290
     0
176
     0
 90
       50
176
     0
 40
0.0
176
     0
 40
1.0
176
     0
 90
        0
176
     0
 62
    18
420
        0
176
     0
 90
       50
176
     0
 90
        3
176
     0
 62
     5
420
      255
176
     0
290
     0
176
     0
 90
       50
176
     0
 90
       50
176
     0
 90
       50
176
     0
290
     0
176
     0
 90
       50
176
     0
 62
   256
176
     0
 40
1.0
176
     0
 90
        2
176
     0
  1
strokes_ogs.tif
176
     0
290
     0
176
     0
 40
1.0
176
     0
 40
1.0
176
     0
  0
VISUALSTYLE
  5
33
102
{ACAD_REACTORS
330
2A
102
}
330
2A
100
AcDbVisualStyle
  2
Realistic
 70
     8
177
     3
291
     0
 70
    58
 90
        2
176
     1
 90
        3
176
     1
 90
        0
176
     1
 90
        2
176
     1
 40
0.6
176
     1
 40
30.0
176
     1
 62
     7
420
 16777215
176
     1
 90
        0
176
     1
 90
        0
176
     1
 62
     7
176
     1
 62
   257
176
     1
 90
        1
176
     1
 90
        1
176
     1
 40
1.0
176
     1
 90
        8
176
     1
 62
   257
176
     1
 40
1.0
176
     1
 90
        1
176
     1
 90
        6
176
     1
 90
        2
176
     1
 62
     7
176
     1
 90
        3
176
     1
 90
        0
176
     1
 90
        0
176
     1
290
     0
176
     1
 90
       13
176
     1
 40
0.0
176
     1
 90
        0
176
     1
290
     0
176
     1
290
     1
176
     1
290
     1
176
     1
290
     0
176
     1
290
     0
176
     1
290
     0
176
     1
290
     0
176
     1
290
     0
176
     1
290
     0
176
     1
 90
       50
176
     1
 40
0.0
176
     1
 40
1.0
176
     1
 90
        0
176
     1
 62
    18
420
        0
176
     1
 90
       50
176
     1
 90
        3
176
     1
 62
     5
420
      255
176
     1
290
     0
176
     1
 90
       50
176
     1
 90
       50
176
     1
 90
       50
176
     1
290
     0
176
     1
 90
       50
176
     1
 62
   256
176
     0
 40
1.0
176
     0
 90
        2
176
     1
  1
strokes_ogs.tif
176
     1
290
     0
176
     1
 40
1.0
176
     1
 40
1.0
176
     1
  0
VISUALSTYLE
  5
42
102
{ACAD_REACTORS
330
2A
102
}
330
2A
100
AcDbVisualStyle
  2
Shaded
 70
    27
177
     3
291
     0
 70
    58
 90
        2
176
     1
 90
        2
176
     1
 90
        1
176
     1
 90
        2
176
     1
 40
0.6
176
     1
 40
30.0
176
     1
 62
     7
420
 16777215
176
     1
 90
        0
176
     1
 90
        4
176
     1
 62
     7
176
     1
 62
   257
176
     1
 90
        1
176
     1
 90
        1
176
     1
 40
1.0
176
     1
 90
        8
176
     1
 62
   257
176
     1
 40
1.0
176
     1
 90
        1
176
     1
 90
        6
176
     1
 90
        2
176
     1
 62
     8
420
  7895160
176
     1
 90
        3
176
     1
 90
        0
176
     1
 90
        0
176
     1
290
     0
176
     1
 90
        5
176
     1
 40
0.0
176
     1
 90
        0
176
     1
290
     0
176
     1
290
     1
176
     1
290
     1
176
     1
290
     0
176
     1
290
     0
176
     1
290
     0
176
     1
290
     0
176
     1
290
     0
176
     1
290
     0
176
     1
 90
       50
176
     1
 40
0.0
176
     1
 40
1.0
176
     1
 90
        0
176
     1
 62
    18
420
        0
176
     1
 90
       50
176
     1
 90
        3
176
     1
 62
     5
420
      255
176
     1
290
     0
176
     1
 90
       50
176
     1
 90
       50
176
     1
 90
       50
176
     1
290
     0
176
     1
 90
       50
176
     1
 62
   256
176
     0
 40
1.0
176
     0
 90
        2
176
     1
  1
strokes_ogs.tif
176
     1
290
     0
176
     1
 40
1.0
176
     1
 40
1.0
176
     1
  0
VISUALSTYLE
  5
41
102
{ACAD_REACTORS
330
2A
102
}
330
2A
100
AcDbVisualStyle
  2
Shaded with edges
 70
    26
177
     3
291
     0
 70
    58
 90
        2
176
     1
 90
        2
176
     1
 90
        1
176
     1
 90
        2
176
     1
 40
0.6
176
     1
 40
30.0
176
     1
 62
     7
420
 16777215
176
     1
 90
        1
176
     1
 90
       10
176
     1
 62
     7
176
     1
 62
   257
176
     1
 90
        2
176
     1
 90
        1
176
     1
 40
1.0
176
     1
 90
        8
176
     1
 62
   257
176
     1
 40
1.0
176
     1
 90
        1
176
     1
 90
        6
176
     1
 90
        2
176
     1
 62
     7
176
     1
 90
        3
176
     1
 90
        0
176
     1
 90
        0
176
     1
290
     0
176
     1
 90
        5
176
     1
 40
0.0
176
     1
 90
        0
176
     1
290
     0
176
     1
290
     1
176
     1
290
     1
176
     1
290
     0
176
     1
290
     0
176
     1
290
     0
176
     1
290
     0
176
     1
290
     0
176
     1
290
     0
176
     1
 90
       50
176
     1
 40
0.0
176
     1
 40
1.0
176
     1
 90
        0
176
     1
 62
    18
420
        0
176
     1
 90
       50
176
     1
 90
        3
176
     1
 62
     5
420
      255
176
     1
290
     0
176
     1
 90
       50
176
     1
 90
       50
176
     1
 90
       50
176
     1
290
     0
176
     1
 90
       50
176
     1
 62
   256
176
     0
 40
1.0
176
     0
 90
        2
176
     1
  1
strokes_ogs.tif
176
     1
290
     0
176
     1
 40
1.0
176
     1
 40
1.0
176
     1
  0
VISUALSTYLE
  5
3E
102
{ACAD_REACTORS
330
2A
102
}
330
2A
100
AcDbVisualStyle
  2
Shades of Gray
 70
    23
177
     3
291
     0
 70
    58
 90
        2
176
     1
 90
        2
176
     1
 90
        3
176
     1
 90
        0
176
     1
 40
0.6
176
     1
 40
30.0
176
     1
 62
     7
420
 16777215
176
     1
 90
        2
176
     1
 90
        2
176
     1
 62
     7
176
     1
 62
     7
176
     1
 90
        1
176
     1
 90
        1
176
     1
 40
40.0
176
     1
 90
        8
176
     1
 62
     7
176
     1
 40
1.0
176
     1
 90
        1
176
     1
 90
        6
176
     1
 90
        2
176
     1
 62
     7
176
     1
 90
        3
176
     1
 90
        0
176
     1
 90
        0
176
     1
290
     0
176
     1
 90
        1
176
     1
 40
0.0
176
     1
 90
        0
176
     1
290
     0
176
     1
290
     1
176
     1
290
     1
176
     1
290
     0
176
     1
290
     0
176
     1
290
     0
176
     1
290
     0
176
     1
290
     0
176
     1
290
     0
176
     1
 90
       50
176
     1
 40
0.0
176
     1
 40
1.0
176
     1
 90
        0
176
     1
 62
    18
420
        0
176
     1
 90
       50
176
     1
 90
        3
176
     1
 62
     5
420
      255
176
     1
290
     0
176
     1
 90
       50
176
     1
 90
       50
176
     1
 90
       50
176
     1
290
     0
176
     1
 90
       50
176
     1
 62
   256
176
     0
 40
1.0
176
     0
 90
        2
176
     1
  1
strokes_ogs.tif
176
     1
290
     0
176
     1
 40
1.0
176
     1
 40
1.0
176
     1
  0
VISUALSTYLE
  5
3F
102
{ACAD_REACTORS
330
2A
102
}
330
2A
100
AcDbVisualStyle
  2
Sketchy
 70
    24
177
     3
291
     0
 70
    58
 90
        1
176
     1
 90
        2
176
     1
 90
        2
176
     1
 90
        0
176
     1
 40
0.6
176
     1
 40
30.0
176
     1
 62
     7
420
 16777215
176
     1
 90
        2
176
     1
 90
        2
176
     1
 62
     7
176
     1
 62
     7
176
     1
 90
        1
176
     1
 90
        1
176
     1
 40
40.0
176
     1
 90
       11
176
     1
 62
     7
176
     1
 40
1.0
176
     1
 90
        1
176
     1
 90
        6
176
     1
 90
        2
176
     1
 62
     7
176
     1
 90
        6
176
     1
 90
        0
176
     1
 90
        0
176
     1
290
     0
176
     1
 90
        1
176
     1
 40
0.0
176
     1
 90
        0
176
     1
290
     0
176
     1
290
     1
176
     1
290
     1
176
     1
290
     0
176
     1
290
     0
176
     1
290
     0
176
     1
290
     0
176
     1
290
     0
176
     1
290
     0
176
     1
 90
       50
176
     1
 40
0.0
176
     1
 40
1.0
176
     1
 90
        0
176
     1
 62
    18
420
        0
176
     1
 90
       50
176
     1
 90
        3
176
     1
 62
     5
420
      255
176
     1
290
     0
176
     1
 90
       50
176
     1
 90
       50
176
     1
 90
       50
176
     1
290
     0
176
     1
 90
       50
176
     1
 62
   256
176
     0
 40
1.0
176
     0
 90
        2
176
     1
  1
strokes_ogs.tif
176
     1
290
     0
176
     1
 40
1.0
176
     1
 40
1.0
176
     1
  0
VISUALSTYLE
  5
37
102
{ACAD_REACTORS
330
2A
102
}
330
2A
100
AcDbVisualStyle
  2
Thicken
 70
    13
177
     3
291
     1
 70
    58
 90
        2
176
     1
 90
        2
176
     1
 90
        0
176
     1
 90
        0
176
     1
 40
0.6
176
     1
 40
30.0
176
     1
 62
     7
420
 16777215
176
     1
 90
        1
176
     1
 90
        4
176
     1
 62
     7
176
     1
 62
   257
176
     1
 90
        1
176
     1
 90
        1
176
     1
 40
1.0
176
     1
 90
       12
176
     1
 62
     7
176
     1
 40
1.0
176
     1
 90
        1
176
     1
 90
        6
176
     1
 90
        2
176
     1
 62
     7
176
     1
 90
        5
176
     1
 90
        0
176
     1
 90
        0
176
     1
290
     0
176
     1
 90
        1
176
     1
 40
0.0
176
     1
 90
        0
176
     1
290
     0
176
     1
290
     1
176
     1
290
     1
176
     1
290
     0
176
     1
290
     0
176
     1
290
     0
176
     1
290
     0
176
     1
290
     0
176
     1
290
     0
176
     1
 90
       50
176
     1
 40
0.0
176
     1
 40
1.0
176
     1
 90
        0
176
     1
 62
    18
420
        0
176
     1
 90
       50
176
     1
 90
        3
176
     1
 62
     5
420
      255
176
     1
290
     0
176
     1
 90
       50
176
     1
 90
       50
176
     1
 90
       50
176
     1
290
     0
176
     1
 90
       50
176
     1
 62
   256
176
     0
 40
1.0
176
     0
 90
        2
176
     1
  1
strokes_ogs.tif
176
     1
290
     0
176
     1
 40
1.0
176
     1
 40
1.0
176
     1
  0
VISUALSTYLE
  5
30
102
{ACAD_REACTORS
330
2A
102
}
330
2A
100
AcDbVisualStyle
  2
Wireframe
 70
     5
177
     3
291
     0
 70
    58
 90
        0
176
     1
 90
        2
176
     1
 90
        0
176
     1
 90
        0
176
     1
 40
0.6
176
     1
 40
30.0
176
     1
 62
     7
420
 16777215
176
     1
 90
        1
176
     1
 90
        4
176
     1
 62
     7
176
     1
 62
   257
176
     1
 90
        1
176
     1
 90
        1
176
     1
 40
1.0
176
     1
 90
        0
176
     1
 62
   257
176
     1
 40
1.0
176
     1
 90
        1
176
     1
 90
        6
176
     1
 90
        2
176
     1
 62
     7
176
     1
 90
        3
176
     1
 90
        0
176
     1
 90
        0
176
     1
290
     0
176
     1
 90
        1
176
     1
 40
0.0
176
     1
 90
        0
176
     1
290
     0
176
     1
290
     1
176
     1
290
     1
176
     1
290
     0
176
     1
290
     0
176
     1
290
     0
176
     1
290
     0
176
     1
290
     0
176
     1
290
     0
176
     1
 90
       50
176
     1
 40
0.0
176
     1
 40
1.0
176
     1
 90
        0
176
     1
 62
    18
420
        0
176
     1
 90
       50
176
     1
 90
        3
176
     1
 62
     5
420
      255
176
     1
290
     0
176
     1
 90
       50
176
     1
 90
       50
176
     1
 90
       50
176
     1
290
     0
176
     1
 90
       50
176
     1
 62
   256
176
     0
 40
1.0
176
     0
 90
        2
176
     1
  1
strokes_ogs.tif
176
     1
290
     0
176
     1
 40
1.0
176
     1
 40
1.0
176
     1
  0
VISUALSTYLE
  5
40
102
{ACAD_REACTORS
330
2A
102
}
330
2A
100
AcDbVisualStyle
  2
X-Ray
 70
    25
177
     3
291
     0
 70
    58
 90
        2
176
     1
 90
        2
176
     1
 90
        1
176
     1
 90
        1
176
     1
 40
0.5
176
     1
 40
30.0
176
     1
 62
     7
420
 16777215
176
     1
 90
        1
176
     1
 90
        0
176
     1
 62
     7
176
     1
 62
   257
176
     1
 90
        1
176
     1
 90
        1
176
     1
 40
1.0
176
     1
 90
        8
176
     1
 62
     7
176
     1
 40
1.0
176
     1
 90
        1
176
     1
 90
        6
176
     1
 90
        2
176
     1
 62
     7
176
     1
 90
        3
176
     1
 90
        0
176
     1
 90
        0
176
     1
290
     0
176
     1
 90
       13
176
     1
 40
0.0
176
     1
 90
        0
176
     1
290
     0
176
     1
290
     1
176
     1
290
     1
176
     1
290
     0
176
     1
290
     0
176
     1
290
     0
176
     1
290
     0
176
     1
290
     0
176
     1
290
     0
176
     1
 90
       50
176
     1
 40
0.0
176
     1
 40
1.0
176
     1
 90
        0
176
     1
 62
    18
420
        0
176
     1
 90
       50
176
     1
 90
        3
176
     1
 62
     5
420
      255
176
     1
290
     0
176
     1
 90
       50
176
     1
 90
       50
176
     1
 90
       50
176
     1
290
     0
176
     1
 90
       50
176
     1
 62
   256
176
     0
 40
1.0
176
     0
 90
        2
176
     1
  1
strokes_ogs.tif
176
     1
290
     0
176
     1
 40
1.0
176
     1
 40
1.0
176
     1
  0
DICTIONARYVAR
  5
259
102
{ACAD_REACTORS
330
258
102
}
330
258
100
DictionaryVariables
280
     0
  1
1:1
  0
DICTIONARYVAR
  5
25E
102
{ACAD_REACTORS
330
258
102
}
330
258
100
DictionaryVariables
280
     0
  1
Standard
  0
DICTIONARYVAR
  5
25D
102
{ACAD_REACTORS
330
258
102
}
330
258
100
DictionaryVariables
280
     0
  1
Standard
  0
DICTIONARY
  5
25A
330
6A
100
AcDbDictionary
280
     1
281
     1
  3
ACAD_ROUNDTRIP_2008_TABLESTYLE_CELLSTYLEMAP
360
25B
  0
CELLSTYLEMAP
  5
25B
102
{ACAD_REACTORS
330
25A
102
}
330
25A
100
AcDbCellStyleMap
 90
        3
300
CELLSTYLE
  1
TABLEFORMAT_BEGIN
 90
        5
170
     1
 91
        0
 92
    32768
 62
   257
 93
        1
300
CONTENTFORMAT
  1
CONTENTFORMAT_BEGIN
 90
        0
 91
        0
 92
        4
 93
        0
300

 40
0.0
140
1.0
 94
        5
 62
     0
340
11
144
0.25
309
CONTENTFORMAT_END
171
     1
301
MARGIN
  1
CELLMARGIN_BEGIN
 40
0.06
 40
0.06
 40
0.06
 40
0.06
 40
0.06
 40
0.06
309
CELLMARGIN_END
 94
        6
 95
        1
302
GRIDFORMAT
  1
GRIDFORMAT_BEGIN
 90
        0
 91
        1
 62
     0
 92
       -2
340
14
 93
        0
 40
0.045
309
GRIDFORMAT_END
 95
        2
302
GRIDFORMAT
  1
GRIDFORMAT_BEGIN
 90
        0
 91
        1
 62
     0
 92
       -2
340
14
 93
        0
 40
0.045
309
GRIDFORMAT_END
 95
        4
302
GRIDFORMAT
  1
GRIDFORMAT_BEGIN
 90
        0
 91
        1
 62
     0
 92
       -2
340
14
 93
        0
 40
0.045
309
GRIDFORMAT_END
 95
        8
302
GRIDFORMAT
  1
GRIDFORMAT_BEGIN
 90
        0
 91
        1
 62
     0
 92
       -2
340
14
 93
        0
 40
0.045
309
GRIDFORMAT_END
 95
       16
302
GRIDFORMAT
  1
GRIDFORMAT_BEGIN
 90
        0
 91
        1
 62
     0
 92
       -2
340
14
 93
        0
 40
0.045
309
GRIDFORMAT_END
 95
       32
302
GRIDFORMAT
  1
GRIDFORMAT_BEGIN
 90
        0
 91
        1
 62
     0
 92
       -2
340
14
 93
        0
 40
0.045
309
GRIDFORMAT_END
309
TABLEFORMAT_END
  1
CELLSTYLE_BEGIN
 90
        1
 91
        1
300
_TITLE
309
CELLSTYLE_END
300
CELLSTYLE
  1
TABLEFORMAT_BEGIN
 90
        5
170
     1
 91
        0
 92
        0
 62
   257
 93
        1
300
CONTENTFORMAT
  1
CONTENTFORMAT_BEGIN
 90
        0
 91
        0
 92
        4
 93
        0
300

 40
0.0
140
1.0
 94
        5
 62
     0
340
11
144
0.18
309
CONTENTFORMAT_END
171
     1
301
MARGIN
  1
CELLMARGIN_BEGIN
 40
0.06
 40
0.06
 40
0.06
 40
0.06
 40
0.06
 40
0.06
309
CELLMARGIN_END
 94
        6
 95
        1
302
GRIDFORMAT
  1
GRIDFORMAT_BEGIN
 90
        0
 91
        1
 62
     0
 92
       -2
340
14
 93
        0
 40
0.045
309
GRIDFORMAT_END
 95
        2
302
GRIDFORMAT
  1
GRIDFORMAT_BEGIN
 90
        0
 91
        1
 62
     0
 92
       -2
340
14
 93
        0
 40
0.045
309
GRIDFORMAT_END
 95
        4
302
GRIDFORMAT
  1
GRIDFORMAT_BEGIN
 90
        0
 91
        1
 62
     0
 92
       -2
340
14
 93
        0
 40
0.045
309
GRIDFORMAT_END
 95
        8
302
GRIDFORMAT
  1
GRIDFORMAT_BEGIN
 90
        0
 91
        1
 62
     0
 92
       -2
340
14
 93
        0
 40
0.045
309
GRIDFORMAT_END
 95
       16
302
GRIDFORMAT
  1
GRIDFORMAT_BEGIN
 90
        0
 91
        1
 62
     0
 92
       -2
340
14
 93
        0
 40
0.045
309
GRIDFORMAT_END
 95
       32
302
GRIDFORMAT
  1
GRIDFORMAT_BEGIN
 90
        0
 91
        1
 62
     0
 92
       -2
340
14
 93
        0
 40
0.045
309
GRIDFORMAT_END
309
TABLEFORMAT_END
  1
CELLSTYLE_BEGIN
 90
        2
 91
        1
300
_HEADER
309
CELLSTYLE_END
300
CELLSTYLE
  1
TABLEFORMAT_BEGIN
 90
        5
170
     1
 91
        0
 92
        0
 62
   257
 93
        1
300
CONTENTFORMAT
  1
CONTENTFORMAT_BEGIN
 90
        0
 91
        0
 92
        4
 93
        0
300

 40
0.0
140
1.0
 94
        2
 62
     0
340
11
144
0.18
309
CONTENTFORMAT_END
171
     1
301
MARGIN
  1
CELLMARGIN_BEGIN
 40
0.06
 40
0.06
 40
0.06
 40
0.06
 40
0.06
 40
0.06
309
CELLMARGIN_END
 94
        6
 95
        1
302
GRIDFORMAT
  1
GRIDFORMAT_BEGIN
 90
        0
 91
        1
 62
     0
 92
       -2
340
14
 93
        0
 40
0.045
309
GRIDFORMAT_END
 95
        2
302
GRIDFORMAT
  1
GRIDFORMAT_BEGIN
 90
        0
 91
        1
 62
     0
 92
       -2
340
14
 93
        0
 40
0.045
309
GRIDFORMAT_END
 95
        4
302
GRIDFORMAT
  1
GRIDFORMAT_BEGIN
 90
        0
 91
        1
 62
     0
 92
       -2
340
14
 93
        0
 40
0.045
309
GRIDFORMAT_END
 95
        8
302
GRIDFORMAT
  1
GRIDFORMAT_BEGIN
 90
        0
 91
        1
 62
     0
 92
       -2
340
14
 93
        0
 40
0.045
309
GRIDFORMAT_END
 95
       16
302
GRIDFORMAT
  1
GRIDFORMAT_BEGIN
 90
        0
 91
        1
 62
     0
 92
       -2
340
14
 93
        0
 40
0.045
309
GRIDFORMAT_END
 95
       32
302
GRIDFORMAT
  1
GRIDFORMAT_BEGIN
 90
        0
 91
        1
 62
     0
 92
       -2
340
14
 93
        0
 40
0.045
309
GRIDFORMAT_END
309
TABLEFORMAT_END
  1
CELLSTYLE_BEGIN
 90
        3
 91
        2
300
_DATA
309
CELLSTYLE_END
  0
ENDSEC
  0
EOF