0
SECTION
  2
HEADER
  9
$ACADVER
  1
AC1027
  9
$ACADMAINTVER
 70
     8
  9
$DWGCODEPAGE
  3
ANSI_1252
  9
$REQUIREDVERSIONS
160
                 0
  9
$COMMENTS
  1
File was created by Cadenas
  9
$CUSTOMPROPERTYTAG
  1
NN
  9
$CUSTOMPROPERTY
  1
Imperial - IP Piloted Flange Contact Seal
  9
$CUSTOMPROPERTYTAG
  1
NT
  9
$CUSTOMPROPERTY
  1
Imperial Piloted Flange Bearings
  9
$CUSTOMPROPERTYTAG
  1
NB
  9
$CUSTOMPROPERTY
  1
069858
  9
$CUSTOMPROPERTYTAG
  1
NBSYN
  9
$CUSTOMPROPERTY
  1
$PN.
  9
$CUSTOMPROPERTYTAG
  1
LINA
  9
$CUSTOMPROPERTY
  1
069858
  9
$CUSTOMPROPERTYTAG
  1
SS
  9
$CUSTOMPROPERTY
  1
3-3/16
  9
$CUSTOMPROPERTYTAG
  1
PN
  9
$CUSTOMPROPERTY
  1
069858
  9
$CUSTOMPROPERTYTAG
  1
DESCRIPTION
  9
$CUSTOMPROPERTY
  1
FC-IP-303RE
  9
$CUSTOMPROPERTYTAG
  1
EF
  9
$CUSTOMPROPERTY
  1
Expansion Type
  9
$CUSTOMPROPERTYTAG
  1
ST
  9
$CUSTOMPROPERTY
  1
Contact  Seal
  9
$CUSTOMPROPERTYTAG
  1
A
  9
$CUSTOMPROPERTY
  1
4-11/64
  9
$CUSTOMPROPERTYTAG
  1
B
  9
$CUSTOMPROPERTY
  1
10-1/4
  9
$CUSTOMPROPERTYTAG
  1
C
  9
$CUSTOMPROPERTY
  1
3
  9
$CUSTOMPROPERTYTAG
  1
D
  9
$CUSTOMPROPERTY
  1
6-3/32
  9
$CUSTOMPROPERTYTAG
  1
DD
  9
$CUSTOMPROPERTY
  1
8-5/8
  9
$CUSTOMPROPERTYTAG
  1
E
  9
$CUSTOMPROPERTY
  1
1-17/64
  9
$CUSTOMPROPERTYTAG
  1
F
  9
$CUSTOMPROPERTY
  1
3/4
  9
$CUSTOMPROPERTYTAG
  1
G
  9
$CUSTOMPROPERTY
  1
2-17/32
  9
$CUSTOMPROPERTYTAG
  1
H
  9
$CUSTOMPROPERTY
  1
15/16
  9
$CUSTOMPROPERTYTAG
  1
K
  9
$CUSTOMPROPERTY
  1
7.375
  9
$CUSTOMPROPERTYTAG
  1
L
  9
$CUSTOMPROPERTY
  1
5
  9
$CUSTOMPROPERTYTAG
  1
M
  9
$CUSTOMPROPERTY
  1
3/4-10
  9
$CUSTOMPROPERTYTAG
  1
N
  9
$CUSTOMPROPERTY
  1
4-1/16
  9
$CUSTOMPROPERTYTAG
  1
P
  9
$CUSTOMPROPERTY
  1
1-41/64
  9
$CUSTOMPROPERTYTAG
  1
Q
  9
$CUSTOMPROPERTY
  1
1-33/64
  9
$CUSTOMPROPERTYTAG
  1
X
  9
$CUSTOMPROPERTY
  1
1/4
  9
$CUSTOMPROPERTYTAG
  1
Y
  9
$CUSTOMPROPERTY
  1
0.025
  9
$CUSTOMPROPERTYTAG
  1
Z
  9
$CUSTOMPROPERTY
  1
4-3/64
  9
$CUSTOMPROPERTYTAG
  1
COMPANY
  9
$CUSTOMPROPERTY
  1
baldor
  9
$INSBASE
 10
0.0
 20
0.0
 30
0.0
  9
$EXTMIN
 10
1.000000000000000E+20
 20
1.000000000000000E+20
 30
1.000000000000000E+20
  9
$EXTMAX
 10
-1.000000000000000E+20
 20
-1.000000000000000E+20
 30
-1.000000000000000E+20
  9
$LIMMIN
 10
0.0
 20
0.0
  9
$LIMMAX
 10
12.0
 20
9.0
  9
$ORTHOMODE
 70
     0
  9
$REGENMODE
 70
     1
  9
$FILLMODE
 70
     1
  9
$QTEXTMODE
 70
     0
  9
$MIRRTEXT
 70
     1
  9
$LTSCALE
 40
1.0
  9
$ATTMODE
 70
     1
  9
$TEXTSIZE
 40
0.2
  9
$TRACEWID
 40
0.05
  9
$TEXTSTYLE
  7
Standard
  9
$CLAYER
  8
0
  9
$CELTYPE
  6
ByLayer
  9
$CECOLOR
 62
   256
  9
$CELTSCALE
 40
1.0
  9
$DISPSILH
 70
     0
  9
$DIMSCALE
 40
1.0
  9
$DIMASZ
 40
0.18
  9
$DIMEXO
 40
0.0625
  9
$DIMDLI
 40
0.38
  9
$DIMRND
 40
0.0
  9
$DIMDLE
 40
0.0
  9
$DIMEXE
 40
0.18
  9
$DIMTP
 40
0.0
  9
$DIMTM
 40
0.0
  9
$DIMTXT
 40
0.18
  9
$DIMCEN
 40
0.09
  9
$DIMTSZ
 40
0.0
  9
$DIMTOL
 70
     0
  9
$DIMLIM
 70
     0
  9
$DIMTIH
 70
     1
  9
$DIMTOH
 70
     1
  9
$DIMSE1
 70
     0
  9
$DIMSE2
 70
     0
  9
$DIMTAD
 70
     0
  9
$DIMZIN
 70
     0
  9
$DIMBLK
  1

  9
$DIMASO
 70
     1
  9
$DIMSHO
 70
     1
  9
$DIMPOST
  1

  9
$DIMAPOST
  1

  9
$DIMALT
 70
     0
  9
$DIMALTD
 70
     2
  9
$DIMALTF
 40
25.4
  9
$DIMLFAC
 40
1.0
  9
$DIMTOFL
 70
     0
  9
$DIMTVP
 40
0.0
  9
$DIMTIX
 70
     0
  9
$DIMSOXD
 70
     0
  9
$DIMSAH
 70
     0
  9
$DIMBLK1
  1

  9
$DIMBLK2
  1

  9
$DIMSTYLE
  2
Standard
  9
$DIMCLRD
 70
     0
  9
$DIMCLRE
 70
     0
  9
$DIMCLRT
 70
     0
  9
$DIMTFAC
 40
1.0
  9
$DIMGAP
 40
0.09
  9
$DIMJUST
 70
     0
  9
$DIMSD1
 70
     0
  9
$DIMSD2
 70
     0
  9
$DIMTOLJ
 70
     1
  9
$DIMTZIN
 70
     0
  9
$DIMALTZ
 70
     0
  9
$DIMALTTZ
 70
     0
  9
$DIMUPT
 70
     0
  9
$DIMDEC
 70
     4
  9
$DIMTDEC
 70
     4
  9
$DIMALTU
 70
     2
  9
$DIMALTTD
 70
     2
  9
$DIMTXSTY
  7
Standard
  9
$DIMAUNIT
 70
     0
  9
$DIMADEC
 70
     0
  9
$DIMALTRND
 40
0.0
  9
$DIMAZIN
 70
     0
  9
$DIMDSEP
 70
    46
  9
$DIMATFIT
 70
     3
  9
$DIMFRAC
 70
     0
  9
$DIMLDRBLK
  1

  9
$DIMLUNIT
 70
     2
  9
$DIMLWD
 70
    -2
  9
$DIMLWE
 70
    -2
  9
$DIMTMOVE
 70
     0
  9
$DIMFXL
 40
1.0
  9
$DIMFXLON
 70
     0
  9
$DIMJOGANG
 40
0.7853981633974483
  9
$DIMTFILL
 70
     0
  9
$DIMTFILLCLR
 70
     0
  9
$DIMARCSYM
 70
     0
  9
$DIMLTYPE
  6

  9
$DIMLTEX1
  6

  9
$DIMLTEX2
  6

  9
$DIMTXTDIRECTION
 70
     0
  9
$LUNITS
 70
     2
  9
$LUPREC
 70
     4
  9
$SKETCHINC
 40
0.1
  9
$FILLETRAD
 40
0.5
  9
$AUNITS
 70
     0
  9
$AUPREC
 70
     0
  9
$MENU
  1
.
  9
$ELEVATION
 40
0.0
  9
$PELEVATION
 40
0.0
  9
$THICKNESS
 40
0.0
  9
$LIMCHECK
 70
     0
  9
$CHAMFERA
 40
0.0
  9
$CHAMFERB
 40
0.0
  9
$CHAMFERC
 40
0.0
  9
$CHAMFERD
 40
0.0
  9
$SKPOLY
 70
     0
  9
$TDCREATE
 40
2458168.99006309
  9
$TDUCREATE
 40
2458168.948396424
  9
$TDUPDATE
 40
2458168.990063264
  9
$TDUUPDATE
 40
2458168.948396597
  9
$TDINDWG
 40
0.0000000116
  9
$TDUSRTIMER
 40
0.0000000116
  9
$USRTIMER
 70
     1
  9
$ANGBASE
 50
0.0
  9
$ANGDIR
 70
     0
  9
$PDMODE
 70
     0
  9
$PDSIZE
 40
0.0
  9
$PLINEWID
 40
0.0
  9
$SPLFRAME
 70
     0
  9
$SPLINETYPE
 70
     6
  9
$SPLINESEGS
 70
     8
  9
$HANDSEED
  5
278
  9
$SURFTAB1
 70
     6
  9
$SURFTAB2
 70
     6
  9
$SURFTYPE
 70
     6
  9
$SURFU
 70
     6
  9
$SURFV
 70
     6
  9
$UCSBASE
  2

  9
$UCSNAME
  2

  9
$UCSORG
 10
0.0
 20
0.0
 30
0.0
  9
$UCSXDIR
 10
1.0
 20
0.0
 30
0.0
  9
$UCSYDIR
 10
0.0
 20
1.0
 30
0.0
  9
$UCSORTHOREF
  2

  9
$UCSORTHOVIEW
 70
     0
  9
$UCSORGTOP
 10
0.0
 20
0.0
 30
0.0
  9
$UCSORGBOTTOM
 10
0.0
 20
0.0
 30
0.0
  9
$UCSORGLEFT
 10
0.0
 20
0.0
 30
0.0
  9
$UCSORGRIGHT
 10
0.0
 20
0.0
 30
0.0
  9
$UCSORGFRONT
 10
0.0
 20
0.0
 30
0.0
  9
$UCSORGBACK
 10
0.0
 20
0.0
 30
0.0
  9
$PUCSBASE
  2

  9
$PUCSNAME
  2

  9
$PUCSORG
 10
0.0
 20
0.0
 30
0.0
  9
$PUCSXDIR
 10
1.0
 20
0.0
 30
0.0
  9
$PUCSYDIR
 10
0.0
 20
1.0
 30
0.0
  9
$PUCSORTHOREF
  2

  9
$PUCSORTHOVIEW
 70
     0
  9
$PUCSORGTOP
 10
0.0
 20
0.0
 30
0.0
  9
$PUCSORGBOTTOM
 10
0.0
 20
0.0
 30
0.0
  9
$PUCSORGLEFT
 10
0.0
 20
0.0
 30
0.0
  9
$PUCSORGRIGHT
 10
0.0
 20
0.0
 30
0.0
  9
$PUCSORGFRONT
 10
0.0
 20
0.0
 30
0.0
  9
$PUCSORGBACK
 10
0.0
 20
0.0
 30
0.0
  9
$USERI1
 70
     0
  9
$USERI2
 70
     0
  9
$USERI3
 70
     0
  9
$USERI4
 70
     0
  9
$USERI5
 70
     0
  9
$USERR1
 40
0.0
  9
$USERR2
 40
0.0
  9
$USERR3
 40
0.0
  9
$USERR4
 40
0.0
  9
$USERR5
 40
0.0
  9
$WORLDVIEW
 70
     1
  9
$SHADEDGE
 70
     3
  9
$SHADEDIF
 70
    70
  9
$TILEMODE
 70
     1
  9
$MAXACTVP
 70
    64
  9
$PINSBASE
 10
0.0
 20
0.0
 30
0.0
  9
$PLIMCHECK
 70
     0
  9
$PEXTMIN
 10
1.000000000000000E+20
 20
1.000000000000000E+20
 30
1.000000000000000E+20
  9
$PEXTMAX
 10
-1.000000000000000E+20
 20
-1.000000000000000E+20
 30
-1.000000000000000E+20
  9
$PLIMMIN
 10
0.0
 20
0.0
  9
$PLIMMAX
 10
12.0
 20
9.0
  9
$UNITMODE
 70
     0
  9
$VISRETAIN
 70
     1
  9
$PLINEGEN
 70
     0
  9
$PSLTSCALE
 70
     1
  9
$TREEDEPTH
 70
  3020
  9
$CMLSTYLE
  2
Standard
  9
$CMLJUST
 70
     0
  9
$CMLSCALE
 40
1.0
  9
$PROXYGRAPHICS
 70
     1
  9
$MEASUREMENT
 70
     0
  9
$CELWEIGHT
370
    -1
  9
$ENDCAPS
280
     0
  9
$JOINSTYLE
280
     0
  9
$LWDISPLAY
290
     0
  9
$INSUNITS
 70
     1
  9
$HYPERLINKBASE
  1

  9
$STYLESHEET
  1

  9
$XEDIT
290
     1
  9
$CEPSNTYPE
380
     0
  9
$PSTYLEMODE
290
     1
  9
$FINGERPRINTGUID
  2
{E95DEC40-EB53-4BE2-BCA2-1FEBBA2E2273}
  9
$VERSIONGUID
  2
{FAEB1C32-E019-11D5-929B-00C0DF256EC4}
  9
$EXTNAMES
290
     1
  9
$PSVPSCALE
 40
0.0
  9
$OLESTARTUP
290
     0
  9
$SORTENTS
280
   127
  9
$INDEXCTL
280
     0
  9
$HIDETEXT
280
     1
  9
$XCLIPFRAME
280
     2
  9
$HALOGAP
280
     0
  9
$OBSCOLOR
 70
   257
  9
$OBSLTYPE
280
     0
  9
$INTERSECTIONDISPLAY
280
     0
  9
$INTERSECTIONCOLOR
 70
   257
  9
$DIMASSOC
280
     2
  9
$PROJECTNAME
  1

  9
$CAMERADISPLAY
290
     0
  9
$LENSLENGTH
 40
50.0
  9
$CAMERAHEIGHT
 40
0.0
  9
$STEPSPERSEC
 40
2.0
  9
$STEPSIZE
 40
6.0
  9
$3DDWFPREC
 40
2.0
  9
$PSOLWIDTH
 40
0.25
  9
$PSOLHEIGHT
 40
4.0
  9
$LOFTANG1
 40
1.570796326794897
  9
$LOFTANG2
 40
1.570796326794897
  9
$LOFTMAG1
 40
0.0
  9
$LOFTMAG2
 40
0.0
  9
$LOFTPARAM
 70
     7
  9
$LOFTNORMALS
280
     1
  9
$LATITUDE
 40
37.795
  9
$LONGITUDE
 40
-122.394
  9
$NORTHDIRECTION
 40
0.0
  9
$TIMEZONE
 70
 -8000
  9
$LIGHTGLYPHDISPLAY
280
     1
  9
$TILEMODELIGHTSYNCH
280
     1
  9
$CMATERIAL
347
44
  9
$SOLIDHIST
280
     0
  9
$SHOWHIST
280
     1
  9
$DWFFRAME
280
     2
  9
$DGNFRAME
280
     2
  9
$REALWORLDSCALE
290
     1
  9
$INTERFERECOLOR
 62
   256
  9
$CSHADOW
280
     0
  9
$SHADOWPLANELOCATION
 40
0.0
  0
ENDSEC
  0
SECTION
  2
CLASSES
  0
CLASS
  1
ACDBDICTIONARYWDFLT
  2
AcDbDictionaryWithDefault
  3
ObjectDBX Classes
 90
        0
 91
        4
280
     0
281
     0
  0
CLASS
  1
VISUALSTYLE
  2
AcDbVisualStyle
  3
ObjectDBX Classes
 90
     4095
 91
        4
280
     0
281
     0
  0
CLASS
  1
MATERIAL
  2
AcDbMaterial
  3
ObjectDBX Classes
 90
     1153
 91
        4
280
     0
281
     0
  0
CLASS
  1
SCALE
  2
AcDbScale
  3
ObjectDBX Classes
 90
     1153
 91
        4
280
     0
281
     0
  0
CLASS
  1
TABLESTYLE
  2
AcDbTableStyle
  3
ObjectDBX Classes
 90
     4095
 91
        4
280
     0
281
     0
  0
CLASS
  1
MLEADERSTYLE
  2
AcDbMLeaderStyle
  3
ACDB_MLEADERSTYLE_CLASS
 90
     4095
 91
        4
280
     0
281
     0
  0
CLASS
  1
SUN
  2
AcDbSun
  3
SCENEOE
 90
     1153
 91
        4
280
     0
281
     0
  0
CLASS
  1
DICTIONARYVAR
  2
AcDbDictionaryVar
  3
ObjectDBX Classes
 90
        0
 91
        4
280
     0
281
     0
  0
CLASS
  1
CELLSTYLEMAP
  2
AcDbCellStyleMap
  3
ObjectDBX Classes
 90
     1152
 91
        4
280
     0
281
     0
  0
ENDSEC
  0
SECTION
  2
TABLES
  0
TABLE
  2
VPORT
  5
8
330
0
100
AcDbSymbolTable
 70
     1
  0
VPORT
  5
29
330
8
100
AcDbSymbolTableRecord
100
AcDbViewportTableRecord
  2
*Active
 70
     0
 10
0.0
 20
0.0
 11
1.0
 21
1.0
 12
0.0
 22
-0.2185156250000002
 13
0.0
 23
0.0
 14
0.5
 24
0.5
 15
0.5
 25
0.5
 16
0.0
 26
0.0
 36
1.0
 17
0.0
 27
0.0
 37
0.0
 40
4.749853125
 41
2.20112069254773
 42
50.0
 43
0.0
 44
0.0
 50
0.0
 51
0.0
 71
     0
 72
   100
 73
     1
 74
     3
 75
     0
 76
     0
 77
     0
 78
     0
281
     0
 65
     1
110
0.0
120
0.0
130
0.0
111
1.0
121
0.0
131
0.0
112
0.0
122
1.0
132
0.0
 79
     0
146
0.0
348
2F
 60
     3
 61
     5
292
     1
282
     1
141
0.0
142
0.0
 63
   250
361
6D
  0
ENDTAB
  0
TABLE
  2
LTYPE
  5
5
330
0
100
AcDbSymbolTable
 70
     3
  0
LTYPE
  5
14
330
5
100
AcDbSymbolTableRecord
100
AcDbLinetypeTableRecord
  2
ByBlock
 70
     0
  3

 72
    65
 73
     0
 40
0.0
  0
LTYPE
  5
15
330
5
100
AcDbSymbolTableRecord
100
AcDbLinetypeTableRecord
  2
ByLayer
 70
     0
  3

 72
    65
 73
     0
 40
0.0
  0
LTYPE
  5
16
330
5
100
AcDbSymbolTableRecord
100
AcDbLinetypeTableRecord
  2
Continuous
 70
     0
  3
Solid line
 72
    65
 73
     0
 40
0.0
  0
LTYPE
  5
9C
330
5
100
AcDbSymbolTableRecord
100
AcDbLinetypeTableRecord
  2
Dashed
 70
     0
  3

 72
    65
 73
     2
 40
2.0
 49
1.0
 74
     0
 49
-1.0
 74
     0
  0
LTYPE
  5
1AF
330
5
100
AcDbSymbolTableRecord
100
AcDbLinetypeTableRecord
  2
Center
 70
     0
  3

 72
    65
 73
     4
 40
1.5
 49
0.45
 74
     0
 49
-0.5
 74
     0
 49
0.05
 74
     0
 49
-0.5
 74
     0
  0
ENDTAB
  0
TABLE
  2
LAYER
  5
2
330
0
100
AcDbSymbolTable
 70
     7
  0
LAYER
  5
10
330
2
100
AcDbSymbolTableRecord
100
AcDbLayerTableRecord
  2
0
 70
     0
 62
     7
  6
Continuous
370
    -3
390
F
347
46
348
0
  0
LAYER
  5
72
330
2
100
AcDbSymbolTableRecord
100
AcDbLayerTableRecord
  2
AM_6
 70
     0
 62
    -2
  6
Continuous
370
    35
390
F
347
46
348
0
  0
LAYER
  5
9D
330
2
100
AcDbSymbolTableRecord
100
AcDbLayerTableRecord
  2
AM_9
 70
     0
 62
     6
  6
Dashed
370
    25
390
F
347
46
348
0
  0
LAYER
  5
BF
330
2
100
AcDbSymbolTableRecord
100
AcDbLayerTableRecord
  2
AM_4
 70
     0
 62
     7
  6
Continuous
370
    50
390
F
347
46
348
0
  0
LAYER
  5
F8
330
2
100
AcDbSymbolTableRecord
100
AcDbLayerTableRecord
  2
AM_5
 70
     0
 62
     3
  6
Continuous
370
    25
390
F
347
46
348
0
  0
LAYER
  5
1B0
330
2
100
AcDbSymbolTableRecord
100
AcDbLayerTableRecord
  2
AM_7
 70
     0
 62
     7
  6
Center
370
    25
390
F
347
46
348
0
  0
LAYER
  5
260
330
2
100
AcDbSymbolTableRecord
100
AcDbLayerTableRecord
  2
ConnectionPoints
 70
     0
 62
     7
  6
Continuous
370
    50
390
F
347
46
348
0
  0
ENDTAB
  0
TABLE
  2
STYLE
  5
3
330
0
100
AcDbSymbolTable
 70
     1
  0
STYLE
  5
11
330
3
100
AcDbSymbolTableRecord
100
AcDbTextStyleTableRecord
  2
Standard
 70
     0
 40
0.0
 41
1.0
 50
0.0
 71
     0
 42
0.2
  3
txt
  4

  0
ENDTAB
  0
TABLE
  2
VIEW
  5
6
330
0
100
AcDbSymbolTable
 70
     0
  0
ENDTAB
  0
TABLE
  2
UCS
  5
7
330
0
100
AcDbSymbolTable
 70
     0
  0
ENDTAB
  0
TABLE
  2
APPID
  5
9
330
0
100
AcDbSymbolTable
 70
     1
  0
APPID
  5
12
330
9
100
AcDbSymbolTableRecord
100
AcDbRegAppTableRecord
  2
ACAD
 70
     0
  0
ENDTAB
  0
TABLE
  2
DIMSTYLE
  5
A
330
0
100
AcDbSymbolTable
 70
     1
100
AcDbDimStyleTable
  0
DIMSTYLE
105
27
330
A
100
AcDbSymbolTableRecord
100
AcDbDimStyleTableRecord
  2
Standard
 70
     0
178
     0
340
11
  0
ENDTAB
  0
TABLE
  2
BLOCK_RECORD
  5
1
330
0
100
AcDbSymbolTable
 70
     8
  0
BLOCK_RECORD
  5
1F
330
1
100
AcDbSymbolTableRecord
100
AcDbBlockTableRecord
  2
*Model_Space
340
22
 70
     0
280
     1
281
     0
  0
BLOCK_RECORD
  5
1B
330
1
100
AcDbSymbolTableRecord
100
AcDbBlockTableRecord
  2
*Paper_Space
340
1E
 70
     0
280
     1
281
     0
  0
BLOCK_RECORD
  5
23
330
1
100
AcDbSymbolTableRecord
100
AcDbBlockTableRecord
  2
*Paper_Space0
340
26
 70
     0
280
     1
281
     0
  0
BLOCK_RECORD
  5
6E
330
1
100
AcDbSymbolTableRecord
100
AcDbBlockTableRecord
  2
1_069858_4
340
0
102
{BLKREFS
331
6F
102
}
 70
     0
280
     1
281
     0
  0
BLOCK_RECORD
  5
90
330
1
100
AcDbSymbolTableRecord
100
AcDbBlockTableRecord
  2
2_405015E_Inch_0_in_069858_4
340
0
102
{BLKREFS
331
91
102
}
 70
     0
280
     1
281
     0
  0
BLOCK_RECORD
  5
E8
330
1
100
AcDbSymbolTableRecord
100
AcDbBlockTableRecord
  2
3_ASME_B18_3_1_4_1_0_in_069858_4
340
0
102
{BLKREFS
331
E9
102
}
 70
     0
280
     1
281
     0
  0
BLOCK_RECORD
  5
FB
330
1
100
AcDbSymbolTableRecord
100
AcDbBlockTableRecord
  2
4_ASME_B18_3_1_4_2_0_in_069858_4
340
0
102
{BLKREFS
331
FC
102
}
 70
     0
280
     1
281
     0
  0
BLOCK_RECORD
  5
11D
330
1
100
AcDbSymbolTableRecord
100
AcDbBlockTableRecord
  2
5_070901LW_0_in_069858_4
340
0
102
{BLKREFS
331
11E
102
}
 70
     0
280
     1
281
     0
  0
BLOCK_RECORD
  5
153
330
1
100
AcDbSymbolTableRecord
100
AcDbBlockTableRecord
  2
6_070901I_0_in_069858_4
340
0
102
{BLKREFS
331
154
102
}
 70
     0
280
     1
281
     0
  0
BLOCK_RECORD
  5
1D4
330
1
100
AcDbSymbolTableRecord
100
AcDbBlockTableRecord
  2
7_069858H_0_in_069858_4
340
0
102
{BLKREFS
331
1D5
102
}
 70
     0
280
     1
281
     0
  0
ENDTAB
  0
ENDSEC
  0
SECTION
  2
BLOCKS
  0
BLOCK
  5
20
330
1F
100
AcDbEntity
  8
0
100
AcDbBlockBegin
  2
*Model_Space
 70
     0
 10
0.0
 20
0.0
 30
0.0
  3
*Model_Space
  1

  0
ENDBLK
  5
21
330
1F
100
AcDbEntity
  8
0
100
AcDbBlockEnd
  0
BLOCK
  5
1C
330
1B
100
AcDbEntity
 67
     1
  8
0
100
AcDbBlockBegin
  2
*Paper_Space
 70
     0
 10
0.0
 20
0.0
 30
0.0
  3
*Paper_Space
  1

  0
ENDBLK
  5
1D
330
1B
100
AcDbEntity
 67
     1
  8
0
100
AcDbBlockEnd
  0
BLOCK
  5
24
330
23
100
AcDbEntity
  8
0
100
AcDbBlockBegin
  2
*Paper_Space0
 70
     0
 10
0.0
 20
0.0
 30
0.0
  3
*Paper_Space0
  1

  0
ENDBLK
  5
25
330
23
100
AcDbEntity
  8
0
100
AcDbBlockEnd
  0
BLOCK
  5
70
330
6E
100
AcDbEntity
  8
0
100
AcDbBlockBegin
  2
1_069858_4
 70
     2
 10
0.0
 20
0.0
 30
0.0
  3
1_069858_4
  1

  0
ATTDEF
  5
73
330
6E
100
AcDbEntity
  8
AM_6
100
AcDbText
 10
10.125
 20
2.10984375
 30
0.0
 40
0.5
  1
Imperial - IP Piloted Flange Contact Seal
100
AcDbAttributeDefinition
  3

  2
NN
 70
     8
280
     0
  0
ATTDEF
  5
74
330
6E
100
AcDbEntity
  8
AM_6
100
AcDbText
 10
10.125
 20
1.60984375
 30
0.0
 40
0.5
  1
Imperial Piloted Flange Bearings
100
AcDbAttributeDefinition
  3

  2
NT
 70
     8
280
     0
  0
ATTDEF
  5
75
330
6E
100
AcDbEntity
  8
AM_6
100
AcDbText
 10
10.125
 20
1.10984375
 30
0.0
 40
0.5
  1
069858
100
AcDbAttributeDefinition
  3

  2
NB
 70
     8
280
     0
  0
ATTDEF
  5
76
330
6E
100
AcDbEntity
  8
AM_6
100
AcDbText
 10
10.125
 20
0.6098437499999996
 30
0.0
 40
0.5
  1
$PN.
100
AcDbAttributeDefinition
  3

  2
NBSYN
 70
     8
280
     0
  0
ATTDEF
  5
77
330
6E
100
AcDbEntity
  8
AM_6
100
AcDbText
 10
10.125
 20
0.1098437499999996
 30
0.0
 40
0.5
  1
069858
100
AcDbAttributeDefinition
  3

  2
LINA
 70
     8
280
     0
  0
ATTDEF
  5
78
330
6E
100
AcDbEntity
  8
AM_6
100
AcDbText
 10
10.125
 20
-0.3901562500000004
 30
0.0
 40
0.5
  1
3-3/16
100
AcDbAttributeDefinition
  3

  2
SS
 70
     8
280
     0
  0
ATTDEF
  5
79
330
6E
100
AcDbEntity
  8
AM_6
100
AcDbText
 10
10.125
 20
-0.8901562500000004
 30
0.0
 40
0.5
  1
069858
100
AcDbAttributeDefinition
  3

  2
PN
 70
     8
280
     0
  0
ATTDEF
  5
7A
330
6E
100
AcDbEntity
  8
AM_6
100
AcDbText
 10
10.125
 20
-1.39015625
 30
0.0
 40
0.5
  1
FC-IP-303RE
100
AcDbAttributeDefinition
  3

  2
DESCRIPTION
 70
     8
280
     0
  0
ATTDEF
  5
7B
330
6E
100
AcDbEntity
  8
AM_6
100
AcDbText
 10
10.125
 20
-1.89015625
 30
0.0
 40
0.5
  1
Expansion Type
100
AcDbAttributeDefinition
  3

  2
EF
 70
     8
280
     0
  0
ATTDEF
  5
7C
330
6E
100
AcDbEntity
  8
AM_6
100
AcDbText
 10
10.125
 20
-2.39015625
 30
0.0
 40
0.5
  1
Contact  Seal
100
AcDbAttributeDefinition
  3

  2
ST
 70
     8
280
     0
  0
ATTDEF
  5
7D
330
6E
100
AcDbEntity
  8
AM_6
100
AcDbText
 10
10.125
 20
-2.89015625
 30
0.0
 40
0.5
  1
4-11/64
100
AcDbAttributeDefinition
  3

  2
A
 70
     8
280
     0
  0
ATTDEF
  5
7E
330
6E
100
AcDbEntity
  8
AM_6
100
AcDbText
 10
10.125
 20
-3.39015625
 30
0.0
 40
0.5
  1
10-1/4
100
AcDbAttributeDefinition
  3

  2
B
 70
     8
280
     0
  0
ATTDEF
  5
7F
330
6E
100
AcDbEntity
  8
AM_6
100
AcDbText
 10
10.125
 20
-3.89015625
 30
0.0
 40
0.5
  1
3
100
AcDbAttributeDefinition
  3

  2
C
 70
     8
280
     0
  0
ATTDEF
  5
80
330
6E
100
AcDbEntity
  8
AM_6
100
AcDbText
 10
10.125
 20
-4.39015625
 30
0.0
 40
0.5
  1
6-3/32
100
AcDbAttributeDefinition
  3

  2
D
 70
     8
280
     0
  0
ATTDEF
  5
81
330
6E
100
AcDbEntity
  8
AM_6
100
AcDbText
 10
10.125
 20
-4.89015625
 30
0.0
 40
0.5
  1
8-5/8
100
AcDbAttributeDefinition
  3

  2
DD
 70
     8
280
     0
  0
ATTDEF
  5
82
330
6E
100
AcDbEntity
  8
AM_6
100
AcDbText
 10
10.125
 20
-5.39015625
 30
0.0
 40
0.5
  1
1-17/64
100
AcDbAttributeDefinition
  3

  2
E
 70
     8
280
     0
  0
ATTDEF
  5
83
330
6E
100
AcDbEntity
  8
AM_6
100
AcDbText
 10
10.125
 20
-5.89015625
 30
0.0
 40
0.5
  1
3/4
100
AcDbAttributeDefinition
  3

  2
F
 70
     8
280
     0
  0
ATTDEF
  5
84
330
6E
100
AcDbEntity
  8
AM_6
100
AcDbText
 10
10.125
 20
-6.39015625
 30
0.0
 40
0.5
  1
2-17/32
100
AcDbAttributeDefinition
  3

  2
G
 70
     8
280
     0
  0
ATTDEF
  5
85
330
6E
100
AcDbEntity
  8
AM_6
100
AcDbText
 10
10.125
 20
-6.89015625
 30
0.0
 40
0.5
  1
15/16
100
AcDbAttributeDefinition
  3

  2
H
 70
     8
280
     0
  0
ATTDEF
  5
86
330
6E
100
AcDbEntity
  8
AM_6
100
AcDbText
 10
10.125
 20
-7.39015625
 30
0.0
 40
0.5
  1
7.375
100
AcDbAttributeDefinition
  3

  2
K
 70
     8
280
     0
  0
ATTDEF
  5
87
330
6E
100
AcDbEntity
  8
AM_6
100
AcDbText
 10
10.125
 20
-7.89015625
 30
0.0
 40
0.5
  1
5
100
AcDbAttributeDefinition
  3

  2
L
 70
     8
280
     0
  0
ATTDEF
  5
88
330
6E
100
AcDbEntity
  8
AM_6
100
AcDbText
 10
10.125
 20
-8.39015625
 30
0.0
 40
0.5
  1
3/4-10
100
AcDbAttributeDefinition
  3

  2
M
 70
     8
280
     0
  0
ATTDEF
  5
89
330
6E
100
AcDbEntity
  8
AM_6
100
AcDbText
 10
10.125
 20
-8.89015625
 30
0.0
 40
0.5
  1
4-1/16
100
AcDbAttributeDefinition
  3

  2
N
 70
     8
280
     0
  0
ATTDEF
  5
8A
330
6E
100
AcDbEntity
  8
AM_6
100
AcDbText
 10
10.125
 20
-9.39015625
 30
0.0
 40
0.5
  1
1-41/64
100
AcDbAttributeDefinition
  3

  2
P
 70
     8
280
     0
  0
ATTDEF
  5
8B
330
6E
100
AcDbEntity
  8
AM_6
100
AcDbText
 10
10.125
 20
-9.89015625
 30
0.0
 40
0.5
  1
1-33/64
100
AcDbAttributeDefinition
  3

  2
Q
 70
     8
280
     0
  0
ATTDEF
  5
8C
330
6E
100
AcDbEntity
  8
AM_6
100
AcDbText
 10
10.125
 20
-10.39015625
 30
0.0
 40
0.5
  1
1/4
100
AcDbAttributeDefinition
  3

  2
X
 70
     8
280
     0
  0
ATTDEF
  5
8D
330
6E
100
AcDbEntity
  8
AM_6
100
AcDbText
 10
10.125
 20
-10.89015625
 30
0.0
 40
0.5
  1
0.025
100
AcDbAttributeDefinition
  3

  2
Y
 70
     8
280
     0
  0
ATTDEF
  5
8E
330
6E
100
AcDbEntity
  8
AM_6
100
AcDbText
 10
10.125
 20
-11.39015625
 30
0.0
 40
0.5
  1
4-3/64
100
AcDbAttributeDefinition
  3

  2
Z
 70
     8
280
     0
  0
ATTDEF
  5
8F
330
6E
100
AcDbEntity
  8
AM_6
100
AcDbText
 10
10.125
 20
-11.89015625
 30
0.0
 40
0.5
  1
baldor
100
AcDbAttributeDefinition
  3

  2
COMPANY
 70
     8
280
     0
  0
INSERT
  5
91
330
6E
100
AcDbEntity
  8
0
100
AcDbBlockReference
  2
2_405015E_Inch_0_in_069858_4
 10
0.0
 20
0.0
 30
0.0
  0
INSERT
  5
E9
330
6E
100
AcDbEntity
  8
0
100
AcDbBlockReference
  2
3_ASME_B18_3_1_4_1_0_in_069858_4
 10
0.0
 20
0.0
 30
0.0
  0
INSERT
  5
FC
330
6E
100
AcDbEntity
  8
0
100
AcDbBlockReference
  2
4_ASME_B18_3_1_4_2_0_in_069858_4
 10
0.0
 20
0.0
 30
0.0
  0
INSERT
  5
11E
330
6E
100
AcDbEntity
  8
0
100
AcDbBlockReference
  2
5_070901LW_0_in_069858_4
 10
0.0
 20
0.0
 30
0.0
  0
INSERT
  5
154
330
6E
100
AcDbEntity
  8
0
100
AcDbBlockReference
  2
6_070901I_0_in_069858_4
 10
0.0
 20
0.0
 30
0.0
  0
INSERT
  5
1D5
330
6E
100
AcDbEntity
  8
0
100
AcDbBlockReference
  2
7_069858H_0_in_069858_4
 10
0.0
 20
0.0
 30
0.0
  0
ENDBLK
  5
71
330
6E
100
AcDbEntity
  8
0
100
AcDbBlockEnd
  0
BLOCK
  5
92
330
90
100
AcDbEntity
  8
0
100
AcDbBlockBegin
  2
2_405015E_Inch_0_in_069858_4
 70
     2
 10
0.0
 20
0.0
 30
0.0
  3
2_405015E_Inch_0_in_069858_4
  1

  0
ATTDEF
  5
94
330
90
100
AcDbEntity
  8
AM_6
100
AcDbText
 10
5.252590742770462
 20
-0.8062393317609859
 30
0.0
 40
0.5
  1
405015E -Inch
100
AcDbAttributeDefinition
  3

  2
NN
 70
     8
280
     0
  0
ATTDEF
  5
95
330
90
100
AcDbEntity
  8
AM_6
100
AcDbText
 10
5.252590742770462
 20
-1.306239331760986
 30
0.0
 40
0.5
  1
Grease Fitting
100
AcDbAttributeDefinition
  3

  2
NT
 70
     8
280
     0
  0
ATTDEF
  5
96
330
90
100
AcDbEntity
  8
AM_6
100
AcDbText
 10
5.252590742770462
 20
-1.806239331760986
 30
0.0
 40
0.5
  1
405015E-Inch
100
AcDbAttributeDefinition
  3

  2
NB
 70
     8
280
     0
  0
ATTDEF
  5
97
330
90
100
AcDbEntity
  8
AM_6
100
AcDbText
 10
5.252590742770462
 20
-2.306239331760986
 30
0.0
 40
0.5
  1
$MN.-Inch
100
AcDbAttributeDefinition
  3

  2
NBSYN
 70
     8
280
     0
  0
ATTDEF
  5
98
330
90
100
AcDbEntity
  8
AM_6
100
AcDbText
 10
5.252590742770462
 20
-2.806239331760986
 30
0.0
 40
0.5
  1
405015E
100
AcDbAttributeDefinition
  3

  2
LINA
 70
     8
280
     0
  0
ATTDEF
  5
99
330
90
100
AcDbEntity
  8
AM_6
100
AcDbText
 10
5.252590742770462
 20
-3.306239331760986
 30
0.0
 40
0.5
  1
405015E
100
AcDbAttributeDefinition
  3

  2
MN
 70
     8
280
     0
  0
ATTDEF
  5
9A
330
90
100
AcDbEntity
  8
AM_6
100
AcDbText
 10
5.252590742770462
 20
-3.806239331760986
 30
0.0
 40
0.5
  1
1/8 x 27PTF
100
AcDbAttributeDefinition
  3

  2
T
 70
     8
280
     0
  0
ATTDEF
  5
9B
330
90
100
AcDbEntity
  8
AM_6
100
AcDbText
 10
5.252590742770462
 20
-4.306239331760986
 30
0.0
 40
0.5
  1
baldor
100
AcDbAttributeDefinition
  3

  2
COMPANY
 70
     8
280
     0
  0
LINE
  5
9E
330
90
100
AcDbEntity
  8
AM_9
100
AcDbLine
 10
-0.1262953713852306
 20
-1.304812268689828
 30
0.0
 11
-0.1262953713852306
 21
-1.233915271688616
 31
0.0
  0
LINE
  5
9F
330
90
100
AcDbEntity
  8
AM_9
100
AcDbLine
 10
0.1262953713852306
 20
-1.304812268689828
 30
0.0
 11
0.1262953713852306
 21
-1.233915271688616
 31
0.0
  0
LWPOLYLINE
  5
A0
330
90
100
AcDbEntity
  8
AM_9
100
AcDbPolyline
 90
        3
 70
     0
 43
0.0
 10
0.1262953713852306
 20
-1.233915271688616
 10
0.0634316146914367
 20
-1.228153539944442
 10
0.0
 20
-1.2260625
  0
LWPOLYLINE
  5
A1
330
90
100
AcDbEntity
  8
AM_9
100
AcDbPolyline
 90
        4
 70
     0
 43
0.0
 10
0.0
 20
-1.2260625
 10
-0.0483998160558989
 20
-1.227290143592448
 10
-0.0967996321117978
 20
-1.230810408514479
 10
-0.1262953713852306
 20
-1.233915271688616
  0
LWPOLYLINE
  5
A2
330
90
100
AcDbEntity
  8
AM_9
100
AcDbPolyline
 90
        3
 70
     0
 43
0.0
 10
-0.1262953713852306
 20
-1.233915271688616
 10
-0.1577272497321276
 20
-1.200932734807368
 10
-0.1894430570778459
 20
-1.171375
  0
LWPOLYLINE
  5
A3
330
90
100
AcDbEntity
  8
AM_9
100
AcDbPolyline
 90
        3
 70
     0
 43
0.0
 10
0.1894430570778459
 20
-1.171375
 10
0.1578692142315383
 20
-1.20079147856077
 10
0.1262953713852306
 20
-1.233915271688616
  0
LWPOLYLINE
  5
A4
330
90
100
AcDbEntity
  8
AM_9
100
AcDbPolyline
 90
        4
 70
     0
 43
0.0
 10
-0.1019117147224386
 20
-1.307426587404235
 10
-0.0967996321117978
 20
-1.307917131863966
 10
-0.0485424412477544
 20
-1.31143023689851
 10
0.0
 20
-1.312665040378444
  0
LINE
  5
A5
330
90
100
AcDbEntity
  8
AM_9
100
AcDbLine
 10
-0.1050087569988762
 20
-1.307119322993173
 30
0.0
 11
-0.1019117147224386
 21
-1.307426587404235
 31
0.0
  0
LINE
  5
A6
330
90
100
AcDbEntity
  8
AM_9
100
AcDbLine
 10
0.101866192704947
 20
-1.307431047533003
 30
0.0
 11
0.1050474083588161
 21
-1.307115440950328
 31
0.0
  0
LWPOLYLINE
  5
A7
330
90
100
AcDbEntity
  8
AM_9
100
AcDbPolyline
 90
        3
 70
     0
 43
0.0
 10
0.0
 20
-1.312665040378444
 10
0.0631476856926153
 20
-1.310592311817674
 10
0.101866192704947
 20
-1.307431047533003
  0
LWPOLYLINE
  5
A8
330
90
100
AcDbEntity
  8
AM_9
100
AcDbPolyline
 90
        3
 70
     0
 43
0.0
 10
0.2525907427704612
 20
-1.124540271688616
 10
0.2211588644235643
 20
-1.145999345081517
 10
0.1894430570778459
 20
-1.171375
  0
LWPOLYLINE
  5
A9
330
90
100
AcDbEntity
  8
AM_9
100
AcDbPolyline
 90
        3
 70
     0
 43
0.0
 10
-0.1894430570778459
 20
-1.171375
 10
-0.2210168999241536
 20
-1.14610397856077
 10
-0.2525907427704612
 20
-1.124540271688616
  0
LINE
  5
AA
330
90
100
AcDbEntity
  8
AM_9
100
AcDbLine
 10
-0.1321931418159853
 20
-0.8404534344949047
 30
0.0
 11
-0.1621706131788416
 21
-0.8616507077784059
 31
0.0
  0
LINE
  5
AB
330
90
100
AcDbEntity
  8
AM_9
100
AcDbLine
 10
0.1621706131788416
 20
-0.8616507077784059
 30
0.0
 11
0.1321931418159853
 21
-0.8404534344949047
 31
0.0
  0
LINE
  5
AC
330
90
100
AcDbEntity
  8
AM_9
100
AcDbLine
 10
-0.1985852938306408
 20
-0.9171948393135557
 30
0.0
 11
-0.2057184028850727
 21
-1.114831299222371
 31
0.0
  0
LINE
  5
AD
330
90
100
AcDbEntity
  8
AM_9
100
AcDbLine
 10
0.2057184028850727
 20
-1.114831299222371
 30
0.0
 11
0.1985852938306408
 21
-0.9171948393135557
 31
0.0
  0
LINE
  5
AE
330
90
100
AcDbEntity
  8
AM_9
100
AcDbLine
 10
0.1017810272422101
 20
-1.307122874164287
 30
0.0
 11
0.105
 21
-1.30082047952476
 31
0.0
  0
LINE
  5
AF
330
90
100
AcDbEntity
  8
AM_9
100
AcDbLine
 10
-0.105
 20
-1.30082047952476
 30
0.0
 11
-0.1017810272422101
 21
-1.307122874164287
 31
0.0
  0
ELLIPSE
  5
B0
330
90
100
AcDbEntity
  8
AM_9
100
AcDbEllipse
 10
0.0
 20
-1.294222707775809
 30
0.0
 11
-0.1050000000000001
 21
1.285879139104722E-17
 31
0.0
210
0.0
220
0.0
230
1.0
 40
0.5000000000000122
 41
0.0
 42
3.141592653589793
  0
LINE
  5
B1
330
90
100
AcDbEntity
  8
AM_9
100
AcDbLine
 10
-0.105
 20
-1.312460936588269
 30
0.0
 11
-0.105
 21
-1.320203469889343
 31
0.0
  0
LINE
  5
B2
330
90
100
AcDbEntity
  8
AM_9
100
AcDbLine
 10
0.105
 20
-1.320203469889343
 30
0.0
 11
0.105
 21
-1.312460936588269
 31
0.0
  0
ELLIPSE
  5
B3
330
90
100
AcDbEntity
  8
AM_9
100
AcDbEllipse
 10
0.0
 20
-1.320203469889343
 30
0.0
 11
-0.1050000000000002
 21
1.285879139104723E-17
 31
0.0
210
0.0
220
0.0
230
1.0
 40
0.5000000000000012
 41
5.990342535451009
 42
9.717620732497958
  0
LINE
  5
B4
330
90
100
AcDbEntity
  8
AM_9
100
AcDbLine
 10
0.0976523208201058
 20
-1.300142207637192
 30
0.0
 11
0.1098343496897824
 21
-1.291355354510342
 31
0.0
  0
LINE
  5
B5
330
90
100
AcDbEntity
  8
AM_9
100
AcDbLine
 10
-0.1098343496897824
 20
-1.291355354510342
 30
0.0
 11
-0.0976523208201058
 21
-1.300142207637192
 31
0.0
  0
ELLIPSE
  5
B6
330
90
100
AcDbEntity
  8
AM_9
100
AcDbEllipse
 10
-0.0000000000000003
 20
-1.266296091904758
 30
0.0
 11
-0.1188200907348977
 21
1.455126437928905E-17
 31
0.0
210
0.0
220
0.0
230
1.0
 40
0.4999999999999591
 41
0.2500328930986289
 42
2.891559760491166
  0
ELLIPSE
  5
B7
330
90
100
AcDbEntity
  8
AM_9
100
AcDbEllipse
 10
0.0
 20
-1.219154065666415
 30
0.0
 11
-0.1725340532830156
 21
2.112932760969639E-17
 31
0.0
210
0.0
220
0.0
230
1.0
 40
0.4999999999999986
 41
0.6061451401950855
 42
2.535447513394709
  0
ELLIPSE
  5
B8
330
90
100
AcDbEntity
  8
AM_9
100
AcDbEllipse
 10
-0.0000000000000017
 20
-1.203290040378445
 30
0.0
 11
-0.2187499999999934
 21
2.678914873134755E-17
 31
0.0
210
0.0
220
0.0
230
1.0
 40
0.500000000000009
 41
1.065244638251226
 42
2.076348015338581
  0
ELLIPSE
  5
B9
330
90
100
AcDbEntity
  8
AM_9
100
AcDbEllipse
 10
-0.0000000000023301
 20
-1.203290040376924
 30
0.0
 11
-0.2137499999953079
 21
3.185123231291844E-9
 31
0.0
210
0.0
220
0.0
230
1.0
 40
0.5000000000144184
 41
1.04297213729201
 42
2.098620542557633
  0
ELLIPSE
  5
BA
330
90
100
AcDbEntity
  8
AM_9
100
AcDbEllipse
 10
0.0
 20
-1.37216499411641
 30
0.0
 11
-0.1349999999999998
 21
1.653273178848924E-17
 31
0.0
210
0.0
220
0.0
230
1.0
 40
0.4999999999999984
 41
0.2354336045415613
 42
2.906159049048233
  0
ELLIPSE
  5
BB
330
90
100
AcDbEntity
  8
AM_9
100
AcDbEllipse
 10
-0.0000000000000003
 20
-0.8871907679971186
 30
0.0
 11
-0.1619028724722694
 21
1.982738345459268E-17
 31
0.0
210
0.0
220
0.0
230
1.0
 40
0.4999999999999875
 41
0.0
 42
6.283185307179586
  0
ELLIPSE
  5
BC
330
90
100
AcDbEntity
  8
AM_9
100
AcDbEllipse
 10
-0.0000000000000012
 20
-1.116687500000002
 30
0.0
 11
-0.2187500000000021
 21
2.678914873134860E-17
 31
0.0
210
0.0
220
0.0
230
1.0
 40
0.5000000000000044
 41
0.0
 42
6.283185307179586
  0
ELLIPSE
  5
BD
330
90
100
AcDbEntity
  8
AM_9
100
AcDbEllipse
 10
-0.000000000000116
 20
-1.116687499995793
 30
0.0
 11
-0.2057518972231855
 21
3.065942211660004E-9
 31
0.0
210
0.0
220
0.0
230
1.0
 40
0.4999999999998364
 41
0.0
 42
6.283185307179586
  0
ELLIPSE
  5
BE
330
90
100
AcDbEntity
  8
AM_9
100
AcDbEllipse
 10
-0.0000000000008298
 20
-0.9189866779169213
 30
0.0
 11
-0.1986176267820452
 21
2.432364408928752E-17
 31
0.0
210
0.0
220
0.0
230
1.0
 40
0.4999999999998375
 41
0.0
 42
6.283185307179586
  0
LWPOLYLINE
  5
C0
330
90
100
AcDbEntity
  8
AM_4
100
AcDbPolyline
 90
        3
 70
     0
 43
0.0
 10
-0.1894430570778459
 20
-1.257977540378444
 10
-0.1578692142315383
 20
-1.283248561817674
 10
-0.1262953713852306
 20
-1.304812268689828
  0
LINE
  5
C1
330
90
100
AcDbEntity
  8
AM_4
100
AcDbLine
 10
-0.1262953713852306
 20
-1.304812268689828
 30
0.0
 11
-0.1050087569988762
 21
-1.307119322993173
 31
0.0
  0
LWPOLYLINE
  5
C2
330
90
100
AcDbEntity
  8
AM_4
100
AcDbPolyline
 90
        3
 70
     0
 43
0.0
 10
0.1262953713852306
 20
-1.304812268689828
 10
0.1577272497321276
 20
-1.283353195296927
 10
0.1894430570778459
 20
-1.257977540378444
  0
LINE
  5
C3
330
90
100
AcDbEntity
  8
AM_4
100
AcDbLine
 10
0.1050474083588161
 20
-1.307115440950328
 30
0.0
 11
0.1262953713852306
 21
-1.304812268689828
 31
0.0
  0
LWPOLYLINE
  5
C4
330
90
100
AcDbEntity
  8
AM_4
100
AcDbPolyline
 90
        3
 70
     0
 43
0.0
 10
-0.2525907427704612
 20
-1.195437268689828
 10
-0.2211588644235643
 20
-1.228419805571076
 10
-0.1894430570778459
 20
-1.257977540378444
  0
LWPOLYLINE
  5
C5
330
90
100
AcDbEntity
  8
AM_4
100
AcDbPolyline
 90
        3
 70
     0
 43
0.0
 10
0.1894430570778459
 20
-1.257977540378444
 10
0.2210168999241535
 20
-1.228561061817674
 10
0.2525907427704612
 20
-1.195437268689828
  0
LINE
  5
C6
330
90
100
AcDbEntity
  8
AM_4
100
AcDbLine
 10
0.105
 20
-1.30082047952476
 30
0.0
 11
0.1151252948555658
 21
-1.280996265769945
 31
0.0
  0
LINE
  5
C7
330
90
100
AcDbEntity
  8
AM_4
100
AcDbLine
 10
-0.1151252948555658
 20
-1.280996265769945
 30
0.0
 11
-0.105
 21
-1.30082047952476
 31
0.0
  0
ELLIPSE
  5
C8
330
90
100
AcDbEntity
  8
AM_4
100
AcDbEllipse
 10
-0.0000000000000088
 20
-1.266296091904719
 30
0.0
 11
-0.1188200907349063
 21
1.455126437929010E-17
 31
0.0
210
0.0
220
0.0
230
1.0
 40
0.500000000000024
 41
2.891559760490566
 42
6.533218200278847
  0
ELLIPSE
  5
C9
330
90
100
AcDbEntity
  8
AM_4
100
AcDbEllipse
 10
0.0
 20
-1.29422270777581
 30
0.0
 11
-0.1050000000000004
 21
1.285879139104726E-17
 31
0.0
210
0.0
220
0.0
230
1.0
 40
0.5000000000000044
 41
3.141592653589793
 42
6.283185307179586
  0
LINE
  5
CA
330
90
100
AcDbEntity
  8
AM_4
100
AcDbLine
 10
-0.105
 20
-1.29422270777581
 30
0.0
 11
-0.105
 21
-1.312460936588269
 31
0.0
  0
LINE
  5
CB
330
90
100
AcDbEntity
  8
AM_4
100
AcDbLine
 10
0.105
 20
-1.312460936588269
 30
0.0
 11
0.105
 21
-1.29422270777581
 31
0.0
  0
LINE
  5
CC
330
90
100
AcDbEntity
  8
AM_4
100
AcDbLine
 10
0.1098343496897824
 20
-1.291355354510342
 30
0.0
 11
0.1417971541629018
 21
-1.268300699868486
 31
0.0
  0
LINE
  5
CD
330
90
100
AcDbEntity
  8
AM_4
100
AcDbLine
 10
-0.1417971541629018
 20
-1.268300699868486
 30
0.0
 11
-0.1098343496897824
 21
-1.291355354510342
 31
0.0
  0
ELLIPSE
  5
CE
330
90
100
AcDbEntity
  8
AM_4
100
AcDbEllipse
 10
0.0000000000000024
 20
-1.219154065666419
 30
0.0
 11
-0.1725340532830129
 21
2.112932760969607E-17
 31
0.0
210
0.0
220
0.0
230
1.0
 40
0.4999999999999935
 41
2.535447513394732
 42
6.889330447374633
  0
LWPOLYLINE
  5
CF
330
90
100
AcDbEntity
  8
AM_4
100
AcDbPolyline
 90
        3
 70
     0
 43
0.0
 10
0.2525907427704612
 20
-1.195437268689828
 10
0.2211588644235643
 20
-1.173978195296927
 10
0.1894430570778459
 20
-1.148602540378444
  0
LINE
  5
D0
330
90
100
AcDbEntity
  8
AM_4
100
AcDbLine
 10
0.2525907427704612
 20
-1.195437268689828
 30
0.0
 11
0.2525907427704612
 21
-1.124540271688616
 31
0.0
  0
LWPOLYLINE
  5
D1
330
90
100
AcDbEntity
  8
AM_4
100
AcDbPolyline
 90
        3
 70
     0
 43
0.0
 10
0.1894430570778459
 20
-1.062
 10
0.2210168999241536
 20
-1.09141647856077
 10
0.2525907427704612
 20
-1.124540271688616
  0
LWPOLYLINE
  5
D2
330
90
100
AcDbEntity
  8
AM_4
100
AcDbPolyline
 90
        3
 70
     0
 43
0.0
 10
0.1262953713852306
 20
-1.015165271688616
 10
0.1577272497321276
 20
-1.036624345081517
 10
0.1894430570778459
 20
-1.062
  0
LINE
  5
D3
330
90
100
AcDbEntity
  8
AM_4
100
AcDbLine
 10
0.1262953713852306
 20
-1.086062268689828
 30
0.0
 11
0.1262953713852306
 21
-1.015165271688616
 31
0.0
  0
LWPOLYLINE
  5
D4
330
90
100
AcDbEntity
  8
AM_4
100
AcDbPolyline
 90
        3
 70
     0
 43
0.0
 10
0.0
 20
-1.0073125
 10
0.0631476856926153
 20
-1.00938522856077
 10
0.1262953713852306
 20
-1.015165271688616
  0
LWPOLYLINE
  5
D5
330
90
100
AcDbEntity
  8
AM_4
100
AcDbPolyline
 90
        4
 70
     0
 43
0.0
 10
-0.1262953713852306
 20
-1.015165271688616
 10
-0.0967996321117978
 20
-1.012060408514478
 10
-0.0485424412477544
 20
-1.008547303479933
 10
0.0
 20
-1.0073125
  0
LINE
  5
D6
330
90
100
AcDbEntity
  8
AM_4
100
AcDbLine
 10
-0.2525907427704612
 20
-1.195437268689828
 30
0.0
 11
-0.2525907427704612
 21
-1.124540271688616
 31
0.0
  0
LWPOLYLINE
  5
D7
330
90
100
AcDbEntity
  8
AM_4
100
AcDbPolyline
 90
        3
 70
     0
 43
0.0
 10
-0.1894430570778459
 20
-1.148602540378444
 10
-0.2210168999241536
 20
-1.173873561817674
 10
-0.2525907427704612
 20
-1.195437268689828
  0
LINE
  5
D8
330
90
100
AcDbEntity
  8
AM_4
100
AcDbLine
 10
-0.1262953713852306
 20
-1.086062268689828
 30
0.0
 11
-0.1262953713852306
 21
-1.015165271688616
 31
0.0
  0
LWPOLYLINE
  5
D9
330
90
100
AcDbEntity
  8
AM_4
100
AcDbPolyline
 90
        3
 70
     0
 43
0.0
 10
-0.1894430570778459
 20
-1.062
 10
-0.1578692142315383
 20
-1.03672897856077
 10
-0.1262953713852306
 20
-1.015165271688616
  0
LWPOLYLINE
  5
DA
330
90
100
AcDbEntity
  8
AM_4
100
AcDbPolyline
 90
        3
 70
     0
 43
0.0
 10
-0.2525907427704612
 20
-1.124540271688616
 10
-0.2211588644235643
 20
-1.091557734807368
 10
-0.1894430570778459
 20
-1.062
  0
LWPOLYLINE
  5
DB
330
90
100
AcDbEntity
  8
AM_4
100
AcDbPolyline
 90
        4
 70
     0
 43
0.0
 10
0.0
 20
-1.093915040378444
 10
-0.0483998160558989
 20
-1.092687396785996
 10
-0.0967996321117978
 20
-1.089167131863966
 10
-0.1262953713852306
 20
-1.086062268689828
  0
LWPOLYLINE
  5
DC
330
90
100
AcDbEntity
  8
AM_4
100
AcDbPolyline
 90
        3
 70
     0
 43
0.0
 10
-0.1262953713852306
 20
-1.086062268689828
 10
-0.1577272497321276
 20
-1.119044805571076
 10
-0.1894430570778459
 20
-1.148602540378444
  0
ELLIPSE
  5
DD
330
90
100
AcDbEntity
  8
AM_4
100
AcDbEllipse
 10
0.0000000000000012
 20
-1.203290040378446
 30
0.0
 11
-0.2187500000000027
 21
2.678914873134869E-17
 31
0.0
210
0.0
220
0.0
230
1.0
 40
0.5000000000000039
 41
2.076348015338568
 42
7.348429945430802
  0
LWPOLYLINE
  5
DE
330
90
100
AcDbEntity
  8
AM_4
100
AcDbPolyline
 90
        3
 70
     0
 43
0.0
 10
0.1894430570778459
 20
-1.148602540378444
 10
0.1578692142315383
 20
-1.119186061817674
 10
0.1262953713852306
 20
-1.086062268689828
  0
LWPOLYLINE
  5
DF
330
90
100
AcDbEntity
  8
AM_4
100
AcDbPolyline
 90
        3
 70
     0
 43
0.0
 10
0.1262953713852306
 20
-1.086062268689828
 10
0.0634316146914367
 20
-1.091824000434002
 10
0.0
 20
-1.093915040378444
  0
ELLIPSE
  5
E0
330
90
100
AcDbEntity
  8
AM_4
100
AcDbEllipse
 10
0.0
 20
-1.203290040378442
 30
0.0
 11
-0.2137499999999999
 21
2.617682533177467E-17
 31
0.0
210
0.0
220
0.0
230
1.0
 40
0.5000000000000046
 41
2.098620529422322
 42
7.326157431347054
  0
LINE
  5
E1
330
90
100
AcDbEntity
  8
AM_4
100
AcDbLine
 10
-0.1005298463144155
 20
-1.305048025323115
 30
0.0
 11
-0.1292526595471057
 21
-1.35267942253126
 31
0.0
  0
LINE
  5
E2
330
90
100
AcDbEntity
  8
AM_4
100
AcDbLine
 10
0.1292526595471057
 20
-1.35267942253126
 30
0.0
 11
0.1005298463144155
 21
-1.305048025323115
 31
0.0
  0
ELLIPSE
  5
E3
330
90
100
AcDbEntity
  8
AM_4
100
AcDbEllipse
 10
0.0
 20
-1.320203469889343
 30
0.0
 11
-0.1049999999999996
 21
1.285879139104717E-17
 31
0.0
210
0.0
220
0.0
230
1.0
 40
0.5000000000000038
 41
3.434435425318366
 42
5.990342535451012
  0
LINE
  5
E4
330
90
100
AcDbEntity
  8
AM_4
100
AcDbLine
 10
0.0998453562378797
 20
-1.453422588860363
 30
0.0
 11
0.1312757938985219
 21
-1.387910358007987
 31
0.0
  0
LINE
  5
E5
330
90
100
AcDbEntity
  8
AM_4
100
AcDbLine
 10
-0.1312757938985219
 20
-1.387910358007987
 30
0.0
 11
-0.0998453562378797
 21
-1.453422588860363
 31
0.0
  0
ELLIPSE
  5
E6
330
90
100
AcDbEntity
  8
AM_4
100
AcDbEllipse
 10
-0.0000000000000058
 20
-1.37216499411637
 30
0.0
 11
-0.1350000000000059
 21
1.653273178848999E-17
 31
0.0
210
0.0
220
0.0
230
1.0
 40
0.5000000000000383
 41
2.906159049047692
 42
6.518618911721707
  0
ELLIPSE
  5
E7
330
90
100
AcDbEntity
  8
AM_4
100
AcDbEllipse
 10
-0.0000000000000002
 20
-1.441447026419164
 30
0.0
 11
-0.1026779019331875
 21
1.257441639456439E-17
 31
0.0
210
0.0
220
0.0
230
1.0
 40
0.4999999999999917
 41
0.0
 42
6.283185307179586
  0
ENDBLK
  5
93
330
90
100
AcDbEntity
  8
0
100
AcDbBlockEnd
  0
BLOCK
  5
EA
330
E8
100
AcDbEntity
  8
0
100
AcDbBlockBegin
  2
3_ASME_B18_3_1_4_1_0_in_069858_4
 70
     2
 10
0.0
 20
0.0
 30
0.0
  3
3_ASME_B18_3_1_4_1_0_in_069858_4
  1

  0
ATTDEF
  5
EC
330
E8
100
AcDbEntity
  8
AM_6
100
AcDbText
 10
5.125
 20
-1.969708333333333
 30
0.0
 40
0.5
  1
ANSI/ASME B18.3-1998
100
AcDbAttributeDefinition
  3

  2
NN
 70
     8
280
     0
  0
ATTDEF
  5
ED
330
E8
100
AcDbEntity
  8
AM_6
100
AcDbText
 10
5.125
 20
-2.469708333333333
 30
0.0
 40
0.5
  1
Socket Button Head Cap Screws
100
AcDbAttributeDefinition
  3

  2
NT
 70
     8
280
     0
  0
ATTDEF
  5
EE
330
E8
100
AcDbEntity
  8
AM_6
100
AcDbText
 10
5.125
 20
-2.969708333333333
 30
0.0
 40
0.5
  1
ASME B18.3-1/4
100
AcDbAttributeDefinition
  3

  2
NB
 70
     8
280
     0
  0
ATTDEF
  5
EF
330
E8
100
AcDbEntity
  8
AM_6
100
AcDbText
 10
5.125
 20
-3.469708333333333
 30
0.0
 40
0.5
  1
ASME B18.3-$NS.
100
AcDbAttributeDefinition
  3

  2
NBSYN
 70
     8
280
     0
  0
ATTDEF
  5
F0
330
E8
100
AcDbEntity
  8
AM_6
100
AcDbText
 10
5.125
 20
-3.969708333333333
 30
0.0
 40
0.5
  1
ASME B18.3-1/4
100
AcDbAttributeDefinition
  3

  2
LINA
 70
     8
280
     0
  0
ATTDEF
  5
F1
330
E8
100
AcDbEntity
  8
AM_6
100
AcDbText
 10
5.125
 20
-4.469708333333333
 30
0.0
 40
0.5
  1
1/4
100
AcDbAttributeDefinition
  3

  2
NS
 70
     8
280
     0
  0
ATTDEF
  5
F2
330
E8
100
AcDbEntity
  8
AM_6
100
AcDbText
 10
5.125
 20
-4.969708333333333
 30
0.0
 40
0.5
  1
0.437
100
AcDbAttributeDefinition
  3

  2
A
 70
     8
280
     0
  0
ATTDEF
  5
F3
330
E8
100
AcDbEntity
  8
AM_6
100
AcDbText
 10
5.125
 20
-5.469708333333333
 30
0.0
 40
0.5
  1
0.132
100
AcDbAttributeDefinition
  3

  2
H
 70
     8
280
     0
  0
ATTDEF
  5
F4
330
E8
100
AcDbEntity
  8
AM_6
100
AcDbText
 10
5.125
 20
-5.969708333333333
 30
0.0
 40
0.5
  1
0.800
100
AcDbAttributeDefinition
  3

  2
L
 70
     8
280
     0
  0
ATTDEF
  5
F5
330
E8
100
AcDbEntity
  8
AM_6
100
AcDbText
 10
5.125
 20
-6.469708333333333
 30
0.0
 40
0.5
  1
0.031
100
AcDbAttributeDefinition
  3

  2
S
 70
     8
280
     0
  0
ATTDEF
  5
F6
330
E8
100
AcDbEntity
  8
AM_6
100
AcDbText
 10
5.125
 20
-6.969708333333333
 30
0.0
 40
0.5
  1
0.156250
100
AcDbAttributeDefinition
  3

  2
J
 70
     8
280
     0
  0
ATTDEF
  5
F7
330
E8
100
AcDbEntity
  8
AM_6
100
AcDbText
 10
5.125
 20
-7.469708333333333
 30
0.0
 40
0.5
  1
baldor
100
AcDbAttributeDefinition
  3

  2
COMPANY
 70
     8
280
     0
  0
LINE
  5
F9
330
E8
100
AcDbEntity
  8
AM_5
100
AcDbLine
 10
0.125
 20
-1.969708333333333
 30
0.0
 11
-0.125
 21
-1.969708333333333
 31
0.0
  0
LINE
  5
FA
330
E8
100
AcDbEntity
  8
AM_5
100
AcDbLine
 10
0.1064
 20
-1.969708333333333
 30
0.0
 11
0.1250000000000001
 21
-2.001924478354115
 31
0.0
  0
ENDBLK
  5
EB
330
E8
100
AcDbEntity
  8
0
100
AcDbBlockEnd
  0
BLOCK
  5
FD
330
FB
100
AcDbEntity
  8
0
100
AcDbBlockBegin
  2
4_ASME_B18_3_1_4_2_0_in_069858_4
 70
     2
 10
0.0
 20
0.0
 30
0.0
  3
4_ASME_B18_3_1_4_2_0_in_069858_4
  1

  0
ATTDEF
  5
FF
330
FB
100
AcDbEntity
  8
AM_6
100
AcDbText
 10
5.2185
 20
-1.249708333333333
 30
0.0
 40
0.5
  1
ANSI/ASME B18.3-1998
100
AcDbAttributeDefinition
  3

  2
NN
 70
     8
280
     0
  0
ATTDEF
  5
100
330
FB
100
AcDbEntity
  8
AM_6
100
AcDbText
 10
5.2185
 20
-1.749708333333333
 30
0.0
 40
0.5
  1
Socket Button Head Cap Screws
100
AcDbAttributeDefinition
  3

  2
NT
 70
     8
280
     0
  0
ATTDEF
  5
101
330
FB
100
AcDbEntity
  8
AM_6
100
AcDbText
 10
5.2185
 20
-2.249708333333333
 30
0.0
 40
0.5
  1
ASME B18.3-1/4
100
AcDbAttributeDefinition
  3

  2
NB
 70
     8
280
     0
  0
ATTDEF
  5
102
330
FB
100
AcDbEntity
  8
AM_6
100
AcDbText
 10
5.2185
 20
-2.749708333333333
 30
0.0
 40
0.5
  1
ASME B18.3-$NS.
100
AcDbAttributeDefinition
  3

  2
NBSYN
 70
     8
280
     0
  0
ATTDEF
  5
103
330
FB
100
AcDbEntity
  8
AM_6
100
AcDbText
 10
5.2185
 20
-3.249708333333333
 30
0.0
 40
0.5
  1
ASME B18.3-1/4
100
AcDbAttributeDefinition
  3

  2
LINA
 70
     8
280
     0
  0
ATTDEF
  5
104
330
FB
100
AcDbEntity
  8
AM_6
100
AcDbText
 10
5.2185
 20
-3.749708333333333
 30
0.0
 40
0.5
  1
1/4
100
AcDbAttributeDefinition
  3

  2
NS
 70
     8
280
     0
  0
ATTDEF
  5
105
330
FB
100
AcDbEntity
  8
AM_6
100
AcDbText
 10
5.2185
 20
-4.249708333333333
 30
0.0
 40
0.5
  1
0.437
100
AcDbAttributeDefinition
  3

  2
A
 70
     8
280
     0
  0
ATTDEF
  5
106
330
FB
100
AcDbEntity
  8
AM_6
100
AcDbText
 10
5.2185
 20
-4.749708333333333
 30
0.0
 40
0.5
  1
0.132
100
AcDbAttributeDefinition
  3

  2
H
 70
     8
280
     0
  0
ATTDEF
  5
107
330
FB
100
AcDbEntity
  8
AM_6
100
AcDbText
 10
5.2185
 20
-5.249708333333333
 30
0.0
 40
0.5
  1
0.800
100
AcDbAttributeDefinition
  3

  2
L
 70
     8
280
     0
  0
ATTDEF
  5
108
330
FB
100
AcDbEntity
  8
AM_6
100
AcDbText
 10
5.2185
 20
-5.749708333333333
 30
0.0
 40
0.5
  1
0.031
100
AcDbAttributeDefinition
  3

  2
S
 70
     8
280
     0
  0
ATTDEF
  5
109
330
FB
100
AcDbEntity
  8
AM_6
100
AcDbText
 10
5.2185
 20
-6.249708333333333
 30
0.0
 40
0.5
  1
0.156250
100
AcDbAttributeDefinition
  3

  2
J
 70
     8
280
     0
  0
ATTDEF
  5
10A
330
FB
100
AcDbEntity
  8
AM_6
100
AcDbText
 10
5.2185
 20
-6.749708333333333
 30
0.0
 40
0.5
  1
baldor
100
AcDbAttributeDefinition
  3

  2
COMPANY
 70
     8
280
     0
  0
LINE
  5
10B
330
FB
100
AcDbEntity
  8
AM_9
100
AcDbLine
 10
0.078125
 20
-2.111708333333334
 30
0.0
 11
0.078125
 21
-2.181708333333333
 31
0.0
  0
LINE
  5
10C
330
FB
100
AcDbEntity
  8
AM_9
100
AcDbLine
 10
-0.078125
 20
-2.111708333333334
 30
0.0
 11
-0.078125
 21
-2.181708333333333
 31
0.0
  0
LINE
  5
10D
330
FB
100
AcDbEntity
  8
AM_9
100
AcDbLine
 10
0.0
 20
-2.111708333333334
 30
0.0
 11
0.0
 21
-2.181708333333333
 31
0.0
  0
LINE
  5
10E
330
FB
100
AcDbEntity
  8
AM_9
100
AcDbLine
 10
-0.078125
 20
-2.111708333333334
 30
0.0
 11
0.078125
 21
-2.111708333333334
 31
0.0
  0
LINE
  5
10F
330
FB
100
AcDbEntity
  8
AM_9
100
AcDbLine
 10
-0.1064
 20
-1.249708333333333
 30
0.0
 11
-0.125
 21
-1.268308333333333
 31
0.0
  0
LINE
  5
110
330
FB
100
AcDbEntity
  8
AM_9
100
AcDbLine
 10
0.125
 20
-1.268308333333333
 30
0.0
 11
0.1064
 21
-1.249708333333333
 31
0.0
  0
LINE
  5
111
330
FB
100
AcDbEntity
  8
AM_9
100
AcDbLine
 10
-0.1064
 20
-1.249708333333333
 30
0.0
 11
0.1064
 21
-1.249708333333333
 31
0.0
  0
LINE
  5
112
330
FB
100
AcDbEntity
  8
AM_9
100
AcDbLine
 10
0.125
 20
-2.049708333333333
 30
0.0
 11
0.125
 21
-1.268308333333333
 31
0.0
  0
LINE
  5
113
330
FB
100
AcDbEntity
  8
AM_9
100
AcDbLine
 10
-0.125
 20
-1.268308333333333
 30
0.0
 11
-0.125
 21
-2.049708333333333
 31
0.0
  0
LINE
  5
114
330
FB
100
AcDbEntity
  8
AM_9
100
AcDbLine
 10
-0.125
 20
-1.268308333333333
 30
0.0
 11
0.125
 21
-1.268308333333333
 31
0.0
  0
LINE
  5
115
330
FB
100
AcDbEntity
  8
AM_5
100
AcDbLine
 10
-0.1250000001400762
 20
-1.969708333333333
 30
0.0
 11
0.125000000140076
 21
-1.969708333333333
 31
0.0
  0
LINE
  5
116
330
FB
100
AcDbEntity
  8
AM_5
100
AcDbLine
 10
-0.1064
 20
-1.969708333333333
 30
0.0
 11
-0.1250000114954799
 21
-2.00192449826487
 31
0.0
  0
LINE
  5
117
330
FB
100
AcDbEntity
  8
AM_4
100
AcDbLine
 10
0.2185
 20
-2.080708333333333
 30
0.0
 11
0.2185
 21
-2.049708333333333
 31
0.0
  0
LINE
  5
118
330
FB
100
AcDbEntity
  8
AM_4
100
AcDbLine
 10
-0.2185
 20
-2.049708333333333
 30
0.0
 11
-0.2185
 21
-2.080708333333333
 31
0.0
  0
LINE
  5
119
330
FB
100
AcDbEntity
  8
AM_4
100
AcDbLine
 10
-0.117499995174147
 20
-2.181708333333333
 30
0.0
 11
0.1175
 21
-2.181708333333333
 31
0.0
  0
ARC
  5
11A
330
FB
100
AcDbEntity
  8
AM_4
100
AcDbCircle
 10
0.1175000000000004
 20
-2.080708333333334
 30
0.0
 40
0.1009999999999995
100
AcDbArc
 50
270.0
 51
0.0
  0
ARC
  5
11B
330
FB
100
AcDbEntity
  8
AM_4
100
AcDbCircle
 10
-0.1175000000000004
 20
-2.080708333333334
 30
0.0
 40
0.1009999999999996
100
AcDbArc
 50
180.0
 51
270.0
  0
LINE
  5
11C
330
FB
100
AcDbEntity
  8
AM_4
100
AcDbLine
 10
-0.2185
 20
-2.080708333333333
 30
0.0
 11
0.2185
 21
-2.080708333333333
 31
0.0
  0
ENDBLK
  5
FE
330
FB
100
AcDbEntity
  8
0
100
AcDbBlockEnd
  0
BLOCK
  5
11F
330
11D
100
AcDbEntity
  8
0
100
AcDbBlockBegin
  2
5_070901LW_0_in_069858_4
 70
     2
 10
0.0
 20
0.0
 30
0.0
  3
5_070901LW_0_in_069858_4
  1

  0
ATTDEF
  5
121
330
11D
100
AcDbEntity
  8
AM_6
100
AcDbText
 10
7.5
 20
-1.609708333333333
 30
0.0
 40
0.5
  1
Imperial Insert Lockwasher -Inch
100
AcDbAttributeDefinition
  3

  2
NN
 70
     8
280
     0
  0
ATTDEF
  5
122
330
11D
100
AcDbEntity
  8
AM_6
100
AcDbText
 10
7.5
 20
-2.109708333333333
 30
0.0
 40
0.5
  1
Imperial Bearings
100
AcDbAttributeDefinition
  3

  2
NT
 70
     8
280
     0
  0
ATTDEF
  5
123
330
11D
100
AcDbEntity
  8
AM_6
100
AcDbText
 10
7.5
 20
-2.609708333333333
 30
0.0
 40
0.5
  1
070901LW
100
AcDbAttributeDefinition
  3

  2
NB
 70
     8
280
     0
  0
ATTDEF
  5
124
330
11D
100
AcDbEntity
  8
AM_6
100
AcDbText
 10
7.5
 20
-3.109708333333333
 30
0.0
 40
0.5
  1
$PN.LW
100
AcDbAttributeDefinition
  3

  2
NBSYN
 70
     8
280
     0
  0
ATTDEF
  5
125
330
11D
100
AcDbEntity
  8
AM_6
100
AcDbText
 10
7.5
 20
-3.609708333333333
 30
0.0
 40
0.5
  1
070901
100
AcDbAttributeDefinition
  3

  2
LINA
 70
     8
280
     0
  0
ATTDEF
  5
126
330
11D
100
AcDbEntity
  8
AM_6
100
AcDbText
 10
7.5
 20
-4.109708333333334
 30
0.0
 40
0.5
  1
3-3/16
100
AcDbAttributeDefinition
  3

  2
SS
 70
     8
280
     0
  0
ATTDEF
  5
127
330
11D
100
AcDbEntity
  8
AM_6
100
AcDbText
 10
7.5
 20
-4.609708333333334
 30
0.0
 40
0.5
  1
3.187500
100
AcDbAttributeDefinition
  3

  2
SS1
 70
     8
280
     0
  0
ATTDEF
  5
128
330
11D
100
AcDbEntity
  8
AM_6
100
AcDbText
 10
7.5
 20
-5.109708333333334
 30
0.0
 40
0.5
  1
070901
100
AcDbAttributeDefinition
  3

  2
PN
 70
     8
280
     0
  0
ATTDEF
  5
129
330
11D
100
AcDbEntity
  8
AM_6
100
AcDbText
 10
7.5
 20
-5.609708333333334
 30
0.0
 40
0.5
  1
INS-IP-303R
100
AcDbAttributeDefinition
  3

  2
DESCRIPTION
 70
     8
280
     0
  0
ATTDEF
  5
12A
330
11D
100
AcDbEntity
  8
AM_6
100
AcDbText
 10
7.5
 20
-6.109708333333334
 30
0.0
 40
0.5
  1
6.2992
100
AcDbAttributeDefinition
  3

  2
A
 70
     8
280
     0
  0
ATTDEF
  5
12B
330
11D
100
AcDbEntity
  8
AM_6
100
AcDbText
 10
7.5
 20
-6.609708333333334
 30
0.0
 40
0.5
  1
1-5/8
100
AcDbAttributeDefinition
  3

  2
B
 70
     8
280
     0
  0
ATTDEF
  5
12C
330
11D
100
AcDbEntity
  8
AM_6
100
AcDbText
 10
7.5
 20
-7.109708333333334
 30
0.0
 40
0.5
  1
4-11/64
100
AcDbAttributeDefinition
  3

  2
C
 70
     8
280
     0
  0
ATTDEF
  5
12D
330
11D
100
AcDbEntity
  8
AM_6
100
AcDbText
 10
7.5
 20
-7.609708333333334
 30
0.0
 40
0.5
  1
1.483
100
AcDbAttributeDefinition
  3

  2
D
 70
     8
280
     0
  0
ATTDEF
  5
12E
330
11D
100
AcDbEntity
  8
AM_6
100
AcDbText
 10
7.5
 20
-8.109708333333334
 30
0.0
 40
0.5
  1
5
100
AcDbAttributeDefinition
  3

  2
E
 70
     8
280
     0
  0
ATTDEF
  5
12F
330
11D
100
AcDbEntity
  8
AM_6
100
AcDbText
 10
7.5
 20
-8.609708333333334
 30
0.0
 40
0.5
  1
0.2500
100
AcDbAttributeDefinition
  3

  2
NDM
 70
     8
280
     0
  0
ATTDEF
  5
130
330
11D
100
AcDbEntity
  8
AM_6
100
AcDbText
 10
7.5
 20
-9.109708333333334
 30
0.0
 40
0.5
  1
0.1960
100
AcDbAttributeDefinition
  3

  2
KDM
 70
     8
280
     0
  0
ATTDEF
  5
131
330
11D
100
AcDbEntity
  8
AM_6
100
AcDbText
 10
7.5
 20
-9.609708333333334
 30
0.0
 40
0.5
  1
4.28
100
AcDbAttributeDefinition
  3

  2
AL
 70
     8
280
     0
  0
ATTDEF
  5
132
330
11D
100
AcDbEntity
  8
AM_6
100
AcDbText
 10
7.5
 20
-10.10970833333333
 30
0.0
 40
0.5
  1
0.50
100
AcDbAttributeDefinition
  3

  2
BL
 70
     8
280
     0
  0
ATTDEF
  5
133
330
11D
100
AcDbEntity
  8
AM_6
100
AcDbText
 10
7.5
 20
-10.60970833333333
 30
0.0
 40
0.5
  1
0.07
100
AcDbAttributeDefinition
  3

  2
CL
 70
     8
280
     0
  0
ATTDEF
  5
134
330
11D
100
AcDbEntity
  8
AM_6
100
AcDbText
 10
7.5
 20
-11.10970833333333
 30
0.0
 40
0.5
  1
0.44
100
AcDbAttributeDefinition
  3

  2
DL
 70
     8
280
     0
  0
ATTDEF
  5
135
330
11D
100
AcDbEntity
  8
AM_6
100
AcDbText
 10
7.5
 20
-11.60970833333333
 30
0.0
 40
0.5
  1
baldor
100
AcDbAttributeDefinition
  3

  2
COMPANY
 70
     8
280
     0
  0
LINE
  5
136
330
11D
100
AcDbEntity
  8
AM_9
100
AcDbLine
 10
-2.135416666666667
 20
-1.979708333333333
 30
0.0
 11
-2.135416666666667
 21
-2.049708333333333
 31
0.0
  0
LINE
  5
137
330
11D
100
AcDbEntity
  8
AM_9
100
AcDbLine
 10
-2.260470286650459
 20
-1.979708333333333
 30
0.0
 11
-2.260470286650459
 21
-2.049708333333333
 31
0.0
  0
LINE
  5
138
330
11D
100
AcDbEntity
  8
AM_9
100
AcDbLine
 10
2.135416666666667
 20
-1.979708333333333
 30
0.0
 11
2.135416666666667
 21
-2.049708333333333
 31
0.0
  0
LINE
  5
139
330
11D
100
AcDbEntity
  8
AM_9
100
AcDbLine
 10
2.260470286650459
 20
-2.049708333333333
 30
0.0
 11
2.260470286650459
 21
-1.979708333333333
 31
0.0
  0
LINE
  5
13A
330
11D
100
AcDbEntity
  8
AM_9
100
AcDbLine
 10
-1.718432677062248
 20
-1.979708333333333
 30
0.0
 11
-1.718432677062248
 21
-2.049708333333333
 31
0.0
  0
LINE
  5
13B
330
11D
100
AcDbEntity
  8
AM_9
100
AcDbLine
 10
1.718432677062248
 20
-1.979708333333333
 30
0.0
 11
1.718432677062248
 21
-2.049708333333333
 31
0.0
  0
LINE
  5
13C
330
11D
100
AcDbEntity
  8
AM_9
100
AcDbLine
 10
-1.303503746611587
 20
-1.979708333333333
 30
0.0
 11
-1.303503746611587
 21
-2.049708333333333
 31
0.0
  0
LINE
  5
13D
330
11D
100
AcDbEntity
  8
AM_9
100
AcDbLine
 10
1.303503746611586
 20
-1.979708333333333
 30
0.0
 11
1.303503746611586
 21
-2.049708333333333
 31
0.0
  0
LINE
  5
13E
330
11D
100
AcDbEntity
  8
AM_9
100
AcDbLine
 10
-0.7731006567104224
 20
-1.979708333333333
 30
0.0
 11
-0.7731006567104224
 21
-2.049708333333333
 31
0.0
  0
LINE
  5
13F
330
11D
100
AcDbEntity
  8
AM_9
100
AcDbLine
 10
-0.7235078689209182
 20
-1.609708333333333
 30
0.0
 11
-0.7235078689209182
 21
-2.049708333333333
 31
0.0
  0
LINE
  5
140
330
11D
100
AcDbEntity
  8
AM_9
100
AcDbLine
 10
1.126727051314949
 20
-1.979708333333333
 30
0.0
 11
1.126727051314947
 21
-2.049708333333333
 31
0.0
  0
LINE
  5
141
330
11D
100
AcDbEntity
  8
AM_9
100
AcDbLine
 10
-1.126727051314949
 20
-1.979708333333333
 30
0.0
 11
-1.126727051314949
 21
-2.049708333333333
 31
0.0
  0
LINE
  5
142
330
11D
100
AcDbEntity
  8
AM_9
100
AcDbLine
 10
-0.5421307735826004
 20
-1.979708333333333
 30
0.0
 11
-0.5421307735826004
 21
-2.049708333333333
 31
0.0
  0
LINE
  5
143
330
11D
100
AcDbEntity
  8
AM_9
100
AcDbLine
 10
-0.4925379857930969
 20
-1.609708333333333
 30
0.0
 11
-0.7557021678985564
 21
-1.609708333333333
 31
0.0
  0
LINE
  5
144
330
11D
100
AcDbEntity
  8
AM_9
100
AcDbLine
 10
-0.4925379857930969
 20
-1.609708333333333
 30
0.0
 11
-0.4925379857930969
 21
-2.049708333333333
 31
0.0
  0
LINE
  5
145
330
11D
100
AcDbEntity
  8
AM_9
100
AcDbLine
 10
-0.5247322847707347
 20
-1.979708333333333
 30
0.0
 11
-0.5247322847707345
 21
-1.609708333333333
 31
0.0
  0
LINE
  5
146
330
11D
100
AcDbEntity
  8
AM_9
100
AcDbLine
 10
-0.7557021678985564
 20
-1.609708333333333
 30
0.0
 11
-0.7557021678985565
 21
-1.979708333333333
 31
0.0
  0
LINE
  5
147
330
11D
100
AcDbEntity
  8
AM_9
100
AcDbLine
 10
-1.598355953307092
 20
-1.979708333333333
 30
0.0
 11
-1.598355953307092
 21
-2.049708333333333
 31
0.0
  0
LINE
  5
148
330
11D
100
AcDbEntity
  8
AM_9
100
AcDbLine
 10
-1.421579258010486
 20
-1.979708333333333
 30
0.0
 11
-1.421579258010486
 21
-2.049708333333333
 31
0.0
  0
LINE
  5
149
330
11D
100
AcDbEntity
  8
AM_9
100
AcDbLine
 10
-1.635005524079868
 20
-1.979708333333333
 30
0.0
 11
-1.635005524079868
 21
-2.049708333333333
 31
0.0
  0
LINE
  5
14A
330
11D
100
AcDbEntity
  8
AM_9
100
AcDbLine
 10
1.421579258010454
 20
-1.979708333333333
 30
0.0
 11
1.421579258010454
 21
-2.049708333333333
 31
0.0
  0
LINE
  5
14B
330
11D
100
AcDbEntity
  8
AM_9
100
AcDbLine
 10
1.598355953307092
 20
-1.979708333333333
 30
0.0
 11
1.598355953307092
 21
-2.049708333333333
 31
0.0
  0
LINE
  5
14C
330
11D
100
AcDbEntity
  8
AM_9
100
AcDbLine
 10
1.635005524079868
 20
-2.049708333333333
 30
0.0
 11
1.635005524079868
 21
-1.979708333333333
 31
0.0
  0
LINE
  5
14D
330
11D
100
AcDbEntity
  8
AM_9
100
AcDbLine
 10
-0.1250000000000003
 20
-1.979708333333333
 30
0.0
 11
-0.1250000000000003
 21
-2.049708333333333
 31
0.0
  0
LINE
  5
14E
330
11D
100
AcDbEntity
  8
AM_9
100
AcDbLine
 10
0.1249999999999998
 20
-1.979708333333333
 30
0.0
 11
0.1249999999999998
 21
-2.049708333333333
 31
0.0
  0
LINE
  5
14F
330
11D
100
AcDbEntity
  8
AM_4
100
AcDbLine
 10
-2.5
 20
-1.979708333333333
 30
0.0
 11
-2.5
 21
-2.049708333333333
 31
0.0
  0
LINE
  5
150
330
11D
100
AcDbEntity
  8
AM_4
100
AcDbLine
 10
2.5
 20
-2.049708333333333
 30
0.0
 11
2.5
 21
-1.979708333333333
 31
0.0
  0
LINE
  5
151
330
11D
100
AcDbEntity
  8
AM_4
100
AcDbLine
 10
-2.5
 20
-2.049708333333333
 30
0.0
 11
2.5
 21
-2.049708333333333
 31
0.0
  0
LINE
  5
152
330
11D
100
AcDbEntity
  8
AM_4
100
AcDbLine
 10
-2.5
 20
-1.979708333333333
 30
0.0
 11
2.5
 21
-1.979708333333333
 31
0.0
  0
ENDBLK
  5
120
330
11D
100
AcDbEntity
  8
0
100
AcDbBlockEnd
  0
BLOCK
  5
155
330
153
100
AcDbEntity
  8
0
100
AcDbBlockBegin
  2
6_070901I_0_in_069858_4
 70
     2
 10
0.0
 20
0.0
 30
0.0
  3
6_070901I_0_in_069858_4
  1

  0
ATTDEF
  5
157
330
153
100
AcDbEntity
  8
AM_6
100
AcDbText
 10
8.1496
 20
2.10984375
 30
0.0
 40
0.5
  1
Imperial Insert -Inch
100
AcDbAttributeDefinition
  3

  2
NN
 70
     8
280
     0
  0
ATTDEF
  5
158
330
153
100
AcDbEntity
  8
AM_6
100
AcDbText
 10
8.1496
 20
1.60984375
 30
0.0
 40
0.5
  1
Imperial Bearings
100
AcDbAttributeDefinition
  3

  2
NT
 70
     8
280
     0
  0
ATTDEF
  5
159
330
153
100
AcDbEntity
  8
AM_6
100
AcDbText
 10
8.1496
 20
1.10984375
 30
0.0
 40
0.5
  1
070901I
100
AcDbAttributeDefinition
  3

  2
NB
 70
     8
280
     0
  0
ATTDEF
  5
15A
330
153
100
AcDbEntity
  8
AM_6
100
AcDbText
 10
8.1496
 20
0.6098437499999996
 30
0.0
 40
0.5
  1
$PN.I
100
AcDbAttributeDefinition
  3

  2
NBSYN
 70
     8
280
     0
  0
ATTDEF
  5
15B
330
153
100
AcDbEntity
  8
AM_6
100
AcDbText
 10
8.1496
 20
0.1098437499999996
 30
0.0
 40
0.5
  1
070901
100
AcDbAttributeDefinition
  3

  2
LINA
 70
     8
280
     0
  0
ATTDEF
  5
15C
330
153
100
AcDbEntity
  8
AM_6
100
AcDbText
 10
8.1496
 20
-0.3901562500000004
 30
0.0
 40
0.5
  1
3-3/16
100
AcDbAttributeDefinition
  3

  2
SS
 70
     8
280
     0
  0
ATTDEF
  5
15D
330
153
100
AcDbEntity
  8
AM_6
100
AcDbText
 10
8.1496
 20
-0.8901562500000004
 30
0.0
 40
0.5
  1
3.187500
100
AcDbAttributeDefinition
  3

  2
SS1
 70
     8
280
     0
  0
ATTDEF
  5
15E
330
153
100
AcDbEntity
  8
AM_6
100
AcDbText
 10
8.1496
 20
-1.39015625
 30
0.0
 40
0.5
  1
070901
100
AcDbAttributeDefinition
  3

  2
PN
 70
     8
280
     0
  0
ATTDEF
  5
15F
330
153
100
AcDbEntity
  8
AM_6
100
AcDbText
 10
8.1496
 20
-1.89015625
 30
0.0
 40
0.5
  1
INS-IP-303R
100
AcDbAttributeDefinition
  3

  2
DESCRIPTION
 70
     8
280
     0
  0
ATTDEF
  5
160
330
153
100
AcDbEntity
  8
AM_6
100
AcDbText
 10
8.1496
 20
-2.39015625
 30
0.0
 40
0.5
  1
Contact Seal
100
AcDbAttributeDefinition
  3

  2
ST
 70
     8
280
     0
  0
ATTDEF
  5
161
330
153
100
AcDbEntity
  8
AM_6
100
AcDbText
 10
8.1496
 20
-2.89015625
 30
0.0
 40
0.5
  1
6.2992
100
AcDbAttributeDefinition
  3

  2
A
 70
     8
280
     0
  0
ATTDEF
  5
162
330
153
100
AcDbEntity
  8
AM_6
100
AcDbText
 10
8.1496
 20
-3.39015625
 30
0.0
 40
0.5
  1
1-5/8
100
AcDbAttributeDefinition
  3

  2
B
 70
     8
280
     0
  0
ATTDEF
  5
163
330
153
100
AcDbEntity
  8
AM_6
100
AcDbText
 10
8.1496
 20
-3.89015625
 30
0.0
 40
0.5
  1
4-11/64
100
AcDbAttributeDefinition
  3

  2
C
 70
     8
280
     0
  0
ATTDEF
  5
164
330
153
100
AcDbEntity
  8
AM_6
100
AcDbText
 10
8.1496
 20
-4.39015625
 30
0.0
 40
0.5
  1
1.483
100
AcDbAttributeDefinition
  3

  2
D
 70
     8
280
     0
  0
ATTDEF
  5
165
330
153
100
AcDbEntity
  8
AM_6
100
AcDbText
 10
8.1496
 20
-4.89015625
 30
0.0
 40
0.5
  1
5
100
AcDbAttributeDefinition
  3

  2
E
 70
     8
280
     0
  0
ATTDEF
  5
166
330
153
100
AcDbEntity
  8
AM_6
100
AcDbText
 10
8.1496
 20
-5.39015625
 30
0.0
 40
0.5
  1
0.2500
100
AcDbAttributeDefinition
  3

  2
NDM
 70
     8
280
     0
  0
ATTDEF
  5
167
330
153
100
AcDbEntity
  8
AM_6
100
AcDbText
 10
8.1496
 20
-5.89015625
 30
0.0
 40
0.5
  1
0.132
100
AcDbAttributeDefinition
  3

  2
H
 70
     8
280
     0
  0
ATTDEF
  5
168
330
153
100
AcDbEntity
  8
AM_6
100
AcDbText
 10
8.1496
 20
-6.39015625
 30
0.0
 40
0.5
  1
0.1960
100
AcDbAttributeDefinition
  3

  2
KDM
 70
     8
280
     0
  0
ATTDEF
  5
169
330
153
100
AcDbEntity
  8
AM_6
100
AcDbText
 10
8.1496
 20
-6.89015625
 30
0.0
 40
0.5
  1
4.28
100
AcDbAttributeDefinition
  3

  2
AL
 70
     8
280
     0
  0
ATTDEF
  5
16A
330
153
100
AcDbEntity
  8
AM_6
100
AcDbText
 10
8.1496
 20
-7.39015625
 30
0.0
 40
0.5
  1
0.50
100
AcDbAttributeDefinition
  3

  2
BL
 70
     8
280
     0
  0
ATTDEF
  5
16B
330
153
100
AcDbEntity
  8
AM_6
100
AcDbText
 10
8.1496
 20
-7.89015625
 30
0.0
 40
0.5
  1
0.07
100
AcDbAttributeDefinition
  3

  2
CL
 70
     8
280
     0
  0
ATTDEF
  5
16C
330
153
100
AcDbEntity
  8
AM_6
100
AcDbText
 10
8.1496
 20
-8.39015625
 30
0.0
 40
0.5
  1
0.44
100
AcDbAttributeDefinition
  3

  2
DL
 70
     8
280
     0
  0
ATTDEF
  5
16D
330
153
100
AcDbEntity
  8
AM_6
100
AcDbText
 10
8.1496
 20
-8.89015625
 30
0.0
 40
0.5
  1
0.8000
100
AcDbAttributeDefinition
  3

  2
LL
 70
     8
280
     0
  0
ATTDEF
  5
16E
330
153
100
AcDbEntity
  8
AM_6
100
AcDbText
 10
8.1496
 20
-9.39015625
 30
0.0
 40
0.5
  1
0.025
100
AcDbAttributeDefinition
  3

  2
Y
 70
     8
280
     0
  0
ATTDEF
  5
16F
330
153
100
AcDbEntity
  8
AM_6
100
AcDbText
 10
8.1496
 20
-9.89015625
 30
0.0
 40
0.5
  1
0.025000
100
AcDbAttributeDefinition
  3

  2
Y1
 70
     8
280
     0
  0
ATTDEF
  5
170
330
153
100
AcDbEntity
  8
AM_6
100
AcDbText
 10
8.1496
 20
-10.39015625
 30
0.0
 40
0.5
  1
4-3/64
100
AcDbAttributeDefinition
  3

  2
Z
 70
     8
280
     0
  0
ATTDEF
  5
171
330
153
100
AcDbEntity
  8
AM_6
100
AcDbText
 10
8.1496
 20
-10.89015625
 30
0.0
 40
0.5
  1
4.046875
100
AcDbAttributeDefinition
  3

  2
Z1
 70
     8
280
     0
  0
ATTDEF
  5
172
330
153
100
AcDbEntity
  8
AM_6
100
AcDbText
 10
8.1496
 20
-11.39015625
 30
0.0
 40
0.5
  1
baldor
100
AcDbAttributeDefinition
  3

  2
COMPANY
 70
     8
280
     0
  0
LINE
  5
173
330
153
100
AcDbEntity
  8
AM_9
100
AcDbLine
 10
-0.7574008133890099
 20
1.2045
 30
0.0
 11
-0.7574008133890099
 21
-1.979708333333333
 31
0.0
  0
LINE
  5
174
330
153
100
AcDbEntity
  8
AM_9
100
AcDbLine
 10
-0.4925379857930963
 20
1.2045
 30
0.0
 11
-0.4925379857930965
 21
-2.296875
 31
0.0
  0
LINE
  5
175
330
153
100
AcDbEntity
  8
AM_9
100
AcDbLine
 10
-0.7235078689209178
 20
-2.049708333333333
 30
0.0
 11
-0.7235078689209177
 21
1.2045
 31
0.0
  0
LINE
  5
176
330
153
100
AcDbEntity
  8
AM_9
100
AcDbLine
 10
-1.593749999999999
 20
1.2045
 30
0.0
 11
-1.593749999999999
 21
-2.296875
 31
0.0
  0
LINE
  5
177
330
153
100
AcDbEntity
  8
AM_9
100
AcDbLine
 10
1.593749999999999
 20
-2.296875
 30
0.0
 11
1.593749999999999
 21
1.2045
 31
0.0
  0
LINE
  5
178
330
153
100
AcDbEntity
  8
AM_9
100
AcDbLine
 10
-0.5264309302611883
 20
1.2045
 30
0.0
 11
-0.5264309302611883
 21
-1.979708333333333
 31
0.0
  0
LINE
  5
179
330
153
100
AcDbEntity
  8
AM_9
100
AcDbLine
 10
-1.677631578947369
 20
1.875
 30
0.0
 11
-1.677631578947369
 21
1.2045
 31
0.0
  0
LINE
  5
17A
330
153
100
AcDbEntity
  8
AM_9
100
AcDbLine
 10
1.677631578947369
 20
1.2045
 30
0.0
 11
1.677631578947369
 21
1.875
 31
0.0
  0
LINE
  5
17B
330
153
100
AcDbEntity
  8
AM_9
100
AcDbLine
 10
-0.5247322847707344
 20
-2.049708333333333
 30
0.0
 11
-0.5247322847707344
 21
-1.979708333333333
 31
0.0
  0
LINE
  5
17C
330
153
100
AcDbEntity
  8
AM_9
100
AcDbLine
 10
-0.7557021678985563
 20
-1.979708333333333
 30
0.0
 11
-0.7557021678985559
 21
-2.049708333333333
 31
0.0
  0
LINE
  5
17D
330
153
100
AcDbEntity
  8
AM_9
100
AcDbLine
 10
-1.677631578947369
 20
-1.979708333333333
 30
0.0
 11
-1.677631578947369
 21
-2.049708333333333
 31
0.0
  0
LINE
  5
17E
330
153
100
AcDbEntity
  8
AM_9
100
AcDbLine
 10
1.677631578947369
 20
-2.049708333333333
 30
0.0
 11
1.677631578947369
 21
-1.979708333333333
 31
0.0
  0
LINE
  5
17F
330
153
100
AcDbEntity
  8
AM_9
100
AcDbLine
 10
1.336431816442575
 20
-1.539708333333333
 30
0.0
 11
1.336431816442575
 21
-1.979708333333333
 31
0.0
  0
LINE
  5
180
330
153
100
AcDbEntity
  8
AM_9
100
AcDbLine
 10
-1.336431816442575
 20
-1.539708333333333
 30
0.0
 11
-1.336431816442575
 21
-1.979708333333333
 31
0.0
  0
LINE
  5
181
330
153
100
AcDbEntity
  8
AM_9
100
AcDbLine
 10
1.336431816442575
 20
-1.539708333333333
 30
0.0
 11
1.593048406283363
 21
-1.539708333333333
 31
0.0
  0
LINE
  5
182
330
153
100
AcDbEntity
  8
AM_9
100
AcDbLine
 10
-1.593048406283363
 20
-1.539708333333333
 30
0.0
 11
-1.336431816442575
 21
-1.539708333333333
 31
0.0
  0
LINE
  5
183
330
153
100
AcDbEntity
  8
AM_9
100
AcDbLine
 10
2.0234375
 20
1.875
 30
0.0
 11
-2.0234375
 21
1.875
 31
0.0
  0
LINE
  5
184
330
153
100
AcDbEntity
  8
AM_9
100
AcDbLine
 10
-2.0234375
 20
1.899999999999999
 30
0.0
 11
-2.0234375
 21
1.875
 31
0.0
  0
LINE
  5
185
330
153
100
AcDbEntity
  8
AM_9
100
AcDbLine
 10
2.0234375
 20
1.875
 30
0.0
 11
2.0234375
 21
1.899999999999999
 31
0.0
  0
LINE
  5
186
330
153
100
AcDbEntity
  8
AM_9
100
AcDbLine
 10
0.0
 20
-1.139708333333334
 30
0.0
 11
-0.09795
 21
-1.185383168449616
 31
0.0
  0
LINE
  5
187
330
153
100
AcDbEntity
  8
AM_9
100
AcDbLine
 10
0.09795
 20
-1.185383168449616
 30
0.0
 11
0.0
 21
-1.139708333333334
 31
0.0
  0
LINE
  5
188
330
153
100
AcDbEntity
  8
AM_9
100
AcDbLine
 10
0.09795
 20
-1.185383168449616
 30
0.0
 11
-0.09795
 21
-1.185383168449616
 31
0.0
  0
LINE
  5
189
330
153
100
AcDbEntity
  8
AM_9
100
AcDbLine
 10
-0.09795
 20
-1.185383168449616
 30
0.0
 11
-0.09795
 21
-1.952658333333333
 31
0.0
  0
LINE
  5
18A
330
153
100
AcDbEntity
  8
AM_9
100
AcDbLine
 10
0.09795
 20
-1.952658333333333
 30
0.0
 11
0.09795
 21
-1.185383168449616
 31
0.0
  0
LINE
  5
18B
330
153
100
AcDbEntity
  8
AM_9
100
AcDbLine
 10
0.09795
 20
-1.952658333333333
 30
0.0
 11
-0.09795
 21
-1.952658333333333
 31
0.0
  0
LINE
  5
18C
330
153
100
AcDbEntity
  8
AM_9
100
AcDbLine
 10
-0.09795
 20
-1.952658333333333
 30
0.0
 11
-0.1249999999999999
 21
-1.979708333333333
 31
0.0
  0
LINE
  5
18D
330
153
100
AcDbEntity
  8
AM_9
100
AcDbLine
 10
0.1249999999999999
 20
-1.979708333333333
 30
0.0
 11
0.09795
 21
-1.952658333333333
 31
0.0
  0
LINE
  5
18E
330
153
100
AcDbEntity
  8
AM_9
100
AcDbLine
 10
2.517297421154912
 20
-1.484375
 30
0.0
 11
2.554448754797947
 21
-0.4205
 31
0.0
  0
LINE
  5
18F
330
153
100
AcDbEntity
  8
AM_9
100
AcDbLine
 10
-2.554448754797947
 20
-0.4205
 30
0.0
 11
-2.517297421154912
 21
-1.484375
 31
0.0
  0
ARC
  5
190
330
153
100
AcDbEntity
  8
AM_9
100
AcDbCircle
 10
-2.704226135594407
 20
1.429499999999998
 30
0.0
 40
0.1000000000000023
100
AcDbArc
 50
120.5427761488762
 51
149.9999999999996
  0
ARC
  5
191
330
153
100
AcDbEntity
  8
AM_9
100
AcDbCircle
 10
2.704226135594407
 20
1.429499999999998
 30
0.0
 40
0.1000000000000024
100
AcDbArc
 50
30.00000000000041
 51
59.45722385112376
  0
LINE
  5
192
330
153
100
AcDbEntity
  8
AM_9
100
AcDbLine
 10
2.790828675972853
 20
1.4795
 30
0.0
 11
-2.790828675972853
 21
1.4795
 31
0.0
  0
LINE
  5
193
330
153
100
AcDbEntity
  8
AM_9
100
AcDbLine
 10
-2.790828675972853
 20
1.4795
 30
0.0
 11
-2.9496
 21
1.2045
 31
0.0
  0
LINE
  5
194
330
153
100
AcDbEntity
  8
AM_9
100
AcDbLine
 10
2.9496
 20
1.2045
 30
0.0
 11
2.790828675972853
 21
1.4795
 31
0.0
  0
LINE
  5
195
330
153
100
AcDbEntity
  8
AM_9
100
AcDbLine
 10
-3.06835
 20
0.4389097093716568
 30
0.0
 11
-3.06835
 21
0.345090290628343
 31
0.0
  0
LINE
  5
196
330
153
100
AcDbEntity
  8
AM_9
100
AcDbLine
 10
3.06835
 20
0.345090290628343
 30
0.0
 11
3.06835
 21
0.4389097093716568
 31
0.0
  0
LINE
  5
197
330
153
100
AcDbEntity
  8
AM_9
100
AcDbLine
 10
3.06835
 20
0.345090290628343
 30
0.0
 11
-3.06835
 21
0.345090290628343
 31
0.0
  0
LINE
  5
198
330
153
100
AcDbEntity
  8
AM_9
100
AcDbLine
 10
-3.06835
 20
0.345090290628343
 30
0.0
 11
-3.1496
 21
0.298180581256686
 31
0.0
  0
LINE
  5
199
330
153
100
AcDbEntity
  8
AM_9
100
AcDbLine
 10
3.1496
 20
0.298180581256686
 30
0.0
 11
3.06835
 21
0.345090290628343
 31
0.0
  0
LINE
  5
19A
330
153
100
AcDbEntity
  8
AM_9
100
AcDbLine
 10
3.1496
 20
0.298180581256686
 30
0.0
 11
-3.1496
 21
0.298180581256686
 31
0.0
  0
LINE
  5
19B
330
153
100
AcDbEntity
  8
AM_9
100
AcDbLine
 10
-3.1496
 20
0.298180581256686
 30
0.0
 11
-3.1496
 21
-0.3705000000000006
 31
0.0
  0
LINE
  5
19C
330
153
100
AcDbEntity
  8
AM_9
100
AcDbLine
 10
3.1496
 20
-0.3705000000000006
 30
0.0
 11
3.1496
 21
0.298180581256686
 31
0.0
  0
LINE
  5
19D
330
153
100
AcDbEntity
  8
AM_9
100
AcDbLine
 10
3.06835
 20
0.4389097093716568
 30
0.0
 11
-3.06835
 21
0.4389097093716568
 31
0.0
  0
LINE
  5
19E
330
153
100
AcDbEntity
  8
AM_9
100
AcDbLine
 10
3.06835
 20
0.4389097093716568
 30
0.0
 11
3.1496
 21
0.4858194187433143
 31
0.0
  0
LINE
  5
19F
330
153
100
AcDbEntity
  8
AM_9
100
AcDbLine
 10
-3.1496
 20
0.4858194187433143
 30
0.0
 11
-3.06835
 21
0.4389097093716568
 31
0.0
  0
LINE
  5
1A0
330
153
100
AcDbEntity
  8
AM_9
100
AcDbLine
 10
3.1496
 20
-0.3705000000000006
 30
0.0
 11
-3.1496
 21
-0.3705000000000006
 31
0.0
  0
LINE
  5
1A1
330
153
100
AcDbEntity
  8
AM_9
100
AcDbLine
 10
3.0996
 20
-0.4205000000000003
 30
0.0
 11
-3.099599999992953
 21
-0.4205000000000003
 31
0.0
  0
ARC
  5
1A2
330
153
100
AcDbEntity
  8
AM_9
100
AcDbCircle
 10
-3.0996
 20
-0.3705000000000007
 30
0.0
 40
0.0499999999999994
100
AcDbArc
 50
180.0
 51
270.0
  0
ARC
  5
1A3
330
153
100
AcDbEntity
  8
AM_9
100
AcDbCircle
 10
3.0996
 20
-0.3705000000000007
 30
0.0
 40
0.0499999999999995
100
AcDbArc
 50
270.0
 51
0.0
  0
LINE
  5
1A4
330
153
100
AcDbEntity
  8
AM_9
100
AcDbLine
 10
3.0996
 20
1.2045
 30
0.0
 11
-3.099599999992953
 21
1.2045
 31
0.0
  0
ARC
  5
1A5
330
153
100
AcDbEntity
  8
AM_9
100
AcDbCircle
 10
-3.0996
 20
1.154500000000001
 30
0.0
 40
0.0499999999999992
100
AcDbArc
 50
90.0
 51
180.0
  0
ARC
  5
1A6
330
153
100
AcDbEntity
  8
AM_9
100
AcDbCircle
 10
3.099600000000001
 20
1.154500000000001
 30
0.0
 40
0.0499999999999989
100
AcDbArc
 50
0.0
 51
90.0
  0
LINE
  5
1A7
330
153
100
AcDbEntity
  8
AM_9
100
AcDbLine
 10
3.1496
 20
1.1545
 30
0.0
 11
-3.1496
 21
1.1545
 31
0.0
  0
LINE
  5
1A8
330
153
100
AcDbEntity
  8
AM_9
100
AcDbLine
 10
3.1496
 20
0.4858194187433143
 30
0.0
 11
-3.1496
 21
0.4858194187433143
 31
0.0
  0
LINE
  5
1A9
330
153
100
AcDbEntity
  8
AM_9
100
AcDbLine
 10
-3.1496
 20
1.1545
 30
0.0
 11
-3.1496
 21
0.4858194187433143
 31
0.0
  0
LINE
  5
1AA
330
153
100
AcDbEntity
  8
AM_9
100
AcDbLine
 10
3.1496
 20
0.4858194187433143
 30
0.0
 11
3.1496
 21
1.1545
 31
0.0
  0
LINE
  5
1AB
330
153
100
AcDbEntity
  8
AM_5
100
AcDbLine
 10
0.1249999999999999
 20
-1.219708333333333
 30
0.0
 11
0.09795
 21
-1.204091008551754
 31
0.0
  0
LINE
  5
1AC
330
153
100
AcDbEntity
  8
AM_5
100
AcDbLine
 10
0.09795
 20
-1.219708333333346
 30
0.0
 11
0.1249999999999999
 21
-1.219708333333346
 31
0.0
  0
LINE
  5
1AD
330
153
100
AcDbEntity
  8
AM_5
100
AcDbLine
 10
-0.09795
 20
-1.219708333333346
 30
0.0
 11
-0.1249999999999999
 21
-1.219708333333346
 31
0.0
  0
LINE
  5
1AE
330
153
100
AcDbEntity
  8
AM_5
100
AcDbLine
 10
-0.1249999999999999
 20
-1.219708333333346
 30
0.0
 11
-0.09795
 21
-1.204091008551766
 31
0.0
  0
LINE
  5
1B1
330
153
100
AcDbEntity
  8
AM_7
100
AcDbLine
 10
0.0
 20
2.10984375
 30
0.0
 11
0.0
 21
-2.50671875
 31
0.0
  0
ARC
  5
1B2
330
153
100
AcDbEntity
  8
AM_4
100
AcDbCircle
 10
2.451715561259646
 20
-1.929708333333333
 30
0.0
 40
0.0500000000000005
100
AcDbArc
 50
270.0
 51
357.9999999999993
  0
ARC
  5
1B3
330
153
100
AcDbEntity
  8
AM_4
100
AcDbCircle
 10
-2.451715561259646
 20
-1.929708333333333
 30
0.0
 40
0.0500000000000003
100
AcDbArc
 50
182.0000000000006
 51
270.0
  0
LWPOLYLINE
  5
1B4
330
153
100
AcDbEntity
  8
AM_4
100
AcDbPolyline
 90
        6
 70
     0
 43
0.0
 10
1.936880151435482
 20
-1.931453308168459
 10
1.934486066876636
 20
-1.947829277847101
 10
1.928394861241001
 20
-1.962169505113439
 10
1.919278208205407
 20
-1.972892061431032
 10
1.908118701042668
 20
-1.978797213756794
 10
1.90136493504007
 20
-1.979708333333333
  0
LWPOLYLINE
  5
1B5
330
153
100
AcDbEntity
  8
AM_4
100
AcDbPolyline
 90
        6
 70
     0
 43
0.0
 10
-1.901364935040069
 20
-1.979708333333333
 10
-1.906574535217859
 20
-1.97916824476616
 10
-1.917978192677443
 20
-1.973908839127761
 10
-1.927485891094621
 20
-1.96361070264424
 10
-1.934003513616657
 20
-1.949486909572901
 10
-1.936880151435481
 20
-1.931453308168459
  0
LINE
  5
1B6
330
153
100
AcDbEntity
  8
AM_4
100
AcDbLine
 10
-0.7235078689209181
 20
-2.296875
 30
0.0
 11
-0.7235078689209178
 21
-2.049708333333333
 31
0.0
  0
LINE
  5
1B7
330
153
100
AcDbEntity
  8
AM_4
100
AcDbLine
 10
-0.5247322847707345
 20
-2.296875
 30
0.0
 11
-0.5247322847707344
 21
-2.049708333333333
 31
0.0
  0
LINE
  5
1B8
330
153
100
AcDbEntity
  8
AM_4
100
AcDbLine
 10
-0.7557021678985559
 20
-2.049708333333333
 30
0.0
 11
-0.7557021678985558
 21
-2.296875
 31
0.0
  0
LINE
  5
1B9
330
153
100
AcDbEntity
  8
AM_4
100
AcDbLine
 10
-1.677631578947369
 20
-2.049708333333333
 30
0.0
 11
-1.677631578947369
 21
-2.296875
 31
0.0
  0
LINE
  5
1BA
330
153
100
AcDbEntity
  8
AM_4
100
AcDbLine
 10
1.677631578947369
 20
-2.296875
 30
0.0
 11
1.677631578947369
 21
-2.049708333333333
 31
0.0
  0
LINE
  5
1BB
330
153
100
AcDbEntity
  8
AM_4
100
AcDbLine
 10
1.677631578947369
 20
-2.296875
 30
0.0
 11
-1.677631578947369
 21
-2.296875
 31
0.0
  0
LINE
  5
1BC
330
153
100
AcDbEntity
  8
AM_4
100
AcDbLine
 10
1.689985207035849
 20
-1.539708333333333
 30
0.0
 11
1.689985207035849
 21
-1.979708333333333
 31
0.0
  0
LINE
  5
1BD
330
153
100
AcDbEntity
  8
AM_4
100
AcDbLine
 10
-1.689985207035848
 20
-1.539708333333333
 30
0.0
 11
-1.689985207035848
 21
-1.979708333333333
 31
0.0
  0
LINE
  5
1BE
330
153
100
AcDbEntity
  8
AM_4
100
AcDbLine
 10
-2.248263888888889
 20
1.848116987179484
 30
0.0
 11
-2.248263888888889
 21
1.529499999999999
 31
0.0
  0
LINE
  5
1BF
330
153
100
AcDbEntity
  8
AM_4
100
AcDbLine
 10
2.248263888888889
 20
1.529499999999999
 30
0.0
 11
2.248263888888889
 21
1.848116987179484
 31
0.0
  0
LINE
  5
1C0
330
153
100
AcDbEntity
  8
AM_4
100
AcDbLine
 10
2.196380876068376
 20
1.9
 30
0.0
 11
-2.196380876053085
 21
1.9
 31
0.0
  0
LINE
  5
1C1
330
153
100
AcDbEntity
  8
AM_4
100
AcDbLine
 10
2.248263888888889
 20
1.848116987179484
 30
0.0
 11
-2.248263888888889
 21
1.848116987179484
 31
0.0
  0
ARC
  5
1C2
330
153
100
AcDbEntity
  8
AM_4
100
AcDbCircle
 10
-2.196380876068375
 20
1.848116987179486
 30
0.0
 40
0.0518830128205137
100
AcDbArc
 50
90.0
 51
180.0
  0
ARC
  5
1C3
330
153
100
AcDbEntity
  8
AM_4
100
AcDbCircle
 10
2.196380876068375
 20
1.848116987179486
 30
0.0
 40
0.0518830128205137
100
AcDbArc
 50
0.0
 51
90.0
  0
LWPOLYLINE
  5
1C4
330
153
100
AcDbEntity
  8
AM_4
100
AcDbPolyline
 90
        6
 70
     0
 43
0.0
 10
1.547811544446796
 20
-1.979708333333333
 10
1.553021144624585
 20
-1.97916824476616
 10
1.56442480208417
 20
-1.973908839127761
 10
1.573932500501348
 20
-1.96361070264424
 10
1.580450123023384
 20
-1.949486909572901
 10
1.583326760842208
 20
-1.931453308168459
  0
LWPOLYLINE
  5
1C5
330
153
100
AcDbEntity
  8
AM_4
100
AcDbPolyline
 90
        6
 70
     0
 43
0.0
 10
-1.583326760842207
 20
-1.931453308168459
 10
-1.580932676283362
 20
-1.947829277847101
 10
-1.574841470647727
 20
-1.962169505113438
 10
-1.565724817612132
 20
-1.972892061431032
 10
-1.554565310449393
 20
-1.978797213756794
 10
-1.547811544446795
 20
-1.979708333333333
  0
LINE
  5
1C6
330
153
100
AcDbEntity
  8
AM_4
100
AcDbLine
 10
-1.936880151435481
 20
-1.931453308168459
 30
0.0
 11
-2.501685102610601
 21
-1.931453308168459
 31
0.0
  0
LINE
  5
1C7
330
153
100
AcDbEntity
  8
AM_4
100
AcDbLine
 10
-1.936880151435481
 20
-1.931453308168459
 30
0.0
 11
-1.946601796876636
 21
-1.539708333333333
 31
0.0
  0
LINE
  5
1C8
330
153
100
AcDbEntity
  8
AM_4
100
AcDbLine
 10
-1.946601796876636
 20
-1.539708333333333
 30
0.0
 11
-1.593048406283363
 21
-1.539708333333333
 31
0.0
  0
LINE
  5
1C9
330
153
100
AcDbEntity
  8
AM_4
100
AcDbLine
 10
-1.593048406283363
 20
-1.539708333333333
 30
0.0
 11
-1.583326760842207
 21
-1.931453308168459
 31
0.0
  0
LINE
  5
1CA
330
153
100
AcDbEntity
  8
AM_4
100
AcDbLine
 10
1.583326760842208
 20
-1.931453308168459
 30
0.0
 11
-1.583326760842207
 21
-1.931453308168459
 31
0.0
  0
LINE
  5
1CB
330
153
100
AcDbEntity
  8
AM_4
100
AcDbLine
 10
1.583326760842208
 20
-1.931453308168459
 30
0.0
 11
1.593048406283363
 21
-1.539708333333333
 31
0.0
  0
LINE
  5
1CC
330
153
100
AcDbEntity
  8
AM_4
100
AcDbLine
 10
1.593048406283363
 20
-1.539708333333333
 30
0.0
 11
1.946601796876637
 21
-1.539708333333333
 31
0.0
  0
LINE
  5
1CD
330
153
100
AcDbEntity
  8
AM_4
100
AcDbLine
 10
1.946601796876637
 20
-1.539708333333333
 30
0.0
 11
1.936880151435482
 21
-1.931453308168459
 31
0.0
  0
LINE
  5
1CE
330
153
100
AcDbEntity
  8
AM_4
100
AcDbLine
 10
2.501685102610601
 20
-1.931453308168459
 30
0.0
 11
2.517297421154912
 21
-1.484375
 31
0.0
  0
LINE
  5
1CF
330
153
100
AcDbEntity
  8
AM_4
100
AcDbLine
 10
-2.517297421154912
 20
-1.484375
 30
0.0
 11
-2.501685102610601
 21
-1.931453308168459
 31
0.0
  0
LINE
  5
1D0
330
153
100
AcDbEntity
  8
AM_4
100
AcDbLine
 10
2.501685102610601
 20
-1.931453308168459
 30
0.0
 11
1.936880151435482
 21
-1.931453308168459
 31
0.0
  0
LINE
  5
1D1
330
153
100
AcDbEntity
  8
AM_4
100
AcDbLine
 10
2.704226135594408
 20
1.5295
 30
0.0
 11
-2.704226135592782
 21
1.5295
 31
0.0
  0
ARC
  5
1D2
330
153
100
AcDbEntity
  8
AM_4
100
AcDbCircle
 10
-2.704226135594407
 20
1.4295
 30
0.0
 40
0.0999999999999996
100
AcDbArc
 50
90.0
 51
120.5427761488767
  0
ARC
  5
1D3
330
153
100
AcDbEntity
  8
AM_4
100
AcDbCircle
 10
2.704226135594407
 20
1.4295
 30
0.0
 40
0.0999999999999999
100
AcDbArc
 50
59.45722385112328
 51
90.0
  0
ENDBLK
  5
156
330
153
100
AcDbEntity
  8
0
100
AcDbBlockEnd
  0
BLOCK
  5
1D6
330
1D4
100
AcDbEntity
  8
0
100
AcDbBlockBegin
  2
7_069858H_0_in_069858_4
 70
     2
 10
0.0
 20
0.0
 30
0.0
  3
7_069858H_0_in_069858_4
  1

  0
ATTDEF
  5
1D8
330
1D4
100
AcDbEntity
  8
AM_6
100
AcDbText
 10
10.125
 20
1.515625
 30
0.0
 40
0.5
  1
FC-IP -(Contact Seal)-Housing -Inch
100
AcDbAttributeDefinition
  3

  2
NN
 70
     8
280
     0
  0
ATTDEF
  5
1D9
330
1D4
100
AcDbEntity
  8
AM_6
100
AcDbText
 10
10.125
 20
1.015625
 30
0.0
 40
0.5
  1
Imperial Piloted Flange Bearings
100
AcDbAttributeDefinition
  3

  2
NT
 70
     8
280
     0
  0
ATTDEF
  5
1DA
330
1D4
100
AcDbEntity
  8
AM_6
100
AcDbText
 10
10.125
 20
0.5156249999999996
 30
0.0
 40
0.5
  1
069858H
100
AcDbAttributeDefinition
  3

  2
NB
 70
     8
280
     0
  0
ATTDEF
  5
1DB
330
1D4
100
AcDbEntity
  8
AM_6
100
AcDbText
 10
10.125
 20
0.0156249999999996
 30
0.0
 40
0.5
  1
$PN.H
100
AcDbAttributeDefinition
  3

  2
NBSYN
 70
     8
280
     0
  0
ATTDEF
  5
1DC
330
1D4
100
AcDbEntity
  8
AM_6
100
AcDbText
 10
10.125
 20
-0.4843750000000004
 30
0.0
 40
0.5
  1
069858
100
AcDbAttributeDefinition
  3

  2
LINA
 70
     8
280
     0
  0
ATTDEF
  5
1DD
330
1D4
100
AcDbEntity
  8
AM_6
100
AcDbText
 10
10.125
 20
-0.9843750000000004
 30
0.0
 40
0.5
  1
3-3/16
100
AcDbAttributeDefinition
  3

  2
SS
 70
     8
280
     0
  0
ATTDEF
  5
1DE
330
1D4
100
AcDbEntity
  8
AM_6
100
AcDbText
 10
10.125
 20
-1.484375
 30
0.0
 40
0.5
  1
069858
100
AcDbAttributeDefinition
  3

  2
PN
 70
     8
280
     0
  0
ATTDEF
  5
1DF
330
1D4
100
AcDbEntity
  8
AM_6
100
AcDbText
 10
10.125
 20
-1.984375
 30
0.0
 40
0.5
  1
FC-IP-303RE
100
AcDbAttributeDefinition
  3

  2
DESCRIPTION
 70
     8
280
     0
  0
ATTDEF
  5
1E0
330
1D4
100
AcDbEntity
  8
AM_6
100
AcDbText
 10
10.125
 20
-2.484375
 30
0.0
 40
0.5
  1
Expansion Type
100
AcDbAttributeDefinition
  3

  2
EF
 70
     8
280
     0
  0
ATTDEF
  5
1E1
330
1D4
100
AcDbEntity
  8
AM_6
100
AcDbText
 10
10.125
 20
-2.984375
 30
0.0
 40
0.5
  1
Contact  Seal
100
AcDbAttributeDefinition
  3

  2
ST
 70
     8
280
     0
  0
ATTDEF
  5
1E2
330
1D4
100
AcDbEntity
  8
AM_6
100
AcDbText
 10
10.125
 20
-3.484375
 30
0.0
 40
0.5
  1
4-11/64
100
AcDbAttributeDefinition
  3

  2
A
 70
     8
280
     0
  0
ATTDEF
  5
1E3
330
1D4
100
AcDbEntity
  8
AM_6
100
AcDbText
 10
10.125
 20
-3.984375
 30
0.0
 40
0.5
  1
10-1/4
100
AcDbAttributeDefinition
  3

  2
B
 70
     8
280
     0
  0
ATTDEF
  5
1E4
330
1D4
100
AcDbEntity
  8
AM_6
100
AcDbText
 10
10.125
 20
-4.484375
 30
0.0
 40
0.5
  1
3
100
AcDbAttributeDefinition
  3

  2
C
 70
     8
280
     0
  0
ATTDEF
  5
1E5
330
1D4
100
AcDbEntity
  8
AM_6
100
AcDbText
 10
10.125
 20
-4.984375
 30
0.0
 40
0.5
  1
6-3/32
100
AcDbAttributeDefinition
  3

  2
D
 70
     8
280
     0
  0
ATTDEF
  5
1E6
330
1D4
100
AcDbEntity
  8
AM_6
100
AcDbText
 10
10.125
 20
-5.484375
 30
0.0
 40
0.5
  1
8-5/8
100
AcDbAttributeDefinition
  3

  2
DD
 70
     8
280
     0
  0
ATTDEF
  5
1E7
330
1D4
100
AcDbEntity
  8
AM_6
100
AcDbText
 10
10.125
 20
-5.984375
 30
0.0
 40
0.5
  1
1-17/64
100
AcDbAttributeDefinition
  3

  2
E
 70
     8
280
     0
  0
ATTDEF
  5
1E8
330
1D4
100
AcDbEntity
  8
AM_6
100
AcDbText
 10
10.125
 20
-6.484375
 30
0.0
 40
0.5
  1
3/4
100
AcDbAttributeDefinition
  3

  2
F
 70
     8
280
     0
  0
ATTDEF
  5
1E9
330
1D4
100
AcDbEntity
  8
AM_6
100
AcDbText
 10
10.125
 20
-6.984375
 30
0.0
 40
0.5
  1
2-17/32
100
AcDbAttributeDefinition
  3

  2
G
 70
     8
280
     0
  0
ATTDEF
  5
1EA
330
1D4
100
AcDbEntity
  8
AM_6
100
AcDbText
 10
10.125
 20
-7.484375
 30
0.0
 40
0.5
  1
15/16
100
AcDbAttributeDefinition
  3

  2
H
 70
     8
280
     0
  0
ATTDEF
  5
1EB
330
1D4
100
AcDbEntity
  8
AM_6
100
AcDbText
 10
10.125
 20
-7.984375
 30
0.0
 40
0.5
  1
7.375
100
AcDbAttributeDefinition
  3

  2
K
 70
     8
280
     0
  0
ATTDEF
  5
1EC
330
1D4
100
AcDbEntity
  8
AM_6
100
AcDbText
 10
10.125
 20
-8.484375
 30
0.0
 40
0.5
  1
5
100
AcDbAttributeDefinition
  3

  2
L
 70
     8
280
     0
  0
ATTDEF
  5
1ED
330
1D4
100
AcDbEntity
  8
AM_6
100
AcDbText
 10
10.125
 20
-8.984375
 30
0.0
 40
0.5
  1
3/4-10
100
AcDbAttributeDefinition
  3

  2
M
 70
     8
280
     0
  0
ATTDEF
  5
1EE
330
1D4
100
AcDbEntity
  8
AM_6
100
AcDbText
 10
10.125
 20
-9.484375
 30
0.0
 40
0.5
  1
4-1/16
100
AcDbAttributeDefinition
  3

  2
N
 70
     8
280
     0
  0
ATTDEF
  5
1EF
330
1D4
100
AcDbEntity
  8
AM_6
100
AcDbText
 10
10.125
 20
-9.984375
 30
0.0
 40
0.5
  1
1-41/64
100
AcDbAttributeDefinition
  3

  2
P
 70
     8
280
     0
  0
ATTDEF
  5
1F0
330
1D4
100
AcDbEntity
  8
AM_6
100
AcDbText
 10
10.125
 20
-10.484375
 30
0.0
 40
0.5
  1
1-33/64
100
AcDbAttributeDefinition
  3

  2
Q
 70
     8
280
     0
  0
ATTDEF
  5
1F1
330
1D4
100
AcDbEntity
  8
AM_6
100
AcDbText
 10
10.125
 20
-10.984375
 30
0.0
 40
0.5
  1
1/4
100
AcDbAttributeDefinition
  3

  2
X
 70
     8
280
     0
  0
ATTDEF
  5
1F2
330
1D4
100
AcDbEntity
  8
AM_6
100
AcDbText
 10
10.125
 20
-11.484375
 30
0.0
 40
0.5
  1
0.025
100
AcDbAttributeDefinition
  3

  2
Y
 70
     8
280
     0
  0
ATTDEF
  5
1F3
330
1D4
100
AcDbEntity
  8
AM_6
100
AcDbText
 10
10.125
 20
-11.984375
 30
0.0
 40
0.5
  1
4-3/64
100
AcDbAttributeDefinition
  3

  2
Z
 70
     8
280
     0
  0
ATTDEF
  5
1F4
330
1D4
100
AcDbEntity
  8
AM_6
100
AcDbText
 10
10.125
 20
-12.484375
 30
0.0
 40
0.5
  1
baldor
100
AcDbAttributeDefinition
  3

  2
COMPANY
 70
     8
280
     0
  0
LINE
  5
1F5
330
1D4
100
AcDbEntity
  8
AM_9
100
AcDbLine
 10
0.5
 20
-1.421875000000001
 30
0.0
 11
-0.5
 21
-1.421875000000001
 31
0.0
  0
LINE
  5
1F6
330
1D4
100
AcDbEntity
  8
AM_9
100
AcDbLine
 10
-4.670599999999999
 20
-0.0169000000000002
 30
0.0
 11
-4.670599999999999
 21
-0.7330999999999999
 31
0.0
  0
LINE
  5
1F7
330
1D4
100
AcDbEntity
  8
AM_9
100
AcDbLine
 10
-3.9544
 20
-0.7330999999999999
 30
0.0
 11
-3.9544
 21
-0.0169000000000002
 31
0.0
  0
LINE
  5
1F8
330
1D4
100
AcDbEntity
  8
AM_9
100
AcDbLine
 10
3.9544
 20
-0.0168999999999998
 30
0.0
 11
3.9544
 21
-0.7331000000000003
 31
0.0
  0
LINE
  5
1F9
330
1D4
100
AcDbEntity
  8
AM_9
100
AcDbLine
 10
4.6706
 20
-0.7331000000000003
 30
0.0
 11
4.6706
 21
-0.0168999999999998
 31
0.0
  0
LINE
  5
1FA
330
1D4
100
AcDbEntity
  8
AM_9
100
AcDbLine
 10
4.6706
 20
-0.0168999999999998
 30
0.0
 11
3.9544
 21
-0.0168999999999998
 31
0.0
  0
LINE
  5
1FB
330
1D4
100
AcDbEntity
  8
AM_9
100
AcDbLine
 10
4.6706
 20
-0.0168999999999998
 30
0.0
 11
4.6875
 21
0.0
 31
0.0
  0
LINE
  5
1FC
330
1D4
100
AcDbEntity
  8
AM_9
100
AcDbLine
 10
3.9375
 20
0.0
 30
0.0
 11
3.9544
 21
-0.0168999999999998
 31
0.0
  0
LINE
  5
1FD
330
1D4
100
AcDbEntity
  8
AM_9
100
AcDbLine
 10
-3.9544
 20
-0.0169000000000002
 30
0.0
 11
-4.670599999999999
 21
-0.0169000000000002
 31
0.0
  0
LINE
  5
1FE
330
1D4
100
AcDbEntity
  8
AM_9
100
AcDbLine
 10
-3.9544
 20
-0.0169000000000002
 30
0.0
 11
-3.9375
 21
0.0
 31
0.0
  0
LINE
  5
1FF
330
1D4
100
AcDbEntity
  8
AM_9
100
AcDbLine
 10
-4.6875
 20
0.0
 30
0.0
 11
-4.670599999999999
 21
-0.0169000000000002
 31
0.0
  0
LINE
  5
200
330
1D4
100
AcDbEntity
  8
AM_9
100
AcDbLine
 10
4.6706
 20
-0.7331000000000003
 30
0.0
 11
3.9544
 21
-0.7331000000000003
 31
0.0
  0
LINE
  5
201
330
1D4
100
AcDbEntity
  8
AM_9
100
AcDbLine
 10
3.9544
 20
-0.7331000000000003
 30
0.0
 11
3.9375
 21
-0.7499999999999999
 31
0.0
  0
LINE
  5
202
330
1D4
100
AcDbEntity
  8
AM_9
100
AcDbLine
 10
4.6875
 20
-0.7499999999999999
 30
0.0
 11
4.6706
 21
-0.7331000000000003
 31
0.0
  0
LINE
  5
203
330
1D4
100
AcDbEntity
  8
AM_9
100
AcDbLine
 10
-3.9544
 20
-0.7330999999999999
 30
0.0
 11
-4.670599999999999
 21
-0.7330999999999999
 31
0.0
  0
LINE
  5
204
330
1D4
100
AcDbEntity
  8
AM_9
100
AcDbLine
 10
-4.670599999999999
 20
-0.7330999999999999
 30
0.0
 11
-4.6875
 21
-0.7499999999999999
 31
0.0
  0
LINE
  5
205
330
1D4
100
AcDbEntity
  8
AM_9
100
AcDbLine
 10
-3.9375
 20
-0.7499999999999999
 30
0.0
 11
-3.9544
 21
-0.7330999999999999
 31
0.0
  0
LINE
  5
206
330
1D4
100
AcDbEntity
  8
AM_9
100
AcDbLine
 10
3.366970438774798
 20
-0.7499999999999999
 30
0.0
 11
3.366970438774798
 21
-0.9374999999999999
 31
0.0
  0
LINE
  5
207
330
1D4
100
AcDbEntity
  8
AM_9
100
AcDbLine
 10
3.333061447078985
 20
-0.7499999999999999
 30
0.0
 11
3.333061447078985
 21
-0.9374999999999999
 31
0.0
  0
LINE
  5
208
330
1D4
100
AcDbEntity
  8
AM_9
100
AcDbLine
 10
-3.366970438774798
 20
-0.7499999999999999
 30
0.0
 11
-3.366970438774798
 21
-0.9374999999999999
 31
0.0
  0
LINE
  5
209
330
1D4
100
AcDbEntity
  8
AM_9
100
AcDbLine
 10
-3.333061447078983
 20
-0.9374999999999999
 30
0.0
 11
-3.333061447078983
 21
-0.7499999999999999
 31
0.0
  0
LINE
  5
20A
330
1D4
100
AcDbEntity
  8
AM_9
100
AcDbLine
 10
-3.350211699639678
 20
-0.7499999999999999
 30
0.0
 11
-3.350211699639678
 21
-0.9374999999999999
 31
0.0
  0
LINE
  5
20B
330
1D4
100
AcDbEntity
  8
AM_9
100
AcDbLine
 10
-3.6875
 20
-0.7500000000000001
 30
0.0
 11
-3.6875
 21
-0.9375000000000002
 31
0.0
  0
LINE
  5
20C
330
1D4
100
AcDbEntity
  8
AM_9
100
AcDbLine
 10
3.350211699639679
 20
-0.7499999999999999
 30
0.0
 11
3.350211699639679
 21
-0.9374999999999999
 31
0.0
  0
LINE
  5
20D
330
1D4
100
AcDbEntity
  8
AM_9
100
AcDbLine
 10
3.6875
 20
-0.9374999999999998
 30
0.0
 11
3.6875
 21
-0.7500000000000001
 31
0.0
  0
LINE
  5
20E
330
1D4
100
AcDbEntity
  8
AM_9
100
AcDbLine
 10
-4.070780623385917
 20
-0.7499999999999999
 30
0.0
 11
-4.070780623385917
 21
-0.9374999999999999
 31
0.0
  0
LINE
  5
20F
330
1D4
100
AcDbEntity
  8
AM_9
100
AcDbLine
 10
-4.127267519667964
 20
-0.7499999999999999
 30
0.0
 11
-3.333061447078983
 21
-0.7499999999999999
 31
0.0
  0
LINE
  5
210
330
1D4
100
AcDbEntity
  8
AM_9
100
AcDbLine
 10
4.070780623385917
 20
-0.7499999999999999
 30
0.0
 11
4.070780623385917
 21
-0.9374999999999999
 31
0.0
  0
LINE
  5
211
330
1D4
100
AcDbEntity
  8
AM_9
100
AcDbLine
 10
3.333061447078985
 20
-0.7499999999999999
 30
0.0
 11
4.127267519667962
 21
-0.7499999999999999
 31
0.0
  0
LINE
  5
212
330
1D4
100
AcDbEntity
  8
AM_9
100
AcDbLine
 10
3.1496
 20
-1.484375
 30
0.0
 11
3.1496
 21
1.515625
 31
0.0
  0
LINE
  5
213
330
1D4
100
AcDbEntity
  8
AM_9
100
AcDbLine
 10
-3.1496
 20
1.515625
 30
0.0
 11
-3.1496
 21
-1.484375
 31
0.0
  0
LINE
  5
214
330
1D4
100
AcDbEntity
  8
AM_9
100
AcDbLine
 10
3.424397993866986
 20
-0.9374999999999997
 30
0.0
 11
3.424397993866986
 21
0.0000000000000002
 31
0.0
  0
LINE
  5
215
330
1D4
100
AcDbEntity
  8
AM_9
100
AcDbLine
 10
2.674397993866987
 20
0.0000000000000002
 30
0.0
 11
2.674397993866987
 21
-0.9374999999999997
 31
0.0
  0
LINE
  5
216
330
1D4
100
AcDbEntity
  8
AM_9
100
AcDbLine
 10
-2.674397993866987
 20
-0.9374999999999997
 30
0.0
 11
-2.674397993866987
 21
0.0000000000000002
 31
0.0
  0
LINE
  5
217
330
1D4
100
AcDbEntity
  8
AM_9
100
AcDbLine
 10
-3.424397993866986
 20
0.0000000000000002
 30
0.0
 11
-3.424397993866986
 21
-0.9374999999999997
 31
0.0
  0
LINE
  5
218
330
1D4
100
AcDbEntity
  8
AM_9
100
AcDbLine
 10
-0.0563161422895231
 20
-1.484374999999999
 30
0.0
 11
0.0563161422895231
 21
-1.484374999999999
 31
0.0
  0
LINE
  5
219
330
1D4
100
AcDbEntity
  8
AM_9
100
AcDbLine
 10
0.0592531152853615
 20
-1.483375
 30
0.0
 11
-0.0592531152853615
 21
-1.483375
 31
0.0
  0
LINE
  5
21A
330
1D4
100
AcDbEntity
  8
AM_5
100
AcDbLine
 10
4.6875
 20
0.0
 30
0.0
 11
4.6875
 21
-0.7499999999999999
 31
0.0
  0
LINE
  5
21B
330
1D4
100
AcDbEntity
  8
AM_5
100
AcDbLine
 10
3.9375
 20
0.0
 30
0.0
 11
3.9375
 21
-0.7499999999999999
 31
0.0
  0
LINE
  5
21C
330
1D4
100
AcDbEntity
  8
AM_5
100
AcDbLine
 10
-3.9375
 20
0.0
 30
0.0
 11
-3.9375
 21
-0.7499999999999999
 31
0.0
  0
LINE
  5
21D
330
1D4
100
AcDbEntity
  8
AM_5
100
AcDbLine
 10
-4.6875
 20
0.0
 30
0.0
 11
-4.6875
 21
-0.7499999999999999
 31
0.0
  0
LINE
  5
21E
330
1D4
100
AcDbEntity
  8
AM_7
100
AcDbLine
 10
-3.049397993866986
 20
0.0492187499999998
 30
0.0
 11
-3.049397993866986
 21
-1.03359375
 31
0.0
  0
LINE
  5
21F
330
1D4
100
AcDbEntity
  8
AM_7
100
AcDbLine
 10
3.049397993866986
 20
0.0492187499999998
 30
0.0
 11
3.049397993866986
 21
-1.03359375
 31
0.0
  0
LINE
  5
220
330
1D4
100
AcDbEntity
  8
AM_7
100
AcDbLine
 10
4.3125
 20
0.0375
 30
0.0
 11
4.3125
 21
-0.7874999999999999
 31
0.0
  0
LINE
  5
221
330
1D4
100
AcDbEntity
  8
AM_7
100
AcDbLine
 10
-4.3125
 20
0.0375
 30
0.0
 11
-4.3125
 21
-0.7874999999999999
 31
0.0
  0
LINE
  5
222
330
1D4
100
AcDbEntity
  8
AM_4
100
AcDbLine
 10
-3.6875
 20
-0.9375000000000002
 30
0.0
 11
-3.6875
 21
-1.421875000000001
 31
0.0
  0
LINE
  5
223
330
1D4
100
AcDbEntity
  8
AM_4
100
AcDbLine
 10
3.6875
 20
-1.421875000000001
 30
0.0
 11
3.6875
 21
-0.9374999999999998
 31
0.0
  0
LINE
  5
224
330
1D4
100
AcDbEntity
  8
AM_4
100
AcDbLine
 10
-3.02085474751787
 20
-1.421875000000001
 30
0.0
 11
-3.02085474751787
 21
-0.9374999999999999
 31
0.0
  0
LINE
  5
225
330
1D4
100
AcDbEntity
  8
AM_4
100
AcDbLine
 10
3.020854747517869
 20
-1.421875000000001
 30
0.0
 11
3.020854747517869
 21
-0.9374999999999999
 31
0.0
  0
LWPOLYLINE
  5
226
330
1D4
100
AcDbEntity
  8
AM_4
100
AcDbPolyline
 90
        7
 70
     0
 43
0.0
 10
-3.02085474751787
 20
-1.421875000000001
 10
-3.020575440747054
 20
-1.422148439543291
 10
-2.998159129453895
 20
-1.441346544461771
 10
-2.96984747935341
 20
-1.459754786767232
 10
-2.947719688128215
 20
-1.470542873498056
 10
-2.922670199024848
 20
-1.479185537968392
 10
-2.910886526313337
 20
-1.481890668476564
  0
ARC
  5
227
330
1D4
100
AcDbEntity
  8
AM_4
100
AcDbCircle
 10
-3.625000000000004
 20
-1.421875000000002
 30
0.0
 40
0.0624999999999969
100
AcDbArc
 50
180.0
 51
270.0
  0
LINE
  5
228
330
1D4
100
AcDbEntity
  8
AM_4
100
AcDbLine
 10
-3.6875
 20
-1.421875000000001
 30
0.0
 11
-3.02085474751787
 21
-1.421875000000001
 31
0.0
  0
LWPOLYLINE
  5
229
330
1D4
100
AcDbEntity
  8
AM_4
100
AcDbPolyline
 90
        7
 70
     0
 43
0.0
 10
2.910886523056324
 20
-1.481890669097013
 10
2.933380547254743
 20
-1.475958812549633
 10
2.954733975754983
 20
-1.46744404975512
 10
2.98149813963555
 20
-1.452848372475401
 10
3.004974595679661
 20
-1.436019365701775
 10
3.020575440747054
 20
-1.422148439543289
 10
3.02085474751787
 20
-1.421875000000001
  0
LINE
  5
22A
330
1D4
100
AcDbEntity
  8
AM_4
100
AcDbLine
 10
3.020854747517869
 20
-1.421875000000001
 30
0.0
 11
3.6875
 21
-1.421875000000001
 31
0.0
  0
ARC
  5
22B
330
1D4
100
AcDbEntity
  8
AM_4
100
AcDbCircle
 10
3.625000000000004
 20
-1.421875000000002
 30
0.0
 40
0.0624999999999973
100
AcDbArc
 50
270.0
 51
0.0
  0
LINE
  5
22C
330
1D4
100
AcDbEntity
  8
AM_4
100
AcDbLine
 10
-2.910886526313337
 20
-1.481890668476564
 30
0.0
 11
-2.910886526313337
 21
-0.9374999999999999
 31
0.0
  0
LWPOLYLINE
  5
22D
330
1D4
100
AcDbEntity
  8
AM_4
100
AcDbPolyline
 90
        3
 70
     0
 43
0.0
 10
-2.883785646578808
 20
-1.484375
 10
-2.891037531885573
 20
-1.484205018847033
 10
-2.910886526313337
 20
-1.481890668476564
  0
LINE
  5
22E
330
1D4
100
AcDbEntity
  8
AM_4
100
AcDbLine
 10
2.910886523056324
 20
-1.481890669097013
 30
0.0
 11
2.883785646578808
 21
-1.484375
 31
0.0
  0
LINE
  5
22F
330
1D4
100
AcDbEntity
  8
AM_4
100
AcDbLine
 10
2.910886523056324
 20
-1.481890669097013
 30
0.0
 11
2.910886523056324
 21
-0.9374999999999999
 31
0.0
  0
LINE
  5
230
330
1D4
100
AcDbEntity
  8
AM_4
100
AcDbLine
 10
2.189555634429042
 20
-1.481890668476564
 30
0.0
 11
2.189555634429042
 21
-0.9374999999999999
 31
0.0
  0
LINE
  5
231
330
1D4
100
AcDbEntity
  8
AM_4
100
AcDbLine
 10
-2.189555635208404
 20
-1.481890669097013
 30
0.0
 11
-2.189555635208404
 21
-0.9374999999999999
 31
0.0
  0
LINE
  5
232
330
1D4
100
AcDbEntity
  8
AM_4
100
AcDbLine
 10
-1.540693940274126
 20
-0.9374999999999998
 30
0.0
 11
-4.138598606777545
 21
-0.9374999999999999
 31
0.0
  0
LINE
  5
233
330
1D4
100
AcDbEntity
  8
AM_4
100
AcDbLine
 10
-4.138598606777545
 20
-0.7499999999999999
 30
0.0
 11
-4.138598606777545
 21
-0.9374999999999999
 31
0.0
  0
LINE
  5
234
330
1D4
100
AcDbEntity
  8
AM_4
100
AcDbLine
 10
4.138598606777545
 20
-0.9374999999999999
 30
0.0
 11
4.138598606777545
 21
-0.7499999999999999
 31
0.0
  0
LINE
  5
235
330
1D4
100
AcDbEntity
  8
AM_4
100
AcDbLine
 10
4.138598606777545
 20
-0.9374999999999999
 30
0.0
 11
1.54069394027413
 21
-0.9374999999999998
 31
0.0
  0
LINE
  5
236
330
1D4
100
AcDbEntity
  8
AM_4
100
AcDbLine
 10
-3.412641246893661
 20
1.515624999999999
 30
0.0
 11
3.412641246891044
 21
1.515624999999999
 31
0.0
  0
ARC
  5
237
330
1D4
100
AcDbEntity
  8
AM_4
100
AcDbCircle
 10
3.412641246893661
 20
1.421874999999998
 30
0.0
 40
0.0937500000000012
100
AcDbArc
 50
2.000000000001041
 51
90.0
  0
ARC
  5
238
330
1D4
100
AcDbEntity
  8
AM_4
100
AcDbCircle
 10
-3.412641246893661
 20
1.421874999999998
 30
0.0
 40
0.0937500000000011
100
AcDbArc
 50
90.0
 51
177.9999999999989
  0
LINE
  5
239
330
1D4
100
AcDbEntity
  8
AM_4
100
AcDbLine
 10
-3.506334136926702
 20
1.425146827815859
 30
0.0
 11
3.506334136926702
 21
1.425146827815859
 31
0.0
  0
LINE
  5
23A
330
1D4
100
AcDbEntity
  8
AM_4
100
AcDbLine
 10
-3.506334136926702
 20
1.425146827815859
 30
0.0
 11
-3.508745194509885
 21
1.356103172184141
 31
0.0
  0
LINE
  5
23B
330
1D4
100
AcDbEntity
  8
AM_4
100
AcDbLine
 10
3.508745194509885
 20
1.356103172184141
 30
0.0
 11
3.506334136926702
 21
1.425146827815859
 31
0.0
  0
LINE
  5
23C
330
1D4
100
AcDbEntity
  8
AM_4
100
AcDbLine
 10
-3.508745194509885
 20
1.356103172184141
 30
0.0
 11
3.508745194509885
 21
1.356103172184141
 31
0.0
  0
ARC
  5
23D
330
1D4
100
AcDbEntity
  8
AM_4
100
AcDbCircle
 10
3.602438084542924
 20
1.359374999999999
 30
0.0
 40
0.0937499999999984
100
AcDbArc
 50
181.999999999999
 51
270.0
  0
ARC
  5
23E
330
1D4
100
AcDbEntity
  8
AM_4
100
AcDbCircle
 10
-3.602438084542924
 20
1.359374999999999
 30
0.0
 40
0.0937499999999987
100
AcDbArc
 50
270.0
 51
358.0000000000009
  0
LINE
  5
23F
330
1D4
100
AcDbEntity
  8
AM_4
100
AcDbLine
 10
-1.540693940274126
 20
-0.7499999999999998
 30
0.0
 11
-1.540693940274126
 21
-0.9374999999999998
 31
0.0
  0
LINE
  5
240
330
1D4
100
AcDbEntity
  8
AM_4
100
AcDbLine
 10
-2.114732333984315
 20
-1.421875000000001
 30
0.0
 11
-2.114732333984315
 21
-0.9374999999999999
 31
0.0
  0
LINE
  5
241
330
1D4
100
AcDbEntity
  8
AM_4
100
AcDbLine
 10
2.114732333984314
 20
-1.421875000000001
 30
0.0
 11
2.114732333984314
 21
-0.9374999999999999
 31
0.0
  0
LINE
  5
242
330
1D4
100
AcDbEntity
  8
AM_4
100
AcDbLine
 10
1.540693940274127
 20
-0.7499999999999998
 30
0.0
 11
1.54069394027413
 21
-0.9374999999999998
 31
0.0
  0
LINE
  5
243
330
1D4
100
AcDbEntity
  8
AM_4
100
AcDbLine
 10
-2.189555635208404
 20
-1.481890669097013
 30
0.0
 11
-2.196452900607261
 21
-1.484375
 31
0.0
  0
LINE
  5
244
330
1D4
100
AcDbEntity
  8
AM_4
100
AcDbLine
 10
0.0563161422895231
 20
-1.484374999999999
 30
0.0
 11
3.625000000000001
 21
-1.484375
 31
0.0
  0
LINE
  5
245
330
1D4
100
AcDbEntity
  8
AM_4
100
AcDbLine
 10
-3.625000000000001
 20
-1.484375
 30
0.0
 11
-0.0563161422895231
 21
-1.484374999999999
 31
0.0
  0
LWPOLYLINE
  5
246
330
1D4
100
AcDbEntity
  8
AM_4
100
AcDbPolyline
 90
        3
 70
     0
 43
0.0
 10
2.196452900607261
 20
-1.484375
 10
2.194526024876091
 20
-1.484205018847033
 10
2.189555634429042
 20
-1.481890668476564
  0
LWPOLYLINE
  5
247
330
1D4
100
AcDbEntity
  8
AM_4
100
AcDbPolyline
 90
        7
 70
     0
 43
0.0
 10
2.114732333984314
 20
-1.421875000000001
 10
2.115130219478928
 20
-1.422148439543374
 10
2.141440540687266
 20
-1.441346544462619
 10
2.164144356817098
 20
-1.459754786768741
 10
2.176558805386856
 20
-1.470542873499219
 10
2.186326627261904
 20
-1.47918553796913
 10
2.189555634429042
 20
-1.481890668476564
  0
LINE
  5
248
330
1D4
100
AcDbEntity
  8
AM_4
100
AcDbLine
 10
0.5
 20
-1.421875000000001
 30
0.0
 11
2.114732333984314
 21
-1.421875000000001
 31
0.0
  0
LINE
  5
249
330
1D4
100
AcDbEntity
  8
AM_4
100
AcDbLine
 10
-2.114732333984315
 20
-1.421875000000001
 30
0.0
 11
-0.5
 21
-1.421875000000001
 31
0.0
  0
LWPOLYLINE
  5
24A
330
1D4
100
AcDbEntity
  8
AM_4
100
AcDbPolyline
 90
        7
 70
     0
 43
0.0
 10
-2.189555635208404
 20
-1.481890669097013
 10
-2.182655161266621
 20
-1.475958812549633
 10
-2.173044300780741
 20
-1.46744404975512
 10
-2.155877917696843
 20
-1.4528483724754
 10
-2.134438498257065
 20
-1.436019365701774
 10
-2.115130219478968
 20
-1.422148439543288
 10
-2.114732333984316
 20
-1.421875
  0
LINE
  5
24B
330
1D4
100
AcDbEntity
  8
AM_4
100
AcDbLine
 10
-3.687500000000002
 20
1.265625
 30
0.0
 11
3.687500000000003
 21
1.265625
 31
0.0
  0
LINE
  5
24C
330
1D4
100
AcDbEntity
  8
AM_4
100
AcDbLine
 10
3.687500000000003
 20
0.0
 30
0.0
 11
3.687500000000003
 21
1.265625
 31
0.0
  0
LINE
  5
24D
330
1D4
100
AcDbEntity
  8
AM_4
100
AcDbLine
 10
-3.687500000000003
 20
1.265625
 30
0.0
 11
-3.687500000000003
 21
0.0
 31
0.0
  0
LINE
  5
24E
330
1D4
100
AcDbEntity
  8
AM_4
100
AcDbLine
 10
-1.726579891934394
 20
-0.7499999999999998
 30
0.0
 11
-1.726579891934394
 21
-0.9374999999999998
 31
0.0
  0
LINE
  5
24F
330
1D4
100
AcDbEntity
  8
AM_4
100
AcDbLine
 10
1.726579891934396
 20
-0.7499999999999998
 30
0.0
 11
1.726579891934396
 21
-0.9374999999999998
 31
0.0
  0
LINE
  5
250
330
1D4
100
AcDbEntity
  8
AM_4
100
AcDbLine
 10
2.731725004211565
 20
-0.7499999999999998
 30
0.0
 11
2.731725004211565
 21
-0.9374999999999998
 31
0.0
  0
LINE
  5
251
330
1D4
100
AcDbEntity
  8
AM_4
100
AcDbLine
 10
-2.731725004211564
 20
-0.7499999999999998
 30
0.0
 11
-2.731725004211564
 21
-0.9374999999999998
 31
0.0
  0
LINE
  5
252
330
1D4
100
AcDbEntity
  8
AM_4
100
AcDbLine
 10
0.5
 20
-0.7500000000000002
 30
0.0
 11
0.5
 21
-1.483375
 31
0.0
  0
LINE
  5
253
330
1D4
100
AcDbEntity
  8
AM_4
100
AcDbLine
 10
-0.5
 20
-0.7500000000000002
 30
0.0
 11
-0.5
 21
-1.483375
 31
0.0
  0
LINE
  5
254
330
1D4
100
AcDbEntity
  8
AM_4
100
AcDbLine
 10
-0.0592531152853615
 20
-1.483375
 30
0.0
 11
-0.5
 21
-1.483375
 31
0.0
  0
LINE
  5
255
330
1D4
100
AcDbEntity
  8
AM_4
100
AcDbLine
 10
0.5
 20
-1.483375
 30
0.0
 11
0.0592531152853615
 21
-1.483375
 31
0.0
  0
LINE
  5
256
330
1D4
100
AcDbEntity
  8
AM_4
100
AcDbLine
 10
-5.125
 20
0.0
 30
0.0
 11
5.125
 21
0.0
 31
0.0
  0
LINE
  5
257
330
1D4
100
AcDbEntity
  8
AM_4
100
AcDbLine
 10
-3.03830344453839
 20
-0.7499999999999998
 30
0.0
 11
-3.03830344453839
 21
-0.9374999999999998
 31
0.0
  0
LINE
  5
258
330
1D4
100
AcDbEntity
  8
AM_4
100
AcDbLine
 10
3.038303444538391
 20
-0.7499999999999998
 30
0.0
 11
-3.03830344453839
 21
-0.7499999999999998
 31
0.0
  0
LINE
  5
259
330
1D4
100
AcDbEntity
  8
AM_4
100
AcDbLine
 10
3.038303444538391
 20
-0.9374999999999998
 30
0.0
 11
3.038303444538391
 21
-0.7499999999999998
 31
0.0
  0
LINE
  5
25A
330
1D4
100
AcDbEntity
  8
AM_4
100
AcDbLine
 10
4.127267519667962
 20
-0.7499999999999999
 30
0.0
 11
4.127267519667962
 21
-0.9374999999999999
 31
0.0
  0
LINE
  5
25B
330
1D4
100
AcDbEntity
  8
AM_4
100
AcDbLine
 10
-4.127267519667964
 20
-0.7499999999999999
 30
0.0
 11
-5.125
 21
-0.7499999999999999
 31
0.0
  0
LINE
  5
25C
330
1D4
100
AcDbEntity
  8
AM_4
100
AcDbLine
 10
-4.127267519667964
 20
-0.9374999999999999
 30
0.0
 11
-4.127267519667964
 21
-0.7499999999999999
 31
0.0
  0
LINE
  5
25D
330
1D4
100
AcDbEntity
  8
AM_4
100
AcDbLine
 10
5.125
 20
-0.7499999999999999
 30
0.0
 11
5.125
 21
0.0
 31
0.0
  0
LINE
  5
25E
330
1D4
100
AcDbEntity
  8
AM_4
100
AcDbLine
 10
-5.125
 20
0.0
 30
0.0
 11
-5.125
 21
-0.7499999999999999
 31
0.0
  0
LINE
  5
25F
330
1D4
100
AcDbEntity
  8
AM_4
100
AcDbLine
 10
5.125
 20
-0.7499999999999999
 30
0.0
 11
4.127267519667962
 21
-0.7499999999999999
 31
0.0
  0
ENDBLK
  5
1D7
330
1D4
100
AcDbEntity
  8
0
100
AcDbBlockEnd
  0
ENDSEC
  0
SECTION
  2
ENTITIES
  0
INSERT
  5
6F
330
1F
100
AcDbEntity
  8
0
100
AcDbBlockReference
  2
1_069858_4
 10
0.0
 20
0.0
 30
0.0
  0
POINT
  5
261
330
1F
100
AcDbEntity
  8
ConnectionPoints
100
AcDbPoint
 10
0.0
 20
-2.049708333333333
 30
-2.135416666666667
  0
POINT
  5
262
330
1F
100
AcDbEntity
  8
ConnectionPoints
100
AcDbPoint
 10
0.0
 20
-2.049708333333333
 30
2.135416666666667
  0
POINT
  5
263
330
1F
100
AcDbEntity
  8
ConnectionPoints
100
AcDbPoint
 10
0.0
 20
-1.979708333333333
 30
0.0000000000000001
  0
POINT
  5
264
330
1F
100
AcDbEntity
  8
ConnectionPoints
100
AcDbPoint
 10
0.0
 20
-2.296875
 30
0.0000000000000001
  0
POINT
  5
265
330
1F
100
AcDbEntity
  8
ConnectionPoints
100
AcDbPoint
 10
0.0
 20
-2.178708333333333
 30
0.0000000000000001
  0
POINT
  5
266
330
1F
100
AcDbEntity
  8
ConnectionPoints
100
AcDbPoint
 10
0.0
 20
-1.979708333333333
 30
2.135416666666667
  0
POINT
  5
267
330
1F
100
AcDbEntity
  8
ConnectionPoints
100
AcDbPoint
 10
0.0
 20
-2.164875
 30
2.135416666666667
  0
POINT
  5
268
330
1F
100
AcDbEntity
  8
ConnectionPoints
100
AcDbPoint
 10
0.0
 20
-1.979708333333333
 30
-2.135416666666667
  0
POINT
  5
269
330
1F
100
AcDbEntity
  8
ConnectionPoints
100
AcDbPoint
 10
0.0
 20
-2.164875
 30
-2.135416666666667
  0
POINT
  5
26A
330
1F
100
AcDbEntity
  8
ConnectionPoints
100
AcDbPoint
 10
0.0
 20
-1.979708333333333
 30
0.0000000000000001
  0
POINT
  5
26B
330
1F
100
AcDbEntity
  8
ConnectionPoints
100
AcDbPoint
 10
0.0
 20
-1.1166875
 30
4.322621380500412
  0
POINT
  5
26C
330
1F
100
AcDbEntity
  8
ConnectionPoints
100
AcDbPoint
 10
0.0
 20
-1.138854973296072
 30
4.284226190476191
  0
POINT
  5
26D
330
1F
100
AcDbEntity
  8
ConnectionPoints
100
AcDbPoint
 10
0.0
 20
-2.296875
 30
0.0000000000000001
  0
POINT
  5
26E
330
1F
100
AcDbEntity
  8
ConnectionPoints
100
AcDbPoint
 10
0.0
 20
-2.546875
 30
0.0000000000000002
  0
ENDSEC
  0
SECTION
  2
OBJECTS
  0
DICTIONARY
  5
C
330
0
100
AcDbDictionary
281
     1
  3
ACAD_DETAILVIEWSTYLE
350
276
  3
ACAD_GROUP
350
D
  3
ACAD_LAYOUT
350
1A
  3
ACAD_MATERIAL
350
43
  3
ACAD_MLEADERSTYLE
350
6B
  3
ACAD_MLINESTYLE
350
17
  3
ACAD_PLOTSETTINGS
350
19
  3
ACAD_PLOTSTYLENAME
350
E
  3
ACAD_SCALELIST
350
47
  3
ACAD_SECTIONVIEWSTYLE
350
277
  3
ACAD_TABLESTYLE
350
69
  3
ACAD_VISUALSTYLE
350
2A
  3
ACDB_RECOMPOSE_DATA
350
273
  3
AcDbVariableDictionary
350
26F
  0
SUN
  5
6D
330
29
100
AcDbSun
 90
        1
290
     0
 63
     7
421
 16777215
 40
1.0
291
     1
 91
  2455826
 92
 54000000
292
     0
 70
     2
 71
   256
280
     1
  0
DICTIONARY
  5
276
102
{ACAD_REACTORS
330
C
102
}
330
C
100
AcDbDictionary
281
     1
  0
DICTIONARY
  5
D
102
{ACAD_REACTORS
330
C
102
}
330
C
100
AcDbDictionary
281
     1
  0
DICTIONARY
  5
1A
102
{ACAD_REACTORS
330
C
102
}
330
C
100
AcDbDictionary
281
     1
  3
Layout1
350
1E
  3
Layout2
350
26
  3
Model
350
22
  0
DICTIONARY
  5
43
102
{ACAD_REACTORS
330
C
102
}
330
C
100
AcDbDictionary
281
     1
  3
ByBlock
350
45
  3
ByLayer
350
44
  3
Global
350
46
  0
DICTIONARY
  5
6B
102
{ACAD_REACTORS
330
C
102
}
330
C
100
AcDbDictionary
281
     1
  3
Standard
350
6C
  0
DICTIONARY
  5
17
102
{ACAD_REACTORS
330
C
102
}
330
C
100
AcDbDictionary
281
     1
  3
Standard
350
18
  0
DICTIONARY
  5
19
102
{ACAD_REACTORS
330
C
102
}
330
C
100
AcDbDictionary
281
     1
  0
ACDBDICTIONARYWDFLT
  5
E
102
{ACAD_REACTORS
330
C
102
}
330
C
100
AcDbDictionary
281
     1
  3
Normal
350
F
100
AcDbDictionaryWithDefault
340
F
  0
DICTIONARY
  5
47
102
{ACAD_REACTORS
330
C
102
}
330
C
100
AcDbDictionary
281
     1
  3
A0
350
48
  3
A1
350
49
  3
A2
350
4A
  3
A3
350
4B
  3
A4
350
4C
  3
A5
350
4D
  3
A6
350
4E
  3
A7
350
4F
  3
A8
350
50
  3
A9
350
51
  3
B0
350
52
  3
B1
350
53
  3
B2
350
54
  3
B3
350
55
  3
B4
350
56
  3
B5
350
57
  3
B6
350
58
  3
B7
350
59
  3
B8
350
5A
  3
B9
350
5B
  3
C0
350
5C
  3
C1
350
5D
  3
C2
350
5E
  3
C3
350
5F
  3
C4
350
60
  3
C5
350
61
  3
C6
350
62
  3
C7
350
63
  3
C8
350
64
  3
C9
350
65
  3
D0
350
66
  3
D1
350
67
  3
D2
350
68
  0
DICTIONARY
  5
277
102
{ACAD_REACTORS
330
C
102
}
330
C
100
AcDbDictionary
281
     1
  0
DICTIONARY
  5
69
102
{ACAD_REACTORS
330
C
102
}
330
C
100
AcDbDictionary
281
     1
  3
Standard
350
6A
  0
DICTIONARY
  5
2A
102
{ACAD_REACTORS
330
C
102
}
330
C
100
AcDbDictionary
281
     1
  3
2dWireframe
350
2F
  3
Basic
350
32
  3
Brighten
350
36
  3
ColorChange
350
3A
  3
Conceptual
350
34
  3
Dim
350
35
  3
EdgeColorOff
350
3D
  3
Facepattern
350
39
  3
Flat
350
2B
  3
FlatWithEdges
350
2C
  3
Gouraud
350
2D
  3
GouraudWithEdges
350
2E
  3
Hidden
350
31
  3
JitterOff
350
3B
  3
Linepattern
350
38
  3
OverhangOff
350
3C
  3
Realistic
350
33
  3
Shaded
350
42
  3
Shaded with edges
350
41
  3
Shades of Gray
350
3E
  3
Sketchy
350
3F
  3
Thicken
350
37
  3
Wireframe
350
30
  3
X-Ray
350
40
  0
XRECORD
  5
273
102
{ACAD_REACTORS
330
C
102
}
330
C
100
AcDbXrecord
280
     1
 90
        1
330
6A
  0
DICTIONARY
  5
26F
102
{ACAD_REACTORS
330
C
102
}
330
C
100
AcDbDictionary
281
     1
  3
CANNOSCALE
350
270
  3
CMLEADERSTYLE
350
275
  3
CTABLESTYLE
350
274
  0
LAYOUT
  5
1E
102
{ACAD_REACTORS
330
1A
102
}
330
1A
100
AcDbPlotSettings
  1

  2
none_device
  4

  6

 40
0.0
 41
0.0
 42
0.0
 43
0.0
 44
0.0
 45
0.0
 46
0.0
 47
0.0
 48
0.0
 49
0.0
140
0.0
141
0.0
142
1.0
143
1.0
 70
   688
 72
     0
 73
     0
 74
     5
  7

 75
    16
 76
     0
 77
     2
 78
   300
147
1.0
148
0.0
149
0.0
100
AcDbLayout
  1
Layout1
 70
     1
 71
     1
 10
0.0
 20
0.0
 11
12.0
 21
9.0
 12
0.0
 22
0.0
 32
0.0
 14
1.000000000000000E+20
 24
1.000000000000000E+20
 34
1.000000000000000E+20
 15
-1.000000000000000E+20
 25
-1.000000000000000E+20
 35
-1.000000000000000E+20
146
0.0
 13
0.0
 23
0.0
 33
0.0
 16
1.0
 26
0.0
 36
0.0
 17
0.0
 27
1.0
 37
0.0
 76
     0
330
1B
  0
LAYOUT
  5
26
102
{ACAD_REACTORS
330
1A
102
}
330
1A
100
AcDbPlotSettings
  1

  2
none_device
  4

  6

 40
0.0
 41
0.0
 42
0.0
 43
0.0
 44
0.0
 45
0.0
 46
0.0
 47
0.0
 48
0.0
 49
0.0
140
0.0
141
0.0
142
1.0
143
1.0
 70
   688
 72
     0
 73
     0
 74
     5
  7

 75
    16
 76
     0
 77
     2
 78
   300
147
1.0
148
0.0
149
0.0
100
AcDbLayout
  1
Layout2
 70
     1
 71
     2
 10
0.0
 20
0.0
 11
0.0
 21
0.0
 12
0.0
 22
0.0
 32
0.0
 14
0.0
 24
0.0
 34
0.0
 15
0.0
 25
0.0
 35
0.0
146
0.0
 13
0.0
 23
0.0
 33
0.0
 16
1.0
 26
0.0
 36
0.0
 17
0.0
 27
1.0
 37
0.0
 76
     0
330
23
  0
LAYOUT
  5
22
102
{ACAD_REACTORS
330
1A
102
}
330
1A
100
AcDbPlotSettings
  1

  2
none_device
  4
Letter_(8.50_x_11.00_Inches)
  6

 40
6.35
 41
6.35
 42
6.35000508
 43
6.35000508
 44
215.9
 45
279.4
 46
0.0
 47
0.0
 48
0.0
 49
0.0
140
0.0
141
0.0
142
1.0
143
1.0
 70
  1712
 72
     0
 73
     0
 74
     0
  7

 75
     0
 76
     0
 77
     2
 78
   300
147
1.0
148
0.0
149
0.0
100
AcDbLayout
  1
Model
 70
     1
 71
     0
 10
0.0
 20
0.0
 11
12.0
 21
9.0
 12
0.0
 22
0.0
 32
0.0
 14
1.000000000000000E+20
 24
1.000000000000000E+20
 34
1.000000000000000E+20
 15
-1.000000000000000E+20
 25
-1.000000000000000E+20
 35
-1.000000000000000E+20
146
0.0
 13
0.0
 23
0.0
 33
0.0
 16
1.0
 26
0.0
 36
0.0
 17
0.0
 27
1.0
 37
0.0
 76
     0
330
1F
331
29
  0
MATERIAL
  5
45
102
{ACAD_REACTORS
330
43
102
}
330
43
100
AcDbMaterial
  1
ByBlock
 72
     1
 94
      127
  0
MATERIAL
  5
44
102
{ACAD_REACTORS
330
43
102
}
330
43
100
AcDbMaterial
  1
ByLayer
 72
     1
 94
      127
  0
MATERIAL
  5
46
102
{ACAD_REACTORS
330
43
102
}
330
43
100
AcDbMaterial
  1
Global
 72
     1
 94
      127
  0
MLEADERSTYLE
  5
6C
102
{ACAD_REACTORS
330
6B
102
}
330
6B
100
AcDbMLeaderStyle
179
     2
170
     2
171
     1
172
     0
 90
        2
 40
0.0
 41
0.0
173
     1
 91
-1056964608
340
14
 92
       -2
290
     1
 42
0.09
291
     1
 43
0.36
  3
Standard
341
0
 44
0.18
300

342
11
174
     1
178
     6
175
     1
176
     0
 93
-1056964608
 45
0.18
292
     0
297
     0
 46
0.18
343
0
 94
-1056964608
 47
1.0
 49
1.0
140
1.0
293
     1
141
0.0
294
     1
177
     0
142
1.0
295
     0
296
     0
143
0.125
271
     0
272
     9
273
     9
298
     0
  0
MLINESTYLE
  5
18
102
{ACAD_REACTORS
330
17
102
}
330
17
100
AcDbMlineStyle
  2
Standard
 70
     0
  3

 62
   256
 51
90.0
 52
90.0
 71
     2
 49
0.5
 62
   256
  6
BYLAYER
 49
-0.5
 62
   256
  6
BYLAYER
  0
ACDBPLACEHOLDER
  5
F
102
{ACAD_REACTORS
330
E
102
}
330
E
  0
SCALE
  5
48
102
{ACAD_REACTORS
330
47
102
}
330
47
100
AcDbScale
 70
     0
300
1:1
140
1.0
141
1.0
290
     1
  0
SCALE
  5
49
102
{ACAD_REACTORS
330
47
102
}
330
47
100
AcDbScale
 70
     0
300
1:2
140
1.0
141
2.0
290
     0
  0
SCALE
  5
4A
102
{ACAD_REACTORS
330
47
102
}
330
47
100
AcDbScale
 70
     0
300
1:4
140
1.0
141
4.0
290
     0
  0
SCALE
  5
4B
102
{ACAD_REACTORS
330
47
102
}
330
47
100
AcDbScale
 70
     0
300
1:5
140
1.0
141
5.0
290
     0
  0
SCALE
  5
4C
102
{ACAD_REACTORS
330
47
102
}
330
47
100
AcDbScale
 70
     0
300
1:8
140
1.0
141
8.0
290
     0
  0
SCALE
  5
4D
102
{ACAD_REACTORS
330
47
102
}
330
47
100
AcDbScale
 70
     0
300
1:10
140
1.0
141
10.0
290
     0
  0
SCALE
  5
4E
102
{ACAD_REACTORS
330
47
102
}
330
47
100
AcDbScale
 70
     0
300
1:16
140
1.0
141
16.0
290
     0
  0
SCALE
  5
4F
102
{ACAD_REACTORS
330
47
102
}
330
47
100
AcDbScale
 70
     0
300
1:20
140
1.0
141
20.0
290
     0
  0
SCALE
  5
50
102
{ACAD_REACTORS
330
47
102
}
330
47
100
AcDbScale
 70
     0
300
1:30
140
1.0
141
30.0
290
     0
  0
SCALE
  5
51
102
{ACAD_REACTORS
330
47
102
}
330
47
100
AcDbScale
 70
     0
300
1:40
140
1.0
141
40.0
290
     0
  0
SCALE
  5
52
102
{ACAD_REACTORS
330
47
102
}
330
47
100
AcDbScale
 70
     0
300
1:50
140
1.0
141
50.0
290
     0
  0
SCALE
  5
53
102
{ACAD_REACTORS
330
47
102
}
330
47
100
AcDbScale
 70
     0
300
1:100
140
1.0
141
100.0
290
     0
  0
SCALE
  5
54
102
{ACAD_REACTORS
330
47
102
}
330
47
100
AcDbScale
 70
     0
300
2:1
140
2.0
141
1.0
290
     0
  0
SCALE
  5
55
102
{ACAD_REACTORS
330
47
102
}
330
47
100
AcDbScale
 70
     0
300
4:1
140
4.0
141
1.0
290
     0
  0
SCALE
  5
56
102
{ACAD_REACTORS
330
47
102
}
330
47
100
AcDbScale
 70
     0
300
8:1
140
8.0
141
1.0
290
     0
  0
SCALE
  5
57
102
{ACAD_REACTORS
330
47
102
}
330
47
100
AcDbScale
 70
     0
300
10:1
140
10.0
141
1.0
290
     0
  0
SCALE
  5
58
102
{ACAD_REACTORS
330
47
102
}
330
47
100
AcDbScale
 70
     0
300
100:1
140
100.0
141
1.0
290
     0
  0
SCALE
  5
59
102
{ACAD_REACTORS
330
47
102
}
330
47
100
AcDbScale
 70
     0
300
1/128" = 1'-0"
140
0.0078125
141
12.0
290
     0
  0
SCALE
  5
5A
102
{ACAD_REACTORS
330
47
102
}
330
47
100
AcDbScale
 70
     0
300
1/64" = 1'-0"
140
0.015625
141
12.0
290
     0
  0
SCALE
  5
5B
102
{ACAD_REACTORS
330
47
102
}
330
47
100
AcDbScale
 70
     0
300
1/32" = 1'-0"
140
0.03125
141
12.0
290
     0
  0
SCALE
  5
5C
102
{ACAD_REACTORS
330
47
102
}
330
47
100
AcDbScale
 70
     0
300
1/16" = 1'-0"
140
0.0625
141
12.0
290
     0
  0
SCALE
  5
5D
102
{ACAD_REACTORS
330
47
102
}
330
47
100
AcDbScale
 70
     0
300
3/32" = 1'-0"
140
0.09375
141
12.0
290
     0
  0
SCALE
  5
5E
102
{ACAD_REACTORS
330
47
102
}
330
47
100
AcDbScale
 70
     0
300
1/8" = 1'-0"
140
0.125
141
12.0
290
     0
  0
SCALE
  5
5F
102
{ACAD_REACTORS
330
47
102
}
330
47
100
AcDbScale
 70
     0
300
3/16" = 1'-0"
140
0.1875
141
12.0
290
     0
  0
SCALE
  5
60
102
{ACAD_REACTORS
330
47
102
}
330
47
100
AcDbScale
 70
     0
300
1/4" = 1'-0"
140
0.25
141
12.0
290
     0
  0
SCALE
  5
61
102
{ACAD_REACTORS
330
47
102
}
330
47
100
AcDbScale
 70
     0
300
3/8" = 1'-0"
140
0.375
141
12.0
290
     0
  0
SCALE
  5
62
102
{ACAD_REACTORS
330
47
102
}
330
47
100
AcDbScale
 70
     0
300
1/2" = 1'-0"
140
0.5
141
12.0
290
     0
  0
SCALE
  5
63
102
{ACAD_REACTORS
330
47
102
}
330
47
100
AcDbScale
 70
     0
300
3/4" = 1'-0"
140
0.75
141
12.0
290
     0
  0
SCALE
  5
64
102
{ACAD_REACTORS
330
47
102
}
330
47
100
AcDbScale
 70
     0
300
1" = 1'-0"
140
1.0
141
12.0
290
     0
  0
SCALE
  5
65
102
{ACAD_REACTORS
330
47
102
}
330
47
100
AcDbScale
 70
     0
300
1-1/2" = 1'-0"
140
1.5
141
12.0
290
     0
  0
SCALE
  5
66
102
{ACAD_REACTORS
330
47
102
}
330
47
100
AcDbScale
 70
     0
300
3" = 1'-0"
140
3.0
141
12.0
290
     0
  0
SCALE
  5
67
102
{ACAD_REACTORS
330
47
102
}
330
47
100
AcDbScale
 70
     0
300
6" = 1'-0"
140
6.0
141
12.0
290
     0
  0
SCALE
  5
68
102
{ACAD_REACTORS
330
47
102
}
330
47
100
AcDbScale
 70
     0
300
1'-0" = 1'-0"
140
12.0
141
12.0
290
     0
  0
TABLESTYLE
  5
6A
102
{ACAD_REACTORS
330
69
102
}
102
{ACAD_XDICTIONARY
360
271
102
}
330
69
100
AcDbTableStyle
  3
Standard
 70
     0
 71
     0
 40
0.06
 41
0.06
280
     0
281
     0
  7
Standard
140
0.18
170
     2
 62
     0
 63
   257
283
     0
 90
        4
 91
        0
  1

274
    -2
284
     1
 64
     0
275
    -2
285
     1
 65
     0
276
    -2
286
     1
 66
     0
277
    -2
287
     1
 67
     0
278
    -2
288
     1
 68
     0
279
    -2
289
     1
 69
     0
  7
Standard
140
0.25
170
     5
 62
     0
 63
   257
283
     0
 90
        4
 91
        0
  1

274
    -2
284
     1
 64
     0
275
    -2
285
     1
 65
     0
276
    -2
286
     1
 66
     0
277
    -2
287
     1
 67
     0
278
    -2
288
     1
 68
     0
279
    -2
289
     1
 69
     0
  7
Standard
140
0.18
170
     5
 62
     0
 63
   257
283
     0
 90
        4
 91
        0
  1

274
    -2
284
     1
 64
     0
275
    -2
285
     1
 65
     0
276
    -2
286
     1
 66
     0
277
    -2
287
     1
 67
     0
278
    -2
288
     1
 68
     0
279
    -2
289
     1
 69
     0
  0
VISUALSTYLE
  5
2F
102
{ACAD_REACTORS
330
2A
102
}
330
2A
100
AcDbVisualStyle
  2
2dWireframe
 70
     4
177
     3
291
     0
 70
    58
 90
        0
176
     1
 90
        2
176
     1
 90
        0
176
     1
 90
        0
176
     1
 40
0.6
176
     1
 40
30.0
176
     1
 62
     7
420
 16777215
176
     1
 90
        1
176
     1
 90
        4
176
     1
 62
     7
176
     1
 62
   257
176
     1
 90
        1
176
     1
 90
        1
176
     1
 40
1.0
176
     1
 90
        0
176
     1
 62
   257
176
     1
 40
1.0
176
     1
 90
        1
176
     1
 90
        6
176
     1
 90
        2
176
     1
 62
     7
176
     1
 90
        5
176
     1
 90
        0
176
     1
 90
        0
176
     1
290
     0
176
     1
 90
        1
176
     1
 40
0.0
176
     1
 90
        0
176
     1
290
     1
176
     1
290
     1
176
     1
290
     0
176
     1
290
     0
176
     1
290
     0
176
     1
290
     0
176
     1
290
     0
176
     1
290
     0
176
     1
290
     0
176
     1
 90
       50
176
     1
 40
0.0
176
     1
 40
1.0
176
     1
 90
        0
176
     1
 62
    18
420
        0
176
     1
 90
       50
176
     1
 90
        3
176
     1
 62
     5
420
      255
176
     1
290
     0
176
     1
 90
       50
176
     1
 90
       50
176
     1
 90
       50
176
     1
290
     0
176
     1
 90
       50
176
     1
 62
   256
176
     0
 40
1.0
176
     0
 90
        2
176
     1
  1
strokes_ogs.tif
176
     1
290
     0
176
     1
 40
1.0
176
     1
 40
1.0
176
     1
  0
VISUALSTYLE
  5
32
102
{ACAD_REACTORS
330
2A
102
}
330
2A
100
AcDbVisualStyle
  2
Basic
 70
     7
177
     3
291
     1
 70
    58
 90
        1
176
     1
 90
        0
176
     1
 90
        1
176
     1
 90
        0
176
     1
 40
0.6
176
     1
 40
30.0
176
     1
 62
     7
420
 16777215
176
     1
 90
        0
176
     1
 90
        4
176
     1
 62
     7
176
     1
 62
   257
176
     1
 90
        1
176
     1
 90
        1
176
     1
 40
1.0
176
     1
 90
        8
176
     1
 62
     7
176
     1
 40
1.0
176
     1
 90
        1
176
     1
 90
        6
176
     1
 90
        2
176
     1
 62
     7
176
     1
 90
        5
176
     1
 90
        0
176
     1
 90
        0
176
     1
290
     0
176
     1
 90
        1
176
     1
 40
0.0
176
     1
 90
        0
176
     1
290
     0
176
     1
290
     1
176
     1
290
     1
176
     1
290
     0
176
     1
290
     0
176
     1
290
     0
176
     1
290
     0
176
     1
290
     0
176
     1
290
     0
176
     1
 90
       50
176
     1
 40
0.0
176
     1
 40
1.0
176
     1
 90
        0
176
     1
 62
    18
420
        0
176
     1
 90
       50
176
     1
 90
        3
176
     1
 62
     5
420
      255
176
     1
290
     0
176
     1
 90
       50
176
     1
 90
       50
176
     1
 90
       50
176
     1
290
     0
176
     1
 90
       50
176
     1
 62
   256
176
     0
 40
1.0
176
     0
 90
        2
176
     1
  1
strokes_ogs.tif
176
     1
290
     0
176
     1
 40
1.0
176
     1
 40
1.0
176
     1
  0
VISUALSTYLE
  5
36
102
{ACAD_REACTORS
330
2A
102
}
330
2A
100
AcDbVisualStyle
  2
Brighten
 70
    12
177
     3
291
     1
 70
    58
 90
        2
176
     1
 90
        2
176
     1
 90
        0
176
     1
 90
        0
176
     1
 40
0.6
176
     1
 40
30.0
176
     1
 62
     7
420
 16777215
176
     1
 90
        1
176
     1
 90
        4
176
     1
 62
     7
176
     1
 62
   257
176
     1
 90
        1
176
     1
 90
        1
176
     1
 40
1.0
176
     1
 90
        8
176
     1
 62
     7
176
     1
 40
1.0
176
     1
 90
        1
176
     1
 90
        6
176
     1
 90
        2
176
     1
 62
     7
176
     1
 90
        5
176
     1
 90
        0
176
     1
 90
        0
176
     1
290
     0
176
     1
 90
        1
176
     1
 40
50.0
176
     1
 90
        0
176
     1
290
     0
176
     1
290
     1
176
     1
290
     1
176
     1
290
     0
176
     1
290
     0
176
     1
290
     0
176
     1
290
     0
176
     1
290
     0
176
     1
290
     0
176
     1
 90
       50
176
     1
 40
0.0
176
     1
 40
1.0
176
     1
 90
        0
176
     1
 62
    18
420
        0
176
     1
 90
       50
176
     1
 90
        3
176
     1
 62
     5
420
      255
176
     1
290
     0
176
     1
 90
       50
176
     1
 90
       50
176
     1
 90
       50
176
     1
290
     0
176
     1
 90
       50
176
     1
 62
   256
176
     0
 40
1.0
176
     0
 90
        2
176
     1
  1
strokes_ogs.tif
176
     1
290
     0
176
     1
 40
1.0
176
     1
 40
1.0
176
     1
  0
VISUALSTYLE
  5
3A
102
{ACAD_REACTORS
330
2A
102
}
330
2A
100
AcDbVisualStyle
  2
ColorChange
 70
    16
177
     3
291
     1
 70
    58
 90
        2
176
     1
 90
        2
176
     1
 90
        3
176
     1
 90
        0
176
     1
 40
0.6
176
     1
 40
30.0
176
     1
 62
     8
420
  8421504
176
     1
 90
        1
176
     1
 90
        4
176
     1
 62
     7
176
     1
 62
   257
176
     1
 90
        1
176
     1
 90
        1
176
     1
 40
1.0
176
     1
 90
        8
176
     1
 62
     8
420
  8421504
176
     1
 40
1.0
176
     1
 90
        1
176
     1
 90
        6
176
     1
 90
        2
176
     1
 62
     7
176
     1
 90
        5
176
     1
 90
        0
176
     1
 90
        0
176
     1
290
     0
176
     1
 90
        1
176
     1
 40
0.0
176
     1
 90
        0
176
     1
290
     0
176
     1
290
     1
176
     1
290
     1
176
     1
290
     0
176
     1
290
     0
176
     1
290
     0
176
     1
290
     0
176
     1
290
     0
176
     1
290
     0
176
     1
 90
       50
176
     1
 40
0.0
176
     1
 40
1.0
176
     1
 90
        0
176
     1
 62
    18
420
        0
176
     1
 90
       50
176
     1
 90
        3
176
     1
 62
     5
420
      255
176
     1
290
     0
176
     1
 90
       50
176
     1
 90
       50
176
     1
 90
       50
176
     1
290
     0
176
     1
 90
       50
176
     1
 62
   256
176
     0
 40
1.0
176
     0
 90
        2
176
     1
  1
strokes_ogs.tif
176
     1
290
     0
176
     1
 40
1.0
176
     1
 40
1.0
176
     1
  0
VISUALSTYLE
  5
34
102
{ACAD_REACTORS
330
2A
102
}
330
2A
100
AcDbVisualStyle
  2
Conceptual
 70
     9
177
     3
291
     0
 70
    58
 90
        3
176
     1
 90
        2
176
     1
 90
        0
176
     1
 90
        0
176
     1
 40
0.6
176
     1
 40
30.0
176
     1
 62
     7
420
 16777215
176
     1
 90
        2
176
     1
 90
        2
176
     1
 62
     7
176
     1
 62
   257
176
     1
 90
        1
176
     1
 90
        1
176
     1
 40
179.0
176
     1
 90
        8
176
     1
 62
     7
176
     1
 40
1.0
176
     1
 90
        1
176
     1
 90
        6
176
     1
 90
        2
176
     1
 62
     7
176
     1
 90
        3
176
     1
 90
        0
176
     1
 90
        0
176
     1
290
     0
176
     1
 90
        1
176
     1
 40
0.0
176
     1
 90
        0
176
     1
290
     0
176
     1
290
     1
176
     1
290
     1
176
     1
290
     0
176
     1
290
     0
176
     1
290
     0
176
     1
290
     0
176
     1
290
     0
176
     1
290
     0
176
     1
 90
       50
176
     1
 40
0.0
176
     1
 40
1.0
176
     1
 90
        0
176
     1
 62
    18
420
        0
176
     1
 90
       50
176
     1
 90
        3
176
     1
 62
     5
420
      255
176
     1
290
     0
176
     1
 90
       50
176
     1
 90
       50
176
     1
 90
       50
176
     1
290
     0
176
     1
 90
       50
176
     1
 62
   256
176
     0
 40
1.0
176
     0
 90
        2
176
     1
  1
strokes_ogs.tif
176
     1
290
     0
176
     1
 40
1.0
176
     1
 40
1.0
176
     1
  0
VISUALSTYLE
  5
35
102
{ACAD_REACTORS
330
2A
102
}
330
2A
100
AcDbVisualStyle
  2
Dim
 70
    11
177
     3
291
     1
 70
    58
 90
        2
176
     1
 90
        2
176
     1
 90
        0
176
     1
 90
        0
176
     1
 40
0.6
176
     1
 40
30.0
176
     1
 62
     7
420
 16777215
176
     1
 90
        1
176
     1
 90
        4
176
     1
 62
     7
176
     1
 62
   257
176
     1
 90
        1
176
     1
 90
        1
176
     1
 40
1.0
176
     1
 90
        8
176
     1
 62
     7
176
     1
 40
1.0
176
     1
 90
        1
176
     1
 90
        6
176
     1
 90
        2
176
     1
 62
     7
176
     1
 90
        5
176
     1
 90
        0
176
     1
 90
        0
176
     1
290
     0
176
     1
 90
        1
176
     1
 40
-50.0
176
     1
 90
        0
176
     1
290
     0
176
     1
290
     1
176
     1
290
     1
176
     1
290
     0
176
     1
290
     0
176
     1
290
     0
176
     1
290
     0
176
     1
290
     0
176
     1
290
     0
176
     1
 90
       50
176
     1
 40
0.0
176
     1
 40
1.0
176
     1
 90
        0
176
     1
 62
    18
420
        0
176
     1
 90
       50
176
     1
 90
        3
176
     1
 62
     5
420
      255
176
     1
290
     0
176
     1
 90
       50
176
     1
 90
       50
176
     1
 90
       50
176
     1
290
     0
176
     1
 90
       50
176
     1
 62
   256
176
     0
 40
1.0
176
     0
 90
        2
176
     1
  1
strokes_ogs.tif
176
     1
290
     0
176
     1
 40
1.0
176
     1
 40
1.0
176
     1
  0
VISUALSTYLE
  5
3D
102
{ACAD_REACTORS
330
2A
102
}
330
2A
100
AcDbVisualStyle
  2
EdgeColorOff
 70
    22
177
     3
291
     1
 70
    58
 90
        2
176
     0
 90
        2
176
     0
 90
        0
176
     0
 90
        0
176
     0
 40
0.6
176
     0
 40
30.0
176
     0
 62
     7
420
 16777215
176
     0
 90
        1
176
     0
 90
        4
176
     0
 62
     7
176
     0
 62
   257
176
     0
 90
        1
176
     0
 90
        1
176
     0
 40
1.0
176
     0
 90
        8
176
     2
 62
     7
176
     0
 40
1.0
176
     0
 90
        1
176
     0
 90
        6
176
     0
 90
        2
176
     0
 62
     7
176
     0
 90
        5
176
     0
 90
        0
176
     0
 90
        0
176
     0
290
     0
176
     0
 90
        1
176
     0
 40
0.0
176
     0
 90
        0
176
     0
290
     0
176
     0
290
     1
176
     0
290
     1
176
     0
290
     0
176
     0
290
     0
176
     0
290
     0
176
     0
290
     0
176
     0
290
     0
176
     0
290
     0
176
     0
 90
       50
176
     0
 40
0.0
176
     0
 40
1.0
176
     0
 90
        0
176
     0
 62
    18
420
        0
176
     0
 90
       50
176
     0
 90
        3
176
     0
 62
     5
420
      255
176
     0
290
     0
176
     0
 90
       50
176
     0
 90
       50
176
     0
 90
       50
176
     0
290
     0
176
     0
 90
       50
176
     0
 62
   256
176
     0
 40
1.0
176
     0
 90
        2
176
     0
  1
strokes_ogs.tif
176
     0
290
     0
176
     0
 40
1.0
176
     0
 40
1.0
176
     0
  0
VISUALSTYLE
  5
39
102
{ACAD_REACTORS
330
2A
102
}
330
2A
100
AcDbVisualStyle
  2
Facepattern
 70
    15
177
     3
291
     1
 70
    58
 90
        2
176
     1
 90
        2
176
     1
 90
        0
176
     1
 90
        0
176
     1
 40
0.6
176
     1
 40
30.0
176
     1
 62
     7
420
 16777215
176
     1
 90
        1
176
     1
 90
        4
176
     1
 62
     7
176
     1
 62
   257
176
     1
 90
        1
176
     1
 90
        1
176
     1
 40
1.0
176
     1
 90
        8
176
     1
 62
     7
176
     1
 40
1.0
176
     1
 90
        1
176
     1
 90
        6
176
     1
 90
        2
176
     1
 62
     7
176
     1
 90
        5
176
     1
 90
        0
176
     1
 90
        0
176
     1
290
     0
176
     1
 90
        1
176
     1
 40
0.0
176
     1
 90
        0
176
     1
290
     0
176
     1
290
     1
176
     1
290
     1
176
     1
290
     0
176
     1
290
     0
176
     1
290
     0
176
     1
290
     0
176
     1
290
     0
176
     1
290
     0
176
     1
 90
       50
176
     1
 40
0.0
176
     1
 40
1.0
176
     1
 90
        0
176
     1
 62
    18
420
        0
176
     1
 90
       50
176
     1
 90
        3
176
     1
 62
     5
420
      255
176
     1
290
     0
176
     1
 90
       50
176
     1
 90
       50
176
     1
 90
       50
176
     1
290
     0
176
     1
 90
       50
176
     1
 62
   256
176
     0
 40
1.0
176
     0
 90
        2
176
     1
  1
strokes_ogs.tif
176
     1
290
     0
176
     1
 40
1.0
176
     1
 40
1.0
176
     1
  0
VISUALSTYLE
  5
2B
102
{ACAD_REACTORS
330
2A
102
}
330
2A
100
AcDbVisualStyle
  2
Flat
 70
     0
177
     3
291
     1
 70
    58
 90
        2
176
     1
 90
        1
176
     1
 90
        1
176
     1
 90
        2
176
     1
 40
0.6
176
     1
 40
30.0
176
     1
 62
     7
420
 16777215
176
     1
 90
        0
176
     1
 90
        0
176
     1
 62
     7
176
     1
 62
   257
176
     1
 90
        1
176
     1
 90
        1
176
     1
 40
1.0
176
     1
 90
        8
176
     1
 62
     7
176
     1
 40
1.0
176
     1
 90
        1
176
     1
 90
        6
176
     1
 90
        2
176
     1
 62
     7
176
     1
 90
        5
176
     1
 90
        0
176
     1
 90
        0
176
     1
290
     0
176
     1
 90
       13
176
     1
 40
0.0
176
     1
 90
        0
176
     1
290
     0
176
     1
290
     1
176
     1
290
     1
176
     1
290
     0
176
     1
290
     0
176
     1
290
     0
176
     1
290
     0
176
     1
290
     0
176
     1
290
     0
176
     1
 90
       50
176
     1
 40
0.0
176
     1
 40
1.0
176
     1
 90
        0
176
     1
 62
    18
420
        0
176
     1
 90
       50
176
     1
 90
        3
176
     1
 62
     5
420
      255
176
     1
290
     0
176
     1
 90
       50
176
     1
 90
       50
176
     1
 90
       50
176
     1
290
     0
176
     1
 90
       50
176
     1
 62
   256
176
     0
 40
1.0
176
     0
 90
        2
176
     1
  1
strokes_ogs.tif
176
     1
290
     0
176
     1
 40
1.0
176
     1
 40
1.0
176
     1
  0
VISUALSTYLE
  5
2C
102
{ACAD_REACTORS
330
2A
102
}
330
2A
100
AcDbVisualStyle
  2
FlatWithEdges
 70
     1
177
     3
291
     1
 70
    58
 90
        2
176
     1
 90
        1
176
     1
 90
        1
176
     1
 90
        2
176
     1
 40
0.6
176
     1
 40
30.0
176
     1
 62
     7
420
 16777215
176
     1
 90
        1
176
     1
 90
        0
176
     1
 62
     7
176
     1
 62
   257
176
     1
 90
        1
176
     1
 90
        1
176
     1
 40
1.0
176
     1
 90
        0
176
     1
 62
   257
176
     1
 40
1.0
176
     1
 90
        1
176
     1
 90
        6
176
     1
 90
        2
176
     1
 62
     7
176
     1
 90
        5
176
     1
 90
        0
176
     1
 90
        0
176
     1
290
     0
176
     1
 90
       13
176
     1
 40
0.0
176
     1
 90
        0
176
     1
290
     0
176
     1
290
     1
176
     1
290
     1
176
     1
290
     0
176
     1
290
     0
176
     1
290
     0
176
     1
290
     0
176
     1
290
     0
176
     1
290
     0
176
     1
 90
       50
176
     1
 40
0.0
176
     1
 40
1.0
176
     1
 90
        0
176
     1
 62
    18
420
        0
176
     1
 90
       50
176
     1
 90
        3
176
     1
 62
     5
420
      255
176
     1
290
     0
176
     1
 90
       50
176
     1
 90
       50
176
     1
 90
       50
176
     1
290
     0
176
     1
 90
       50
176
     1
 62
   256
176
     0
 40
1.0
176
     0
 90
        2
176
     1
  1
strokes_ogs.tif
176
     1
290
     0
176
     1
 40
1.0
176
     1
 40
1.0
176
     1
  0
VISUALSTYLE
  5
2D
102
{ACAD_REACTORS
330
2A
102
}
330
2A
100
AcDbVisualStyle
  2
Gouraud
 70
     2
177
     3
291
     1
 70
    58
 90
        2
176
     1
 90
        2
176
     1
 90
        1
176
     1
 90
        2
176
     1
 40
0.6
176
     1
 40
30.0
176
     1
 62
     7
420
 16777215
176
     1
 90
        0
176
     1
 90
        0
176
     1
 62
     7
176
     1
 62
   257
176
     1
 90
        1
176
     1
 90
        1
176
     1
 40
1.0
176
     1
 90
        0
176
     1
 62
     7
176
     1
 40
1.0
176
     1
 90
        1
176
     1
 90
        6
176
     1
 90
        2
176
     1
 62
     7
176
     1
 90
        5
176
     1
 90
        0
176
     1
 90
        0
176
     1
290
     0
176
     1
 90
       13
176
     1
 40
0.0
176
     1
 90
        0
176
     1
290
     0
176
     1
290
     1
176
     1
290
     1
176
     1
290
     0
176
     1
290
     0
176
     1
290
     0
176
     1
290
     0
176
     1
290
     0
176
     1
290
     0
176
     1
 90
       50
176
     1
 40
0.0
176
     1
 40
1.0
176
     1
 90
        0
176
     1
 62
    18
420
        0
176
     1
 90
       50
176
     1
 90
        3
176
     1
 62
     5
420
      255
176
     1
290
     0
176
     1
 90
       50
176
     1
 90
       50
176
     1
 90
       50
176
     1
290
     0
176
     1
 90
       50
176
     1
 62
   256
176
     0
 40
1.0
176
     0
 90
        2
176
     1
  1
strokes_ogs.tif
176
     1
290
     0
176
     1
 40
1.0
176
     1
 40
1.0
176
     1
  0
VISUALSTYLE
  5
2E
102
{ACAD_REACTORS
330
2A
102
}
330
2A
100
AcDbVisualStyle
  2
GouraudWithEdges
 70
     3
177
     3
291
     1
 70
    58
 90
        2
176
     1
 90
        2
176
     1
 90
        1
176
     1
 90
        2
176
     1
 40
0.6
176
     1
 40
30.0
176
     1
 62
     7
420
 16777215
176
     1
 90
        1
176
     1
 90
        0
176
     1
 62
     7
176
     1
 62
   257
176
     1
 90
        1
176
     1
 90
        1
176
     1
 40
1.0
176
     1
 90
        0
176
     1
 62
   257
176
     1
 40
1.0
176
     1
 90
        1
176
     1
 90
        6
176
     1
 90
        2
176
     1
 62
     7
176
     1
 90
        5
176
     1
 90
        0
176
     1
 90
        0
176
     1
290
     0
176
     1
 90
       13
176
     1
 40
0.0
176
     1
 90
        0
176
     1
290
     0
176
     1
290
     1
176
     1
290
     1
176
     1
290
     0
176
     1
290
     0
176
     1
290
     0
176
     1
290
     0
176
     1
290
     0
176
     1
290
     0
176
     1
 90
       50
176
     1
 40
0.0
176
     1
 40
1.0
176
     1
 90
        0
176
     1
 62
    18
420
        0
176
     1
 90
       50
176
     1
 90
        3
176
     1
 62
     5
420
      255
176
     1
290
     0
176
     1
 90
       50
176
     1
 90
       50
176
     1
 90
       50
176
     1
290
     0
176
     1
 90
       50
176
     1
 62
   256
176
     0
 40
1.0
176
     0
 90
        2
176
     1
  1
strokes_ogs.tif
176
     1
290
     0
176
     1
 40
1.0
176
     1
 40
1.0
176
     1
  0
VISUALSTYLE
  5
31
102
{ACAD_REACTORS
330
2A
102
}
330
2A
100
AcDbVisualStyle
  2
Hidden
 70
     6
177
     3
291
     0
 70
    58
 90
        1
176
     1
 90
        2
176
     1
 90
        2
176
     1
 90
        0
176
     1
 40
0.6
176
     1
 40
30.0
176
     1
 62
     7
420
 16777215
176
     1
 90
        2
176
     1
 90
        2
176
     1
 62
     7
176
     1
 62
   257
176
     1
 90
        2
176
     1
 90
        1
176
     1
 40
40.0
176
     1
 90
        0
176
     1
 62
   257
176
     1
 40
1.0
176
     1
 90
        1
176
     1
 90
        6
176
     1
 90
        2
176
     1
 62
     7
176
     1
 90
        3
176
     1
 90
        0
176
     1
 90
        0
176
     1
290
     0
176
     1
 90
        1
176
     1
 40
0.0
176
     1
 90
        0
176
     1
290
     0
176
     1
290
     1
176
     1
290
     1
176
     1
290
     0
176
     1
290
     0
176
     1
290
     0
176
     1
290
     0
176
     1
290
     0
176
     1
290
     0
176
     1
 90
       50
176
     1
 40
0.0
176
     1
 40
1.0
176
     1
 90
        0
176
     1
 62
    18
420
        0
176
     1
 90
       50
176
     1
 90
        3
176
     1
 62
     5
420
      255
176
     1
290
     0
176
     1
 90
       50
176
     1
 90
       50
176
     1
 90
       50
176
     1
290
     0
176
     1
 90
       50
176
     1
 62
   256
176
     0
 40
1.0
176
     0
 90
        2
176
     1
  1
strokes_ogs.tif
176
     1
290
     0
176
     1
 40
1.0
176
     1
 40
1.0
176
     1
  0
VISUALSTYLE
  5
3B
102
{ACAD_REACTORS
330
2A
102
}
330
2A
100
AcDbVisualStyle
  2
JitterOff
 70
    20
177
     3
291
     1
 70
    58
 90
        2
176
     0
 90
        2
176
     0
 90
        0
176
     0
 90
        0
176
     0
 40
0.6
176
     0
 40
30.0
176
     0
 62
     7
420
 16777215
176
     0
 90
        1
176
     0
 90
        4
176
     0
 62
     7
176
     0
 62
   257
176
     0
 90
        1
176
     0
 90
        1
176
     0
 40
1.0
176
     0
 90
       10
176
     2
 62
     7
176
     0
 40
1.0
176
     0
 90
        1
176
     0
 90
        6
176
     0
 90
        2
176
     0
 62
     7
176
     0
 90
        5
176
     0
 90
        0
176
     0
 90
        0
176
     0
290
     0
176
     0
 90
        1
176
     0
 40
0.0
176
     0
 90
        0
176
     0
290
     0
176
     0
290
     1
176
     0
290
     1
176
     0
290
     0
176
     0
290
     0
176
     0
290
     0
176
     0
290
     0
176
     0
290
     0
176
     0
290
     0
176
     0
 90
       50
176
     0
 40
0.0
176
     0
 40
1.0
176
     0
 90
        0
176
     0
 62
    18
420
        0
176
     0
 90
       50
176
     0
 90
        3
176
     0
 62
     5
420
      255
176
     0
290
     0
176
     0
 90
       50
176
     0
 90
       50
176
     0
 90
       50
176
     0
290
     0
176
     0
 90
       50
176
     0
 62
   256
176
     0
 40
1.0
176
     0
 90
        2
176
     0
  1
strokes_ogs.tif
176
     0
290
     0
176
     0
 40
1.0
176
     0
 40
1.0
176
     0
  0
VISUALSTYLE
  5
38
102
{ACAD_REACTORS
330
2A
102
}
330
2A
100
AcDbVisualStyle
  2
Linepattern
 70
    14
177
     3
291
     1
 70
    58
 90
        2
176
     1
 90
        2
176
     1
 90
        0
176
     1
 90
        0
176
     1
 40
0.6
176
     1
 40
30.0
176
     1
 62
     7
420
 16777215
176
     1
 90
        1
176
     1
 90
        4
176
     1
 62
     7
176
     1
 62
   257
176
     1
 90
        7
176
     1
 90
        7
176
     1
 40
1.0
176
     1
 90
        8
176
     1
 62
     7
176
     1
 40
1.0
176
     1
 90
        1
176
     1
 90
        6
176
     1
 90
        2
176
     1
 62
     7
176
     1
 90
        5
176
     1
 90
        0
176
     1
 90
        0
176
     1
290
     0
176
     1
 90
        1
176
     1
 40
0.0
176
     1
 90
        0
176
     1
290
     0
176
     1
290
     1
176
     1
290
     1
176
     1
290
     0
176
     1
290
     0
176
     1
290
     0
176
     1
290
     0
176
     1
290
     0
176
     1
290
     0
176
     1
 90
       50
176
     1
 40
0.0
176
     1
 40
1.0
176
     1
 90
        0
176
     1
 62
    18
420
        0
176
     1
 90
       50
176
     1
 90
        3
176
     1
 62
     5
420
      255
176
     1
290
     0
176
     1
 90
       50
176
     1
 90
       50
176
     1
 90
       50
176
     1
290
     0
176
     1
 90
       50
176
     1
 62
   256
176
     0
 40
1.0
176
     0
 90
        2
176
     1
  1
strokes_ogs.tif
176
     1
290
     0
176
     1
 40
1.0
176
     1
 40
1.0
176
     1
  0
VISUALSTYLE
  5
3C
102
{ACAD_REACTORS
330
2A
102
}
330
2A
100
AcDbVisualStyle
  2
OverhangOff
 70
    21
177
     3
291
     1
 70
    58
 90
        2
176
     0
 90
        2
176
     0
 90
        0
176
     0
 90
        0
176
     0
 40
0.6
176
     0
 40
30.0
176
     0
 62
     7
420
 16777215
176
     0
 90
        1
176
     0
 90
        4
176
     0
 62
     7
176
     0
 62
   257
176
     0
 90
        1
176
     0
 90
        1
176
     0
 40
1.0
176
     0
 90
        9
176
     2
 62
     7
176
     0
 40
1.0
176
     0
 90
        1
176
     0
 90
        6
176
     0
 90
        2
176
     0
 62
     7
176
     0
 90
        5
176
     0
 90
        0
176
     0
 90
        0
176
     0
290
     0
176
     0
 90
        1
176
     0
 40
0.0
176
     0
 90
        0
176
     0
290
     0
176
     0
290
     1
176
     0
290
     1
176
     0
290
     0
176
     0
290
     0
176
     0
290
     0
176
     0
290
     0
176
     0
290
     0
176
     0
290
     0
176
     0
 90
       50
176
     0
 40
0.0
176
     0
 40
1.0
176
     0
 90
        0
176
     0
 62
    18
420
        0
176
     0
 90
       50
176
     0
 90
        3
176
     0
 62
     5
420
      255
176
     0
290
     0
176
     0
 90
       50
176
     0
 90
       50
176
     0
 90
       50
176
     0
290
     0
176
     0
 90
       50
176
     0
 62
   256
176
     0
 40
1.0
176
     0
 90
        2
176
     0
  1
strokes_ogs.tif
176
     0
290
     0
176
     0
 40
1.0
176
     0
 40
1.0
176
     0
  0
VISUALSTYLE
  5
33
102
{ACAD_REACTORS
330
2A
102
}
330
2A
100
AcDbVisualStyle
  2
Realistic
 70
     8
177
     3
291
     0
 70
    58
 90
        2
176
     1
 90
        3
176
     1
 90
        0
176
     1
 90
        2
176
     1
 40
0.6
176
     1
 40
30.0
176
     1
 62
     7
420
 16777215
176
     1
 90
        0
176
     1
 90
        0
176
     1
 62
     7
176
     1
 62
   257
176
     1
 90
        1
176
     1
 90
        1
176
     1
 40
1.0
176
     1
 90
        8
176
     1
 62
   257
176
     1
 40
1.0
176
     1
 90
        1
176
     1
 90
        6
176
     1
 90
        2
176
     1
 62
     7
176
     1
 90
        3
176
     1
 90
        0
176
     1
 90
        0
176
     1
290
     0
176
     1
 90
       13
176
     1
 40
0.0
176
     1
 90
        0
176
     1
290
     0
176
     1
290
     1
176
     1
290
     1
176
     1
290
     0
176
     1
290
     0
176
     1
290
     0
176
     1
290
     0
176
     1
290
     0
176
     1
290
     0
176
     1
 90
       50
176
     1
 40
0.0
176
     1
 40
1.0
176
     1
 90
        0
176
     1
 62
    18
420
        0
176
     1
 90
       50
176
     1
 90
        3
176
     1
 62
     5
420
      255
176
     1
290
     0
176
     1
 90
       50
176
     1
 90
       50
176
     1
 90
       50
176
     1
290
     0
176
     1
 90
       50
176
     1
 62
   256
176
     0
 40
1.0
176
     0
 90
        2
176
     1
  1
strokes_ogs.tif
176
     1
290
     0
176
     1
 40
1.0
176
     1
 40
1.0
176
     1
  0
VISUALSTYLE
  5
42
102
{ACAD_REACTORS
330
2A
102
}
330
2A
100
AcDbVisualStyle
  2
Shaded
 70
    27
177
     3
291
     0
 70
    58
 90
        2
176
     1
 90
        2
176
     1
 90
        1
176
     1
 90
        2
176
     1
 40
0.6
176
     1
 40
30.0
176
     1
 62
     7
420
 16777215
176
     1
 90
        0
176
     1
 90
        4
176
     1
 62
     7
176
     1
 62
   257
176
     1
 90
        1
176
     1
 90
        1
176
     1
 40
1.0
176
     1
 90
        8
176
     1
 62
   257
176
     1
 40
1.0
176
     1
 90
        1
176
     1
 90
        6
176
     1
 90
        2
176
     1
 62
     8
420
  7895160
176
     1
 90
        3
176
     1
 90
        0
176
     1
 90
        0
176
     1
290
     0
176
     1
 90
        5
176
     1
 40
0.0
176
     1
 90
        0
176
     1
290
     0
176
     1
290
     1
176
     1
290
     1
176
     1
290
     0
176
     1
290
     0
176
     1
290
     0
176
     1
290
     0
176
     1
290
     0
176
     1
290
     0
176
     1
 90
       50
176
     1
 40
0.0
176
     1
 40
1.0
176
     1
 90
        0
176
     1
 62
    18
420
        0
176
     1
 90
       50
176
     1
 90
        3
176
     1
 62
     5
420
      255
176
     1
290
     0
176
     1
 90
       50
176
     1
 90
       50
176
     1
 90
       50
176
     1
290
     0
176
     1
 90
       50
176
     1
 62
   256
176
     0
 40
1.0
176
     0
 90
        2
176
     1
  1
strokes_ogs.tif
176
     1
290
     0
176
     1
 40
1.0
176
     1
 40
1.0
176
     1
  0
VISUALSTYLE
  5
41
102
{ACAD_REACTORS
330
2A
102
}
330
2A
100
AcDbVisualStyle
  2
Shaded with edges
 70
    26
177
     3
291
     0
 70
    58
 90
        2
176
     1
 90
        2
176
     1
 90
        1
176
     1
 90
        2
176
     1
 40
0.6
176
     1
 40
30.0
176
     1
 62
     7
420
 16777215
176
     1
 90
        1
176
     1
 90
       10
176
     1
 62
     7
176
     1
 62
   257
176
     1
 90
        2
176
     1
 90
        1
176
     1
 40
1.0
176
     1
 90
        8
176
     1
 62
   257
176
     1
 40
1.0
176
     1
 90
        1
176
     1
 90
        6
176
     1
 90
        2
176
     1
 62
     7
176
     1
 90
        3
176
     1
 90
        0
176
     1
 90
        0
176
     1
290
     0
176
     1
 90
        5
176
     1
 40
0.0
176
     1
 90
        0
176
     1
290
     0
176
     1
290
     1
176
     1
290
     1
176
     1
290
     0
176
     1
290
     0
176
     1
290
     0
176
     1
290
     0
176
     1
290
     0
176
     1
290
     0
176
     1
 90
       50
176
     1
 40
0.0
176
     1
 40
1.0
176
     1
 90
        0
176
     1
 62
    18
420
        0
176
     1
 90
       50
176
     1
 90
        3
176
     1
 62
     5
420
      255
176
     1
290
     0
176
     1
 90
       50
176
     1
 90
       50
176
     1
 90
       50
176
     1
290
     0
176
     1
 90
       50
176
     1
 62
   256
176
     0
 40
1.0
176
     0
 90
        2
176
     1
  1
strokes_ogs.tif
176
     1
290
     0
176
     1
 40
1.0
176
     1
 40
1.0
176
     1
  0
VISUALSTYLE
  5
3E
102
{ACAD_REACTORS
330
2A
102
}
330
2A
100
AcDbVisualStyle
  2
Shades of Gray
 70
    23
177
     3
291
     0
 70
    58
 90
        2
176
     1
 90
        2
176
     1
 90
        3
176
     1
 90
        0
176
     1
 40
0.6
176
     1
 40
30.0
176
     1
 62
     7
420
 16777215
176
     1
 90
        2
176
     1
 90
        2
176
     1
 62
     7
176
     1
 62
     7
176
     1
 90
        1
176
     1
 90
        1
176
     1
 40
40.0
176
     1
 90
        8
176
     1
 62
     7
176
     1
 40
1.0
176
     1
 90
        1
176
     1
 90
        6
176
     1
 90
        2
176
     1
 62
     7
176
     1
 90
        3
176
     1
 90
        0
176
     1
 90
        0
176
     1
290
     0
176
     1
 90
        1
176
     1
 40
0.0
176
     1
 90
        0
176
     1
290
     0
176
     1
290
     1
176
     1
290
     1
176
     1
290
     0
176
     1
290
     0
176
     1
290
     0
176
     1
290
     0
176
     1
290
     0
176
     1
290
     0
176
     1
 90
       50
176
     1
 40
0.0
176
     1
 40
1.0
176
     1
 90
        0
176
     1
 62
    18
420
        0
176
     1
 90
       50
176
     1
 90
        3
176
     1
 62
     5
420
      255
176
     1
290
     0
176
     1
 90
       50
176
     1
 90
       50
176
     1
 90
       50
176
     1
290
     0
176
     1
 90
       50
176
     1
 62
   256
176
     0
 40
1.0
176
     0
 90
        2
176
     1
  1
strokes_ogs.tif
176
     1
290
     0
176
     1
 40
1.0
176
     1
 40
1.0
176
     1
  0
VISUALSTYLE
  5
3F
102
{ACAD_REACTORS
330
2A
102
}
330
2A
100
AcDbVisualStyle
  2
Sketchy
 70
    24
177
     3
291
     0
 70
    58
 90
        1
176
     1
 90
        2
176
     1
 90
        2
176
     1
 90
        0
176
     1
 40
0.6
176
     1
 40
30.0
176
     1
 62
     7
420
 16777215
176
     1
 90
        2
176
     1
 90
        2
176
     1
 62
     7
176
     1
 62
     7
176
     1
 90
        1
176
     1
 90
        1
176
     1
 40
40.0
176
     1
 90
       11
176
     1
 62
     7
176
     1
 40
1.0
176
     1
 90
        1
176
     1
 90
        6
176
     1
 90
        2
176
     1
 62
     7
176
     1
 90
        6
176
     1
 90
        0
176
     1
 90
        0
176
     1
290
     0
176
     1
 90
        1
176
     1
 40
0.0
176
     1
 90
        0
176
     1
290
     0
176
     1
290
     1
176
     1
290
     1
176
     1
290
     0
176
     1
290
     0
176
     1
290
     0
176
     1
290
     0
176
     1
290
     0
176
     1
290
     0
176
     1
 90
       50
176
     1
 40
0.0
176
     1
 40
1.0
176
     1
 90
        0
176
     1
 62
    18
420
        0
176
     1
 90
       50
176
     1
 90
        3
176
     1
 62
     5
420
      255
176
     1
290
     0
176
     1
 90
       50
176
     1
 90
       50
176
     1
 90
       50
176
     1
290
     0
176
     1
 90
       50
176
     1
 62
   256
176
     0
 40
1.0
176
     0
 90
        2
176
     1
  1
strokes_ogs.tif
176
     1
290
     0
176
     1
 40
1.0
176
     1
 40
1.0
176
     1
  0
VISUALSTYLE
  5
37
102
{ACAD_REACTORS
330
2A
102
}
330
2A
100
AcDbVisualStyle
  2
Thicken
 70
    13
177
     3
291
     1
 70
    58
 90
        2
176
     1
 90
        2
176
     1
 90
        0
176
     1
 90
        0
176
     1
 40
0.6
176
     1
 40
30.0
176
     1
 62
     7
420
 16777215
176
     1
 90
        1
176
     1
 90
        4
176
     1
 62
     7
176
     1
 62
   257
176
     1
 90
        1
176
     1
 90
        1
176
     1
 40
1.0
176
     1
 90
       12
176
     1
 62
     7
176
     1
 40
1.0
176
     1
 90
        1
176
     1
 90
        6
176
     1
 90
        2
176
     1
 62
     7
176
     1
 90
        5
176
     1
 90
        0
176
     1
 90
        0
176
     1
290
     0
176
     1
 90
        1
176
     1
 40
0.0
176
     1
 90
        0
176
     1
290
     0
176
     1
290
     1
176
     1
290
     1
176
     1
290
     0
176
     1
290
     0
176
     1
290
     0
176
     1
290
     0
176
     1
290
     0
176
     1
290
     0
176
     1
 90
       50
176
     1
 40
0.0
176
     1
 40
1.0
176
     1
 90
        0
176
     1
 62
    18
420
        0
176
     1
 90
       50
176
     1
 90
        3
176
     1
 62
     5
420
      255
176
     1
290
     0
176
     1
 90
       50
176
     1
 90
       50
176
     1
 90
       50
176
     1
290
     0
176
     1
 90
       50
176
     1
 62
   256
176
     0
 40
1.0
176
     0
 90
        2
176
     1
  1
strokes_ogs.tif
176
     1
290
     0
176
     1
 40
1.0
176
     1
 40
1.0
176
     1
  0
VISUALSTYLE
  5
30
102
{ACAD_REACTORS
330
2A
102
}
330
2A
100
AcDbVisualStyle
  2
Wireframe
 70
     5
177
     3
291
     0
 70
    58
 90
        0
176
     1
 90
        2
176
     1
 90
        0
176
     1
 90
        0
176
     1
 40
0.6
176
     1
 40
30.0
176
     1
 62
     7
420
 16777215
176
     1
 90
        1
176
     1
 90
        4
176
     1
 62
     7
176
     1
 62
   257
176
     1
 90
        1
176
     1
 90
        1
176
     1
 40
1.0
176
     1
 90
        0
176
     1
 62
   257
176
     1
 40
1.0
176
     1
 90
        1
176
     1
 90
        6
176
     1
 90
        2
176
     1
 62
     7
176
     1
 90
        3
176
     1
 90
        0
176
     1
 90
        0
176
     1
290
     0
176
     1
 90
        1
176
     1
 40
0.0
176
     1
 90
        0
176
     1
290
     0
176
     1
290
     1
176
     1
290
     1
176
     1
290
     0
176
     1
290
     0
176
     1
290
     0
176
     1
290
     0
176
     1
290
     0
176
     1
290
     0
176
     1
 90
       50
176
     1
 40
0.0
176
     1
 40
1.0
176
     1
 90
        0
176
     1
 62
    18
420
        0
176
     1
 90
       50
176
     1
 90
        3
176
     1
 62
     5
420
      255
176
     1
290
     0
176
     1
 90
       50
176
     1
 90
       50
176
     1
 90
       50
176
     1
290
     0
176
     1
 90
       50
176
     1
 62
   256
176
     0
 40
1.0
176
     0
 90
        2
176
     1
  1
strokes_ogs.tif
176
     1
290
     0
176
     1
 40
1.0
176
     1
 40
1.0
176
     1
  0
VISUALSTYLE
  5
40
102
{ACAD_REACTORS
330
2A
102
}
330
2A
100
AcDbVisualStyle
  2
X-Ray
 70
    25
177
     3
291
     0
 70
    58
 90
        2
176
     1
 90
        2
176
     1
 90
        1
176
     1
 90
        1
176
     1
 40
0.5
176
     1
 40
30.0
176
     1
 62
     7
420
 16777215
176
     1
 90
        1
176
     1
 90
        0
176
     1
 62
     7
176
     1
 62
   257
176
     1
 90
        1
176
     1
 90
        1
176
     1
 40
1.0
176
     1
 90
        8
176
     1
 62
     7
176
     1
 40
1.0
176
     1
 90
        1
176
     1
 90
        6
176
     1
 90
        2
176
     1
 62
     7
176
     1
 90
        3
176
     1
 90
        0
176
     1
 90
        0
176
     1
290
     0
176
     1
 90
       13
176
     1
 40
0.0
176
     1
 90
        0
176
     1
290
     0
176
     1
290
     1
176
     1
290
     1
176
     1
290
     0
176
     1
290
     0
176
     1
290
     0
176
     1
290
     0
176
     1
290
     0
176
     1
290
     0
176
     1
 90
       50
176
     1
 40
0.0
176
     1
 40
1.0
176
     1
 90
        0
176
     1
 62
    18
420
        0
176
     1
 90
       50
176
     1
 90
        3
176
     1
 62
     5
420
      255
176
     1
290
     0
176
     1
 90
       50
176
     1
 90
       50
176
     1
 90
       50
176
     1
290
     0
176
     1
 90
       50
176
     1
 62
   256
176
     0
 40
1.0
176
     0
 90
        2
176
     1
  1
strokes_ogs.tif
176
     1
290
     0
176
     1
 40
1.0
176
     1
 40
1.0
176
     1
  0
DICTIONARYVAR
  5
270
102
{ACAD_REACTORS
330
26F
102
}
330
26F
100
DictionaryVariables
280
     0
  1
1:1
  0
DICTIONARYVAR
  5
275
102
{ACAD_REACTORS
330
26F
102
}
330
26F
100
DictionaryVariables
280
     0
  1
Standard
  0
DICTIONARYVAR
  5
274
102
{ACAD_REACTORS
330
26F
102
}
330
26F
100
DictionaryVariables
280
     0
  1
Standard
  0
DICTIONARY
  5
271
330
6A
100
AcDbDictionary
280
     1
281
     1
  3
ACAD_ROUNDTRIP_2008_TABLESTYLE_CELLSTYLEMAP
360
272
  0
CELLSTYLEMAP
  5
272
102
{ACAD_REACTORS
330
271
102
}
330
271
100
AcDbCellStyleMap
 90
        3
300
CELLSTYLE
  1
TABLEFORMAT_BEGIN
 90
        5
170
     1
 91
        0
 92
    32768
 62
   257
 93
        1
300
CONTENTFORMAT
  1
CONTENTFORMAT_BEGIN
 90
        0
 91
        0
 92
        4
 93
        0
300

 40
0.0
140
1.0
 94
        5
 62
     0
340
11
144
0.25
309
CONTENTFORMAT_END
171
     1
301
MARGIN
  1
CELLMARGIN_BEGIN
 40
0.06
 40
0.06
 40
0.06
 40
0.06
 40
0.06
 40
0.06
309
CELLMARGIN_END
 94
        6
 95
        1
302
GRIDFORMAT
  1
GRIDFORMAT_BEGIN
 90
        0
 91
        1
 62
     0
 92
       -2
340
14
 93
        0
 40
0.045
309
GRIDFORMAT_END
 95
        2
302
GRIDFORMAT
  1
GRIDFORMAT_BEGIN
 90
        0
 91
        1
 62
     0
 92
       -2
340
14
 93
        0
 40
0.045
309
GRIDFORMAT_END
 95
        4
302
GRIDFORMAT
  1
GRIDFORMAT_BEGIN
 90
        0
 91
        1
 62
     0
 92
       -2
340
14
 93
        0
 40
0.045
309
GRIDFORMAT_END
 95
        8
302
GRIDFORMAT
  1
GRIDFORMAT_BEGIN
 90
        0
 91
        1
 62
     0
 92
       -2
340
14
 93
        0
 40
0.045
309
GRIDFORMAT_END
 95
       16
302
GRIDFORMAT
  1
GRIDFORMAT_BEGIN
 90
        0
 91
        1
 62
     0
 92
       -2
340
14
 93
        0
 40
0.045
309
GRIDFORMAT_END
 95
       32
302
GRIDFORMAT
  1
GRIDFORMAT_BEGIN
 90
        0
 91
        1
 62
     0
 92
       -2
340
14
 93
        0
 40
0.045
309
GRIDFORMAT_END
309
TABLEFORMAT_END
  1
CELLSTYLE_BEGIN
 90
        1
 91
        1
300
_TITLE
309
CELLSTYLE_END
300
CELLSTYLE
  1
TABLEFORMAT_BEGIN
 90
        5
170
     1
 91
        0
 92
        0
 62
   257
 93
        1
300
CONTENTFORMAT
  1
CONTENTFORMAT_BEGIN
 90
        0
 91
        0
 92
        4
 93
        0
300

 40
0.0
140
1.0
 94
        5
 62
     0
340
11
144
0.18
309
CONTENTFORMAT_END
171
     1
301
MARGIN
  1
CELLMARGIN_BEGIN
 40
0.06
 40
0.06
 40
0.06
 40
0.06
 40
0.06
 40
0.06
309
CELLMARGIN_END
 94
        6
 95
        1
302
GRIDFORMAT
  1
GRIDFORMAT_BEGIN
 90
        0
 91
        1
 62
     0
 92
       -2
340
14
 93
        0
 40
0.045
309
GRIDFORMAT_END
 95
        2
302
GRIDFORMAT
  1
GRIDFORMAT_BEGIN
 90
        0
 91
        1
 62
     0
 92
       -2
340
14
 93
        0
 40
0.045
309
GRIDFORMAT_END
 95
        4
302
GRIDFORMAT
  1
GRIDFORMAT_BEGIN
 90
        0
 91
        1
 62
     0
 92
       -2
340
14
 93
        0
 40
0.045
309
GRIDFORMAT_END
 95
        8
302
GRIDFORMAT
  1
GRIDFORMAT_BEGIN
 90
        0
 91
        1
 62
     0
 92
       -2
340
14
 93
        0
 40
0.045
309
GRIDFORMAT_END
 95
       16
302
GRIDFORMAT
  1
GRIDFORMAT_BEGIN
 90
        0
 91
        1
 62
     0
 92
       -2
340
14
 93
        0
 40
0.045
309
GRIDFORMAT_END
 95
       32
302
GRIDFORMAT
  1
GRIDFORMAT_BEGIN
 90
        0
 91
        1
 62
     0
 92
       -2
340
14
 93
        0
 40
0.045
309
GRIDFORMAT_END
309
TABLEFORMAT_END
  1
CELLSTYLE_BEGIN
 90
        2
 91
        1
300
_HEADER
309
CELLSTYLE_END
300
CELLSTYLE
  1
TABLEFORMAT_BEGIN
 90
        5
170
     1
 91
        0
 92
        0
 62
   257
 93
        1
300
CONTENTFORMAT
  1
CONTENTFORMAT_BEGIN
 90
        0
 91
        0
 92
        4
 93
        0
300

 40
0.0
140
1.0
 94
        2
 62
     0
340
11
144
0.18
309
CONTENTFORMAT_END
171
     1
301
MARGIN
  1
CELLMARGIN_BEGIN
 40
0.06
 40
0.06
 40
0.06
 40
0.06
 40
0.06
 40
0.06
309
CELLMARGIN_END
 94
        6
 95
        1
302
GRIDFORMAT
  1
GRIDFORMAT_BEGIN
 90
        0
 91
        1
 62
     0
 92
       -2
340
14
 93
        0
 40
0.045
309
GRIDFORMAT_END
 95
        2
302
GRIDFORMAT
  1
GRIDFORMAT_BEGIN
 90
        0
 91
        1
 62
     0
 92
       -2
340
14
 93
        0
 40
0.045
309
GRIDFORMAT_END
 95
        4
302
GRIDFORMAT
  1
GRIDFORMAT_BEGIN
 90
        0
 91
        1
 62
     0
 92
       -2
340
14
 93
        0
 40
0.045
309
GRIDFORMAT_END
 95
        8
302
GRIDFORMAT
  1
GRIDFORMAT_BEGIN
 90
        0
 91
        1
 62
     0
 92
       -2
340
14
 93
        0
 40
0.045
309
GRIDFORMAT_END
 95
       16
302
GRIDFORMAT
  1
GRIDFORMAT_BEGIN
 90
        0
 91
        1
 62
     0
 92
       -2
340
14
 93
        0
 40
0.045
309
GRIDFORMAT_END
 95
       32
302
GRIDFORMAT
  1
GRIDFORMAT_BEGIN
 90
        0
 91
        1
 62
     0
 92
       -2
340
14
 93
        0
 40
0.045
309
GRIDFORMAT_END
309
TABLEFORMAT_END
  1
CELLSTYLE_BEGIN
 90
        3
 91
        2
300
_DATA
309
CELLSTYLE_END
  0
ENDSEC
  0
EOF