0
SECTION
  2
HEADER
  9
$ACADVER
  1
AC1027
  9
$ACADMAINTVER
 70
   105
  9
$DWGCODEPAGE
  3
ANSI_1252
  9
$REQUIREDVERSIONS
160
                 0
  9
$COMMENTS
  1
File was created by Cadenas
  9
$CUSTOMPROPERTYTAG
  1
NN
  9
$CUSTOMPROPERTY
  1
Imperial - IP Piloted Flange Contact Seal
  9
$CUSTOMPROPERTYTAG
  1
NT
  9
$CUSTOMPROPERTY
  1
Imperial Piloted Flange Bearings
  9
$CUSTOMPROPERTYTAG
  1
NB
  9
$CUSTOMPROPERTY
  1
069857
  9
$CUSTOMPROPERTYTAG
  1
NBSYN
  9
$CUSTOMPROPERTY
  1
$PN.
  9
$CUSTOMPROPERTYTAG
  1
LINA
  9
$CUSTOMPROPERTY
  1
069857
  9
$CUSTOMPROPERTYTAG
  1
SS
  9
$CUSTOMPROPERTY
  1
3
  9
$CUSTOMPROPERTYTAG
  1
PN
  9
$CUSTOMPROPERTY
  1
069857
  9
$CUSTOMPROPERTYTAG
  1
DESCRIPTION
  9
$CUSTOMPROPERTY
  1
FC-IP-300RE
  9
$CUSTOMPROPERTYTAG
  1
EF
  9
$CUSTOMPROPERTY
  1
Expansion Type
  9
$CUSTOMPROPERTYTAG
  1
ST
  9
$CUSTOMPROPERTY
  1
Contact  Seal
  9
$CUSTOMPROPERTYTAG
  1
A
  9
$CUSTOMPROPERTY
  1
3-1/2
  9
$CUSTOMPROPERTYTAG
  1
B
  9
$CUSTOMPROPERTY
  1
8-3/4
  9
$CUSTOMPROPERTYTAG
  1
C
  9
$CUSTOMPROPERTY
  1
2-5/8
  9
$CUSTOMPROPERTYTAG
  1
D
  9
$CUSTOMPROPERTY
  1
5-19/64
  9
$CUSTOMPROPERTYTAG
  1
DD
  9
$CUSTOMPROPERTY
  1
7-1/2
  9
$CUSTOMPROPERTYTAG
  1
E
  9
$CUSTOMPROPERTY
  1
1-1/4
  9
$CUSTOMPROPERTYTAG
  1
F
  9
$CUSTOMPROPERTY
  1
5/8
  9
$CUSTOMPROPERTYTAG
  1
G
  9
$CUSTOMPROPERTY
  1
1-15/16
  9
$CUSTOMPROPERTYTAG
  1
H
  9
$CUSTOMPROPERTY
  1
3/4
  9
$CUSTOMPROPERTYTAG
  1
K
  9
$CUSTOMPROPERTY
  1
6.375
  9
$CUSTOMPROPERTYTAG
  1
L
  9
$CUSTOMPROPERTY
  1
4-9/32
  9
$CUSTOMPROPERTYTAG
  1
M
  9
$CUSTOMPROPERTY
  1
5/8-11
  9
$CUSTOMPROPERTYTAG
  1
N
  9
$CUSTOMPROPERTY
  1
3-9/16
  9
$CUSTOMPROPERTYTAG
  1
P
  9
$CUSTOMPROPERTY
  1
1-9/16
  9
$CUSTOMPROPERTYTAG
  1
Q
  9
$CUSTOMPROPERTY
  1
1-5/8
  9
$CUSTOMPROPERTYTAG
  1
X
  9
$CUSTOMPROPERTY
  1
1/4
  9
$CUSTOMPROPERTYTAG
  1
Y
  9
$CUSTOMPROPERTY
  1
0.025
  9
$CUSTOMPROPERTYTAG
  1
Z
  9
$CUSTOMPROPERTY
  1
3-15/32
  9
$CUSTOMPROPERTYTAG
  1
COMPANY
  9
$CUSTOMPROPERTY
  1
baldor
  9
$INSBASE
 10
0.0
 20
0.0
 30
0.0
  9
$EXTMIN
 10
1.000000000000000E+20
 20
1.000000000000000E+20
 30
1.000000000000000E+20
  9
$EXTMAX
 10
-1.000000000000000E+20
 20
-1.000000000000000E+20
 30
-1.000000000000000E+20
  9
$LIMMIN
 10
0.0
 20
0.0
  9
$LIMMAX
 10
12.0
 20
9.0
  9
$ORTHOMODE
 70
     0
  9
$REGENMODE
 70
     1
  9
$FILLMODE
 70
     1
  9
$QTEXTMODE
 70
     0
  9
$MIRRTEXT
 70
     1
  9
$LTSCALE
 40
1.0
  9
$ATTMODE
 70
     1
  9
$TEXTSIZE
 40
0.2
  9
$TRACEWID
 40
0.05
  9
$TEXTSTYLE
  7
Standard
  9
$CLAYER
  8
0
  9
$CELTYPE
  6
ByLayer
  9
$CECOLOR
 62
   256
  9
$CELTSCALE
 40
1.0
  9
$DISPSILH
 70
     0
  9
$DIMSCALE
 40
1.0
  9
$DIMASZ
 40
0.18
  9
$DIMEXO
 40
0.0625
  9
$DIMDLI
 40
0.38
  9
$DIMRND
 40
0.0
  9
$DIMDLE
 40
0.0
  9
$DIMEXE
 40
0.18
  9
$DIMTP
 40
0.0
  9
$DIMTM
 40
0.0
  9
$DIMTXT
 40
0.18
  9
$DIMCEN
 40
0.09
  9
$DIMTSZ
 40
0.0
  9
$DIMTOL
 70
     0
  9
$DIMLIM
 70
     0
  9
$DIMTIH
 70
     1
  9
$DIMTOH
 70
     1
  9
$DIMSE1
 70
     0
  9
$DIMSE2
 70
     0
  9
$DIMTAD
 70
     0
  9
$DIMZIN
 70
     0
  9
$DIMBLK
  1

  9
$DIMASO
 70
     1
  9
$DIMSHO
 70
     1
  9
$DIMPOST
  1

  9
$DIMAPOST
  1

  9
$DIMALT
 70
     0
  9
$DIMALTD
 70
     2
  9
$DIMALTF
 40
25.4
  9
$DIMLFAC
 40
1.0
  9
$DIMTOFL
 70
     0
  9
$DIMTVP
 40
0.0
  9
$DIMTIX
 70
     0
  9
$DIMSOXD
 70
     0
  9
$DIMSAH
 70
     0
  9
$DIMBLK1
  1

  9
$DIMBLK2
  1

  9
$DIMSTYLE
  2
Standard
  9
$DIMCLRD
 70
     0
  9
$DIMCLRE
 70
     0
  9
$DIMCLRT
 70
     0
  9
$DIMTFAC
 40
1.0
  9
$DIMGAP
 40
0.09
  9
$DIMJUST
 70
     0
  9
$DIMSD1
 70
     0
  9
$DIMSD2
 70
     0
  9
$DIMTOLJ
 70
     1
  9
$DIMTZIN
 70
     0
  9
$DIMALTZ
 70
     0
  9
$DIMALTTZ
 70
     0
  9
$DIMUPT
 70
     0
  9
$DIMDEC
 70
     4
  9
$DIMTDEC
 70
     4
  9
$DIMALTU
 70
     2
  9
$DIMALTTD
 70
     2
  9
$DIMTXSTY
  7
Standard
  9
$DIMAUNIT
 70
     0
  9
$DIMADEC
 70
     0
  9
$DIMALTRND
 40
0.0
  9
$DIMAZIN
 70
     0
  9
$DIMDSEP
 70
    46
  9
$DIMATFIT
 70
     3
  9
$DIMFRAC
 70
     0
  9
$DIMLDRBLK
  1

  9
$DIMLUNIT
 70
     2
  9
$DIMLWD
 70
    -2
  9
$DIMLWE
 70
    -2
  9
$DIMTMOVE
 70
     0
  9
$DIMFXL
 40
1.0
  9
$DIMFXLON
 70
     0
  9
$DIMJOGANG
 40
0.7853981633974483
  9
$DIMTFILL
 70
     0
  9
$DIMTFILLCLR
 70
     0
  9
$DIMARCSYM
 70
     0
  9
$DIMLTYPE
  6

  9
$DIMLTEX1
  6

  9
$DIMLTEX2
  6

  9
$DIMTXTDIRECTION
 70
     0
  9
$LUNITS
 70
     2
  9
$LUPREC
 70
     4
  9
$SKETCHINC
 40
0.1
  9
$FILLETRAD
 40
0.5
  9
$AUNITS
 70
     0
  9
$AUPREC
 70
     0
  9
$MENU
  1
.
  9
$ELEVATION
 40
0.0
  9
$PELEVATION
 40
0.0
  9
$THICKNESS
 40
0.0
  9
$LIMCHECK
 70
     0
  9
$CHAMFERA
 40
0.0
  9
$CHAMFERB
 40
0.0
  9
$CHAMFERC
 40
0.0
  9
$CHAMFERD
 40
0.0
  9
$SKPOLY
 70
     0
  9
$TDCREATE
 40
2458168.990086042
  9
$TDUCREATE
 40
2458168.948419375
  9
$TDUPDATE
 40
2458168.990086227
  9
$TDUUPDATE
 40
2458168.94841956
  9
$TDINDWG
 40
0.0000000116
  9
$TDUSRTIMER
 40
0.0000000116
  9
$USRTIMER
 70
     1
  9
$ANGBASE
 50
0.0
  9
$ANGDIR
 70
     0
  9
$PDMODE
 70
     0
  9
$PDSIZE
 40
0.0
  9
$PLINEWID
 40
0.0
  9
$SPLFRAME
 70
     0
  9
$SPLINETYPE
 70
     6
  9
$SPLINESEGS
 70
     8
  9
$HANDSEED
  5
267
  9
$SURFTAB1
 70
     6
  9
$SURFTAB2
 70
     6
  9
$SURFTYPE
 70
     6
  9
$SURFU
 70
     6
  9
$SURFV
 70
     6
  9
$UCSBASE
  2

  9
$UCSNAME
  2

  9
$UCSORG
 10
0.0
 20
0.0
 30
0.0
  9
$UCSXDIR
 10
1.0
 20
0.0
 30
0.0
  9
$UCSYDIR
 10
0.0
 20
1.0
 30
0.0
  9
$UCSORTHOREF
  2

  9
$UCSORTHOVIEW
 70
     0
  9
$UCSORGTOP
 10
0.0
 20
0.0
 30
0.0
  9
$UCSORGBOTTOM
 10
0.0
 20
0.0
 30
0.0
  9
$UCSORGLEFT
 10
0.0
 20
0.0
 30
0.0
  9
$UCSORGRIGHT
 10
0.0
 20
0.0
 30
0.0
  9
$UCSORGFRONT
 10
0.0
 20
0.0
 30
0.0
  9
$UCSORGBACK
 10
0.0
 20
0.0
 30
0.0
  9
$PUCSBASE
  2

  9
$PUCSNAME
  2

  9
$PUCSORG
 10
0.0
 20
0.0
 30
0.0
  9
$PUCSXDIR
 10
1.0
 20
0.0
 30
0.0
  9
$PUCSYDIR
 10
0.0
 20
1.0
 30
0.0
  9
$PUCSORTHOREF
  2

  9
$PUCSORTHOVIEW
 70
     0
  9
$PUCSORGTOP
 10
0.0
 20
0.0
 30
0.0
  9
$PUCSORGBOTTOM
 10
0.0
 20
0.0
 30
0.0
  9
$PUCSORGLEFT
 10
0.0
 20
0.0
 30
0.0
  9
$PUCSORGRIGHT
 10
0.0
 20
0.0
 30
0.0
  9
$PUCSORGFRONT
 10
0.0
 20
0.0
 30
0.0
  9
$PUCSORGBACK
 10
0.0
 20
0.0
 30
0.0
  9
$USERI1
 70
     0
  9
$USERI2
 70
     0
  9
$USERI3
 70
     0
  9
$USERI4
 70
     0
  9
$USERI5
 70
     0
  9
$USERR1
 40
0.0
  9
$USERR2
 40
0.0
  9
$USERR3
 40
0.0
  9
$USERR4
 40
0.0
  9
$USERR5
 40
0.0
  9
$WORLDVIEW
 70
     1
  9
$SHADEDGE
 70
     3
  9
$SHADEDIF
 70
    70
  9
$TILEMODE
 70
     1
  9
$MAXACTVP
 70
    64
  9
$PINSBASE
 10
0.0
 20
0.0
 30
0.0
  9
$PLIMCHECK
 70
     0
  9
$PEXTMIN
 10
1.000000000000000E+20
 20
1.000000000000000E+20
 30
1.000000000000000E+20
  9
$PEXTMAX
 10
-1.000000000000000E+20
 20
-1.000000000000000E+20
 30
-1.000000000000000E+20
  9
$PLIMMIN
 10
0.0
 20
0.0
  9
$PLIMMAX
 10
12.0
 20
9.0
  9
$UNITMODE
 70
     0
  9
$VISRETAIN
 70
     1
  9
$PLINEGEN
 70
     0
  9
$PSLTSCALE
 70
     1
  9
$TREEDEPTH
 70
  3020
  9
$CMLSTYLE
  2
Standard
  9
$CMLJUST
 70
     0
  9
$CMLSCALE
 40
1.0
  9
$PROXYGRAPHICS
 70
     1
  9
$MEASUREMENT
 70
     0
  9
$CELWEIGHT
370
    -1
  9
$ENDCAPS
280
     0
  9
$JOINSTYLE
280
     0
  9
$LWDISPLAY
290
     0
  9
$INSUNITS
 70
     1
  9
$HYPERLINKBASE
  1

  9
$STYLESHEET
  1

  9
$XEDIT
290
     1
  9
$CEPSNTYPE
380
     0
  9
$PSTYLEMODE
290
     1
  9
$FINGERPRINTGUID
  2
{7125A805-F9DE-4DE7-ABA2-AC806C1582F6}
  9
$VERSIONGUID
  2
{FAEB1C32-E019-11D5-929B-00C0DF256EC4}
  9
$EXTNAMES
290
     1
  9
$PSVPSCALE
 40
0.0
  9
$OLESTARTUP
290
     0
  9
$SORTENTS
280
   127
  9
$INDEXCTL
280
     0
  9
$HIDETEXT
280
     1
  9
$XCLIPFRAME
280
     2
  9
$HALOGAP
280
     0
  9
$OBSCOLOR
 70
   257
  9
$OBSLTYPE
280
     0
  9
$INTERSECTIONDISPLAY
280
     0
  9
$INTERSECTIONCOLOR
 70
   257
  9
$DIMASSOC
280
     2
  9
$PROJECTNAME
  1

  9
$CAMERADISPLAY
290
     0
  9
$LENSLENGTH
 40
50.0
  9
$CAMERAHEIGHT
 40
0.0
  9
$STEPSPERSEC
 40
2.0
  9
$STEPSIZE
 40
6.0
  9
$3DDWFPREC
 40
2.0
  9
$PSOLWIDTH
 40
0.25
  9
$PSOLHEIGHT
 40
4.0
  9
$LOFTANG1
 40
1.570796326794897
  9
$LOFTANG2
 40
1.570796326794897
  9
$LOFTMAG1
 40
0.0
  9
$LOFTMAG2
 40
0.0
  9
$LOFTPARAM
 70
     7
  9
$LOFTNORMALS
280
     1
  9
$LATITUDE
 40
37.795
  9
$LONGITUDE
 40
-122.394
  9
$NORTHDIRECTION
 40
0.0
  9
$TIMEZONE
 70
 -8000
  9
$LIGHTGLYPHDISPLAY
280
     1
  9
$TILEMODELIGHTSYNCH
280
     1
  9
$CMATERIAL
347
44
  9
$SOLIDHIST
280
     0
  9
$SHOWHIST
280
     1
  9
$DWFFRAME
280
     2
  9
$DGNFRAME
280
     2
  9
$REALWORLDSCALE
290
     1
  9
$INTERFERECOLOR
 62
   256
  9
$CSHADOW
280
     0
  9
$SHADOWPLANELOCATION
 40
0.0
  0
ENDSEC
  0
SECTION
  2
CLASSES
  0
CLASS
  1
ACDBDICTIONARYWDFLT
  2
AcDbDictionaryWithDefault
  3
ObjectDBX Classes
 90
        0
 91
        4
280
     0
281
     0
  0
CLASS
  1
VISUALSTYLE
  2
AcDbVisualStyle
  3
ObjectDBX Classes
 90
     4095
 91
        4
280
     0
281
     0
  0
CLASS
  1
MATERIAL
  2
AcDbMaterial
  3
ObjectDBX Classes
 90
     1153
 91
        4
280
     0
281
     0
  0
CLASS
  1
SCALE
  2
AcDbScale
  3
ObjectDBX Classes
 90
     1153
 91
        4
280
     0
281
     0
  0
CLASS
  1
TABLESTYLE
  2
AcDbTableStyle
  3
ObjectDBX Classes
 90
     4095
 91
        4
280
     0
281
     0
  0
CLASS
  1
MLEADERSTYLE
  2
AcDbMLeaderStyle
  3
ACDB_MLEADERSTYLE_CLASS
 90
     4095
 91
        4
280
     0
281
     0
  0
CLASS
  1
SUN
  2
AcDbSun
  3
SCENEOE
 90
     1153
 91
        4
280
     0
281
     0
  0
CLASS
  1
DICTIONARYVAR
  2
AcDbDictionaryVar
  3
ObjectDBX Classes
 90
        0
 91
        4
280
     0
281
     0
  0
CLASS
  1
CELLSTYLEMAP
  2
AcDbCellStyleMap
  3
ObjectDBX Classes
 90
     1152
 91
        4
280
     0
281
     0
  0
ENDSEC
  0
SECTION
  2
TABLES
  0
TABLE
  2
VPORT
  5
8
330
0
100
AcDbSymbolTable
 70
     1
  0
VPORT
  5
29
330
8
100
AcDbSymbolTableRecord
100
AcDbViewportTableRecord
  2
*Active
 70
     0
 10
0.0
 20
0.0
 11
1.0
 21
1.0
 12
4.821428571428571
 22
-2.375
 13
0.0
 23
0.0
 14
0.5
 24
0.5
 15
0.5
 25
0.5
 16
0.0
 26
0.0
 36
1.0
 17
0.0
 27
0.0
 37
0.0
 40
14.79
 41
0.960886699507389
 42
50.0
 43
0.0
 44
0.0
 50
0.0
 51
0.0
 71
     0
 72
   100
 73
     1
 74
     3
 75
     0
 76
     0
 77
     0
 78
     0
281
     0
 65
     1
110
0.0
120
0.0
130
0.0
111
1.0
121
0.0
131
0.0
112
0.0
122
1.0
132
0.0
 79
     0
146
0.0
348
2F
 60
     3
 61
     5
292
     1
282
     1
141
0.0
142
0.0
 63
   250
361
6D
  0
ENDTAB
  0
TABLE
  2
LTYPE
  5
5
330
0
100
AcDbSymbolTable
 70
     3
  0
LTYPE
  5
14
330
5
100
AcDbSymbolTableRecord
100
AcDbLinetypeTableRecord
  2
ByBlock
 70
     0
  3

 72
    65
 73
     0
 40
0.0
  0
LTYPE
  5
15
330
5
100
AcDbSymbolTableRecord
100
AcDbLinetypeTableRecord
  2
ByLayer
 70
     0
  3

 72
    65
 73
     0
 40
0.0
  0
LTYPE
  5
16
330
5
100
AcDbSymbolTableRecord
100
AcDbLinetypeTableRecord
  2
Continuous
 70
     0
  3
Solid line
 72
    65
 73
     0
 40
0.0
  0
LTYPE
  5
98
330
5
100
AcDbSymbolTableRecord
100
AcDbLinetypeTableRecord
  2
Dashed
 70
     0
  3

 72
    65
 73
     2
 40
2.0
 49
1.0
 74
     0
 49
-1.0
 74
     0
  0
LTYPE
  5
A6
330
5
100
AcDbSymbolTableRecord
100
AcDbLinetypeTableRecord
  2
Center
 70
     0
  3

 72
    65
 73
     4
 40
1.5
 49
0.45
 74
     0
 49
-0.5
 74
     0
 49
0.05
 74
     0
 49
-0.5
 74
     0
  0
ENDTAB
  0
TABLE
  2
LAYER
  5
2
330
0
100
AcDbSymbolTable
 70
     8
  0
LAYER
  5
10
330
2
100
AcDbSymbolTableRecord
100
AcDbLayerTableRecord
  2
0
 70
     0
 62
     7
  6
Continuous
370
    -3
390
F
347
46
348
0
  0
LAYER
  5
6E
330
2
100
AcDbSymbolTableRecord
100
AcDbLayerTableRecord
  2
AM_6
 70
     0
 62
    -2
  6
Continuous
370
    35
390
F
347
46
348
0
  0
LAYER
  5
99
330
2
100
AcDbSymbolTableRecord
100
AcDbLayerTableRecord
  2
AM_9
 70
     0
 62
     6
  6
Dashed
370
    25
390
F
347
46
348
0
  0
LAYER
  5
A0
330
2
100
AcDbSymbolTableRecord
100
AcDbLayerTableRecord
  2
AM_5
 70
     0
 62
     3
  6
Continuous
370
    25
390
F
347
46
348
0
  0
LAYER
  5
A7
330
2
100
AcDbSymbolTableRecord
100
AcDbLayerTableRecord
  2
AM_7
 70
     0
 62
     7
  6
Center
370
    25
390
F
347
46
348
0
  0
LAYER
  5
A9
330
2
100
AcDbSymbolTableRecord
100
AcDbLayerTableRecord
  2
AM_0
 70
     0
 62
     7
  6
Continuous
370
    50
390
F
347
46
348
0
  0
LAYER
  5
E9
330
2
100
AcDbSymbolTableRecord
100
AcDbLayerTableRecord
  2
AM_4
 70
     0
 62
     3
  6
Continuous
370
    25
390
F
347
46
348
0
  0
LAYER
  5
24F
330
2
100
AcDbSymbolTableRecord
100
AcDbLayerTableRecord
  2
ConnectionPoints
 70
     0
 62
     7
  6
Continuous
370
    50
390
F
347
46
348
0
  0
ENDTAB
  0
TABLE
  2
STYLE
  5
3
330
0
100
AcDbSymbolTable
 70
     1
  0
STYLE
  5
11
330
3
100
AcDbSymbolTableRecord
100
AcDbTextStyleTableRecord
  2
Standard
 70
     0
 40
0.0
 41
1.0
 50
0.0
 71
     0
 42
0.2
  3
txt
  4

  0
ENDTAB
  0
TABLE
  2
VIEW
  5
6
330
0
100
AcDbSymbolTable
 70
     0
  0
ENDTAB
  0
TABLE
  2
UCS
  5
7
330
0
100
AcDbSymbolTable
 70
     0
  0
ENDTAB
  0
TABLE
  2
APPID
  5
9
330
0
100
AcDbSymbolTable
 70
     1
  0
APPID
  5
12
330
9
100
AcDbSymbolTableRecord
100
AcDbRegAppTableRecord
  2
ACAD
 70
     0
  0
ENDTAB
  0
TABLE
  2
DIMSTYLE
  5
A
330
0
100
AcDbSymbolTable
 70
     1
100
AcDbDimStyleTable
  0
DIMSTYLE
105
27
330
A
100
AcDbSymbolTableRecord
100
AcDbDimStyleTableRecord
  2
Standard
 70
     0
178
     0
340
11
  0
ENDTAB
  0
TABLE
  2
BLOCK_RECORD
  5
1
330
0
100
AcDbSymbolTable
 70
     7
  0
BLOCK_RECORD
  5
1F
330
1
100
AcDbSymbolTableRecord
100
AcDbBlockTableRecord
  2
*Model_Space
340
22
 70
     0
280
     1
281
     0
  0
BLOCK_RECORD
  5
1B
330
1
100
AcDbSymbolTableRecord
100
AcDbBlockTableRecord
  2
*Paper_Space
340
1E
 70
     0
280
     1
281
     0
  0
BLOCK_RECORD
  5
23
330
1
100
AcDbSymbolTableRecord
100
AcDbBlockTableRecord
  2
*Paper_Space0
340
26
 70
     0
280
     1
281
     0
  0
BLOCK_RECORD
  5
8C
330
1
100
AcDbSymbolTableRecord
100
AcDbBlockTableRecord
  2
1_405015E_Inch_0_in_069857_2
340
0
102
{BLKREFS
331
8D
102
}
 70
     0
280
     1
281
     0
  0
BLOCK_RECORD
  5
C8
330
1
100
AcDbSymbolTableRecord
100
AcDbBlockTableRecord
  2
2_ASME_B18_3_10_1_0_in_069857_2
340
0
102
{BLKREFS
331
C9
102
}
 70
     0
280
     1
281
     0
  0
BLOCK_RECORD
  5
ED
330
1
100
AcDbSymbolTableRecord
100
AcDbBlockTableRecord
  2
3_ASME_B18_3_10_2_0_in_069857_2
340
0
102
{BLKREFS
331
EE
102
}
 70
     0
280
     1
281
     0
  0
BLOCK_RECORD
  5
111
330
1
100
AcDbSymbolTableRecord
100
AcDbBlockTableRecord
  2
4_070900LW_0_in_069857_2
340
0
102
{BLKREFS
331
112
102
}
 70
     0
280
     1
281
     0
  0
BLOCK_RECORD
  5
147
330
1
100
AcDbSymbolTableRecord
100
AcDbBlockTableRecord
  2
5_070900I_0_in_069857_2
340
0
102
{BLKREFS
331
148
102
}
 70
     0
280
     1
281
     0
  0
BLOCK_RECORD
  5
1D4
330
1
100
AcDbSymbolTableRecord
100
AcDbBlockTableRecord
  2
6_069857H_0_in_069857_2
340
0
102
{BLKREFS
331
1D5
102
}
 70
     0
280
     1
281
     0
  0
ENDTAB
  0
ENDSEC
  0
SECTION
  2
BLOCKS
  0
BLOCK
  5
20
330
1F
100
AcDbEntity
  8
0
100
AcDbBlockBegin
  2
*Model_Space
 70
     0
 10
0.0
 20
0.0
 30
0.0
  3
*Model_Space
  1

  0
ENDBLK
  5
21
330
1F
100
AcDbEntity
  8
0
100
AcDbBlockEnd
  0
BLOCK
  5
1C
330
1B
100
AcDbEntity
 67
     1
  8
0
100
AcDbBlockBegin
  2
*Paper_Space
 70
     0
 10
0.0
 20
0.0
 30
0.0
  3
*Paper_Space
  1

  0
ENDBLK
  5
1D
330
1B
100
AcDbEntity
 67
     1
  8
0
100
AcDbBlockEnd
  0
BLOCK
  5
24
330
23
100
AcDbEntity
  8
0
100
AcDbBlockBegin
  2
*Paper_Space0
 70
     0
 10
0.0
 20
0.0
 30
0.0
  3
*Paper_Space0
  1

  0
ENDBLK
  5
25
330
23
100
AcDbEntity
  8
0
100
AcDbBlockEnd
  0
BLOCK
  5
8E
330
8C
100
AcDbEntity
  8
0
100
AcDbBlockBegin
  2
1_405015E_Inch_0_in_069857_2
 70
     2
 10
0.0
 20
0.0
 30
0.0
  3
1_405015E_Inch_0_in_069857_2
  1

  0
ATTDEF
  5
90
330
8C
100
AcDbEntity
  8
AM_6
100
AcDbText
 10
4.510948168239011
 20
3.809465807591419
 30
0.0
 40
0.5
  1
405015E -Inch
100
AcDbAttributeDefinition
  3

  2
NN
 70
     8
280
     0
  0
ATTDEF
  5
91
330
8C
100
AcDbEntity
  8
AM_6
100
AcDbText
 10
4.510948168239011
 20
3.309465807591419
 30
0.0
 40
0.5
  1
Grease Fitting
100
AcDbAttributeDefinition
  3

  2
NT
 70
     8
280
     0
  0
ATTDEF
  5
92
330
8C
100
AcDbEntity
  8
AM_6
100
AcDbText
 10
4.510948168239011
 20
2.809465807591419
 30
0.0
 40
0.5
  1
405015E-Inch
100
AcDbAttributeDefinition
  3

  2
NB
 70
     8
280
     0
  0
ATTDEF
  5
93
330
8C
100
AcDbEntity
  8
AM_6
100
AcDbText
 10
4.510948168239011
 20
2.309465807591419
 30
0.0
 40
0.5
  1
$MN.-Inch
100
AcDbAttributeDefinition
  3

  2
NBSYN
 70
     8
280
     0
  0
ATTDEF
  5
94
330
8C
100
AcDbEntity
  8
AM_6
100
AcDbText
 10
4.510948168239011
 20
1.809465807591419
 30
0.0
 40
0.5
  1
405015E
100
AcDbAttributeDefinition
  3

  2
LINA
 70
     8
280
     0
  0
ATTDEF
  5
95
330
8C
100
AcDbEntity
  8
AM_6
100
AcDbText
 10
4.510948168239011
 20
1.309465807591419
 30
0.0
 40
0.5
  1
405015E
100
AcDbAttributeDefinition
  3

  2
MN
 70
     8
280
     0
  0
ATTDEF
  5
96
330
8C
100
AcDbEntity
  8
AM_6
100
AcDbText
 10
4.510948168239011
 20
0.809465807591419
 30
0.0
 40
0.5
  1
1/8 x 27PTF
100
AcDbAttributeDefinition
  3

  2
T
 70
     8
280
     0
  0
ATTDEF
  5
97
330
8C
100
AcDbEntity
  8
AM_6
100
AcDbText
 10
4.510948168239011
 20
0.309465807591419
 30
0.0
 40
0.5
  1
baldor
100
AcDbAttributeDefinition
  3

  2
COMPANY
 70
     8
280
     0
  0
LINE
  5
9A
330
8C
100
AcDbEntity
  8
AM_9
 48
0.0018382267275702
100
AcDbLine
 10
-0.6509547042332583
 20
3.260332135603334
 30
0.0
 11
-0.4890518317609893
 21
3.540756136616649
 31
0.0
  0
LINE
  5
9B
330
8C
100
AcDbEntity
  8
AM_9
 48
0.0018382267275702
100
AcDbLine
 10
-0.4890518317609893
 20
3.540756136616649
 30
0.0
 11
-0.5024903645317679
 21
3.590909423696373
 31
0.0
  0
LINE
  5
9C
330
8C
100
AcDbEntity
  8
AM_9
 48
0.0018382267275702
100
AcDbLine
 10
-0.7011079913129833
 20
3.246893602832555
 30
0.0
 11
-0.6509547042332583
 21
3.260332135603334
 31
0.0
  0
LINE
  5
9D
330
8C
100
AcDbEntity
  8
AM_9
 48
0.0018382267275702
100
AcDbLine
 10
-0.7011079913129833
 20
3.246893602832555
 30
0.0
 11
-0.5024903645317679
 21
3.590909423696373
 31
0.0
  0
LINE
  5
9E
330
8C
100
AcDbEntity
  8
AM_9
 48
0.0018382267275702
100
AcDbLine
 10
-0.5024903645317679
 20
3.590909423696373
 30
0.0
 11
-0.6966240513884652
 21
3.711230505982015
 31
0.0
  0
LINE
  5
9F
330
8C
100
AcDbEntity
  8
AM_9
 48
0.0018382267275702
100
AcDbLine
 10
-0.9023759486115349
 20
3.354857766237968
 30
0.0
 11
-0.7011079913129833
 21
3.246893602832555
 31
0.0
  0
LINE
  5
A1
330
8C
100
AcDbEntity
  8
AM_5
 48
0.0018382267275702
100
AcDbLine
 10
-0.8271704038700916
 20
3.354857766237968
 30
0.0
 11
-0.6509547042332592
 21
3.260332135603334
 31
0.0
  0
LINE
  5
A2
330
8C
100
AcDbEntity
  8
AM_5
 48
0.0018382267275702
100
AcDbLine
 10
-0.9023759486115341
 20
3.354857766237968
 30
0.0
 11
-0.8271704038700916
 21
3.354857766237968
 31
0.0
  0
LINE
  5
A3
330
8C
100
AcDbEntity
  8
AM_5
 48
0.0018382267275702
100
AcDbLine
 10
-0.6412375985681393
 20
3.676902831814762
 30
0.0
 11
-0.844954084319696
 21
3.324055528153684
 31
0.0
  0
LINE
  5
A4
330
8C
100
AcDbEntity
  8
AM_5
 48
0.0018382267275702
100
AcDbLine
 10
-0.6590212790177437
 20
3.646100593730477
 30
0.0
 11
-0.4890518317609893
 21
3.540756136616648
 31
0.0
  0
LINE
  5
A5
330
8C
100
AcDbEntity
  8
AM_5
 48
0.0018382267275702
100
AcDbLine
 10
-0.6966240513884664
 20
3.711230505982015
 30
0.0
 11
-0.6590212790177437
 21
3.646100593730477
 31
0.0
  0
LINE
  5
A8
330
8C
100
AcDbEntity
  8
AM_7
 48
0.0018382267275702
100
AcDbLine
 10
-1.151972339340266
 20
3.736544136109991
 30
0.0
 11
-0.5422904550760217
 21
3.384544136109991
 31
0.0
  0
LINE
  5
AA
330
8C
100
AcDbEntity
  8
AM_0
 48
0.0018382267275702
100
AcDbLine
 10
-0.92453520777581
 20
3.726476803507357
 30
0.0
 11
-0.9505159698893431
 21
3.741476803507357
 31
0.0
  0
LINE
  5
AB
330
8C
100
AcDbEntity
  8
AM_0
 48
0.0018382267275702
100
AcDbLine
 10
-1.055515969889343
 20
3.559611468712625
 30
0.0
 11
-1.02953520777581
 21
3.544611468712625
 31
0.0
  0
LINE
  5
AC
330
8C
100
AcDbEntity
  8
AM_0
 48
0.0018382267275702
100
AcDbLine
 10
-1.02953520777581
 20
3.544611468712625
 30
0.0
 11
-0.92453520777581
 21
3.726476803507357
 31
0.0
  0
LINE
  5
AD
330
8C
100
AcDbEntity
  8
AM_0
 48
0.0018382267275702
100
AcDbLine
 10
-1.02953520777581
 20
3.544611468712625
 30
0.0
 11
-1.008518637272195
 21
3.516519479862884
 31
0.0
  0
LINE
  5
AE
330
8C
100
AcDbEntity
  8
AM_0
 48
0.0018382267275702
100
AcDbLine
 10
-0.8896985465372977
 20
3.722321913975671
 30
0.0
 11
-0.92453520777581
 21
3.726476803507357
 31
0.0
  0
LINE
  5
AF
330
8C
100
AcDbEntity
  8
AM_0
 48
0.0018382267275702
100
AcDbLine
 10
-1.055515969889343
 20
3.559611468712625
 30
0.0
 11
-0.9505159698893431
 21
3.741476803507357
 31
0.0
  0
LINE
  5
B0
330
8C
100
AcDbEntity
  8
AM_0
 48
0.0018382267275702
100
AcDbLine
 10
-0.9505159698893431
 20
3.741476803507357
 30
0.0
 11
-0.9874774941164094
 21
3.79745756562089
 31
0.0
  0
LINE
  5
B1
330
8C
100
AcDbEntity
  8
AM_0
 48
0.0018382267275702
100
AcDbLine
 10
-1.122477494116409
 20
3.563630706599092
 30
0.0
 11
-1.055515969889343
 21
3.559611468712625
 31
0.0
  0
LINE
  5
B2
330
8C
100
AcDbEntity
  8
AM_0
 48
0.0018382267275702
100
AcDbLine
 10
-1.175598477385758
 20
3.631622464628564
 30
0.0
 11
-1.072920575452571
 21
3.809465807591419
 31
0.0
  0
LINE
  5
B3
330
8C
100
AcDbEntity
  8
AM_0
 48
0.0018382267275702
100
AcDbLine
 10
-1.122477494116409
 20
3.563630706599092
 30
0.0
 11
-0.9874774941164094
 21
3.79745756562089
 31
0.0
  0
LINE
  5
B4
330
8C
100
AcDbEntity
  8
AM_0
 48
0.0018382267275702
100
AcDbLine
 10
-1.175598477385758
 20
3.631622464628564
 30
0.0
 11
-1.122477494116409
 21
3.563630706599092
 31
0.0
  0
LINE
  5
B5
330
8C
100
AcDbEntity
  8
AM_0
 48
0.0018382267275702
100
AcDbLine
 10
-0.9874774941164094
 20
3.79745756562089
 30
0.0
 11
-1.072920575452571
 21
3.809465807591419
 31
0.0
  0
LINE
  5
B6
330
8C
100
AcDbEntity
  8
AM_0
 48
0.0018382267275702
100
AcDbLine
 10
-1.008518637272195
 20
3.516519479862884
 30
0.0
 11
-0.8896985465372977
 21
3.722321913975671
 31
0.0
  0
LINE
  5
B7
330
8C
100
AcDbEntity
  8
AM_0
 48
0.0018382267275702
100
AcDbLine
 10
-1.008518637272195
 20
3.516519479862884
 30
0.0
 11
-0.9882335923079225
 21
3.442784362219443
 31
0.0
  0
LINE
  5
B8
330
8C
100
AcDbEntity
  8
AM_0
 48
0.0018382267275702
100
AcDbLine
 10
-0.815699539024907
 20
3.741622108541422
 30
0.0
 11
-0.8896985465372977
 21
3.722321913975671
 31
0.0
  0
LINE
  5
B9
330
8C
100
AcDbEntity
  8
AM_0
 48
0.0018382267275702
100
AcDbLine
 10
-0.9954775403784438
 20
3.393601079032145
 30
0.0
 11
-0.908875
 21
3.343601079032145
 31
0.0
  0
LINE
  5
BA
330
8C
100
AcDbEntity
  8
AM_0
 48
0.0018382267275702
100
AcDbLine
 10
-0.9954775403784438
 20
3.393601079032145
 30
0.0
 11
-0.7767275403784439
 21
3.772487193187837
 31
0.0
  0
LINE
  5
BB
330
8C
100
AcDbEntity
  8
AM_0
 48
0.0018382267275702
100
AcDbLine
 10
-0.6901250000000001
 20
3.722487193187837
 30
0.0
 11
-0.7767275403784439
 21
3.772487193187837
 31
0.0
  0
LINE
  5
BC
330
8C
100
AcDbEntity
  8
AM_0
 48
0.0018382267275702
100
AcDbLine
 10
-0.9882335923079225
 20
3.442784362219443
 30
0.0
 11
-0.815699539024907
 21
3.741622108541422
 31
0.0
  0
LINE
  5
BD
330
8C
100
AcDbEntity
  8
AM_0
 48
0.0018382267275702
100
AcDbLine
 10
-0.9882335923079225
 20
3.442784362219443
 30
0.0
 11
-0.9929775403784439
 21
3.397931206051068
 31
0.0
  0
LINE
  5
BE
330
8C
100
AcDbEntity
  8
AM_0
 48
0.0018382267275702
100
AcDbLine
 10
-0.7792275403784438
 20
3.768157066168915
 30
0.0
 11
-0.815699539024907
 21
3.741622108541422
 31
0.0
  0
LWPOLYLINE
  5
BF
330
8C
100
AcDbEntity
  8
AM_0
 48
0.0018382267275702
100
AcDbPolyline
 90
        4
 70
     0
 43
0.0
 10
-0.9876247686898277
 20
3.389067279183838
 10
-0.9661656952969268
 20
3.439541634077681
 10
-0.9540103136897446
 20
3.464195298877494
 10
-0.9407900403784439
 20
3.488322607571068
  0
LWPOLYLINE
  5
C0
330
8C
100
AcDbEntity
  8
AM_0
 48
0.0018382267275702
100
AcDbPolyline
 90
        4
 70
     0
 43
0.0
 10
-0.8541875
 20
3.438322607571068
 10
-0.8683854109580776
 20
3.414945932438337
 10
-0.8836039785607696
 20
3.392158533694124
 10
-0.9167277716886163
 20
3.348134878880452
  0
LWPOLYLINE
  5
C1
330
8C
100
AcDbEntity
  8
AM_0
 48
0.0018382267275702
100
AcDbPolyline
 90
        4
 70
     0
 43
0.0
 10
-0.8314150403784439
 20
3.677765664648914
 10
-0.8172171294203663
 20
3.701142339781645
 10
-0.8019985618176744
 20
3.723929738525858
 10
-0.7688747686898276
 20
3.76795339333953
  0
LINE
  5
C2
330
8C
100
AcDbEntity
  8
AM_0
 48
0.0018382267275702
100
AcDbLine
 10
-0.8782497686898277
 20
3.578510336261684
 30
0.0
 11
-0.8073527716886162
 21
3.537577935958299
 31
0.0
  0
LWPOLYLINE
  5
C3
330
8C
100
AcDbEntity
  8
AM_0
 48
0.0018382267275702
100
AcDbPolyline
 90
        4
 70
     0
 43
0.0
 10
-0.6979777716886162
 20
3.727020993036144
 10
-0.7194368450815171
 20
3.676546638142301
 10
-0.7315922266886993
 20
3.651892973342489
 10
-0.7448125000000001
 20
3.627765664648914
  0
LWPOLYLINE
  5
C4
330
8C
100
AcDbEntity
  8
AM_0
 48
0.0018382267275702
100
AcDbPolyline
 90
        4
 70
     0
 43
0.0
 10
-0.9407900403784439
 20
3.488322607571068
 10
-0.9265921294203662
 20
3.5116992827038
 10
-0.9113735618176744
 20
3.534486681448012
 10
-0.8782497686898277
 20
3.578510336261684
  0
LWPOLYLINE
  5
C5
330
8C
100
AcDbEntity
  8
AM_0
 48
0.0018382267275702
100
AcDbPolyline
 90
        4
 70
     0
 43
0.0
 10
-0.8782497686898277
 20
3.578510336261684
 10
-0.8567906952969268
 20
3.628984691155527
 10
-0.8446353136897445
 20
3.65363835595534
 10
-0.8314150403784439
 20
3.677765664648914
  0
LWPOLYLINE
  5
C6
330
8C
100
AcDbEntity
  8
AM_0
 48
0.0018382267275702
100
AcDbPolyline
 90
        4
 70
     0
 43
0.0
 10
-0.7448125000000001
 20
3.627765664648914
 10
-0.7590104109580778
 20
3.604388989516183
 10
-0.7742289785607696
 20
3.58160159077197
 10
-0.8073527716886162
 20
3.537577935958299
  0
LWPOLYLINE
  5
C7
330
8C
100
AcDbEntity
  8
AM_0
 48
0.0018382267275702
100
AcDbPolyline
 90
        4
 70
     0
 43
0.0
 10
-0.8073527716886162
 20
3.537577935958299
 10
-0.8288118450815171
 20
3.487103581064456
 10
-0.8409672266886993
 20
3.462449916264643
 10
-0.8541875
 20
3.438322607571068
  0
ENDBLK
  5
8F
330
8C
100
AcDbEntity
  8
0
100
AcDbBlockEnd
  0
BLOCK
  5
CA
330
C8
100
AcDbEntity
  8
0
100
AcDbBlockBegin
  2
2_ASME_B18_3_10_1_0_in_069857_2
 70
     2
 10
0.0
 20
0.0
 30
0.0
  3
2_ASME_B18_3_10_1_0_in_069857_2
  1

  0
ATTDEF
  5
CC
330
C8
100
AcDbEntity
  8
AM_6
100
AcDbText
 10
4.315666666666666
 20
-1.723145833333333
 30
0.0
 40
0.5
  1
ANSI/ASME B18.3-1998
100
AcDbAttributeDefinition
  3

  2
NN
 70
     8
280
     0
  0
ATTDEF
  5
CD
330
C8
100
AcDbEntity
  8
AM_6
100
AcDbText
 10
4.315666666666666
 20
-2.223145833333333
 30
0.0
 40
0.5
  1
Socket Button Head Cap Screws
100
AcDbAttributeDefinition
  3

  2
NT
 70
     8
280
     0
  0
ATTDEF
  5
CE
330
C8
100
AcDbEntity
  8
AM_6
100
AcDbText
 10
4.315666666666666
 20
-2.723145833333333
 30
0.0
 40
0.5
  1
ASME B18.3-10
100
AcDbAttributeDefinition
  3

  2
NB
 70
     8
280
     0
  0
ATTDEF
  5
CF
330
C8
100
AcDbEntity
  8
AM_6
100
AcDbText
 10
4.315666666666666
 20
-3.223145833333333
 30
0.0
 40
0.5
  1
ASME B18.3-$NS.
100
AcDbAttributeDefinition
  3

  2
NBSYN
 70
     8
280
     0
  0
ATTDEF
  5
D0
330
C8
100
AcDbEntity
  8
AM_6
100
AcDbText
 10
4.315666666666666
 20
-3.723145833333333
 30
0.0
 40
0.5
  1
ASME B18.3-10
100
AcDbAttributeDefinition
  3

  2
LINA
 70
     8
280
     0
  0
ATTDEF
  5
D1
330
C8
100
AcDbEntity
  8
AM_6
100
AcDbText
 10
4.315666666666666
 20
-4.223145833333334
 30
0.0
 40
0.5
  1
10
100
AcDbAttributeDefinition
  3

  2
NS
 70
     8
280
     0
  0
ATTDEF
  5
D2
330
C8
100
AcDbEntity
  8
AM_6
100
AcDbText
 10
4.315666666666666
 20
-4.723145833333334
 30
0.0
 40
0.5
  1
0.361
100
AcDbAttributeDefinition
  3

  2
A
 70
     8
280
     0
  0
ATTDEF
  5
D3
330
C8
100
AcDbEntity
  8
AM_6
100
AcDbText
 10
4.315666666666666
 20
-5.223145833333334
 30
0.0
 40
0.5
  1
0.101
100
AcDbAttributeDefinition
  3

  2
H
 70
     8
280
     0
  0
ATTDEF
  5
D4
330
C8
100
AcDbEntity
  8
AM_6
100
AcDbText
 10
4.315666666666666
 20
-5.723145833333334
 30
0.0
 40
0.5
  1
0.800
100
AcDbAttributeDefinition
  3

  2
L
 70
     8
280
     0
  0
ATTDEF
  5
D5
330
C8
100
AcDbEntity
  8
AM_6
100
AcDbText
 10
4.315666666666666
 20
-6.223145833333334
 30
0.0
 40
0.5
  1
0.020
100
AcDbAttributeDefinition
  3

  2
S
 70
     8
280
     0
  0
ATTDEF
  5
D6
330
C8
100
AcDbEntity
  8
AM_6
100
AcDbText
 10
4.315666666666666
 20
-6.723145833333334
 30
0.0
 40
0.5
  1
0.125000
100
AcDbAttributeDefinition
  3

  2
J
 70
     8
280
     0
  0
ATTDEF
  5
D7
330
C8
100
AcDbEntity
  8
AM_6
100
AcDbText
 10
4.315666666666666
 20
-7.223145833333334
 30
0.0
 40
0.5
  1
baldor
100
AcDbAttributeDefinition
  3

  2
COMPANY
 70
     8
280
     0
  0
LINE
  5
D8
330
C8
100
AcDbEntity
  8
AM_9
 48
0.0020166291450385
100
AcDbLine
 10
-1.524333333333334
 20
-1.83147704968463
 30
0.0
 11
-1.585333333333334
 21
-1.83147704968463
 31
0.0
  0
LINE
  5
D9
330
C8
100
AcDbEntity
  8
AM_9
 48
0.0020166291450385
100
AcDbLine
 10
-1.524333333333334
 20
-1.975814616982036
 30
0.0
 11
-1.585333333333334
 21
-1.975814616982036
 31
0.0
  0
LINE
  5
DA
330
C8
100
AcDbEntity
  8
AM_9
 48
0.0020166291450385
100
AcDbLine
 10
-1.524333333333334
 20
-1.83147704968463
 30
0.0
 11
-1.524333333333334
 21
-1.975814616982036
 31
0.0
  0
LINE
  5
DB
330
C8
100
AcDbEntity
  8
AM_9
 48
0.0020166291450385
100
AcDbLine
 10
-1.524333333333334
 20
-1.867561441508982
 30
0.0
 11
-1.585333333333334
 21
-1.867561441508982
 31
0.0
  0
LINE
  5
DC
330
C8
100
AcDbEntity
  8
AM_9
 48
0.0020166291450385
100
AcDbLine
 10
-1.524333333333334
 20
-1.939730225157685
 30
0.0
 11
-1.585333333333334
 21
-1.939730225157685
 31
0.0
  0
LINE
  5
DD
330
C8
100
AcDbEntity
  8
AM_9
 48
0.0020166291450385
100
AcDbLine
 10
-0.6843333333333336
 20
-1.827245833333333
 30
0.0
 11
-0.6843333333333336
 21
-1.980045833333333
 31
0.0
  0
LINE
  5
DE
330
C8
100
AcDbEntity
  8
AM_9
 48
0.0020166291450385
100
AcDbLine
 10
-0.6843333333333336
 20
-1.827245833333333
 30
0.0
 11
-0.7029333333333336
 21
-1.808645833333333
 31
0.0
  0
LINE
  5
DF
330
C8
100
AcDbEntity
  8
AM_9
 48
0.0020166291450385
100
AcDbLine
 10
-0.7029333333333336
 20
-1.998645833333333
 30
0.0
 11
-0.6843333333333336
 21
-1.980045833333333
 31
0.0
  0
LINE
  5
E0
330
C8
100
AcDbEntity
  8
AM_9
 48
0.0020166291450385
100
AcDbLine
 10
-0.7029333333333336
 20
-1.808645833333333
 30
0.0
 11
-0.7029333333333336
 21
-1.998645833333333
 31
0.0
  0
LINE
  5
E1
330
C8
100
AcDbEntity
  8
AM_9
 48
0.0020166291450385
100
AcDbLine
 10
-1.484333333333334
 20
-1.998645833333333
 30
0.0
 11
-0.7029333333333336
 21
-1.998645833333333
 31
0.0
  0
LINE
  5
E2
330
C8
100
AcDbEntity
  8
AM_9
 48
0.0020166291450385
100
AcDbLine
 10
-0.7029333333333336
 20
-1.808645833333333
 30
0.0
 11
-1.484333333333334
 21
-1.808645833333333
 31
0.0
  0
LINE
  5
E3
330
C8
100
AcDbEntity
  8
AM_5
 48
0.0020166291450385
100
AcDbLine
 10
-1.404333333333334
 20
-1.980045833333333
 30
0.0
 11
-1.436549478354115
 21
-1.998645833333333
 31
0.0
  0
LINE
  5
E4
330
C8
100
AcDbEntity
  8
AM_5
 48
0.0020166291450385
100
AcDbLine
 10
-1.404333333333334
 20
-1.808645833333334
 30
0.0
 11
-1.404333333333334
 21
-1.998645833333333
 31
0.0
  0
LINE
  5
E5
330
C8
100
AcDbEntity
  8
AM_5
 48
0.0020166291450385
100
AcDbLine
 10
-1.404333333333334
 20
-1.827245833333333
 30
0.0
 11
-1.436549478354115
 21
-1.808645833333333
 31
0.0
  0
LINE
  5
E6
330
C8
100
AcDbEntity
  8
AM_0
 48
0.0020166291450385
100
AcDbLine
 10
-1.585333333333333
 20
-1.804145833333333
 30
0.0
 11
-1.585333333333333
 21
-2.003145833333333
 31
0.0
  0
ARC
  5
E7
330
C8
100
AcDbEntity
  8
AM_0
 48
0.0020166291450385
100
AcDbCircle
 10
-1.504333333333334
 20
-2.003145833333333
 30
0.0
 40
0.081
100
AcDbArc
 50
180.0
 51
270.0000000000002
  0
ARC
  5
E8
330
C8
100
AcDbEntity
  8
AM_0
 48
0.0020166291450385
100
AcDbCircle
 10
-1.504333333333334
 20
-1.804145833333333
 30
0.0
 40
0.0809999999999995
100
AcDbArc
 50
90.0
 51
180.0000000000002
  0
LINE
  5
EA
330
C8
100
AcDbEntity
  8
AM_4
 48
0.0020166291450385
100
AcDbLine
 10
-1.504333333333333
 20
-1.723145833333333
 30
0.0
 11
-1.504333333333333
 21
-2.084145833333333
 31
0.0
  0
LINE
  5
EB
330
C8
100
AcDbEntity
  8
AM_0
 48
0.0020166291450385
100
AcDbLine
 10
-1.504333333333333
 20
-2.084145833333333
 30
0.0
 11
-1.484333333333334
 21
-2.084145833333333
 31
0.0
  0
LINE
  5
EC
330
C8
100
AcDbEntity
  8
AM_0
 48
0.0020166291450385
100
AcDbLine
 10
-1.484333333333334
 20
-1.723145833333333
 30
0.0
 11
-1.504333333333333
 21
-1.723145833333333
 31
0.0
  0
ENDBLK
  5
CB
330
C8
100
AcDbEntity
  8
0
100
AcDbBlockEnd
  0
BLOCK
  5
EF
330
ED
100
AcDbEntity
  8
0
100
AcDbBlockBegin
  2
3_ASME_B18_3_10_2_0_in_069857_2
 70
     2
 10
0.0
 20
0.0
 30
0.0
  3
3_ASME_B18_3_10_2_0_in_069857_2
  1

  0
ATTDEF
  5
F1
330
ED
100
AcDbEntity
  8
AM_6
100
AcDbText
 10
4.315666666666666
 20
2.084145833333333
 30
0.0
 40
0.5
  1
ANSI/ASME B18.3-1998
100
AcDbAttributeDefinition
  3

  2
NN
 70
     8
280
     0
  0
ATTDEF
  5
F2
330
ED
100
AcDbEntity
  8
AM_6
100
AcDbText
 10
4.315666666666666
 20
1.584145833333333
 30
0.0
 40
0.5
  1
Socket Button Head Cap Screws
100
AcDbAttributeDefinition
  3

  2
NT
 70
     8
280
     0
  0
ATTDEF
  5
F3
330
ED
100
AcDbEntity
  8
AM_6
100
AcDbText
 10
4.315666666666666
 20
1.084145833333333
 30
0.0
 40
0.5
  1
ASME B18.3-10
100
AcDbAttributeDefinition
  3

  2
NB
 70
     8
280
     0
  0
ATTDEF
  5
F4
330
ED
100
AcDbEntity
  8
AM_6
100
AcDbText
 10
4.315666666666666
 20
0.5841458333333329
 30
0.0
 40
0.5
  1
ASME B18.3-$NS.
100
AcDbAttributeDefinition
  3

  2
NBSYN
 70
     8
280
     0
  0
ATTDEF
  5
F5
330
ED
100
AcDbEntity
  8
AM_6
100
AcDbText
 10
4.315666666666666
 20
0.0841458333333329
 30
0.0
 40
0.5
  1
ASME B18.3-10
100
AcDbAttributeDefinition
  3

  2
LINA
 70
     8
280
     0
  0
ATTDEF
  5
F6
330
ED
100
AcDbEntity
  8
AM_6
100
AcDbText
 10
4.315666666666666
 20
-0.4158541666666671
 30
0.0
 40
0.5
  1
10
100
AcDbAttributeDefinition
  3

  2
NS
 70
     8
280
     0
  0
ATTDEF
  5
F7
330
ED
100
AcDbEntity
  8
AM_6
100
AcDbText
 10
4.315666666666666
 20
-0.9158541666666671
 30
0.0
 40
0.5
  1
0.361
100
AcDbAttributeDefinition
  3

  2
A
 70
     8
280
     0
  0
ATTDEF
  5
F8
330
ED
100
AcDbEntity
  8
AM_6
100
AcDbText
 10
4.315666666666666
 20
-1.415854166666667
 30
0.0
 40
0.5
  1
0.101
100
AcDbAttributeDefinition
  3

  2
H
 70
     8
280
     0
  0
ATTDEF
  5
F9
330
ED
100
AcDbEntity
  8
AM_6
100
AcDbText
 10
4.315666666666666
 20
-1.915854166666667
 30
0.0
 40
0.5
  1
0.800
100
AcDbAttributeDefinition
  3

  2
L
 70
     8
280
     0
  0
ATTDEF
  5
FA
330
ED
100
AcDbEntity
  8
AM_6
100
AcDbText
 10
4.315666666666666
 20
-2.415854166666667
 30
0.0
 40
0.5
  1
0.020
100
AcDbAttributeDefinition
  3

  2
S
 70
     8
280
     0
  0
ATTDEF
  5
FB
330
ED
100
AcDbEntity
  8
AM_6
100
AcDbText
 10
4.315666666666666
 20
-2.915854166666667
 30
0.0
 40
0.5
  1
0.125000
100
AcDbAttributeDefinition
  3

  2
J
 70
     8
280
     0
  0
ATTDEF
  5
FC
330
ED
100
AcDbEntity
  8
AM_6
100
AcDbText
 10
4.315666666666666
 20
-3.415854166666667
 30
0.0
 40
0.5
  1
baldor
100
AcDbAttributeDefinition
  3

  2
COMPANY
 70
     8
280
     0
  0
LINE
  5
FD
330
ED
100
AcDbEntity
  8
AM_9
 48
0.0020166291450385
100
AcDbLine
 10
-1.524333333333334
 20
1.975814616982036
 30
0.0
 11
-1.585333333333334
 21
1.975814616982036
 31
0.0
  0
LINE
  5
FE
330
ED
100
AcDbEntity
  8
AM_9
 48
0.0020166291450385
100
AcDbLine
 10
-1.524333333333334
 20
1.83147704968463
 30
0.0
 11
-1.585333333333334
 21
1.83147704968463
 31
0.0
  0
LINE
  5
FF
330
ED
100
AcDbEntity
  8
AM_9
 48
0.0020166291450385
100
AcDbLine
 10
-1.524333333333334
 20
1.939730225157685
 30
0.0
 11
-1.585333333333334
 21
1.939730225157685
 31
0.0
  0
LINE
  5
100
330
ED
100
AcDbEntity
  8
AM_9
 48
0.0020166291450385
100
AcDbLine
 10
-1.524333333333334
 20
1.975814616982036
 30
0.0
 11
-1.524333333333334
 21
1.83147704968463
 31
0.0
  0
LINE
  5
101
330
ED
100
AcDbEntity
  8
AM_9
 48
0.0020166291450385
100
AcDbLine
 10
-1.524333333333334
 20
1.867561441508982
 30
0.0
 11
-1.585333333333334
 21
1.867561441508982
 31
0.0
  0
LINE
  5
102
330
ED
100
AcDbEntity
  8
AM_9
 48
0.0020166291450385
100
AcDbLine
 10
-0.6843333333333336
 20
1.980045833333333
 30
0.0
 11
-0.6843333333333336
 21
1.827245833333333
 31
0.0
  0
LINE
  5
103
330
ED
100
AcDbEntity
  8
AM_9
 48
0.0020166291450385
100
AcDbLine
 10
-0.6843333333333336
 20
1.980045833333333
 30
0.0
 11
-0.7029333333333336
 21
1.998645833333333
 31
0.0
  0
LINE
  5
104
330
ED
100
AcDbEntity
  8
AM_9
 48
0.0020166291450385
100
AcDbLine
 10
-0.7029333333333336
 20
1.808645833333333
 30
0.0
 11
-0.6843333333333336
 21
1.827245833333333
 31
0.0
  0
LINE
  5
105
330
ED
100
AcDbEntity
  8
AM_9
 48
0.0020166291450385
100
AcDbLine
 10
-0.7029333333333336
 20
1.998645833333333
 30
0.0
 11
-0.7029333333333336
 21
1.808645833333333
 31
0.0
  0
LINE
  5
106
330
ED
100
AcDbEntity
  8
AM_9
 48
0.0020166291450385
100
AcDbLine
 10
-1.484333333333334
 20
1.808645833333333
 30
0.0
 11
-0.7029333333333336
 21
1.808645833333333
 31
0.0
  0
LINE
  5
107
330
ED
100
AcDbEntity
  8
AM_9
 48
0.0020166291450385
100
AcDbLine
 10
-0.7029333333333336
 20
1.998645833333333
 30
0.0
 11
-1.484333333333334
 21
1.998645833333333
 31
0.0
  0
LINE
  5
108
330
ED
100
AcDbEntity
  8
AM_5
 48
0.0020166291450385
100
AcDbLine
 10
-1.404333333333334
 20
1.827245833333333
 30
0.0
 11
-1.436549478354115
 21
1.808645833333333
 31
0.0
  0
LINE
  5
109
330
ED
100
AcDbEntity
  8
AM_5
 48
0.0020166291450385
100
AcDbLine
 10
-1.404333333333334
 20
1.998645833333333
 30
0.0
 11
-1.404333333333334
 21
1.808645833333334
 31
0.0
  0
LINE
  5
10A
330
ED
100
AcDbEntity
  8
AM_5
 48
0.0020166291450385
100
AcDbLine
 10
-1.404333333333334
 20
1.980045833333333
 30
0.0
 11
-1.436549478354115
 21
1.998645833333333
 31
0.0
  0
LINE
  5
10B
330
ED
100
AcDbEntity
  8
AM_0
 48
0.0020166291450385
100
AcDbLine
 10
-1.585333333333333
 20
2.003145833333333
 30
0.0
 11
-1.585333333333333
 21
1.804145833333333
 31
0.0
  0
ARC
  5
10C
330
ED
100
AcDbEntity
  8
AM_0
 48
0.0020166291450385
100
AcDbCircle
 10
-1.504333333333334
 20
1.804145833333333
 30
0.0
 40
0.0809999999999997
100
AcDbArc
 50
179.9999999999998
 51
270.0000000000002
  0
ARC
  5
10D
330
ED
100
AcDbEntity
  8
AM_0
 48
0.0020166291450385
100
AcDbCircle
 10
-1.504333333333334
 20
2.003145833333333
 30
0.0
 40
0.081
100
AcDbArc
 50
90.00000000000016
 51
179.9999999999997
  0
LINE
  5
10E
330
ED
100
AcDbEntity
  8
AM_4
 48
0.0020166291450385
100
AcDbLine
 10
-1.504333333333333
 20
2.084145833333333
 30
0.0
 11
-1.504333333333333
 21
1.723145833333333
 31
0.0
  0
LINE
  5
10F
330
ED
100
AcDbEntity
  8
AM_0
 48
0.0020166291450385
100
AcDbLine
 10
-1.504333333333333
 20
1.723145833333333
 30
0.0
 11
-1.484333333333334
 21
1.723145833333333
 31
0.0
  0
LINE
  5
110
330
ED
100
AcDbEntity
  8
AM_0
 48
0.0020166291450385
100
AcDbLine
 10
-1.484333333333334
 20
2.084145833333333
 30
0.0
 11
-1.504333333333333
 21
2.084145833333333
 31
0.0
  0
ENDBLK
  5
F0
330
ED
100
AcDbEntity
  8
0
100
AcDbBlockEnd
  0
BLOCK
  5
113
330
111
100
AcDbEntity
  8
0
100
AcDbBlockBegin
  2
4_070900LW_0_in_069857_2
 70
     2
 10
0.0
 20
0.0
 30
0.0
  3
4_070900LW_0_in_069857_2
  1

  0
ATTDEF
  5
115
330
111
100
AcDbEntity
  8
AM_6
100
AcDbText
 10
3.955666666666667
 20
2.140625
 30
0.0
 40
0.5
  1
Imperial Insert Lockwasher -Inch
100
AcDbAttributeDefinition
  3

  2
NN
 70
     8
280
     0
  0
ATTDEF
  5
116
330
111
100
AcDbEntity
  8
AM_6
100
AcDbText
 10
3.955666666666667
 20
1.640625
 30
0.0
 40
0.5
  1
Imperial Bearings
100
AcDbAttributeDefinition
  3

  2
NT
 70
     8
280
     0
  0
ATTDEF
  5
117
330
111
100
AcDbEntity
  8
AM_6
100
AcDbText
 10
3.955666666666667
 20
1.140625
 30
0.0
 40
0.5
  1
070900LW
100
AcDbAttributeDefinition
  3

  2
NB
 70
     8
280
     0
  0
ATTDEF
  5
118
330
111
100
AcDbEntity
  8
AM_6
100
AcDbText
 10
3.955666666666667
 20
0.640625
 30
0.0
 40
0.5
  1
$PN.LW
100
AcDbAttributeDefinition
  3

  2
NBSYN
 70
     8
280
     0
  0
ATTDEF
  5
119
330
111
100
AcDbEntity
  8
AM_6
100
AcDbText
 10
3.955666666666667
 20
0.140625
 30
0.0
 40
0.5
  1
070900
100
AcDbAttributeDefinition
  3

  2
LINA
 70
     8
280
     0
  0
ATTDEF
  5
11A
330
111
100
AcDbEntity
  8
AM_6
100
AcDbText
 10
3.955666666666667
 20
-0.359375
 30
0.0
 40
0.5
  1
3
100
AcDbAttributeDefinition
  3

  2
SS
 70
     8
280
     0
  0
ATTDEF
  5
11B
330
111
100
AcDbEntity
  8
AM_6
100
AcDbText
 10
3.955666666666667
 20
-0.859375
 30
0.0
 40
0.5
  1
3.000000
100
AcDbAttributeDefinition
  3

  2
SS1
 70
     8
280
     0
  0
ATTDEF
  5
11C
330
111
100
AcDbEntity
  8
AM_6
100
AcDbText
 10
3.955666666666667
 20
-1.359375
 30
0.0
 40
0.5
  1
070900
100
AcDbAttributeDefinition
  3

  2
PN
 70
     8
280
     0
  0
ATTDEF
  5
11D
330
111
100
AcDbEntity
  8
AM_6
100
AcDbText
 10
3.955666666666667
 20
-1.859375
 30
0.0
 40
0.5
  1
INS-IP-300R
100
AcDbAttributeDefinition
  3

  2
DESCRIPTION
 70
     8
280
     0
  0
ATTDEF
  5
11E
330
111
100
AcDbEntity
  8
AM_6
100
AcDbText
 10
3.955666666666667
 20
-2.359375
 30
0.0
 40
0.5
  1
5.1181
100
AcDbAttributeDefinition
  3

  2
A
 70
     8
280
     0
  0
ATTDEF
  5
11F
330
111
100
AcDbEntity
  8
AM_6
100
AcDbText
 10
3.955666666666667
 20
-2.859375
 30
0.0
 40
0.5
  1
1-9/32
100
AcDbAttributeDefinition
  3

  2
B
 70
     8
280
     0
  0
ATTDEF
  5
120
330
111
100
AcDbEntity
  8
AM_6
100
AcDbText
 10
3.955666666666667
 20
-3.359375
 30
0.0
 40
0.5
  1
3-1/2
100
AcDbAttributeDefinition
  3

  2
C
 70
     8
280
     0
  0
ATTDEF
  5
121
330
111
100
AcDbEntity
  8
AM_6
100
AcDbText
 10
3.955666666666667
 20
-3.859375
 30
0.0
 40
0.5
  1
1.219
100
AcDbAttributeDefinition
  3

  2
D
 70
     8
280
     0
  0
ATTDEF
  5
122
330
111
100
AcDbEntity
  8
AM_6
100
AcDbText
 10
3.955666666666667
 20
-4.359375
 30
0.0
 40
0.5
  1
4-9/32
100
AcDbAttributeDefinition
  3

  2
E
 70
     8
280
     0
  0
ATTDEF
  5
123
330
111
100
AcDbEntity
  8
AM_6
100
AcDbText
 10
3.955666666666667
 20
-4.859375
 30
0.0
 40
0.5
  1
0.1900
100
AcDbAttributeDefinition
  3

  2
NDM
 70
     8
280
     0
  0
ATTDEF
  5
124
330
111
100
AcDbEntity
  8
AM_6
100
AcDbText
 10
3.955666666666667
 20
-5.359375
 30
0.0
 40
0.5
  1
0.1450
100
AcDbAttributeDefinition
  3

  2
KDM
 70
     8
280
     0
  0
ATTDEF
  5
125
330
111
100
AcDbEntity
  8
AM_6
100
AcDbText
 10
3.955666666666667
 20
-5.859375
 30
0.0
 40
0.5
  1
3.74
100
AcDbAttributeDefinition
  3

  2
AL
 70
     8
280
     0
  0
ATTDEF
  5
126
330
111
100
AcDbEntity
  8
AM_6
100
AcDbText
 10
3.955666666666667
 20
-6.359375
 30
0.0
 40
0.5
  1
0.50
100
AcDbAttributeDefinition
  3

  2
BL
 70
     8
280
     0
  0
ATTDEF
  5
127
330
111
100
AcDbEntity
  8
AM_6
100
AcDbText
 10
3.955666666666667
 20
-6.859375
 30
0.0
 40
0.5
  1
0.07
100
AcDbAttributeDefinition
  3

  2
CL
 70
     8
280
     0
  0
ATTDEF
  5
128
330
111
100
AcDbEntity
  8
AM_6
100
AcDbText
 10
3.955666666666667
 20
-7.359375
 30
0.0
 40
0.5
  1
0.44
100
AcDbAttributeDefinition
  3

  2
DL
 70
     8
280
     0
  0
ATTDEF
  5
129
330
111
100
AcDbEntity
  8
AM_6
100
AcDbText
 10
3.955666666666667
 20
-7.859375
 30
0.0
 40
0.5
  1
baldor
100
AcDbAttributeDefinition
  3

  2
COMPANY
 70
     8
280
     0
  0
LINE
  5
12A
330
111
100
AcDbEntity
  8
AM_9
 48
0.0100894177799327
100
AcDbLine
 10
-1.414333333333333
 20
1.445889983053102
 30
0.0
 11
-1.484333333333334
 21
1.445889983053102
 31
0.0
  0
LINE
  5
12B
330
111
100
AcDbEntity
  8
AM_9
 48
0.0100894177799327
100
AcDbLine
 10
-1.044333333333334
 20
1.406343263617087
 30
0.0
 11
-1.414333333333333
 21
1.406343263617088
 31
0.0
  0
LINE
  5
12C
330
111
100
AcDbEntity
  8
AM_9
 48
0.0100894177799327
100
AcDbLine
 10
-1.044333333333334
 20
1.333163614077438
 30
0.0
 11
-1.484333333333334
 21
1.333163614077438
 31
0.0
  0
LINE
  5
12D
330
111
100
AcDbEntity
  8
AM_9
 48
0.0100894177799327
100
AcDbLine
 10
-1.414333333333333
 20
1.50201412170836
 30
0.0
 11
-1.044333333333334
 21
1.50201412170836
 31
0.0
  0
LINE
  5
12E
330
111
100
AcDbEntity
  8
AM_9
 48
0.0100894177799327
100
AcDbLine
 10
-1.044333333333334
 20
1.42883447216871
 30
0.0
 11
-1.484333333333334
 21
1.42883447216871
 31
0.0
  0
LINE
  5
12F
330
111
100
AcDbEntity
  8
AM_9
 48
0.0100894177799327
100
AcDbLine
 10
-1.044333333333334
 20
1.333163614077438
 30
0.0
 11
-1.044333333333334
 21
1.50201412170836
 31
0.0
  0
LINE
  5
130
330
111
100
AcDbEntity
  8
AM_9
 48
0.0100894177799327
100
AcDbLine
 10
-1.414333333333333
 20
1.541560841144374
 30
0.0
 11
-1.484333333333334
 21
1.541560841144374
 31
0.0
  0
LINE
  5
131
330
111
100
AcDbEntity
  8
AM_9
 48
0.0100894177799327
100
AcDbLine
 10
-1.414333333333333
 20
1.903645833333333
 30
0.0
 11
-1.484333333333334
 21
1.903645833333333
 31
0.0
  0
LINE
  5
132
330
111
100
AcDbEntity
  8
AM_9
 48
0.0100894177799327
100
AcDbLine
 10
-1.414333333333333
 20
1.998675439498171
 30
0.0
 11
-1.484333333333334
 21
1.998675439498171
 31
0.0
  0
LINE
  5
133
330
111
100
AcDbEntity
  8
AM_9
 48
0.0100894177799327
100
AcDbLine
 10
-1.414333333333333
 20
-1.903645833333334
 30
0.0
 11
-1.484333333333334
 21
-1.903645833333334
 31
0.0
  0
LINE
  5
134
330
111
100
AcDbEntity
  8
AM_9
 48
0.0100894177799327
100
AcDbLine
 10
-1.484333333333334
 20
-1.998675439498172
 30
0.0
 11
-1.414333333333333
 21
-1.998675439498172
 31
0.0
  0
LINE
  5
135
330
111
100
AcDbEntity
  8
AM_9
 48
0.0100894177799327
100
AcDbLine
 10
-1.414333333333333
 20
1.618836521613822
 30
0.0
 11
-1.484333333333334
 21
1.618836521613822
 31
0.0
  0
LINE
  5
136
330
111
100
AcDbEntity
  8
AM_9
 48
0.0100894177799327
100
AcDbLine
 10
-1.414333333333333
 20
-1.618836521613822
 30
0.0
 11
-1.484333333333334
 21
-1.618836521613822
 31
0.0
  0
LINE
  5
137
330
111
100
AcDbEntity
  8
AM_9
 48
0.0100894177799327
100
AcDbLine
 10
-1.414333333333333
 20
1.211865426278298
 30
0.0
 11
-1.484333333333334
 21
1.211865426278298
 31
0.0
  0
LINE
  5
138
330
111
100
AcDbEntity
  8
AM_9
 48
0.0100894177799327
100
AcDbLine
 10
-1.414333333333333
 20
-1.211865426278298
 30
0.0
 11
-1.484333333333334
 21
-1.211865426278298
 31
0.0
  0
LINE
  5
139
330
111
100
AcDbEntity
  8
AM_9
 48
0.0100894177799327
100
AcDbLine
 10
-1.414333333333333
 20
1.077515137852854
 30
0.0
 11
-1.484333333333334
 21
1.077515137852854
 31
0.0
  0
LINE
  5
13A
330
111
100
AcDbEntity
  8
AM_9
 48
0.0100894177799327
100
AcDbLine
 10
-1.414333333333333
 20
-1.077515137852855
 30
0.0
 11
-1.484333333333334
 21
-1.077515137852855
 31
0.0
  0
LINE
  5
13B
330
111
100
AcDbEntity
  8
AM_9
 48
0.0100894177799327
100
AcDbLine
 10
-1.414333333333333
 20
1.413256021940238
 30
0.0
 11
-1.484333333333334
 21
1.413256021940238
 31
0.0
  0
LINE
  5
13C
330
111
100
AcDbEntity
  8
AM_9
 48
0.0100894177799327
100
AcDbLine
 10
-1.414333333333333
 20
1.278905733514794
 30
0.0
 11
-1.484333333333334
 21
1.278905733514794
 31
0.0
  0
LINE
  5
13D
330
111
100
AcDbEntity
  8
AM_9
 48
0.0100894177799327
100
AcDbLine
 10
-1.414333333333333
 20
1.441101813798219
 30
0.0
 11
-1.484333333333334
 21
1.441101813798219
 31
0.0
  0
LINE
  5
13E
330
111
100
AcDbEntity
  8
AM_9
 48
0.0100894177799327
100
AcDbLine
 10
-1.414333333333333
 20
-1.278905733514794
 30
0.0
 11
-1.484333333333334
 21
-1.278905733514794
 31
0.0
  0
LINE
  5
13F
330
111
100
AcDbEntity
  8
AM_9
 48
0.0100894177799327
100
AcDbLine
 10
-1.414333333333333
 20
-1.413256021940238
 30
0.0
 11
-1.484333333333334
 21
-1.413256021940238
 31
0.0
  0
LINE
  5
140
330
111
100
AcDbEntity
  8
AM_9
 48
0.0100894177799327
100
AcDbLine
 10
-1.484333333333334
 20
-1.441101813798219
 30
0.0
 11
-1.414333333333333
 21
-1.441101813798219
 31
0.0
  0
LINE
  5
141
330
111
100
AcDbEntity
  8
AM_9
 48
0.0100894177799327
100
AcDbLine
 10
-1.414333333333333
 20
0.0950000000000001
 30
0.0
 11
-1.484333333333334
 21
0.0950000000000001
 31
0.0
  0
LINE
  5
142
330
111
100
AcDbEntity
  8
AM_9
 48
0.0100894177799327
100
AcDbLine
 10
-1.414333333333333
 20
-0.0949999999999998
 30
0.0
 11
-1.484333333333334
 21
-0.0949999999999998
 31
0.0
  0
LINE
  5
143
330
111
100
AcDbEntity
  8
AM_0
 48
0.0100894177799327
100
AcDbLine
 10
-1.414333333333333
 20
2.140625
 30
0.0
 11
-1.484333333333334
 21
2.140625
 31
0.0
  0
LINE
  5
144
330
111
100
AcDbEntity
  8
AM_0
 48
0.0100894177799327
100
AcDbLine
 10
-1.484333333333334
 20
-2.140625
 30
0.0
 11
-1.414333333333333
 21
-2.140625
 31
0.0
  0
LINE
  5
145
330
111
100
AcDbEntity
  8
AM_0
 48
0.0100894177799327
100
AcDbLine
 10
-1.484333333333334
 20
2.140625
 30
0.0
 11
-1.484333333333334
 21
-2.140625
 31
0.0
  0
LINE
  5
146
330
111
100
AcDbEntity
  8
AM_0
 48
0.0100894177799327
100
AcDbLine
 10
-1.414333333333333
 20
2.140625
 30
0.0
 11
-1.414333333333333
 21
-2.140625
 31
0.0
  0
ENDBLK
  5
114
330
111
100
AcDbEntity
  8
0
100
AcDbBlockEnd
  0
BLOCK
  5
149
330
147
100
AcDbEntity
  8
0
100
AcDbBlockBegin
  2
5_070900I_0_in_069857_2
 70
     2
 10
0.0
 20
0.0
 30
0.0
  3
5_070900I_0_in_069857_2
  1

  0
ATTDEF
  5
14B
330
147
100
AcDbEntity
  8
AM_6
100
AcDbText
 10
6.837499999999999
 20
2.55905
 30
0.0
 40
0.5
  1
Imperial Insert -Inch
100
AcDbAttributeDefinition
  3

  2
NN
 70
     8
280
     0
  0
ATTDEF
  5
14C
330
147
100
AcDbEntity
  8
AM_6
100
AcDbText
 10
6.837499999999999
 20
2.05905
 30
0.0
 40
0.5
  1
Imperial Bearings
100
AcDbAttributeDefinition
  3

  2
NT
 70
     8
280
     0
  0
ATTDEF
  5
14D
330
147
100
AcDbEntity
  8
AM_6
100
AcDbText
 10
6.837499999999999
 20
1.55905
 30
0.0
 40
0.5
  1
070900I
100
AcDbAttributeDefinition
  3

  2
NB
 70
     8
280
     0
  0
ATTDEF
  5
14E
330
147
100
AcDbEntity
  8
AM_6
100
AcDbText
 10
6.837499999999999
 20
1.05905
 30
0.0
 40
0.5
  1
$PN.I
100
AcDbAttributeDefinition
  3

  2
NBSYN
 70
     8
280
     0
  0
ATTDEF
  5
14F
330
147
100
AcDbEntity
  8
AM_6
100
AcDbText
 10
6.837499999999999
 20
0.5590500000000005
 30
0.0
 40
0.5
  1
070900
100
AcDbAttributeDefinition
  3

  2
LINA
 70
     8
280
     0
  0
ATTDEF
  5
150
330
147
100
AcDbEntity
  8
AM_6
100
AcDbText
 10
6.837499999999999
 20
0.0590500000000005
 30
0.0
 40
0.5
  1
3
100
AcDbAttributeDefinition
  3

  2
SS
 70
     8
280
     0
  0
ATTDEF
  5
151
330
147
100
AcDbEntity
  8
AM_6
100
AcDbText
 10
6.837499999999999
 20
-0.4409499999999995
 30
0.0
 40
0.5
  1
3.000000
100
AcDbAttributeDefinition
  3

  2
SS1
 70
     8
280
     0
  0
ATTDEF
  5
152
330
147
100
AcDbEntity
  8
AM_6
100
AcDbText
 10
6.837499999999999
 20
-0.9409499999999995
 30
0.0
 40
0.5
  1
070900
100
AcDbAttributeDefinition
  3

  2
PN
 70
     8
280
     0
  0
ATTDEF
  5
153
330
147
100
AcDbEntity
  8
AM_6
100
AcDbText
 10
6.837499999999999
 20
-1.44095
 30
0.0
 40
0.5
  1
INS-IP-300R
100
AcDbAttributeDefinition
  3

  2
DESCRIPTION
 70
     8
280
     0
  0
ATTDEF
  5
154
330
147
100
AcDbEntity
  8
AM_6
100
AcDbText
 10
6.837499999999999
 20
-1.94095
 30
0.0
 40
0.5
  1
Contact Seal
100
AcDbAttributeDefinition
  3

  2
ST
 70
     8
280
     0
  0
ATTDEF
  5
155
330
147
100
AcDbEntity
  8
AM_6
100
AcDbText
 10
6.837499999999999
 20
-2.44095
 30
0.0
 40
0.5
  1
5.1181
100
AcDbAttributeDefinition
  3

  2
A
 70
     8
280
     0
  0
ATTDEF
  5
156
330
147
100
AcDbEntity
  8
AM_6
100
AcDbText
 10
6.837499999999999
 20
-2.94095
 30
0.0
 40
0.5
  1
1-9/32
100
AcDbAttributeDefinition
  3

  2
B
 70
     8
280
     0
  0
ATTDEF
  5
157
330
147
100
AcDbEntity
  8
AM_6
100
AcDbText
 10
6.837499999999999
 20
-3.44095
 30
0.0
 40
0.5
  1
3-1/2
100
AcDbAttributeDefinition
  3

  2
C
 70
     8
280
     0
  0
ATTDEF
  5
158
330
147
100
AcDbEntity
  8
AM_6
100
AcDbText
 10
6.837499999999999
 20
-3.94095
 30
0.0
 40
0.5
  1
1.219
100
AcDbAttributeDefinition
  3

  2
D
 70
     8
280
     0
  0
ATTDEF
  5
159
330
147
100
AcDbEntity
  8
AM_6
100
AcDbText
 10
6.837499999999999
 20
-4.440949999999999
 30
0.0
 40
0.5
  1
4-9/32
100
AcDbAttributeDefinition
  3

  2
E
 70
     8
280
     0
  0
ATTDEF
  5
15A
330
147
100
AcDbEntity
  8
AM_6
100
AcDbText
 10
6.837499999999999
 20
-4.940949999999999
 30
0.0
 40
0.5
  1
0.1900
100
AcDbAttributeDefinition
  3

  2
NDM
 70
     8
280
     0
  0
ATTDEF
  5
15B
330
147
100
AcDbEntity
  8
AM_6
100
AcDbText
 10
6.837499999999999
 20
-5.440949999999999
 30
0.0
 40
0.5
  1
0.101
100
AcDbAttributeDefinition
  3

  2
H
 70
     8
280
     0
  0
ATTDEF
  5
15C
330
147
100
AcDbEntity
  8
AM_6
100
AcDbText
 10
6.837499999999999
 20
-5.940949999999999
 30
0.0
 40
0.5
  1
0.1450
100
AcDbAttributeDefinition
  3

  2
KDM
 70
     8
280
     0
  0
ATTDEF
  5
15D
330
147
100
AcDbEntity
  8
AM_6
100
AcDbText
 10
6.837499999999999
 20
-6.440949999999999
 30
0.0
 40
0.5
  1
3.74
100
AcDbAttributeDefinition
  3

  2
AL
 70
     8
280
     0
  0
ATTDEF
  5
15E
330
147
100
AcDbEntity
  8
AM_6
100
AcDbText
 10
6.837499999999999
 20
-6.940949999999999
 30
0.0
 40
0.5
  1
0.50
100
AcDbAttributeDefinition
  3

  2
BL
 70
     8
280
     0
  0
ATTDEF
  5
15F
330
147
100
AcDbEntity
  8
AM_6
100
AcDbText
 10
6.837499999999999
 20
-7.440949999999999
 30
0.0
 40
0.5
  1
0.07
100
AcDbAttributeDefinition
  3

  2
CL
 70
     8
280
     0
  0
ATTDEF
  5
160
330
147
100
AcDbEntity
  8
AM_6
100
AcDbText
 10
6.837499999999999
 20
-7.940949999999999
 30
0.0
 40
0.5
  1
0.44
100
AcDbAttributeDefinition
  3

  2
DL
 70
     8
280
     0
  0
ATTDEF
  5
161
330
147
100
AcDbEntity
  8
AM_6
100
AcDbText
 10
6.837499999999999
 20
-8.440949999999999
 30
0.0
 40
0.5
  1
0.8000
100
AcDbAttributeDefinition
  3

  2
LL
 70
     8
280
     0
  0
ATTDEF
  5
162
330
147
100
AcDbEntity
  8
AM_6
100
AcDbText
 10
6.837499999999999
 20
-8.940949999999999
 30
0.0
 40
0.5
  1
0.025
100
AcDbAttributeDefinition
  3

  2
Y
 70
     8
280
     0
  0
ATTDEF
  5
163
330
147
100
AcDbEntity
  8
AM_6
100
AcDbText
 10
6.837499999999999
 20
-9.440949999999999
 30
0.0
 40
0.5
  1
0.025000
100
AcDbAttributeDefinition
  3

  2
Y1
 70
     8
280
     0
  0
ATTDEF
  5
164
330
147
100
AcDbEntity
  8
AM_6
100
AcDbText
 10
6.837499999999999
 20
-9.940949999999999
 30
0.0
 40
0.5
  1
3-15/32
100
AcDbAttributeDefinition
  3

  2
Z
 70
     8
280
     0
  0
ATTDEF
  5
165
330
147
100
AcDbEntity
  8
AM_6
100
AcDbText
 10
6.837499999999999
 20
-10.44095
 30
0.0
 40
0.5
  1
3.468750
100
AcDbAttributeDefinition
  3

  2
Z1
 70
     8
280
     0
  0
ATTDEF
  5
166
330
147
100
AcDbEntity
  8
AM_6
100
AcDbText
 10
6.837499999999999
 20
-10.94095
 30
0.0
 40
0.5
  1
baldor
100
AcDbAttributeDefinition
  3

  2
COMPANY
 70
     8
280
     0
  0
LINE
  5
167
330
147
100
AcDbEntity
  8
AM_9
 48
0.0155187363000628
100
AcDbLine
 10
1.234125
 20
1.50587517155613
 30
0.0
 11
-1.414333333333333
 21
1.50587517155613
 31
0.0
  0
LINE
  5
168
330
147
100
AcDbEntity
  8
AM_9
 48
0.0155187363000628
100
AcDbLine
 10
1.234125
 20
1.410204313464857
 30
0.0
 11
-1.414333333333333
 21
1.410204313464857
 31
0.0
  0
LINE
  5
169
330
147
100
AcDbEntity
  8
AM_9
 48
0.0155187363000628
100
AcDbLine
 10
-0.5743333333333334
 20
1.903645833333333
 30
0.0
 11
-0.608117323166663
 21
1.976095833333333
 31
0.0
  0
LINE
  5
16A
330
147
100
AcDbEntity
  8
AM_9
 48
0.0155187363000628
100
AcDbLine
 10
-0.608117323166663
 20
1.831195833333333
 30
0.0
 11
-0.5743333333333334
 21
1.903645833333333
 31
0.0
  0
LINE
  5
16B
330
147
100
AcDbEntity
  8
AM_9
 48
0.0155187363000628
100
AcDbLine
 10
-0.5743333333333356
 20
-1.903645833333333
 30
0.0
 11
-0.6081173231666688
 21
-1.831195833333333
 31
0.0
  0
LINE
  5
16C
330
147
100
AcDbEntity
  8
AM_9
 48
0.0155187363000628
100
AcDbLine
 10
-0.6081173231666688
 20
-1.976095833333333
 30
0.0
 11
-0.5743333333333356
 21
-1.903645833333333
 31
0.0
  0
LINE
  5
16D
330
147
100
AcDbEntity
  8
AM_9
 48
0.0155187363000628
100
AcDbLine
 10
-1.391783333333337
 20
-1.976095833333333
 30
0.0
 11
-0.6081173231666688
 21
-1.976095833333333
 31
0.0
  0
LINE
  5
16E
330
147
100
AcDbEntity
  8
AM_9
 48
0.0155187363000628
100
AcDbLine
 10
-0.6081173231666688
 20
-1.831195833333333
 30
0.0
 11
-1.391783333333337
 21
-1.831195833333333
 31
0.0
  0
LINE
  5
16F
330
147
100
AcDbEntity
  8
AM_9
 48
0.0155187363000628
100
AcDbLine
 10
-0.6081173231666688
 20
-1.831195833333333
 30
0.0
 11
-0.6081173231666688
 21
-1.976095833333333
 31
0.0
  0
LINE
  5
170
330
147
100
AcDbEntity
  8
AM_9
 48
0.0155187363000628
100
AcDbLine
 10
-0.608117323166663
 20
1.831195833333333
 30
0.0
 11
-0.608117323166663
 21
1.976095833333333
 31
0.0
  0
LINE
  5
171
330
147
100
AcDbEntity
  8
AM_9
 48
0.0155187363000628
100
AcDbLine
 10
-0.608117323166663
 20
1.976095833333333
 30
0.0
 11
-1.391783333333334
 21
1.976095833333333
 31
0.0
  0
LINE
  5
172
330
147
100
AcDbEntity
  8
AM_9
 48
0.0155187363000628
100
AcDbLine
 10
-1.391783333333334
 20
1.831195833333333
 30
0.0
 11
-0.608117323166663
 21
1.831195833333333
 31
0.0
  0
LINE
  5
173
330
147
100
AcDbEntity
  8
AM_9
 48
0.0155187363000628
100
AcDbLine
 10
-1.391783333333334
 20
1.831195833333333
 30
0.0
 11
-1.391783333333334
 21
1.976095833333333
 31
0.0
  0
LINE
  5
174
330
147
100
AcDbEntity
  8
AM_9
 48
0.0155187363000628
100
AcDbLine
 10
-1.391783333333334
 20
1.976095833333333
 30
0.0
 11
-1.414333333333333
 21
1.998645833333333
 31
0.0
  0
LINE
  5
175
330
147
100
AcDbEntity
  8
AM_9
 48
0.0155187363000628
100
AcDbLine
 10
-1.414333333333333
 20
1.808645833333333
 30
0.0
 11
-1.391783333333334
 21
1.831195833333333
 31
0.0
  0
LINE
  5
176
330
147
100
AcDbEntity
  8
AM_9
 48
0.0155187363000628
100
AcDbLine
 10
-1.391783333333337
 20
-1.831195833333333
 30
0.0
 11
-1.414333333333314
 21
-1.808645833333333
 31
0.0
  0
LINE
  5
177
330
147
100
AcDbEntity
  8
AM_9
 48
0.0155187363000628
100
AcDbLine
 10
-1.414333333333314
 20
-1.998645833333333
 30
0.0
 11
-1.391783333333337
 21
-1.976095833333333
 31
0.0
  0
LINE
  5
178
330
147
100
AcDbEntity
  8
AM_9
 48
0.0155187363000628
100
AcDbLine
 10
-1.391783333333337
 20
-1.831195833333333
 30
0.0
 11
-1.391783333333337
 21
-1.976095833333333
 31
0.0
  0
LINE
  5
179
330
147
100
AcDbEntity
  8
AM_9
 48
0.0155187363000628
100
AcDbLine
 10
-0.9743333333333335
 20
1.145512985522207
 30
0.0
 11
-1.414333333333333
 21
1.145512985522207
 31
0.0
  0
LINE
  5
17A
330
147
100
AcDbEntity
  8
AM_9
 48
0.0155187363000628
100
AcDbLine
 10
-0.9743333333333335
 20
1.499066376115481
 30
0.0
 11
-0.9999999999999999
 21
1.499066376115481
 31
0.0
  0
LINE
  5
17B
330
147
100
AcDbEntity
  8
AM_9
 48
0.0155187363000628
100
AcDbLine
 10
-0.9743333333333335
 20
-1.145512985522207
 30
0.0
 11
-1.414333333333333
 21
-1.145512985522207
 31
0.0
  0
LINE
  5
17C
330
147
100
AcDbEntity
  8
AM_9
 48
0.0155187363000628
100
AcDbLine
 10
-0.9743333333333335
 20
-1.499066376115481
 30
0.0
 11
-0.9999999999999999
 21
-1.499066376115481
 31
0.0
  0
LINE
  5
17D
330
147
100
AcDbEntity
  8
AM_9
 48
0.0155187363000628
100
AcDbLine
 10
1.234125
 20
1.42883447216871
 30
0.0
 11
-1.6875
 21
1.42883447216871
 31
0.0
  0
LINE
  5
17E
330
147
100
AcDbEntity
  8
AM_9
 48
0.0155187363000628
100
AcDbLine
 10
-1.6875
 20
1.333163614077437
 30
0.0
 11
1.234125
 21
1.333163614077438
 31
0.0
  0
LINE
  5
17F
330
147
100
AcDbEntity
  8
AM_9
 48
0.0155187363000628
100
AcDbLine
 10
1.234125
 20
1.5
 30
0.0
 11
-1.6875
 21
1.5
 31
0.0
  0
LINE
  5
180
330
147
100
AcDbEntity
  8
AM_9
 48
0.0155187363000628
100
AcDbLine
 10
-1.6875
 20
-1.5
 30
0.0
 11
1.234125
 21
-1.5
 31
0.0
  0
LINE
  5
181
330
147
100
AcDbEntity
  8
AM_9
 48
0.0155187363000628
100
AcDbLine
 10
1.8125
 20
1.578947368421053
 30
0.0
 11
1.234125
 21
1.578947368421053
 31
0.0
  0
LINE
  5
182
330
147
100
AcDbEntity
  8
AM_9
 48
0.0155187363000628
100
AcDbLine
 10
1.234125
 20
-1.578947368421053
 30
0.0
 11
1.8125
 21
-1.578947368421053
 31
0.0
  0
LINE
  5
183
330
147
100
AcDbEntity
  8
AM_9
 48
0.0155187363000628
100
AcDbLine
 10
-1.6875
 20
1.50201412170836
 30
0.0
 11
-1.414333333333333
 21
1.502014121708361
 31
0.0
  0
LINE
  5
184
330
147
100
AcDbEntity
  8
AM_9
 48
0.0155187363000628
100
AcDbLine
 10
-1.414333333333333
 20
1.406343263617088
 30
0.0
 11
-1.6875
 21
1.406343263617088
 31
0.0
  0
LINE
  5
185
330
147
100
AcDbEntity
  8
AM_9
 48
0.0155187363000628
100
AcDbLine
 10
-1.414333333333333
 20
1.578947368421053
 30
0.0
 11
-1.484333333333334
 21
1.578947368421053
 31
0.0
  0
LINE
  5
186
330
147
100
AcDbEntity
  8
AM_9
 48
0.0155187363000628
100
AcDbLine
 10
-1.484333333333334
 20
-1.578947368421053
 30
0.0
 11
-1.414333333333333
 21
-1.578947368421053
 31
0.0
  0
LINE
  5
187
330
147
100
AcDbEntity
  8
AM_9
 48
0.0155187363000628
100
AcDbLine
 10
-0.9743333333333335
 20
-1.145512985522207
 30
0.0
 11
-0.9743333333333335
 21
-1.691008097302049
 31
0.0
  0
LINE
  5
188
330
147
100
AcDbEntity
  8
AM_9
 48
0.0155187363000628
100
AcDbLine
 10
-0.9743333333333335
 20
1.691008097302049
 30
0.0
 11
-0.9743333333333335
 21
1.145512985522207
 31
0.0
  0
LINE
  5
189
330
147
100
AcDbEntity
  8
AM_9
 48
0.0155187363000628
100
AcDbLine
 10
1.8125
 20
-1.734375
 30
0.0
 11
1.8125
 21
1.734375
 31
0.0
  0
LINE
  5
18A
330
147
100
AcDbEntity
  8
AM_9
 48
0.0155187363000628
100
AcDbLine
 10
1.837499999999998
 20
1.734375
 30
0.0
 11
1.8125
 21
1.734375
 31
0.0
  0
LINE
  5
18B
330
147
100
AcDbEntity
  8
AM_9
 48
0.0155187363000628
100
AcDbLine
 10
1.8125
 20
-1.734375
 30
0.0
 11
1.837499999999998
 21
-1.734375
 31
0.0
  0
LINE
  5
18C
330
147
100
AcDbEntity
  8
AM_9
 48
0.0155187363000628
100
AcDbLine
 10
1.625
 20
1.927083333333333
 30
0.0
 11
1.490375
 21
1.927083333333333
 31
0.0
  0
LINE
  5
18D
330
147
100
AcDbEntity
  8
AM_9
 48
0.0155187363000628
100
AcDbLine
 10
1.490375
 20
-1.927083333333333
 30
0.0
 11
1.625
 21
-1.927083333333333
 31
0.0
  0
LINE
  5
18E
330
147
100
AcDbEntity
  8
AM_9
 48
0.0155187363000628
100
AcDbLine
 10
-1.000000001289181
 20
-1.336816620946549
 30
0.0
 11
-0.9743333333333335
 21
-1.337454706708775
 31
0.0
  0
LINE
  5
18F
330
147
100
AcDbEntity
  8
AM_9
 48
0.0155187363000628
100
AcDbLine
 10
-0.9743333333333335
 20
-1.691008097302049
 30
0.0
 11
-1.000000001289181
 21
-1.690370011539823
 31
0.0
  0
LINE
  5
190
330
147
100
AcDbEntity
  8
AM_9
 48
0.0155187363000628
100
AcDbLine
 10
-1.000000001289181
 20
1.690370011539823
 30
0.0
 11
-0.9743333333333335
 21
1.691008097302049
 31
0.0
  0
LINE
  5
191
330
147
100
AcDbEntity
  8
AM_9
 48
0.0155187363000628
100
AcDbLine
 10
-0.9743333333333335
 20
1.337454706708775
 30
0.0
 11
-1.000000001289181
 21
1.33681662094655
 31
0.0
  0
LINE
  5
192
330
147
100
AcDbEntity
  8
AM_9
 48
0.0155187363000628
100
AcDbLine
 10
-1.0
 20
-2.155093838826081
 30
0.0
 11
-0.0471250000000003
 21
-2.18836896705553
 31
0.0
  0
LINE
  5
193
330
147
100
AcDbEntity
  8
AM_9
 48
0.0155187363000628
100
AcDbLine
 10
-0.0471250000000003
 20
2.18836896705553
 30
0.0
 11
-1.0
 21
2.155093838826081
 31
0.0
  0
LINE
  5
194
330
147
100
AcDbEntity
  8
AM_9
 48
0.0155187363000628
100
AcDbLine
 10
1.490375
 20
-2.153368966601195
 30
0.0
 11
1.490375
 21
2.153368966601195
 31
0.0
  0
ARC
  5
195
330
147
100
AcDbEntity
  8
AM_9
 48
0.0155187363000628
100
AcDbCircle
 10
1.390374999999998
 20
2.153368966601195
 30
0.0
 40
0.1000000000000012
100
AcDbArc
 50
0.0000000000005089
 51
59.99999999999957
  0
ARC
  5
196
330
147
100
AcDbEntity
  8
AM_9
 48
0.0155187363000628
100
AcDbCircle
 10
1.390374999999998
 20
-2.153368966601195
 30
0.0
 40
0.1000000000000014
100
AcDbArc
 50
300.0000000000005
 51
359.9999999999995
  0
LINE
  5
197
330
147
100
AcDbEntity
  8
AM_9
 48
0.0155187363000628
100
AcDbLine
 10
1.440375
 20
-2.239971506979639
 30
0.0
 11
1.440375
 21
2.239971506979639
 31
0.0
  0
LINE
  5
198
330
147
100
AcDbEntity
  8
AM_9
 48
0.0155187363000628
100
AcDbLine
 10
1.440375
 20
2.239971506979639
 30
0.0
 11
1.234125
 21
2.35905
 31
0.0
  0
LINE
  5
199
330
147
100
AcDbEntity
  8
AM_9
 48
0.0155187363000628
100
AcDbLine
 10
1.234125
 20
-2.35905
 30
0.0
 11
1.440375
 21
-2.239971506979639
 31
0.0
  0
LINE
  5
19A
330
147
100
AcDbEntity
  8
AM_9
 48
0.0155187363000628
100
AcDbLine
 10
0.6304865016199601
 20
2.4949875
 30
0.0
 11
0.5565134983800393
 21
2.4949875
 31
0.0
  0
LINE
  5
19B
330
147
100
AcDbEntity
  8
AM_9
 48
0.0155187363000628
100
AcDbLine
 10
0.5565134983800393
 20
-2.4949875
 30
0.0
 11
0.6304865016199601
 21
-2.4949875
 31
0.0
  0
LINE
  5
19C
330
147
100
AcDbEntity
  8
AM_9
 48
0.0155187363000628
100
AcDbLine
 10
0.6304865016199601
 20
-2.4949875
 30
0.0
 11
0.6304865016199601
 21
2.4949875
 31
0.0
  0
LINE
  5
19D
330
147
100
AcDbEntity
  8
AM_9
 48
0.0155187363000628
100
AcDbLine
 10
0.6304865016199601
 20
-2.4949875
 30
0.0
 11
0.6674730032399202
 21
-2.55905
 31
0.0
  0
LINE
  5
19E
330
147
100
AcDbEntity
  8
AM_9
 48
0.0155187363000628
100
AcDbLine
 10
0.6674730032399202
 20
2.55905
 30
0.0
 11
0.6304865016199601
 21
2.4949875
 31
0.0
  0
LINE
  5
19F
330
147
100
AcDbEntity
  8
AM_9
 48
0.0155187363000628
100
AcDbLine
 10
0.6674730032399202
 20
-2.55905
 30
0.0
 11
0.6674730032399202
 21
2.55905
 31
0.0
  0
LINE
  5
1A0
330
147
100
AcDbEntity
  8
AM_9
 48
0.0155187363000628
100
AcDbLine
 10
1.184125
 20
2.55905
 30
0.0
 11
0.6674730032399202
 21
2.55905
 31
0.0
  0
LINE
  5
1A1
330
147
100
AcDbEntity
  8
AM_9
 48
0.0155187363000628
100
AcDbLine
 10
0.6674730032399202
 20
-2.55905
 30
0.0
 11
1.184125
 21
-2.55905
 31
0.0
  0
LINE
  5
1A2
330
147
100
AcDbEntity
  8
AM_9
 48
0.0155187363000628
100
AcDbLine
 10
0.5565134983800393
 20
-2.4949875
 30
0.0
 11
0.5565134983800393
 21
2.4949875
 31
0.0
  0
LINE
  5
1A3
330
147
100
AcDbEntity
  8
AM_9
 48
0.0155187363000628
100
AcDbLine
 10
0.5565134983800393
 20
2.4949875
 30
0.0
 11
0.5195269967600789
 21
2.55905
 31
0.0
  0
LINE
  5
1A4
330
147
100
AcDbEntity
  8
AM_9
 48
0.0155187363000628
100
AcDbLine
 10
0.5195269967600789
 20
-2.55905
 30
0.0
 11
0.5565134983800393
 21
-2.4949875
 31
0.0
  0
LINE
  5
1A5
330
147
100
AcDbEntity
  8
AM_9
 48
0.0155187363000628
100
AcDbLine
 10
1.234125
 20
-2.50905
 30
0.0
 11
1.234125
 21
2.50905
 31
0.0
  0
LINE
  5
1A6
330
147
100
AcDbEntity
  8
AM_9
 48
0.0155187363000628
100
AcDbLine
 10
1.184125
 20
-2.55905
 30
0.0
 11
1.184125
 21
2.55905
 31
0.0
  0
ARC
  5
1A7
330
147
100
AcDbEntity
  8
AM_9
 48
0.0155187363000628
100
AcDbCircle
 10
1.184124999999999
 20
2.50905
 30
0.0
 40
0.0500000000000003
100
AcDbArc
 50
0.0000000000005089
 51
89.99999999999899
  0
ARC
  5
1A8
330
147
100
AcDbEntity
  8
AM_9
 48
0.0155187363000628
100
AcDbCircle
 10
1.184124999999999
 20
-2.50905
 30
0.0
 40
0.0500000000000003
100
AcDbArc
 50
270.000000000001
 51
359.9999999999995
  0
LINE
  5
1A9
330
147
100
AcDbEntity
  8
AM_9
 48
0.0155187363000628
100
AcDbLine
 10
0.5195269967600789
 20
-2.55905
 30
0.0
 11
0.5195269967600789
 21
2.55905
 31
0.0
  0
LINE
  5
1AA
330
147
100
AcDbEntity
  8
AM_9
 48
0.0155187363000628
100
AcDbLine
 10
0.5195269967600789
 20
2.55905
 30
0.0
 11
0.0028749999999998
 21
2.55905
 31
0.0
  0
LINE
  5
1AB
330
147
100
AcDbEntity
  8
AM_9
 48
0.0155187363000628
100
AcDbLine
 10
0.0028749999999998
 20
-2.55905
 30
0.0
 11
0.5195269967600789
 21
-2.55905
 31
0.0
  0
LINE
  5
1AC
330
147
100
AcDbEntity
  8
AM_9
 48
0.0155187363000628
100
AcDbLine
 10
0.0028749999999998
 20
-2.55905
 30
0.0
 11
0.0028749999999998
 21
2.55905
 31
0.0
  0
LINE
  5
1AD
330
147
100
AcDbEntity
  8
AM_9
 48
0.0155187363000628
100
AcDbLine
 10
-0.0471250000000003
 20
-2.50905
 30
0.0
 11
-0.0471250000000003
 21
2.50905
 31
0.0
  0
ARC
  5
1AE
330
147
100
AcDbEntity
  8
AM_9
 48
0.0155187363000628
100
AcDbCircle
 10
0.0028749999999996
 20
2.509050000000001
 30
0.0
 40
0.0499999999999998
100
AcDbArc
 50
89.99999999999982
 51
180.0000000000005
  0
ARC
  5
1AF
330
147
100
AcDbEntity
  8
AM_9
 48
0.0155187363000628
100
AcDbCircle
 10
0.00287499999977
 20
-2.50905000000023
 30
0.0
 40
0.0499999999997702
100
AcDbArc
 50
179.9999999997364
 51
270.0000000002633
  0
LINE
  5
1B0
330
147
100
AcDbEntity
  8
AM_5
 48
0.0155187363000628
100
AcDbLine
 10
-0.6543333333333333
 20
1.976095833333333
 30
0.0
 11
-0.6543333333333333
 21
1.998645833333333
 31
0.0
  0
LINE
  5
1B1
330
147
100
AcDbEntity
  8
AM_5
 48
0.0155187363000628
100
AcDbLine
 10
-0.6543333333333333
 20
1.998645833333333
 30
0.0
 11
-0.6413140847631073
 21
1.976095833333333
 31
0.0
  0
LINE
  5
1B2
330
147
100
AcDbEntity
  8
AM_5
 48
0.0155187363000628
100
AcDbLine
 10
-0.6543333333333333
 20
1.831195833333334
 30
0.0
 11
-0.6543333333333333
 21
1.808645833333333
 31
0.0
  0
LINE
  5
1B3
330
147
100
AcDbEntity
  8
AM_5
 48
0.0155187363000628
100
AcDbLine
 10
-0.6543333333333333
 20
1.808645833333333
 30
0.0
 11
-0.641314084763108
 21
1.831195833333333
 31
0.0
  0
LINE
  5
1B4
330
147
100
AcDbEntity
  8
AM_5
 48
0.0155187363000628
100
AcDbLine
 10
-0.654333333333318
 20
-1.976095833333333
 30
0.0
 11
-0.654333333333318
 21
-1.998645833333333
 31
0.0
  0
LINE
  5
1B5
330
147
100
AcDbEntity
  8
AM_5
 48
0.0155187363000628
100
AcDbLine
 10
-0.654333333333318
 20
-1.998645833333333
 30
0.0
 11
-0.6413140847631105
 21
-1.976095833333333
 31
0.0
  0
LINE
  5
1B6
330
147
100
AcDbEntity
  8
AM_5
 48
0.0155187363000628
100
AcDbLine
 10
-0.654333333333318
 20
-1.831195833333334
 30
0.0
 11
-0.654333333333318
 21
-1.808645833333333
 31
0.0
  0
LINE
  5
1B7
330
147
100
AcDbEntity
  8
AM_5
 48
0.0155187363000628
100
AcDbLine
 10
-0.654333333333318
 20
-1.808645833333333
 30
0.0
 11
-0.6413140847631105
 21
-1.831195833333333
 31
0.0
  0
LINE
  5
1B8
330
147
100
AcDbEntity
  8
AM_7
 48
0.0155187363000628
100
AcDbLine
 10
-0.5323333333333333
 20
1.903645833333333
 30
0.0
 11
-1.630383333333334
 21
1.903645833333333
 31
0.0
  0
LINE
  5
1B9
330
147
100
AcDbEntity
  8
AM_7
 48
0.0155187363000628
100
AcDbLine
 10
-0.5323333333333367
 20
-1.903645833333333
 30
0.0
 11
-1.630383333333334
 21
-1.903645833333333
 31
0.0
  0
ARC
  5
1BA
330
147
100
AcDbEntity
  8
AM_0
 48
0.0155187363000628
100
AcDbCircle
 10
-1.364333333333334
 20
-2.092340561259646
 30
0.0
 40
0.0499999999999998
100
AcDbArc
 50
180.0
 51
267.9999999999999
  0
ARC
  5
1BB
330
147
100
AcDbEntity
  8
AM_0
 48
0.0155187363000628
100
AcDbCircle
 10
-1.364333333333333
 20
2.092340561259646
 30
0.0
 40
0.0500000000000003
100
AcDbArc
 50
92.00000000000023
 51
179.9999999999995
  0
LWPOLYLINE
  5
1BC
330
147
100
AcDbEntity
  8
AM_0
 48
0.0155187363000628
100
AcDbPolyline
 90
        6
 70
     0
 43
0.0
 10
-1.414333333333333
 20
1.645685988665757
 10
-1.413803406027257
 20
1.650856707133888
 10
-1.408549174789223
 20
1.662310724868605
 10
-1.39823359551393
 20
1.671858426813063
 10
-1.38409150615002
 20
1.678393042311169
 10
-1.366078308168459
 20
1.68126873179059
  0
LWPOLYLINE
  5
1BD
330
147
100
AcDbEntity
  8
AM_0
 48
0.0155187363000628
100
AcDbPolyline
 90
        6
 70
     0
 43
0.0
 10
-1.366078308168459
 20
-1.68126873179059
 10
-1.382432855520174
 20
-1.678876161346741
 10
-1.396753833641607
 20
-1.672792404581568
 10
-1.40747683994175
 20
-1.663682867646965
 10
-1.413405870670556
 20
-1.652512800281862
 10
-1.414333333333333
 20
-1.645685988665757
  0
LINE
  5
1BE
330
147
100
AcDbEntity
  8
AM_0
 48
0.0155187363000628
100
AcDbLine
 10
-0.9999999999999999
 20
1.499066376115481
 30
0.0
 11
-1.414333333333333
 21
1.499066376115481
 31
0.0
  0
LINE
  5
1BF
330
147
100
AcDbEntity
  8
AM_0
 48
0.0155187363000628
100
AcDbLine
 10
-0.9999999999999999
 20
-1.499066376115481
 30
0.0
 11
-1.414333333333333
 21
-1.499066376115481
 31
0.0
  0
LINE
  5
1C0
330
147
100
AcDbEntity
  8
AM_0
 48
0.0155187363000628
100
AcDbLine
 10
-1.484333333333334
 20
1.578947368421053
 30
0.0
 11
-1.6875
 21
1.578947368421053
 31
0.0
  0
LINE
  5
1C1
330
147
100
AcDbEntity
  8
AM_0
 48
0.0155187363000628
100
AcDbLine
 10
-1.6875
 20
-1.578947368421053
 30
0.0
 11
-1.484333333333334
 21
-1.578947368421053
 31
0.0
  0
LINE
  5
1C2
330
147
100
AcDbEntity
  8
AM_0
 48
0.0155187363000628
100
AcDbLine
 10
-1.6875
 20
-1.578947368421053
 30
0.0
 11
-1.6875
 21
1.578947368421053
 31
0.0
  0
LINE
  5
1C3
330
147
100
AcDbEntity
  8
AM_0
 48
0.0155187363000628
100
AcDbLine
 10
1.793028846153846
 20
1.927083333333333
 30
0.0
 11
1.625
 21
1.927083333333333
 31
0.0
  0
LINE
  5
1C4
330
147
100
AcDbEntity
  8
AM_0
 48
0.0155187363000628
100
AcDbLine
 10
1.625
 20
-1.927083333333333
 30
0.0
 11
1.793028846153846
 21
-1.927083333333333
 31
0.0
  0
LINE
  5
1C5
330
147
100
AcDbEntity
  8
AM_0
 48
0.0155187363000628
100
AcDbLine
 10
1.8375
 20
-1.882612179487178
 30
0.0
 11
1.8375
 21
1.882612179487178
 31
0.0
  0
LINE
  5
1C6
330
147
100
AcDbEntity
  8
AM_4
 48
0.0155187363000628
100
AcDbLine
 10
1.793028846153846
 20
-1.927083333333333
 30
0.0
 11
1.793028846153846
 21
1.927083333333333
 31
0.0
  0
ARC
  5
1C7
330
147
100
AcDbEntity
  8
AM_0
 48
0.0155187363000628
100
AcDbCircle
 10
1.793028846153846
 20
1.88261217948718
 30
0.0
 40
0.0444711538461531
100
AcDbArc
 50
359.999999999998
 51
90.0
  0
ARC
  5
1C8
330
147
100
AcDbEntity
  8
AM_0
 48
0.0155187363000628
100
AcDbCircle
 10
1.793028846153846
 20
-1.88261217948718
 30
0.0
 40
0.0444711538461533
100
AcDbArc
 50
270.0000000000002
 51
0.0000000000017165
  0
LWPOLYLINE
  5
1C9
330
147
100
AcDbEntity
  8
AM_0
 48
0.0155187363000628
100
AcDbPolyline
 90
        6
 70
     0
 43
0.0
 10
-1.366078308168459
 20
1.327715341197316
 10
-1.382432855520174
 20
1.325322770753467
 10
-1.396753833641607
 20
1.319239013988294
 10
-1.40747683994175
 20
1.310129477053691
 10
-1.413405870670556
 20
1.298959409688588
 10
-1.414333333333333
 20
1.292132598072483
  0
LWPOLYLINE
  5
1CA
330
147
100
AcDbEntity
  8
AM_0
 48
0.0155187363000628
100
AcDbPolyline
 90
        6
 70
     0
 43
0.0
 10
-1.414333333333333
 20
-1.292132598072483
 10
-1.413803406027257
 20
-1.297303316540614
 10
-1.408549174789223
 20
-1.308757334275331
 10
-1.39823359551393
 20
-1.318305036219789
 10
-1.38409150615002
 20
-1.324839651717895
 10
-1.366078308168459
 20
-1.327715341197316
  0
LINE
  5
1CB
330
147
100
AcDbEntity
  8
AM_4
 48
0.0155187363000628
100
AcDbLine
 10
-1.366078308168459
 20
-1.327715341197316
 30
0.0
 11
-1.366078308168459
 21
1.327715341197316
 31
0.0
  0
LINE
  5
1CC
330
147
100
AcDbEntity
  8
AM_0
 48
0.0155187363000628
100
AcDbLine
 10
-1.366078308168459
 20
-1.327715341197316
 30
0.0
 11
-1.000000001289181
 21
-1.336816620946549
 31
0.0
  0
LINE
  5
1CD
330
147
100
AcDbEntity
  8
AM_0
 48
0.0155187363000628
100
AcDbLine
 10
-1.000000001289181
 20
-1.690370011539823
 30
0.0
 11
-1.366078308168459
 21
-1.68126873179059
 31
0.0
  0
LINE
  5
1CE
330
147
100
AcDbEntity
  8
AM_4
 48
0.0155187363000628
100
AcDbLine
 10
-1.366078308168459
 20
1.68126873179059
 30
0.0
 11
-1.366078308168459
 21
2.142310102610601
 31
0.0
  0
LINE
  5
1CF
330
147
100
AcDbEntity
  8
AM_0
 48
0.0155187363000628
100
AcDbLine
 10
-1.366078308168459
 20
1.68126873179059
 30
0.0
 11
-1.000000001289181
 21
1.690370011539823
 31
0.0
  0
LINE
  5
1D0
330
147
100
AcDbEntity
  8
AM_0
 48
0.0155187363000628
100
AcDbLine
 10
-1.000000001289181
 20
1.33681662094655
 30
0.0
 11
-1.366078308168459
 21
1.327715341197316
 31
0.0
  0
LINE
  5
1D1
330
147
100
AcDbEntity
  8
AM_0
 48
0.0155187363000628
100
AcDbLine
 10
-1.366078308168459
 20
-2.142310102610601
 30
0.0
 11
-1.0
 21
-2.155093838826081
 31
0.0
  0
LINE
  5
1D2
330
147
100
AcDbEntity
  8
AM_0
 48
0.0155187363000628
100
AcDbLine
 10
-1.0
 20
2.155093838826081
 30
0.0
 11
-1.366078308168459
 21
2.142310102610601
 31
0.0
  0
LINE
  5
1D3
330
147
100
AcDbEntity
  8
AM_4
 48
0.0155187363000628
100
AcDbLine
 10
-1.366078308168459
 20
-2.142310102610601
 30
0.0
 11
-1.366078308168459
 21
-1.68126873179059
 31
0.0
  0
ENDBLK
  5
14A
330
147
100
AcDbEntity
  8
0
100
AcDbBlockEnd
  0
BLOCK
  5
1D6
330
1D4
100
AcDbEntity
  8
0
100
AcDbBlockBegin
  2
6_069857H_0_in_069857_2
 70
     2
 10
0.0
 20
0.0
 30
0.0
  3
6_069857H_0_in_069857_2
  1

  0
ATTDEF
  5
1D8
330
1D4
100
AcDbEntity
  8
AM_6
100
AcDbText
 10
7.145
 20
4.375
 30
0.0
 40
0.5
  1
FC-IP -(Contact Seal)-Housing -Inch
100
AcDbAttributeDefinition
  3

  2
NN
 70
     8
280
     0
  0
ATTDEF
  5
1D9
330
1D4
100
AcDbEntity
  8
AM_6
100
AcDbText
 10
7.145
 20
3.875
 30
0.0
 40
0.5
  1
Imperial Piloted Flange Bearings
100
AcDbAttributeDefinition
  3

  2
NT
 70
     8
280
     0
  0
ATTDEF
  5
1DA
330
1D4
100
AcDbEntity
  8
AM_6
100
AcDbText
 10
7.145
 20
3.375
 30
0.0
 40
0.5
  1
069857H
100
AcDbAttributeDefinition
  3

  2
NB
 70
     8
280
     0
  0
ATTDEF
  5
1DB
330
1D4
100
AcDbEntity
  8
AM_6
100
AcDbText
 10
7.145
 20
2.875
 30
0.0
 40
0.5
  1
$PN.H
100
AcDbAttributeDefinition
  3

  2
NBSYN
 70
     8
280
     0
  0
ATTDEF
  5
1DC
330
1D4
100
AcDbEntity
  8
AM_6
100
AcDbText
 10
7.145
 20
2.375
 30
0.0
 40
0.5
  1
069857
100
AcDbAttributeDefinition
  3

  2
LINA
 70
     8
280
     0
  0
ATTDEF
  5
1DD
330
1D4
100
AcDbEntity
  8
AM_6
100
AcDbText
 10
7.145
 20
1.875
 30
0.0
 40
0.5
  1
3
100
AcDbAttributeDefinition
  3

  2
SS
 70
     8
280
     0
  0
ATTDEF
  5
1DE
330
1D4
100
AcDbEntity
  8
AM_6
100
AcDbText
 10
7.145
 20
1.375
 30
0.0
 40
0.5
  1
069857
100
AcDbAttributeDefinition
  3

  2
PN
 70
     8
280
     0
  0
ATTDEF
  5
1DF
330
1D4
100
AcDbEntity
  8
AM_6
100
AcDbText
 10
7.145
 20
0.875
 30
0.0
 40
0.5
  1
FC-IP-300RE
100
AcDbAttributeDefinition
  3

  2
DESCRIPTION
 70
     8
280
     0
  0
ATTDEF
  5
1E0
330
1D4
100
AcDbEntity
  8
AM_6
100
AcDbText
 10
7.145
 20
0.375
 30
0.0
 40
0.5
  1
Expansion Type
100
AcDbAttributeDefinition
  3

  2
EF
 70
     8
280
     0
  0
ATTDEF
  5
1E1
330
1D4
100
AcDbEntity
  8
AM_6
100
AcDbText
 10
7.145
 20
-0.125
 30
0.0
 40
0.5
  1
Contact  Seal
100
AcDbAttributeDefinition
  3

  2
ST
 70
     8
280
     0
  0
ATTDEF
  5
1E2
330
1D4
100
AcDbEntity
  8
AM_6
100
AcDbText
 10
7.145
 20
-0.625
 30
0.0
 40
0.5
  1
3-1/2
100
AcDbAttributeDefinition
  3

  2
A
 70
     8
280
     0
  0
ATTDEF
  5
1E3
330
1D4
100
AcDbEntity
  8
AM_6
100
AcDbText
 10
7.145
 20
-1.125
 30
0.0
 40
0.5
  1
8-3/4
100
AcDbAttributeDefinition
  3

  2
B
 70
     8
280
     0
  0
ATTDEF
  5
1E4
330
1D4
100
AcDbEntity
  8
AM_6
100
AcDbText
 10
7.145
 20
-1.625
 30
0.0
 40
0.5
  1
2-5/8
100
AcDbAttributeDefinition
  3

  2
C
 70
     8
280
     0
  0
ATTDEF
  5
1E5
330
1D4
100
AcDbEntity
  8
AM_6
100
AcDbText
 10
7.145
 20
-2.125
 30
0.0
 40
0.5
  1
5-19/64
100
AcDbAttributeDefinition
  3

  2
D
 70
     8
280
     0
  0
ATTDEF
  5
1E6
330
1D4
100
AcDbEntity
  8
AM_6
100
AcDbText
 10
7.145
 20
-2.625
 30
0.0
 40
0.5
  1
7-1/2
100
AcDbAttributeDefinition
  3

  2
DD
 70
     8
280
     0
  0
ATTDEF
  5
1E7
330
1D4
100
AcDbEntity
  8
AM_6
100
AcDbText
 10
7.145
 20
-3.125
 30
0.0
 40
0.5
  1
1-1/4
100
AcDbAttributeDefinition
  3

  2
E
 70
     8
280
     0
  0
ATTDEF
  5
1E8
330
1D4
100
AcDbEntity
  8
AM_6
100
AcDbText
 10
7.145
 20
-3.625
 30
0.0
 40
0.5
  1
5/8
100
AcDbAttributeDefinition
  3

  2
F
 70
     8
280
     0
  0
ATTDEF
  5
1E9
330
1D4
100
AcDbEntity
  8
AM_6
100
AcDbText
 10
7.145
 20
-4.125
 30
0.0
 40
0.5
  1
1-15/16
100
AcDbAttributeDefinition
  3

  2
G
 70
     8
280
     0
  0
ATTDEF
  5
1EA
330
1D4
100
AcDbEntity
  8
AM_6
100
AcDbText
 10
7.145
 20
-4.625
 30
0.0
 40
0.5
  1
3/4
100
AcDbAttributeDefinition
  3

  2
H
 70
     8
280
     0
  0
ATTDEF
  5
1EB
330
1D4
100
AcDbEntity
  8
AM_6
100
AcDbText
 10
7.145
 20
-5.125
 30
0.0
 40
0.5
  1
6.375
100
AcDbAttributeDefinition
  3

  2
K
 70
     8
280
     0
  0
ATTDEF
  5
1EC
330
1D4
100
AcDbEntity
  8
AM_6
100
AcDbText
 10
7.145
 20
-5.625
 30
0.0
 40
0.5
  1
4-9/32
100
AcDbAttributeDefinition
  3

  2
L
 70
     8
280
     0
  0
ATTDEF
  5
1ED
330
1D4
100
AcDbEntity
  8
AM_6
100
AcDbText
 10
7.145
 20
-6.125
 30
0.0
 40
0.5
  1
5/8-11
100
AcDbAttributeDefinition
  3

  2
M
 70
     8
280
     0
  0
ATTDEF
  5
1EE
330
1D4
100
AcDbEntity
  8
AM_6
100
AcDbText
 10
7.145
 20
-6.625
 30
0.0
 40
0.5
  1
3-9/16
100
AcDbAttributeDefinition
  3

  2
N
 70
     8
280
     0
  0
ATTDEF
  5
1EF
330
1D4
100
AcDbEntity
  8
AM_6
100
AcDbText
 10
7.145
 20
-7.125
 30
0.0
 40
0.5
  1
1-9/16
100
AcDbAttributeDefinition
  3

  2
P
 70
     8
280
     0
  0
ATTDEF
  5
1F0
330
1D4
100
AcDbEntity
  8
AM_6
100
AcDbText
 10
7.145
 20
-7.625
 30
0.0
 40
0.5
  1
1-5/8
100
AcDbAttributeDefinition
  3

  2
Q
 70
     8
280
     0
  0
ATTDEF
  5
1F1
330
1D4
100
AcDbEntity
  8
AM_6
100
AcDbText
 10
7.145
 20
-8.125
 30
0.0
 40
0.5
  1
1/4
100
AcDbAttributeDefinition
  3

  2
X
 70
     8
280
     0
  0
ATTDEF
  5
1F2
330
1D4
100
AcDbEntity
  8
AM_6
100
AcDbText
 10
7.145
 20
-8.625
 30
0.0
 40
0.5
  1
0.025
100
AcDbAttributeDefinition
  3

  2
Y
 70
     8
280
     0
  0
ATTDEF
  5
1F3
330
1D4
100
AcDbEntity
  8
AM_6
100
AcDbText
 10
7.145
 20
-9.125
 30
0.0
 40
0.5
  1
3-15/32
100
AcDbAttributeDefinition
  3

  2
Z
 70
     8
280
     0
  0
ATTDEF
  5
1F4
330
1D4
100
AcDbEntity
  8
AM_6
100
AcDbText
 10
7.145
 20
-9.625
 30
0.0
 40
0.5
  1
baldor
100
AcDbAttributeDefinition
  3

  2
COMPANY
 70
     8
280
     0
  0
LINE
  5
1F5
330
1D4
100
AcDbEntity
  8
AM_9
 48
0.0270874896206742
100
AcDbLine
 10
-0.5999999999999999
 20
-2.888958250536634
 30
0.0
 11
-0.7499999999999998
 21
-2.888958250536634
 31
0.0
  0
LINE
  5
1F6
330
1D4
100
AcDbEntity
  8
AM_9
 48
0.0270874896206742
100
AcDbLine
 10
-0.5999999999999999
 20
-2.861831057179975
 30
0.0
 11
-0.7499999999999998
 21
-2.861831057179975
 31
0.0
  0
LINE
  5
1F7
330
1D4
100
AcDbEntity
  8
AM_9
 48
0.0270874896206742
100
AcDbLine
 10
-0.5999999999999999
 20
2.888958250536634
 30
0.0
 11
-0.7499999999999998
 21
2.888958250536634
 31
0.0
  0
LINE
  5
1F8
330
1D4
100
AcDbEntity
  8
AM_9
 48
0.0270874896206742
100
AcDbLine
 10
-0.7499999999999998
 20
2.861831057179983
 30
0.0
 11
-0.5999999999999999
 21
2.861831057179983
 31
0.0
  0
LINE
  5
1F9
330
1D4
100
AcDbEntity
  8
AM_9
 48
0.0270874896206742
100
AcDbLine
 10
-0.5999999999999999
 20
-2.876467837917916
 30
0.0
 11
-0.7499999999999998
 21
-2.876467837917915
 31
0.0
  0
LINE
  5
1FA
330
1D4
100
AcDbEntity
  8
AM_9
 48
0.0270874896206742
100
AcDbLine
 10
-0.7500000000000001
 20
-3.1875
 30
0.0
 11
-0.6
 21
-3.1875
 31
0.0
  0
LINE
  5
1FB
330
1D4
100
AcDbEntity
  8
AM_9
 48
0.0270874896206742
100
AcDbLine
 10
-0.5999999999999999
 20
3.148040064865757
 30
0.0
 11
-0.7499999999999997
 21
3.148040064865757
 31
0.0
  0
LINE
  5
1FC
330
1D4
100
AcDbEntity
  8
AM_9
 48
0.0270874896206742
100
AcDbLine
 10
-0.5999999999999999
 20
2.87646786359886
 30
0.0
 11
-0.7499999999999998
 21
2.87646786359886
 31
0.0
  0
LINE
  5
1FD
330
1D4
100
AcDbEntity
  8
AM_9
 48
0.0270874896206742
100
AcDbLine
 10
-1.0
 20
-2.55905
 30
0.0
 11
1.625
 21
-2.55905
 31
0.0
  0
LINE
  5
1FE
330
1D4
100
AcDbEntity
  8
AM_9
 48
0.0270874896206742
100
AcDbLine
 10
1.625
 20
2.55905
 30
0.0
 11
-1.0
 21
2.55905
 31
0.0
  0
LINE
  5
1FF
330
1D4
100
AcDbEntity
  8
AM_9
 48
0.0270874896206742
100
AcDbLine
 10
-0.5999999999999999
 20
-2.861831057179975
 30
0.0
 11
-0.5999999999999999
 21
-3.519833459837581
 31
0.0
  0
LINE
  5
200
330
1D4
100
AcDbEntity
  8
AM_9
 48
0.0270874896206742
100
AcDbLine
 10
-0.5999999999999999
 20
-3.470162331818499
 30
0.0
 11
-0.7499999999999998
 21
-3.470162331818499
 31
0.0
  0
LINE
  5
201
330
1D4
100
AcDbEntity
  8
AM_9
 48
0.0270874896206742
100
AcDbLine
 10
-0.5999999999999999
 20
3.470162331818498
 30
0.0
 11
-0.7499999999999998
 21
3.470162331818498
 31
0.0
  0
LINE
  5
202
330
1D4
100
AcDbEntity
  8
AM_9
 48
0.0270874896206742
100
AcDbLine
 10
-0.5999999999999999
 20
3.519833459837577
 30
0.0
 11
-0.5999999999999999
 21
2.861831057179983
 31
0.0
  0
LINE
  5
203
330
1D4
100
AcDbEntity
  8
AM_9
 48
0.0270874896206742
100
AcDbLine
 10
-0.7499999999999998
 20
2.339150429449553
 30
0.0
 11
0.0000000000000002
 21
2.339150429449553
 31
0.0
  0
LINE
  5
204
330
1D4
100
AcDbEntity
  8
AM_9
 48
0.0270874896206742
100
AcDbLine
 10
0.0000000000000002
 20
2.964150429449553
 30
0.0
 11
-0.7499999999999998
 21
2.964150429449553
 31
0.0
  0
LINE
  5
205
330
1D4
100
AcDbEntity
  8
AM_9
 48
0.0270874896206742
100
AcDbLine
 10
-0.7499999999999998
 20
-2.964150429449553
 30
0.0
 11
0.0000000000000002
 21
-2.964150429449553
 31
0.0
  0
LINE
  5
206
330
1D4
100
AcDbEntity
  8
AM_9
 48
0.0270874896206742
100
AcDbLine
 10
0.0000000000000002
 20
-2.339150429449553
 30
0.0
 11
-0.7499999999999998
 21
-2.339150429449553
 31
0.0
  0
LINE
  5
207
330
1D4
100
AcDbEntity
  8
AM_9
 48
0.0270874896206742
100
AcDbLine
 10
-0.0168999999999995
 20
0.2956
 30
0.0
 11
-0.5831000000000001
 21
0.2956
 31
0.0
  0
LINE
  5
208
330
1D4
100
AcDbEntity
  8
AM_9
 48
0.0270874896206742
100
AcDbLine
 10
-0.5831000000000001
 20
-0.2956
 30
0.0
 11
-0.0168999999999995
 21
-0.2956
 31
0.0
  0
LINE
  5
209
330
1D4
100
AcDbEntity
  8
AM_9
 48
0.0270874896206742
100
AcDbLine
 10
-0.5831000000000001
 20
-0.2956
 30
0.0
 11
-0.5831000000000001
 21
0.2956
 31
0.0
  0
LINE
  5
20A
330
1D4
100
AcDbEntity
  8
AM_9
 48
0.0270874896206742
100
AcDbLine
 10
-0.5831000000000001
 20
0.2956
 30
0.0
 11
-0.5999999999999998
 21
0.3125
 31
0.0
  0
LINE
  5
20B
330
1D4
100
AcDbEntity
  8
AM_9
 48
0.0270874896206742
100
AcDbLine
 10
-0.5999999999999998
 20
-0.3125
 30
0.0
 11
-0.5831000000000001
 21
-0.2956
 31
0.0
  0
LINE
  5
20C
330
1D4
100
AcDbEntity
  8
AM_9
 48
0.0270874896206742
100
AcDbLine
 10
-0.0168999999999995
 20
-0.2956
 30
0.0
 11
-0.0168999999999995
 21
0.2956
 31
0.0
  0
LINE
  5
20D
330
1D4
100
AcDbEntity
  8
AM_9
 48
0.0270874896206742
100
AcDbLine
 10
-0.0168999999999995
 20
-0.2956
 30
0.0
 11
0.0000000000000002
 21
-0.3125
 31
0.0
  0
LINE
  5
20E
330
1D4
100
AcDbEntity
  8
AM_9
 48
0.0270874896206742
100
AcDbLine
 10
0.0000000000000002
 20
0.3125
 30
0.0
 11
-0.0168999999999995
 21
0.2956
 31
0.0
  0
LINE
  5
20F
330
1D4
100
AcDbEntity
  8
AM_5
 48
0.0270874896206742
100
AcDbLine
 10
-0.0000000000000002
 20
-0.3125
 30
0.0
 11
-0.6000000000000002
 21
-0.3125
 31
0.0
  0
LINE
  5
210
330
1D4
100
AcDbEntity
  8
AM_5
 48
0.0270874896206742
100
AcDbLine
 10
-0.0000000000000002
 20
0.3125
 30
0.0
 11
-0.6000000000000002
 21
0.3125
 31
0.0
  0
LINE
  5
211
330
1D4
100
AcDbEntity
  8
AM_7
 48
0.0270874896206742
100
AcDbLine
 10
0.0393749999999999
 20
2.651650429449553
 30
0.0
 11
-0.8268750000000004
 21
2.651650429449553
 31
0.0
  0
LINE
  5
212
330
1D4
100
AcDbEntity
  8
AM_7
 48
0.0270874896206742
100
AcDbLine
 10
0.0393749999999999
 20
-2.651650429449553
 30
0.0
 11
-0.8268750000000004
 21
-2.651650429449553
 31
0.0
  0
LINE
  5
213
330
1D4
100
AcDbEntity
  8
AM_7
 48
0.0270874896206742
100
AcDbLine
 10
2.145
 20
0.0
 30
0.0
 11
-2.145
 21
0.0
 31
0.0
  0
LINE
  5
214
330
1D4
100
AcDbEntity
  8
AM_0
 48
0.0270874896206742
100
AcDbLine
 10
-0.6000000000000003
 20
3.878588272219981
 30
0.0
 11
-0.999
 21
3.1875
 31
0.0
  0
LINE
  5
215
330
1D4
100
AcDbEntity
  8
AM_0
 48
0.0270874896206742
100
AcDbLine
 10
-0.999
 20
3.1875
 30
0.0
 11
-0.999
 21
3.107481409707562
 31
0.0
  0
LINE
  5
216
330
1D4
100
AcDbEntity
  8
AM_0
 48
0.0270874896206742
100
AcDbLine
 10
-0.95
 20
-3.1875
 30
0.0
 11
-0.7500000000000001
 21
-3.1875
 31
0.0
  0
LINE
  5
217
330
1D4
100
AcDbEntity
  8
AM_0
 48
0.0270874896206742
100
AcDbLine
 10
-0.7499999999999997
 20
3.148040064865757
 30
0.0
 11
-0.9500000000000003
 21
3.148040064865758
 31
0.0
  0
LINE
  5
218
330
1D4
100
AcDbEntity
  8
AM_4
 48
0.0270874896206742
100
AcDbLine
 10
-0.9500000000000001
 20
-2.600341386245905
 30
0.0
 11
-0.7499999999999998
 21
-2.600341386245905
 31
0.0
  0
LINE
  5
219
330
1D4
100
AcDbEntity
  8
AM_4
 48
0.0270874896206742
100
AcDbLine
 10
-0.9500000000000001
 20
2.600341386245903
 30
0.0
 11
-0.7499999999999998
 21
2.600341386245903
 31
0.0
  0
LWPOLYLINE
  5
21A
330
1D4
100
AcDbEntity
  8
AM_0
 48
0.0270874896206742
100
AcDbPolyline
 90
        7
 70
     0
 43
0.0
 10
-0.9983547421118982
 20
-2.508836724788665
 10
-0.9938588797690354
 20
-2.52717118311562
 10
-0.9872336481713438
 20
-2.544626633173436
 10
-0.9756198794445509
 20
-2.56677579077514
 10
-0.9621255971274296
 20
-2.586286612726953
 10
-0.9502457007353156
 20
-2.600083276372376
 10
-0.9500000000000001
 20
-2.600341386245899
  0
LINE
  5
21B
330
1D4
100
AcDbEntity
  8
AM_4
 48
0.0270874896206742
100
AcDbLine
 10
-0.9500000000000001
 20
-2.600341386245905
 30
0.0
 11
-0.9500000000000003
 21
-3.1875
 31
0.0
  0
ARC
  5
21C
330
1D4
100
AcDbEntity
  8
AM_0
 48
0.0270874896206742
100
AcDbCircle
 10
-0.9500000000000005
 20
-3.137500000000001
 30
0.0
 40
0.0499999999999995
100
AcDbArc
 50
179.9999999999995
 51
270.0000000000002
  0
LWPOLYLINE
  5
21D
330
1D4
100
AcDbEntity
  8
AM_0
 48
0.0270874896206742
100
AcDbPolyline
 90
        7
 70
     0
 43
0.0
 10
-0.9500000000000001
 20
2.600341386245903
 10
-0.9502457007351431
 20
2.600083276372324
 10
-0.9658788022115974
 20
2.581331889078191
 10
-0.9808190234653146
 20
2.557705759063346
 10
-0.9894041313225623
 20
2.539511647969465
 10
-0.996195345632443
 20
2.518966249770708
 10
-0.9983547421118982
 20
2.508836724788665
  0
LINE
  5
21E
330
1D4
100
AcDbEntity
  8
AM_4
 48
0.0270874896206742
100
AcDbLine
 10
-0.9500000000000003
 20
3.148040064865758
 30
0.0
 11
-0.9500000000000001
 21
2.600341386245903
 31
0.0
  0
LWPOLYLINE
  5
21F
330
1D4
100
AcDbEntity
  8
AM_0
 48
0.0270874896206742
100
AcDbPolyline
 90
        6
 70
     0
 43
0.0
 10
-0.999
 20
3.107481409707562
 10
-0.9940218703207041
 20
3.121415828630471
 10
-0.9835186811274775
 20
3.134978898055561
 10
-0.9692309712233862
 20
3.144145555827752
 10
-0.9529028823033401
 20
3.147954669289295
 10
-0.9500000000000003
 20
3.148040064865758
  0
LINE
  5
220
330
1D4
100
AcDbEntity
  8
AM_0
 48
0.0270874896206742
100
AcDbLine
 10
-1.0
 20
3.1375
 30
0.0
 11
-1.0
 21
-3.1375
 31
0.0
  0
ARC
  5
221
330
1D4
100
AcDbEntity
  8
AM_0
 48
0.0270874896206742
100
AcDbCircle
 10
-0.9499999999999861
 20
3.137499999999999
 30
0.0
 40
0.0500000000000138
100
AcDbArc
 50
168.5216590454689
 51
179.999999999999
  0
LINE
  5
222
330
1D4
100
AcDbEntity
  8
AM_0
 48
0.0270874896206742
100
AcDbLine
 10
-0.9983547421118982
 20
-2.508836724788665
 30
0.0
 11
-0.9999999999999999
 21
-2.489062246050819
 31
0.0
  0
LINE
  5
223
330
1D4
100
AcDbEntity
  8
AM_4
 48
0.0270874896206742
100
AcDbLine
 10
-0.9983547421118982
 20
-2.508836724788665
 30
0.0
 11
-0.7499999999999998
 21
-2.508836724788665
 31
0.0
  0
LINE
  5
224
330
1D4
100
AcDbEntity
  8
AM_4
 48
0.0270874896206742
100
AcDbLine
 10
-0.9983547421118982
 20
2.508836724788665
 30
0.0
 11
-0.7499999999999998
 21
2.508836724788665
 31
0.0
  0
LWPOLYLINE
  5
225
330
1D4
100
AcDbEntity
  8
AM_0
 48
0.0270874896206742
100
AcDbPolyline
 90
        3
 70
     0
 43
0.0
 10
-0.9999999999999999
 20
2.48906224605082
 10
-0.9998530118762999
 20
2.495083724336954
 10
-0.9983547421118982
 20
2.508836724788665
  0
LINE
  5
226
330
1D4
100
AcDbEntity
  8
AM_0
 48
0.0270874896206742
100
AcDbLine
 10
-0.7499999999999998
 20
-3.526677317978189
 30
0.0
 11
-0.5999999999999999
 21
-3.526677317978189
 31
0.0
  0
LINE
  5
227
330
1D4
100
AcDbEntity
  8
AM_0
 48
0.0270874896206742
100
AcDbLine
 10
-0.7499999999999998
 20
-3.526677317978189
 30
0.0
 11
-0.7499999999999998
 21
-1.373349511116166
 31
0.0
  0
LINE
  5
228
330
1D4
100
AcDbEntity
  8
AM_0
 48
0.0270874896206742
100
AcDbLine
 10
-0.7499999999999998
 20
1.373349457327668
 30
0.0
 11
-0.7499999999999998
 21
3.526677317978187
 31
0.0
  0
LINE
  5
229
330
1D4
100
AcDbEntity
  8
AM_0
 48
0.0270874896206742
100
AcDbLine
 10
-0.5999999999999999
 20
3.526677317978187
 30
0.0
 11
-0.7499999999999998
 21
3.526677317978187
 31
0.0
  0
LINE
  5
22A
330
1D4
100
AcDbEntity
  8
AM_4
 48
0.0270874896206742
100
AcDbLine
 10
-0.9983547446043766
 20
-1.905158636558175
 30
0.0
 11
-0.7499999999999998
 21
-1.905158636558175
 31
0.0
  0
LINE
  5
22B
330
1D4
100
AcDbEntity
  8
AM_4
 48
0.0270874896206742
100
AcDbLine
 10
-0.9983547421118982
 20
1.905158633128471
 30
0.0
 11
-0.7499999999999998
 21
1.905158633128471
 31
0.0
  0
LINE
  5
22C
330
1D4
100
AcDbEntity
  8
AM_0
 48
0.0270874896206742
100
AcDbLine
 10
1.625
 20
2.95019233904435
 30
0.0
 11
1.625
 21
-2.95019233904435
 31
0.0
  0
ARC
  5
22D
330
1D4
100
AcDbEntity
  8
AM_0
 48
0.0270874896206742
100
AcDbCircle
 10
1.55
 20
-2.95019233904435
 30
0.0
 40
0.075
100
AcDbArc
 50
271.9999999999998
 51
0.0
  0
ARC
  5
22E
330
1D4
100
AcDbEntity
  8
AM_0
 48
0.0270874896206742
100
AcDbCircle
 10
1.55
 20
2.95019233904435
 30
0.0
 40
0.0749999999999997
100
AcDbArc
 50
0.0
 51
88.00000000000018
  0
LINE
  5
22F
330
1D4
100
AcDbEntity
  8
AM_0
 48
0.0270874896206742
100
AcDbLine
 10
1.552617462252688
 20
3.025146651070782
 30
0.0
 11
1.322382537747312
 21
3.033186631798384
 31
0.0
  0
LINE
  5
230
330
1D4
100
AcDbEntity
  8
AM_0
 48
0.0270874896206742
100
AcDbLine
 10
1.322382537747312
 20
-3.033186631798384
 30
0.0
 11
1.552617462252688
 21
-3.025146651070782
 31
0.0
  0
LINE
  5
231
330
1D4
100
AcDbEntity
  8
AM_4
 48
0.0270874896206742
100
AcDbLine
 10
1.552617462252688
 20
3.025146651070782
 30
0.0
 11
1.552617462252688
 21
-3.025146651070782
 31
0.0
  0
ARC
  5
232
330
1D4
100
AcDbEntity
  8
AM_0
 48
0.0270874896206742
100
AcDbCircle
 10
1.325000000000001
 20
-3.108140943824817
 30
0.0
 40
0.0750000000000014
100
AcDbArc
 50
92.00000000000097
 51
179.9999999999994
  0
ARC
  5
233
330
1D4
100
AcDbEntity
  8
AM_0
 48
0.0270874896206742
100
AcDbCircle
 10
1.325000000000001
 20
3.108140943824817
 30
0.0
 40
0.0750000000000013
100
AcDbArc
 50
180.0000000000007
 51
267.999999999999
  0
LINE
  5
234
330
1D4
100
AcDbEntity
  8
AM_4
 48
0.0270874896206742
100
AcDbLine
 10
1.322382537747312
 20
3.033186631798384
 30
0.0
 11
1.322382537747312
 21
-3.033186631798384
 31
0.0
  0
LINE
  5
235
330
1D4
100
AcDbEntity
  8
AM_4
 48
0.0270874896206742
100
AcDbLine
 10
-0.5999999999999998
 20
1.373349457327668
 30
0.0
 11
-0.7499999999999998
 21
1.373349457327668
 31
0.0
  0
LINE
  5
236
330
1D4
100
AcDbEntity
  8
AM_4
 48
0.0270874896206742
100
AcDbLine
 10
-0.9500000000000001
 20
1.843469805821821
 30
0.0
 11
-0.7499999999999998
 21
1.843469805821821
 31
0.0
  0
LINE
  5
237
330
1D4
100
AcDbEntity
  8
AM_4
 48
0.0270874896206742
100
AcDbLine
 10
-0.9500000000000001
 20
-1.843469817090984
 30
0.0
 11
-0.7499999999999998
 21
-1.843469817090984
 31
0.0
  0
LINE
  5
238
330
1D4
100
AcDbEntity
  8
AM_4
 48
0.0270874896206742
100
AcDbLine
 10
-0.5999999999999998
 20
-1.373349511116166
 30
0.0
 11
-0.7499999999999998
 21
-1.373349511116166
 31
0.0
  0
LINE
  5
239
330
1D4
100
AcDbEntity
  8
AM_0
 48
0.0270874896206742
100
AcDbLine
 10
0.0
 20
-3.1875
 30
0.0
 11
1.25
 21
-3.1875
 31
0.0
  0
LINE
  5
23A
330
1D4
100
AcDbEntity
  8
AM_0
 48
0.0270874896206742
100
AcDbLine
 10
1.25
 20
3.1875
 30
0.0
 11
0.0
 21
3.1875
 31
0.0
  0
LINE
  5
23B
330
1D4
100
AcDbEntity
  8
AM_0
 48
0.0270874896206742
100
AcDbLine
 10
1.25
 20
3.1875
 30
0.0
 11
1.25
 21
-3.1875
 31
0.0
  0
LWPOLYLINE
  5
23C
330
1D4
100
AcDbEntity
  8
AM_0
 48
0.0270874896206742
100
AcDbPolyline
 90
        7
 70
     0
 43
0.0
 10
-0.9983547421118982
 20
1.905158633128471
 10
-0.993858879769035
 20
1.899615900143184
 10
-0.9872336481713433
 20
1.891904125010476
 10
-0.9756198794445501
 20
1.877989404454393
 10
-0.9621255971274305
 20
1.860581856206526
 10
-0.9502457007353399
 20
1.843832789976222
 10
-0.9500000000000001
 20
1.843469805821822
  0
LINE
  5
23D
330
1D4
100
AcDbEntity
  8
AM_0
 48
0.0270874896206742
100
AcDbLine
 10
-0.9983547421118982
 20
1.905158633128471
 30
0.0
 11
-0.9999999999999999
 21
1.910098265871276
 31
0.0
  0
LWPOLYLINE
  5
23E
330
1D4
100
AcDbEntity
  8
AM_0
 48
0.0270874896206742
100
AcDbPolyline
 90
        3
 70
     0
 43
0.0
 10
-0.9999999999999999
 20
-1.910098265871275
 10
-0.9998530118763
 20
-1.908538233752585
 10
-0.9983547446043766
 20
-1.905158636558175
  0
LWPOLYLINE
  5
23F
330
1D4
100
AcDbEntity
  8
AM_0
 48
0.0270874896206742
100
AcDbPolyline
 90
        7
 70
     0
 43
0.0
 10
-0.9500000000000001
 20
-1.843469817090984
 10
-0.9502457007351871
 20
-1.843832789976289
 10
-0.9658788022120218
 20
-1.865579758478134
 10
-0.9808190234660661
 20
-1.884319412977632
 10
-0.9894041307337975
 20
-1.894431068490659
 10
-0.99619534479364
 20
-1.90240044526125
 10
-0.9983547446043766
 20
-1.905158636558175
  0
LINE
  5
240
330
1D4
100
AcDbEntity
  8
AM_4
 48
0.0270874896206742
100
AcDbLine
 10
-0.9500000000000001
 20
1.843469805821821
 30
0.0
 11
-0.9500000000000001
 21
-1.843469817090984
 31
0.0
  0
LINE
  5
241
330
1D4
100
AcDbEntity
  8
AM_4
 48
0.0270874896206742
100
AcDbLine
 10
-0.5999999999999998
 20
-1.524014188856643
 30
0.0
 11
-0.7499999999999998
 21
-1.524014188856643
 31
0.0
  0
LINE
  5
242
330
1D4
100
AcDbEntity
  8
AM_4
 48
0.0270874896206742
100
AcDbLine
 10
-0.5999999999999998
 20
1.524014188856642
 30
0.0
 11
-0.7499999999999998
 21
1.524014188856642
 31
0.0
  0
LINE
  5
243
330
1D4
100
AcDbEntity
  8
AM_4
 48
0.0270874896206742
100
AcDbLine
 10
-0.5999999999999998
 20
-2.354059639049718
 30
0.0
 11
-0.7499999999999997
 21
-2.354059639049718
 31
0.0
  0
LINE
  5
244
330
1D4
100
AcDbEntity
  8
AM_4
 48
0.0270874896206742
100
AcDbLine
 10
-0.5999999999999998
 20
2.354059639049719
 30
0.0
 11
-0.7499999999999997
 21
2.354059639049719
 31
0.0
  0
LINE
  5
245
330
1D4
100
AcDbEntity
  8
AM_0
 48
0.0270874896206742
100
AcDbLine
 10
-0.5999999999999998
 20
-2.598345130079496
 30
0.0
 11
-0.5999999999999998
 21
2.598345130079491
 31
0.0
  0
LINE
  5
246
330
1D4
100
AcDbEntity
  8
AM_0
 48
0.0270874896206742
100
AcDbLine
 10
-0.5999999999999999
 20
3.519833459837577
 30
0.0
 11
-0.5999999999999999
 21
4.375
 31
0.0
  0
LINE
  5
247
330
1D4
100
AcDbEntity
  8
AM_0
 48
0.0270874896206742
100
AcDbLine
 10
-0.7499999999999998
 20
3.519833459837577
 30
0.0
 11
-0.5999999999999999
 21
3.519833459837577
 31
0.0
  0
LINE
  5
248
330
1D4
100
AcDbEntity
  8
AM_0
 48
0.0270874896206742
100
AcDbLine
 10
-0.5999999999999998
 20
2.598345130079491
 30
0.0
 11
-0.7499999999999997
 21
2.598345130079491
 31
0.0
  0
LINE
  5
249
330
1D4
100
AcDbEntity
  8
AM_0
 48
0.0270874896206742
100
AcDbLine
 10
-0.7499999999999997
 20
-2.598345130079496
 30
0.0
 11
-0.5999999999999998
 21
-2.598345130079496
 31
0.0
  0
LINE
  5
24A
330
1D4
100
AcDbEntity
  8
AM_0
 48
0.0270874896206742
100
AcDbLine
 10
-0.5999999999999999
 20
-3.519833459837581
 30
0.0
 11
-0.7499999999999998
 21
-3.519833459837581
 31
0.0
  0
LINE
  5
24B
330
1D4
100
AcDbEntity
  8
AM_0
 48
0.0270874896206742
100
AcDbLine
 10
-0.5999999999999999
 20
-4.375
 30
0.0
 11
0.0
 21
-4.375
 31
0.0
  0
LINE
  5
24C
330
1D4
100
AcDbEntity
  8
AM_0
 48
0.0270874896206742
100
AcDbLine
 10
0.0
 20
4.375
 30
0.0
 11
-0.5999999999999999
 21
4.375
 31
0.0
  0
LINE
  5
24D
330
1D4
100
AcDbEntity
  8
AM_0
 48
0.0270874896206742
100
AcDbLine
 10
0.0
 20
4.375
 30
0.0
 11
0.0
 21
-4.375
 31
0.0
  0
LINE
  5
24E
330
1D4
100
AcDbEntity
  8
AM_0
 48
0.0270874896206742
100
AcDbLine
 10
-0.5999999999999999
 20
-4.375
 30
0.0
 11
-0.5999999999999999
 21
-3.519833459837581
 31
0.0
  0
ENDBLK
  5
1D7
330
1D4
100
AcDbEntity
  8
0
100
AcDbBlockEnd
  0
ENDSEC
  0
SECTION
  2
ENTITIES
  0
ATTDEF
  5
6F
330
1F
100
AcDbEntity
  8
AM_6
100
AcDbText
 10
7.145
 20
4.375
 30
0.0
 40
0.5
  1
Imperial - IP Piloted Flange Contact Seal
100
AcDbAttributeDefinition
  3

  2
NN
 70
     8
280
     0
  0
ATTDEF
  5
70
330
1F
100
AcDbEntity
  8
AM_6
100
AcDbText
 10
7.145
 20
3.875
 30
0.0
 40
0.5
  1
Imperial Piloted Flange Bearings
100
AcDbAttributeDefinition
  3

  2
NT
 70
     8
280
     0
  0
ATTDEF
  5
71
330
1F
100
AcDbEntity
  8
AM_6
100
AcDbText
 10
7.145
 20
3.375
 30
0.0
 40
0.5
  1
069857
100
AcDbAttributeDefinition
  3

  2
NB
 70
     8
280
     0
  0
ATTDEF
  5
72
330
1F
100
AcDbEntity
  8
AM_6
100
AcDbText
 10
7.145
 20
2.875
 30
0.0
 40
0.5
  1
$PN.
100
AcDbAttributeDefinition
  3

  2
NBSYN
 70
     8
280
     0
  0
ATTDEF
  5
73
330
1F
100
AcDbEntity
  8
AM_6
100
AcDbText
 10
7.145
 20
2.375
 30
0.0
 40
0.5
  1
069857
100
AcDbAttributeDefinition
  3

  2
LINA
 70
     8
280
     0
  0
ATTDEF
  5
74
330
1F
100
AcDbEntity
  8
AM_6
100
AcDbText
 10
7.145
 20
1.875
 30
0.0
 40
0.5
  1
3
100
AcDbAttributeDefinition
  3

  2
SS
 70
     8
280
     0
  0
ATTDEF
  5
75
330
1F
100
AcDbEntity
  8
AM_6
100
AcDbText
 10
7.145
 20
1.375
 30
0.0
 40
0.5
  1
069857
100
AcDbAttributeDefinition
  3

  2
PN
 70
     8
280
     0
  0
ATTDEF
  5
76
330
1F
100
AcDbEntity
  8
AM_6
100
AcDbText
 10
7.145
 20
0.875
 30
0.0
 40
0.5
  1
FC-IP-300RE
100
AcDbAttributeDefinition
  3

  2
DESCRIPTION
 70
     8
280
     0
  0
ATTDEF
  5
77
330
1F
100
AcDbEntity
  8
AM_6
100
AcDbText
 10
7.145
 20
0.375
 30
0.0
 40
0.5
  1
Expansion Type
100
AcDbAttributeDefinition
  3

  2
EF
 70
     8
280
     0
  0
ATTDEF
  5
78
330
1F
100
AcDbEntity
  8
AM_6
100
AcDbText
 10
7.145
 20
-0.125
 30
0.0
 40
0.5
  1
Contact  Seal
100
AcDbAttributeDefinition
  3

  2
ST
 70
     8
280
     0
  0
ATTDEF
  5
79
330
1F
100
AcDbEntity
  8
AM_6
100
AcDbText
 10
7.145
 20
-0.625
 30
0.0
 40
0.5
  1
3-1/2
100
AcDbAttributeDefinition
  3

  2
A
 70
     8
280
     0
  0
ATTDEF
  5
7A
330
1F
100
AcDbEntity
  8
AM_6
100
AcDbText
 10
7.145
 20
-1.125
 30
0.0
 40
0.5
  1
8-3/4
100
AcDbAttributeDefinition
  3

  2
B
 70
     8
280
     0
  0
ATTDEF
  5
7B
330
1F
100
AcDbEntity
  8
AM_6
100
AcDbText
 10
7.145
 20
-1.625
 30
0.0
 40
0.5
  1
2-5/8
100
AcDbAttributeDefinition
  3

  2
C
 70
     8
280
     0
  0
ATTDEF
  5
7C
330
1F
100
AcDbEntity
  8
AM_6
100
AcDbText
 10
7.145
 20
-2.125
 30
0.0
 40
0.5
  1
5-19/64
100
AcDbAttributeDefinition
  3

  2
D
 70
     8
280
     0
  0
ATTDEF
  5
7D
330
1F
100
AcDbEntity
  8
AM_6
100
AcDbText
 10
7.145
 20
-2.625
 30
0.0
 40
0.5
  1
7-1/2
100
AcDbAttributeDefinition
  3

  2
DD
 70
     8
280
     0
  0
ATTDEF
  5
7E
330
1F
100
AcDbEntity
  8
AM_6
100
AcDbText
 10
7.145
 20
-3.125
 30
0.0
 40
0.5
  1
1-1/4
100
AcDbAttributeDefinition
  3

  2
E
 70
     8
280
     0
  0
ATTDEF
  5
7F
330
1F
100
AcDbEntity
  8
AM_6
100
AcDbText
 10
7.145
 20
-3.625
 30
0.0
 40
0.5
  1
5/8
100
AcDbAttributeDefinition
  3

  2
F
 70
     8
280
     0
  0
ATTDEF
  5
80
330
1F
100
AcDbEntity
  8
AM_6
100
AcDbText
 10
7.145
 20
-4.125
 30
0.0
 40
0.5
  1
1-15/16
100
AcDbAttributeDefinition
  3

  2
G
 70
     8
280
     0
  0
ATTDEF
  5
81
330
1F
100
AcDbEntity
  8
AM_6
100
AcDbText
 10
7.145
 20
-4.625
 30
0.0
 40
0.5
  1
3/4
100
AcDbAttributeDefinition
  3

  2
H
 70
     8
280
     0
  0
ATTDEF
  5
82
330
1F
100
AcDbEntity
  8
AM_6
100
AcDbText
 10
7.145
 20
-5.125
 30
0.0
 40
0.5
  1
6.375
100
AcDbAttributeDefinition
  3

  2
K
 70
     8
280
     0
  0
ATTDEF
  5
83
330
1F
100
AcDbEntity
  8
AM_6
100
AcDbText
 10
7.145
 20
-5.625
 30
0.0
 40
0.5
  1
4-9/32
100
AcDbAttributeDefinition
  3

  2
L
 70
     8
280
     0
  0
ATTDEF
  5
84
330
1F
100
AcDbEntity
  8
AM_6
100
AcDbText
 10
7.145
 20
-6.125
 30
0.0
 40
0.5
  1
5/8-11
100
AcDbAttributeDefinition
  3

  2
M
 70
     8
280
     0
  0
ATTDEF
  5
85
330
1F
100
AcDbEntity
  8
AM_6
100
AcDbText
 10
7.145
 20
-6.625
 30
0.0
 40
0.5
  1
3-9/16
100
AcDbAttributeDefinition
  3

  2
N
 70
     8
280
     0
  0
ATTDEF
  5
86
330
1F
100
AcDbEntity
  8
AM_6
100
AcDbText
 10
7.145
 20
-7.125
 30
0.0
 40
0.5
  1
1-9/16
100
AcDbAttributeDefinition
  3

  2
P
 70
     8
280
     0
  0
ATTDEF
  5
87
330
1F
100
AcDbEntity
  8
AM_6
100
AcDbText
 10
7.145
 20
-7.625
 30
0.0
 40
0.5
  1
1-5/8
100
AcDbAttributeDefinition
  3

  2
Q
 70
     8
280
     0
  0
ATTDEF
  5
88
330
1F
100
AcDbEntity
  8
AM_6
100
AcDbText
 10
7.145
 20
-8.125
 30
0.0
 40
0.5
  1
1/4
100
AcDbAttributeDefinition
  3

  2
X
 70
     8
280
     0
  0
ATTDEF
  5
89
330
1F
100
AcDbEntity
  8
AM_6
100
AcDbText
 10
7.145
 20
-8.625
 30
0.0
 40
0.5
  1
0.025
100
AcDbAttributeDefinition
  3

  2
Y
 70
     8
280
     0
  0
ATTDEF
  5
8A
330
1F
100
AcDbEntity
  8
AM_6
100
AcDbText
 10
7.145
 20
-9.125
 30
0.0
 40
0.5
  1
3-15/32
100
AcDbAttributeDefinition
  3

  2
Z
 70
     8
280
     0
  0
ATTDEF
  5
8B
330
1F
100
AcDbEntity
  8
AM_6
100
AcDbText
 10
7.145
 20
-9.625
 30
0.0
 40
0.5
  1
baldor
100
AcDbAttributeDefinition
  3

  2
COMPANY
 70
     8
280
     0
  0
INSERT
  5
8D
330
1F
100
AcDbEntity
  8
0
100
AcDbBlockReference
  2
1_405015E_Inch_0_in_069857_2
 10
0.0
 20
0.0
 30
0.0
  0
INSERT
  5
C9
330
1F
100
AcDbEntity
  8
0
100
AcDbBlockReference
  2
2_ASME_B18_3_10_1_0_in_069857_2
 10
0.0
 20
0.0
 30
0.0
  0
INSERT
  5
EE
330
1F
100
AcDbEntity
  8
0
100
AcDbBlockReference
  2
3_ASME_B18_3_10_2_0_in_069857_2
 10
0.0
 20
0.0
 30
0.0
  0
INSERT
  5
112
330
1F
100
AcDbEntity
  8
0
100
AcDbBlockReference
  2
4_070900LW_0_in_069857_2
 10
0.0
 20
0.0
 30
0.0
  0
INSERT
  5
148
330
1F
100
AcDbEntity
  8
0
100
AcDbBlockReference
  2
5_070900I_0_in_069857_2
 10
0.0
 20
0.0
 30
0.0
  0
INSERT
  5
1D5
330
1F
100
AcDbEntity
  8
0
100
AcDbBlockReference
  2
6_069857H_0_in_069857_2
 10
0.0
 20
0.0
 30
0.0
  0
POINT
  5
250
330
1F
100
AcDbEntity
  8
ConnectionPoints
100
AcDbPoint
 10
-1.484333333333334
 20
-1.903645833333333
 30
0.0000000000000001
  0
POINT
  5
251
330
1F
100
AcDbEntity
  8
ConnectionPoints
100
AcDbPoint
 10
-1.484333333333334
 20
1.903645833333333
 30
0.0000000000000001
  0
POINT
  5
252
330
1F
100
AcDbEntity
  8
ConnectionPoints
100
AcDbPoint
 10
-1.414333333333333
 20
0.0
 30
0.0000000000000001
  0
POINT
  5
253
330
1F
100
AcDbEntity
  8
ConnectionPoints
100
AcDbPoint
 10
-1.6875
 20
0.0
 30
0.0000000000000001
  0
POINT
  5
254
330
1F
100
AcDbEntity
  8
ConnectionPoints
100
AcDbPoint
 10
-1.613333333333333
 20
0.0
 30
0.0000000000000001
  0
POINT
  5
255
330
1F
100
AcDbEntity
  8
ConnectionPoints
100
AcDbPoint
 10
-1.414333333333333
 20
1.903645833333333
 30
0.0000000000000001
  0
POINT
  5
256
330
1F
100
AcDbEntity
  8
ConnectionPoints
100
AcDbPoint
 10
-1.5865
 20
1.903645833333333
 30
0.0000000000000001
  0
POINT
  5
257
330
1F
100
AcDbEntity
  8
ConnectionPoints
100
AcDbPoint
 10
-1.414333333333333
 20
-1.903645833333333
 30
0.0000000000000001
  0
POINT
  5
258
330
1F
100
AcDbEntity
  8
ConnectionPoints
100
AcDbPoint
 10
-1.5865
 20
-1.903645833333333
 30
0.0000000000000001
  0
POINT
  5
259
330
1F
100
AcDbEntity
  8
ConnectionPoints
100
AcDbPoint
 10
-1.414333333333333
 20
0.0
 30
0.0000000000000001
  0
POINT
  5
25A
330
1F
100
AcDbEntity
  8
ConnectionPoints
100
AcDbPoint
 10
-0.7995000000000001
 20
3.533044136109991
 30
0.0
  0
POINT
  5
25B
330
1F
100
AcDbEntity
  8
ConnectionPoints
100
AcDbPoint
 10
-0.7163389307092458
 20
3.677083333333333
 30
0.0
  0
POINT
  5
25C
330
1F
100
AcDbEntity
  8
ConnectionPoints
100
AcDbPoint
 10
-1.6875
 20
0.0
 30
0.0000000000000001
  0
POINT
  5
25D
330
1F
100
AcDbEntity
  8
ConnectionPoints
100
AcDbPoint
 10
-1.9375
 20
0.0
 30
0.0000000000000001
  0
ENDSEC
  0
SECTION
  2
OBJECTS
  0
DICTIONARY
  5
C
330
0
100
AcDbDictionary
281
     1
  3
ACAD_DETAILVIEWSTYLE
350
265
  3
ACAD_GROUP
350
D
  3
ACAD_LAYOUT
350
1A
  3
ACAD_MATERIAL
350
43
  3
ACAD_MLEADERSTYLE
350
6B
  3
ACAD_MLINESTYLE
350
17
  3
ACAD_PLOTSETTINGS
350
19
  3
ACAD_PLOTSTYLENAME
350
E
  3
ACAD_SCALELIST
350
47
  3
ACAD_SECTIONVIEWSTYLE
350
266
  3
ACAD_TABLESTYLE
350
69
  3
ACAD_VISUALSTYLE
350
2A
  3
ACDB_RECOMPOSE_DATA
350
262
  3
AcDbVariableDictionary
350
25E
  0
SUN
  5
6D
330
29
100
AcDbSun
 90
        1
290
     0
 63
     7
421
 16777215
 40
1.0
291
     1
 91
  2455826
 92
 54000000
292
     0
 70
     2
 71
   256
280
     1
  0
DICTIONARY
  5
265
102
{ACAD_REACTORS
330
C
102
}
330
C
100
AcDbDictionary
281
     1
  0
DICTIONARY
  5
D
102
{ACAD_REACTORS
330
C
102
}
330
C
100
AcDbDictionary
281
     1
  0
DICTIONARY
  5
1A
102
{ACAD_REACTORS
330
C
102
}
330
C
100
AcDbDictionary
281
     1
  3
Layout1
350
1E
  3
Layout2
350
26
  3
Model
350
22
  0
DICTIONARY
  5
43
102
{ACAD_REACTORS
330
C
102
}
330
C
100
AcDbDictionary
281
     1
  3
ByBlock
350
45
  3
ByLayer
350
44
  3
Global
350
46
  0
DICTIONARY
  5
6B
102
{ACAD_REACTORS
330
C
102
}
330
C
100
AcDbDictionary
281
     1
  3
Standard
350
6C
  0
DICTIONARY
  5
17
102
{ACAD_REACTORS
330
C
102
}
330
C
100
AcDbDictionary
281
     1
  3
Standard
350
18
  0
DICTIONARY
  5
19
102
{ACAD_REACTORS
330
C
102
}
330
C
100
AcDbDictionary
281
     1
  0
ACDBDICTIONARYWDFLT
  5
E
102
{ACAD_REACTORS
330
C
102
}
330
C
100
AcDbDictionary
281
     1
  3
Normal
350
F
100
AcDbDictionaryWithDefault
340
F
  0
DICTIONARY
  5
47
102
{ACAD_REACTORS
330
C
102
}
330
C
100
AcDbDictionary
281
     1
  3
A0
350
48
  3
A1
350
49
  3
A2
350
4A
  3
A3
350
4B
  3
A4
350
4C
  3
A5
350
4D
  3
A6
350
4E
  3
A7
350
4F
  3
A8
350
50
  3
A9
350
51
  3
B0
350
52
  3
B1
350
53
  3
B2
350
54
  3
B3
350
55
  3
B4
350
56
  3
B5
350
57
  3
B6
350
58
  3
B7
350
59
  3
B8
350
5A
  3
B9
350
5B
  3
C0
350
5C
  3
C1
350
5D
  3
C2
350
5E
  3
C3
350
5F
  3
C4
350
60
  3
C5
350
61
  3
C6
350
62
  3
C7
350
63
  3
C8
350
64
  3
C9
350
65
  3
D0
350
66
  3
D1
350
67
  3
D2
350
68
  0
DICTIONARY
  5
266
102
{ACAD_REACTORS
330
C
102
}
330
C
100
AcDbDictionary
281
     1
  0
DICTIONARY
  5
69
102
{ACAD_REACTORS
330
C
102
}
330
C
100
AcDbDictionary
281
     1
  3
Standard
350
6A
  0
DICTIONARY
  5
2A
102
{ACAD_REACTORS
330
C
102
}
330
C
100
AcDbDictionary
281
     1
  3
2dWireframe
350
2F
  3
Basic
350
32
  3
Brighten
350
36
  3
ColorChange
350
3A
  3
Conceptual
350
34
  3
Dim
350
35
  3
EdgeColorOff
350
3D
  3
Facepattern
350
39
  3
Flat
350
2B
  3
FlatWithEdges
350
2C
  3
Gouraud
350
2D
  3
GouraudWithEdges
350
2E
  3
Hidden
350
31
  3
JitterOff
350
3B
  3
Linepattern
350
38
  3
OverhangOff
350
3C
  3
Realistic
350
33
  3
Shaded
350
42
  3
Shaded with edges
350
41
  3
Shades of Gray
350
3E
  3
Sketchy
350
3F
  3
Thicken
350
37
  3
Wireframe
350
30
  3
X-Ray
350
40
  0
XRECORD
  5
262
102
{ACAD_REACTORS
330
C
102
}
330
C
100
AcDbXrecord
280
     1
 90
        1
330
6A
  0
DICTIONARY
  5
25E
102
{ACAD_REACTORS
330
C
102
}
330
C
100
AcDbDictionary
281
     1
  3
CANNOSCALE
350
25F
  3
CMLEADERSTYLE
350
264
  3
CTABLESTYLE
350
263
  0
LAYOUT
  5
1E
102
{ACAD_REACTORS
330
1A
102
}
330
1A
100
AcDbPlotSettings
  1

  2
none_device
  4

  6

 40
0.0
 41
0.0
 42
0.0
 43
0.0
 44
0.0
 45
0.0
 46
0.0
 47
0.0
 48
0.0
 49
0.0
140
0.0
141
0.0
142
1.0
143
1.0
 70
   688
 72
     0
 73
     0
 74
     5
  7

 75
    16
 76
     0
 77
     2
 78
   300
147
1.0
148
0.0
149
0.0
100
AcDbLayout
  1
Layout1
 70
     1
 71
     1
 10
0.0
 20
0.0
 11
12.0
 21
9.0
 12
0.0
 22
0.0
 32
0.0
 14
1.000000000000000E+20
 24
1.000000000000000E+20
 34
1.000000000000000E+20
 15
-1.000000000000000E+20
 25
-1.000000000000000E+20
 35
-1.000000000000000E+20
146
0.0
 13
0.0
 23
0.0
 33
0.0
 16
1.0
 26
0.0
 36
0.0
 17
0.0
 27
1.0
 37
0.0
 76
     0
330
1B
  0
LAYOUT
  5
26
102
{ACAD_REACTORS
330
1A
102
}
330
1A
100
AcDbPlotSettings
  1

  2
none_device
  4

  6

 40
0.0
 41
0.0
 42
0.0
 43
0.0
 44
0.0
 45
0.0
 46
0.0
 47
0.0
 48
0.0
 49
0.0
140
0.0
141
0.0
142
1.0
143
1.0
 70
   688
 72
     0
 73
     0
 74
     5
  7

 75
    16
 76
     0
 77
     2
 78
   300
147
1.0
148
0.0
149
0.0
100
AcDbLayout
  1
Layout2
 70
     1
 71
     2
 10
0.0
 20
0.0
 11
0.0
 21
0.0
 12
0.0
 22
0.0
 32
0.0
 14
0.0
 24
0.0
 34
0.0
 15
0.0
 25
0.0
 35
0.0
146
0.0
 13
0.0
 23
0.0
 33
0.0
 16
1.0
 26
0.0
 36
0.0
 17
0.0
 27
1.0
 37
0.0
 76
     0
330
23
  0
LAYOUT
  5
22
102
{ACAD_REACTORS
330
1A
102
}
330
1A
100
AcDbPlotSettings
  1

  2
none_device
  4
Letter_(8.50_x_11.00_Inches)
  6

 40
6.35
 41
6.35
 42
6.35000508
 43
6.35000508
 44
215.9
 45
279.4
 46
0.0
 47
0.0
 48
0.0
 49
0.0
140
0.0
141
0.0
142
1.0
143
1.0
 70
  1712
 72
     0
 73
     0
 74
     0
  7

 75
     0
 76
     0
 77
     2
 78
   300
147
1.0
148
0.0
149
0.0
100
AcDbLayout
  1
Model
 70
     1
 71
     0
 10
0.0
 20
0.0
 11
12.0
 21
9.0
 12
0.0
 22
0.0
 32
0.0
 14
1.000000000000000E+20
 24
1.000000000000000E+20
 34
1.000000000000000E+20
 15
-1.000000000000000E+20
 25
-1.000000000000000E+20
 35
-1.000000000000000E+20
146
0.0
 13
0.0
 23
0.0
 33
0.0
 16
1.0
 26
0.0
 36
0.0
 17
0.0
 27
1.0
 37
0.0
 76
     0
330
1F
331
29
  0
MATERIAL
  5
45
102
{ACAD_REACTORS
330
43
102
}
330
43
100
AcDbMaterial
  1
ByBlock
 72
     1
 94
      127
  0
MATERIAL
  5
44
102
{ACAD_REACTORS
330
43
102
}
330
43
100
AcDbMaterial
  1
ByLayer
 72
     1
 94
      127
  0
MATERIAL
  5
46
102
{ACAD_REACTORS
330
43
102
}
330
43
100
AcDbMaterial
  1
Global
 72
     1
 94
      127
  0
MLEADERSTYLE
  5
6C
102
{ACAD_REACTORS
330
6B
102
}
330
6B
100
AcDbMLeaderStyle
179
     2
170
     2
171
     1
172
     0
 90
        2
 40
0.0
 41
0.0
173
     1
 91
-1056964608
340
14
 92
       -2
290
     1
 42
0.09
291
     1
 43
0.36
  3
Standard
341
0
 44
0.18
300

342
11
174
     1
178
     6
175
     1
176
     0
 93
-1056964608
 45
0.18
292
     0
297
     0
 46
0.18
343
0
 94
-1056964608
 47
1.0
 49
1.0
140
1.0
293
     1
141
0.0
294
     1
177
     0
142
1.0
295
     0
296
     0
143
0.125
271
     0
272
     9
273
     9
298
     0
  0
MLINESTYLE
  5
18
102
{ACAD_REACTORS
330
17
102
}
330
17
100
AcDbMlineStyle
  2
Standard
 70
     0
  3

 62
   256
 51
90.0
 52
90.0
 71
     2
 49
0.5
 62
   256
  6
BYLAYER
 49
-0.5
 62
   256
  6
BYLAYER
  0
ACDBPLACEHOLDER
  5
F
102
{ACAD_REACTORS
330
E
102
}
330
E
  0
SCALE
  5
48
102
{ACAD_REACTORS
330
47
102
}
330
47
100
AcDbScale
 70
     0
300
1:1
140
1.0
141
1.0
290
     1
  0
SCALE
  5
49
102
{ACAD_REACTORS
330
47
102
}
330
47
100
AcDbScale
 70
     0
300
1:2
140
1.0
141
2.0
290
     0
  0
SCALE
  5
4A
102
{ACAD_REACTORS
330
47
102
}
330
47
100
AcDbScale
 70
     0
300
1:4
140
1.0
141
4.0
290
     0
  0
SCALE
  5
4B
102
{ACAD_REACTORS
330
47
102
}
330
47
100
AcDbScale
 70
     0
300
1:5
140
1.0
141
5.0
290
     0
  0
SCALE
  5
4C
102
{ACAD_REACTORS
330
47
102
}
330
47
100
AcDbScale
 70
     0
300
1:8
140
1.0
141
8.0
290
     0
  0
SCALE
  5
4D
102
{ACAD_REACTORS
330
47
102
}
330
47
100
AcDbScale
 70
     0
300
1:10
140
1.0
141
10.0
290
     0
  0
SCALE
  5
4E
102
{ACAD_REACTORS
330
47
102
}
330
47
100
AcDbScale
 70
     0
300
1:16
140
1.0
141
16.0
290
     0
  0
SCALE
  5
4F
102
{ACAD_REACTORS
330
47
102
}
330
47
100
AcDbScale
 70
     0
300
1:20
140
1.0
141
20.0
290
     0
  0
SCALE
  5
50
102
{ACAD_REACTORS
330
47
102
}
330
47
100
AcDbScale
 70
     0
300
1:30
140
1.0
141
30.0
290
     0
  0
SCALE
  5
51
102
{ACAD_REACTORS
330
47
102
}
330
47
100
AcDbScale
 70
     0
300
1:40
140
1.0
141
40.0
290
     0
  0
SCALE
  5
52
102
{ACAD_REACTORS
330
47
102
}
330
47
100
AcDbScale
 70
     0
300
1:50
140
1.0
141
50.0
290
     0
  0
SCALE
  5
53
102
{ACAD_REACTORS
330
47
102
}
330
47
100
AcDbScale
 70
     0
300
1:100
140
1.0
141
100.0
290
     0
  0
SCALE
  5
54
102
{ACAD_REACTORS
330
47
102
}
330
47
100
AcDbScale
 70
     0
300
2:1
140
2.0
141
1.0
290
     0
  0
SCALE
  5
55
102
{ACAD_REACTORS
330
47
102
}
330
47
100
AcDbScale
 70
     0
300
4:1
140
4.0
141
1.0
290
     0
  0
SCALE
  5
56
102
{ACAD_REACTORS
330
47
102
}
330
47
100
AcDbScale
 70
     0
300
8:1
140
8.0
141
1.0
290
     0
  0
SCALE
  5
57
102
{ACAD_REACTORS
330
47
102
}
330
47
100
AcDbScale
 70
     0
300
10:1
140
10.0
141
1.0
290
     0
  0
SCALE
  5
58
102
{ACAD_REACTORS
330
47
102
}
330
47
100
AcDbScale
 70
     0
300
100:1
140
100.0
141
1.0
290
     0
  0
SCALE
  5
59
102
{ACAD_REACTORS
330
47
102
}
330
47
100
AcDbScale
 70
     0
300
1/128" = 1'-0"
140
0.0078125
141
12.0
290
     0
  0
SCALE
  5
5A
102
{ACAD_REACTORS
330
47
102
}
330
47
100
AcDbScale
 70
     0
300
1/64" = 1'-0"
140
0.015625
141
12.0
290
     0
  0
SCALE
  5
5B
102
{ACAD_REACTORS
330
47
102
}
330
47
100
AcDbScale
 70
     0
300
1/32" = 1'-0"
140
0.03125
141
12.0
290
     0
  0
SCALE
  5
5C
102
{ACAD_REACTORS
330
47
102
}
330
47
100
AcDbScale
 70
     0
300
1/16" = 1'-0"
140
0.0625
141
12.0
290
     0
  0
SCALE
  5
5D
102
{ACAD_REACTORS
330
47
102
}
330
47
100
AcDbScale
 70
     0
300
3/32" = 1'-0"
140
0.09375
141
12.0
290
     0
  0
SCALE
  5
5E
102
{ACAD_REACTORS
330
47
102
}
330
47
100
AcDbScale
 70
     0
300
1/8" = 1'-0"
140
0.125
141
12.0
290
     0
  0
SCALE
  5
5F
102
{ACAD_REACTORS
330
47
102
}
330
47
100
AcDbScale
 70
     0
300
3/16" = 1'-0"
140
0.1875
141
12.0
290
     0
  0
SCALE
  5
60
102
{ACAD_REACTORS
330
47
102
}
330
47
100
AcDbScale
 70
     0
300
1/4" = 1'-0"
140
0.25
141
12.0
290
     0
  0
SCALE
  5
61
102
{ACAD_REACTORS
330
47
102
}
330
47
100
AcDbScale
 70
     0
300
3/8" = 1'-0"
140
0.375
141
12.0
290
     0
  0
SCALE
  5
62
102
{ACAD_REACTORS
330
47
102
}
330
47
100
AcDbScale
 70
     0
300
1/2" = 1'-0"
140
0.5
141
12.0
290
     0
  0
SCALE
  5
63
102
{ACAD_REACTORS
330
47
102
}
330
47
100
AcDbScale
 70
     0
300
3/4" = 1'-0"
140
0.75
141
12.0
290
     0
  0
SCALE
  5
64
102
{ACAD_REACTORS
330
47
102
}
330
47
100
AcDbScale
 70
     0
300
1" = 1'-0"
140
1.0
141
12.0
290
     0
  0
SCALE
  5
65
102
{ACAD_REACTORS
330
47
102
}
330
47
100
AcDbScale
 70
     0
300
1-1/2" = 1'-0"
140
1.5
141
12.0
290
     0
  0
SCALE
  5
66
102
{ACAD_REACTORS
330
47
102
}
330
47
100
AcDbScale
 70
     0
300
3" = 1'-0"
140
3.0
141
12.0
290
     0
  0
SCALE
  5
67
102
{ACAD_REACTORS
330
47
102
}
330
47
100
AcDbScale
 70
     0
300
6" = 1'-0"
140
6.0
141
12.0
290
     0
  0
SCALE
  5
68
102
{ACAD_REACTORS
330
47
102
}
330
47
100
AcDbScale
 70
     0
300
1'-0" = 1'-0"
140
12.0
141
12.0
290
     0
  0
TABLESTYLE
  5
6A
102
{ACAD_REACTORS
330
69
102
}
102
{ACAD_XDICTIONARY
360
260
102
}
330
69
100
AcDbTableStyle
  3
Standard
 70
     0
 71
     0
 40
0.06
 41
0.06
280
     0
281
     0
  7
Standard
140
0.18
170
     2
 62
     0
 63
   257
283
     0
 90
        4
 91
        0
  1

274
    -2
284
     1
 64
     0
275
    -2
285
     1
 65
     0
276
    -2
286
     1
 66
     0
277
    -2
287
     1
 67
     0
278
    -2
288
     1
 68
     0
279
    -2
289
     1
 69
     0
  7
Standard
140
0.25
170
     5
 62
     0
 63
   257
283
     0
 90
        4
 91
        0
  1

274
    -2
284
     1
 64
     0
275
    -2
285
     1
 65
     0
276
    -2
286
     1
 66
     0
277
    -2
287
     1
 67
     0
278
    -2
288
     1
 68
     0
279
    -2
289
     1
 69
     0
  7
Standard
140
0.18
170
     5
 62
     0
 63
   257
283
     0
 90
        4
 91
        0
  1

274
    -2
284
     1
 64
     0
275
    -2
285
     1
 65
     0
276
    -2
286
     1
 66
     0
277
    -2
287
     1
 67
     0
278
    -2
288
     1
 68
     0
279
    -2
289
     1
 69
     0
  0
VISUALSTYLE
  5
2F
102
{ACAD_REACTORS
330
2A
102
}
330
2A
100
AcDbVisualStyle
  2
2dWireframe
 70
     4
177
     3
291
     0
 70
    58
 90
        0
176
     1
 90
        2
176
     1
 90
        0
176
     1
 90
        0
176
     1
 40
0.6
176
     1
 40
30.0
176
     1
 62
     7
420
 16777215
176
     1
 90
        1
176
     1
 90
        4
176
     1
 62
     7
176
     1
 62
   257
176
     1
 90
        1
176
     1
 90
        1
176
     1
 40
1.0
176
     1
 90
        0
176
     1
 62
   257
176
     1
 40
1.0
176
     1
 90
        1
176
     1
 90
        6
176
     1
 90
        2
176
     1
 62
     7
176
     1
 90
        5
176
     1
 90
        0
176
     1
 90
        0
176
     1
290
     0
176
     1
 90
        1
176
     1
 40
0.0
176
     1
 90
        0
176
     1
290
     1
176
     1
290
     1
176
     1
290
     0
176
     1
290
     0
176
     1
290
     0
176
     1
290
     0
176
     1
290
     0
176
     1
290
     0
176
     1
290
     0
176
     1
 90
       50
176
     1
 40
0.0
176
     1
 40
1.0
176
     1
 90
        0
176
     1
 62
    18
420
        0
176
     1
 90
       50
176
     1
 90
        3
176
     1
 62
     5
420
      255
176
     1
290
     0
176
     1
 90
       50
176
     1
 90
       50
176
     1
 90
       50
176
     1
290
     0
176
     1
 90
       50
176
     1
 62
   256
176
     0
 40
1.0
176
     0
 90
        2
176
     1
  1
strokes_ogs.tif
176
     1
290
     0
176
     1
 40
1.0
176
     1
 40
1.0
176
     1
  0
VISUALSTYLE
  5
32
102
{ACAD_REACTORS
330
2A
102
}
330
2A
100
AcDbVisualStyle
  2
Basic
 70
     7
177
     3
291
     1
 70
    58
 90
        1
176
     1
 90
        0
176
     1
 90
        1
176
     1
 90
        0
176
     1
 40
0.6
176
     1
 40
30.0
176
     1
 62
     7
420
 16777215
176
     1
 90
        0
176
     1
 90
        4
176
     1
 62
     7
176
     1
 62
   257
176
     1
 90
        1
176
     1
 90
        1
176
     1
 40
1.0
176
     1
 90
        8
176
     1
 62
     7
176
     1
 40
1.0
176
     1
 90
        1
176
     1
 90
        6
176
     1
 90
        2
176
     1
 62
     7
176
     1
 90
        5
176
     1
 90
        0
176
     1
 90
        0
176
     1
290
     0
176
     1
 90
        1
176
     1
 40
0.0
176
     1
 90
        0
176
     1
290
     0
176
     1
290
     1
176
     1
290
     1
176
     1
290
     0
176
     1
290
     0
176
     1
290
     0
176
     1
290
     0
176
     1
290
     0
176
     1
290
     0
176
     1
 90
       50
176
     1
 40
0.0
176
     1
 40
1.0
176
     1
 90
        0
176
     1
 62
    18
420
        0
176
     1
 90
       50
176
     1
 90
        3
176
     1
 62
     5
420
      255
176
     1
290
     0
176
     1
 90
       50
176
     1
 90
       50
176
     1
 90
       50
176
     1
290
     0
176
     1
 90
       50
176
     1
 62
   256
176
     0
 40
1.0
176
     0
 90
        2
176
     1
  1
strokes_ogs.tif
176
     1
290
     0
176
     1
 40
1.0
176
     1
 40
1.0
176
     1
  0
VISUALSTYLE
  5
36
102
{ACAD_REACTORS
330
2A
102
}
330
2A
100
AcDbVisualStyle
  2
Brighten
 70
    12
177
     3
291
     1
 70
    58
 90
        2
176
     1
 90
        2
176
     1
 90
        0
176
     1
 90
        0
176
     1
 40
0.6
176
     1
 40
30.0
176
     1
 62
     7
420
 16777215
176
     1
 90
        1
176
     1
 90
        4
176
     1
 62
     7
176
     1
 62
   257
176
     1
 90
        1
176
     1
 90
        1
176
     1
 40
1.0
176
     1
 90
        8
176
     1
 62
     7
176
     1
 40
1.0
176
     1
 90
        1
176
     1
 90
        6
176
     1
 90
        2
176
     1
 62
     7
176
     1
 90
        5
176
     1
 90
        0
176
     1
 90
        0
176
     1
290
     0
176
     1
 90
        1
176
     1
 40
50.0
176
     1
 90
        0
176
     1
290
     0
176
     1
290
     1
176
     1
290
     1
176
     1
290
     0
176
     1
290
     0
176
     1
290
     0
176
     1
290
     0
176
     1
290
     0
176
     1
290
     0
176
     1
 90
       50
176
     1
 40
0.0
176
     1
 40
1.0
176
     1
 90
        0
176
     1
 62
    18
420
        0
176
     1
 90
       50
176
     1
 90
        3
176
     1
 62
     5
420
      255
176
     1
290
     0
176
     1
 90
       50
176
     1
 90
       50
176
     1
 90
       50
176
     1
290
     0
176
     1
 90
       50
176
     1
 62
   256
176
     0
 40
1.0
176
     0
 90
        2
176
     1
  1
strokes_ogs.tif
176
     1
290
     0
176
     1
 40
1.0
176
     1
 40
1.0
176
     1
  0
VISUALSTYLE
  5
3A
102
{ACAD_REACTORS
330
2A
102
}
330
2A
100
AcDbVisualStyle
  2
ColorChange
 70
    16
177
     3
291
     1
 70
    58
 90
        2
176
     1
 90
        2
176
     1
 90
        3
176
     1
 90
        0
176
     1
 40
0.6
176
     1
 40
30.0
176
     1
 62
     8
420
  8421504
176
     1
 90
        1
176
     1
 90
        4
176
     1
 62
     7
176
     1
 62
   257
176
     1
 90
        1
176
     1
 90
        1
176
     1
 40
1.0
176
     1
 90
        8
176
     1
 62
     8
420
  8421504
176
     1
 40
1.0
176
     1
 90
        1
176
     1
 90
        6
176
     1
 90
        2
176
     1
 62
     7
176
     1
 90
        5
176
     1
 90
        0
176
     1
 90
        0
176
     1
290
     0
176
     1
 90
        1
176
     1
 40
0.0
176
     1
 90
        0
176
     1
290
     0
176
     1
290
     1
176
     1
290
     1
176
     1
290
     0
176
     1
290
     0
176
     1
290
     0
176
     1
290
     0
176
     1
290
     0
176
     1
290
     0
176
     1
 90
       50
176
     1
 40
0.0
176
     1
 40
1.0
176
     1
 90
        0
176
     1
 62
    18
420
        0
176
     1
 90
       50
176
     1
 90
        3
176
     1
 62
     5
420
      255
176
     1
290
     0
176
     1
 90
       50
176
     1
 90
       50
176
     1
 90
       50
176
     1
290
     0
176
     1
 90
       50
176
     1
 62
   256
176
     0
 40
1.0
176
     0
 90
        2
176
     1
  1
strokes_ogs.tif
176
     1
290
     0
176
     1
 40
1.0
176
     1
 40
1.0
176
     1
  0
VISUALSTYLE
  5
34
102
{ACAD_REACTORS
330
2A
102
}
330
2A
100
AcDbVisualStyle
  2
Conceptual
 70
     9
177
     3
291
     0
 70
    58
 90
        3
176
     1
 90
        2
176
     1
 90
        0
176
     1
 90
        0
176
     1
 40
0.6
176
     1
 40
30.0
176
     1
 62
     7
420
 16777215
176
     1
 90
        2
176
     1
 90
        2
176
     1
 62
     7
176
     1
 62
   257
176
     1
 90
        1
176
     1
 90
        1
176
     1
 40
179.0
176
     1
 90
        8
176
     1
 62
     7
176
     1
 40
1.0
176
     1
 90
        1
176
     1
 90
        6
176
     1
 90
        2
176
     1
 62
     7
176
     1
 90
        3
176
     1
 90
        0
176
     1
 90
        0
176
     1
290
     0
176
     1
 90
        1
176
     1
 40
0.0
176
     1
 90
        0
176
     1
290
     0
176
     1
290
     1
176
     1
290
     1
176
     1
290
     0
176
     1
290
     0
176
     1
290
     0
176
     1
290
     0
176
     1
290
     0
176
     1
290
     0
176
     1
 90
       50
176
     1
 40
0.0
176
     1
 40
1.0
176
     1
 90
        0
176
     1
 62
    18
420
        0
176
     1
 90
       50
176
     1
 90
        3
176
     1
 62
     5
420
      255
176
     1
290
     0
176
     1
 90
       50
176
     1
 90
       50
176
     1
 90
       50
176
     1
290
     0
176
     1
 90
       50
176
     1
 62
   256
176
     0
 40
1.0
176
     0
 90
        2
176
     1
  1
strokes_ogs.tif
176
     1
290
     0
176
     1
 40
1.0
176
     1
 40
1.0
176
     1
  0
VISUALSTYLE
  5
35
102
{ACAD_REACTORS
330
2A
102
}
330
2A
100
AcDbVisualStyle
  2
Dim
 70
    11
177
     3
291
     1
 70
    58
 90
        2
176
     1
 90
        2
176
     1
 90
        0
176
     1
 90
        0
176
     1
 40
0.6
176
     1
 40
30.0
176
     1
 62
     7
420
 16777215
176
     1
 90
        1
176
     1
 90
        4
176
     1
 62
     7
176
     1
 62
   257
176
     1
 90
        1
176
     1
 90
        1
176
     1
 40
1.0
176
     1
 90
        8
176
     1
 62
     7
176
     1
 40
1.0
176
     1
 90
        1
176
     1
 90
        6
176
     1
 90
        2
176
     1
 62
     7
176
     1
 90
        5
176
     1
 90
        0
176
     1
 90
        0
176
     1
290
     0
176
     1
 90
        1
176
     1
 40
-50.0
176
     1
 90
        0
176
     1
290
     0
176
     1
290
     1
176
     1
290
     1
176
     1
290
     0
176
     1
290
     0
176
     1
290
     0
176
     1
290
     0
176
     1
290
     0
176
     1
290
     0
176
     1
 90
       50
176
     1
 40
0.0
176
     1
 40
1.0
176
     1
 90
        0
176
     1
 62
    18
420
        0
176
     1
 90
       50
176
     1
 90
        3
176
     1
 62
     5
420
      255
176
     1
290
     0
176
     1
 90
       50
176
     1
 90
       50
176
     1
 90
       50
176
     1
290
     0
176
     1
 90
       50
176
     1
 62
   256
176
     0
 40
1.0
176
     0
 90
        2
176
     1
  1
strokes_ogs.tif
176
     1
290
     0
176
     1
 40
1.0
176
     1
 40
1.0
176
     1
  0
VISUALSTYLE
  5
3D
102
{ACAD_REACTORS
330
2A
102
}
330
2A
100
AcDbVisualStyle
  2
EdgeColorOff
 70
    22
177
     3
291
     1
 70
    58
 90
        2
176
     0
 90
        2
176
     0
 90
        0
176
     0
 90
        0
176
     0
 40
0.6
176
     0
 40
30.0
176
     0
 62
     7
420
 16777215
176
     0
 90
        1
176
     0
 90
        4
176
     0
 62
     7
176
     0
 62
   257
176
     0
 90
        1
176
     0
 90
        1
176
     0
 40
1.0
176
     0
 90
        8
176
     2
 62
     7
176
     0
 40
1.0
176
     0
 90
        1
176
     0
 90
        6
176
     0
 90
        2
176
     0
 62
     7
176
     0
 90
        5
176
     0
 90
        0
176
     0
 90
        0
176
     0
290
     0
176
     0
 90
        1
176
     0
 40
0.0
176
     0
 90
        0
176
     0
290
     0
176
     0
290
     1
176
     0
290
     1
176
     0
290
     0
176
     0
290
     0
176
     0
290
     0
176
     0
290
     0
176
     0
290
     0
176
     0
290
     0
176
     0
 90
       50
176
     0
 40
0.0
176
     0
 40
1.0
176
     0
 90
        0
176
     0
 62
    18
420
        0
176
     0
 90
       50
176
     0
 90
        3
176
     0
 62
     5
420
      255
176
     0
290
     0
176
     0
 90
       50
176
     0
 90
       50
176
     0
 90
       50
176
     0
290
     0
176
     0
 90
       50
176
     0
 62
   256
176
     0
 40
1.0
176
     0
 90
        2
176
     0
  1
strokes_ogs.tif
176
     0
290
     0
176
     0
 40
1.0
176
     0
 40
1.0
176
     0
  0
VISUALSTYLE
  5
39
102
{ACAD_REACTORS
330
2A
102
}
330
2A
100
AcDbVisualStyle
  2
Facepattern
 70
    15
177
     3
291
     1
 70
    58
 90
        2
176
     1
 90
        2
176
     1
 90
        0
176
     1
 90
        0
176
     1
 40
0.6
176
     1
 40
30.0
176
     1
 62
     7
420
 16777215
176
     1
 90
        1
176
     1
 90
        4
176
     1
 62
     7
176
     1
 62
   257
176
     1
 90
        1
176
     1
 90
        1
176
     1
 40
1.0
176
     1
 90
        8
176
     1
 62
     7
176
     1
 40
1.0
176
     1
 90
        1
176
     1
 90
        6
176
     1
 90
        2
176
     1
 62
     7
176
     1
 90
        5
176
     1
 90
        0
176
     1
 90
        0
176
     1
290
     0
176
     1
 90
        1
176
     1
 40
0.0
176
     1
 90
        0
176
     1
290
     0
176
     1
290
     1
176
     1
290
     1
176
     1
290
     0
176
     1
290
     0
176
     1
290
     0
176
     1
290
     0
176
     1
290
     0
176
     1
290
     0
176
     1
 90
       50
176
     1
 40
0.0
176
     1
 40
1.0
176
     1
 90
        0
176
     1
 62
    18
420
        0
176
     1
 90
       50
176
     1
 90
        3
176
     1
 62
     5
420
      255
176
     1
290
     0
176
     1
 90
       50
176
     1
 90
       50
176
     1
 90
       50
176
     1
290
     0
176
     1
 90
       50
176
     1
 62
   256
176
     0
 40
1.0
176
     0
 90
        2
176
     1
  1
strokes_ogs.tif
176
     1
290
     0
176
     1
 40
1.0
176
     1
 40
1.0
176
     1
  0
VISUALSTYLE
  5
2B
102
{ACAD_REACTORS
330
2A
102
}
330
2A
100
AcDbVisualStyle
  2
Flat
 70
     0
177
     3
291
     1
 70
    58
 90
        2
176
     1
 90
        1
176
     1
 90
        1
176
     1
 90
        2
176
     1
 40
0.6
176
     1
 40
30.0
176
     1
 62
     7
420
 16777215
176
     1
 90
        0
176
     1
 90
        0
176
     1
 62
     7
176
     1
 62
   257
176
     1
 90
        1
176
     1
 90
        1
176
     1
 40
1.0
176
     1
 90
        8
176
     1
 62
     7
176
     1
 40
1.0
176
     1
 90
        1
176
     1
 90
        6
176
     1
 90
        2
176
     1
 62
     7
176
     1
 90
        5
176
     1
 90
        0
176
     1
 90
        0
176
     1
290
     0
176
     1
 90
       13
176
     1
 40
0.0
176
     1
 90
        0
176
     1
290
     0
176
     1
290
     1
176
     1
290
     1
176
     1
290
     0
176
     1
290
     0
176
     1
290
     0
176
     1
290
     0
176
     1
290
     0
176
     1
290
     0
176
     1
 90
       50
176
     1
 40
0.0
176
     1
 40
1.0
176
     1
 90
        0
176
     1
 62
    18
420
        0
176
     1
 90
       50
176
     1
 90
        3
176
     1
 62
     5
420
      255
176
     1
290
     0
176
     1
 90
       50
176
     1
 90
       50
176
     1
 90
       50
176
     1
290
     0
176
     1
 90
       50
176
     1
 62
   256
176
     0
 40
1.0
176
     0
 90
        2
176
     1
  1
strokes_ogs.tif
176
     1
290
     0
176
     1
 40
1.0
176
     1
 40
1.0
176
     1
  0
VISUALSTYLE
  5
2C
102
{ACAD_REACTORS
330
2A
102
}
330
2A
100
AcDbVisualStyle
  2
FlatWithEdges
 70
     1
177
     3
291
     1
 70
    58
 90
        2
176
     1
 90
        1
176
     1
 90
        1
176
     1
 90
        2
176
     1
 40
0.6
176
     1
 40
30.0
176
     1
 62
     7
420
 16777215
176
     1
 90
        1
176
     1
 90
        0
176
     1
 62
     7
176
     1
 62
   257
176
     1
 90
        1
176
     1
 90
        1
176
     1
 40
1.0
176
     1
 90
        0
176
     1
 62
   257
176
     1
 40
1.0
176
     1
 90
        1
176
     1
 90
        6
176
     1
 90
        2
176
     1
 62
     7
176
     1
 90
        5
176
     1
 90
        0
176
     1
 90
        0
176
     1
290
     0
176
     1
 90
       13
176
     1
 40
0.0
176
     1
 90
        0
176
     1
290
     0
176
     1
290
     1
176
     1
290
     1
176
     1
290
     0
176
     1
290
     0
176
     1
290
     0
176
     1
290
     0
176
     1
290
     0
176
     1
290
     0
176
     1
 90
       50
176
     1
 40
0.0
176
     1
 40
1.0
176
     1
 90
        0
176
     1
 62
    18
420
        0
176
     1
 90
       50
176
     1
 90
        3
176
     1
 62
     5
420
      255
176
     1
290
     0
176
     1
 90
       50
176
     1
 90
       50
176
     1
 90
       50
176
     1
290
     0
176
     1
 90
       50
176
     1
 62
   256
176
     0
 40
1.0
176
     0
 90
        2
176
     1
  1
strokes_ogs.tif
176
     1
290
     0
176
     1
 40
1.0
176
     1
 40
1.0
176
     1
  0
VISUALSTYLE
  5
2D
102
{ACAD_REACTORS
330
2A
102
}
330
2A
100
AcDbVisualStyle
  2
Gouraud
 70
     2
177
     3
291
     1
 70
    58
 90
        2
176
     1
 90
        2
176
     1
 90
        1
176
     1
 90
        2
176
     1
 40
0.6
176
     1
 40
30.0
176
     1
 62
     7
420
 16777215
176
     1
 90
        0
176
     1
 90
        0
176
     1
 62
     7
176
     1
 62
   257
176
     1
 90
        1
176
     1
 90
        1
176
     1
 40
1.0
176
     1
 90
        0
176
     1
 62
     7
176
     1
 40
1.0
176
     1
 90
        1
176
     1
 90
        6
176
     1
 90
        2
176
     1
 62
     7
176
     1
 90
        5
176
     1
 90
        0
176
     1
 90
        0
176
     1
290
     0
176
     1
 90
       13
176
     1
 40
0.0
176
     1
 90
        0
176
     1
290
     0
176
     1
290
     1
176
     1
290
     1
176
     1
290
     0
176
     1
290
     0
176
     1
290
     0
176
     1
290
     0
176
     1
290
     0
176
     1
290
     0
176
     1
 90
       50
176
     1
 40
0.0
176
     1
 40
1.0
176
     1
 90
        0
176
     1
 62
    18
420
        0
176
     1
 90
       50
176
     1
 90
        3
176
     1
 62
     5
420
      255
176
     1
290
     0
176
     1
 90
       50
176
     1
 90
       50
176
     1
 90
       50
176
     1
290
     0
176
     1
 90
       50
176
     1
 62
   256
176
     0
 40
1.0
176
     0
 90
        2
176
     1
  1
strokes_ogs.tif
176
     1
290
     0
176
     1
 40
1.0
176
     1
 40
1.0
176
     1
  0
VISUALSTYLE
  5
2E
102
{ACAD_REACTORS
330
2A
102
}
330
2A
100
AcDbVisualStyle
  2
GouraudWithEdges
 70
     3
177
     3
291
     1
 70
    58
 90
        2
176
     1
 90
        2
176
     1
 90
        1
176
     1
 90
        2
176
     1
 40
0.6
176
     1
 40
30.0
176
     1
 62
     7
420
 16777215
176
     1
 90
        1
176
     1
 90
        0
176
     1
 62
     7
176
     1
 62
   257
176
     1
 90
        1
176
     1
 90
        1
176
     1
 40
1.0
176
     1
 90
        0
176
     1
 62
   257
176
     1
 40
1.0
176
     1
 90
        1
176
     1
 90
        6
176
     1
 90
        2
176
     1
 62
     7
176
     1
 90
        5
176
     1
 90
        0
176
     1
 90
        0
176
     1
290
     0
176
     1
 90
       13
176
     1
 40
0.0
176
     1
 90
        0
176
     1
290
     0
176
     1
290
     1
176
     1
290
     1
176
     1
290
     0
176
     1
290
     0
176
     1
290
     0
176
     1
290
     0
176
     1
290
     0
176
     1
290
     0
176
     1
 90
       50
176
     1
 40
0.0
176
     1
 40
1.0
176
     1
 90
        0
176
     1
 62
    18
420
        0
176
     1
 90
       50
176
     1
 90
        3
176
     1
 62
     5
420
      255
176
     1
290
     0
176
     1
 90
       50
176
     1
 90
       50
176
     1
 90
       50
176
     1
290
     0
176
     1
 90
       50
176
     1
 62
   256
176
     0
 40
1.0
176
     0
 90
        2
176
     1
  1
strokes_ogs.tif
176
     1
290
     0
176
     1
 40
1.0
176
     1
 40
1.0
176
     1
  0
VISUALSTYLE
  5
31
102
{ACAD_REACTORS
330
2A
102
}
330
2A
100
AcDbVisualStyle
  2
Hidden
 70
     6
177
     3
291
     0
 70
    58
 90
        1
176
     1
 90
        2
176
     1
 90
        2
176
     1
 90
        0
176
     1
 40
0.6
176
     1
 40
30.0
176
     1
 62
     7
420
 16777215
176
     1
 90
        2
176
     1
 90
        2
176
     1
 62
     7
176
     1
 62
   257
176
     1
 90
        2
176
     1
 90
        1
176
     1
 40
40.0
176
     1
 90
        0
176
     1
 62
   257
176
     1
 40
1.0
176
     1
 90
        1
176
     1
 90
        6
176
     1
 90
        2
176
     1
 62
     7
176
     1
 90
        3
176
     1
 90
        0
176
     1
 90
        0
176
     1
290
     0
176
     1
 90
        1
176
     1
 40
0.0
176
     1
 90
        0
176
     1
290
     0
176
     1
290
     1
176
     1
290
     1
176
     1
290
     0
176
     1
290
     0
176
     1
290
     0
176
     1
290
     0
176
     1
290
     0
176
     1
290
     0
176
     1
 90
       50
176
     1
 40
0.0
176
     1
 40
1.0
176
     1
 90
        0
176
     1
 62
    18
420
        0
176
     1
 90
       50
176
     1
 90
        3
176
     1
 62
     5
420
      255
176
     1
290
     0
176
     1
 90
       50
176
     1
 90
       50
176
     1
 90
       50
176
     1
290
     0
176
     1
 90
       50
176
     1
 62
   256
176
     0
 40
1.0
176
     0
 90
        2
176
     1
  1
strokes_ogs.tif
176
     1
290
     0
176
     1
 40
1.0
176
     1
 40
1.0
176
     1
  0
VISUALSTYLE
  5
3B
102
{ACAD_REACTORS
330
2A
102
}
330
2A
100
AcDbVisualStyle
  2
JitterOff
 70
    20
177
     3
291
     1
 70
    58
 90
        2
176
     0
 90
        2
176
     0
 90
        0
176
     0
 90
        0
176
     0
 40
0.6
176
     0
 40
30.0
176
     0
 62
     7
420
 16777215
176
     0
 90
        1
176
     0
 90
        4
176
     0
 62
     7
176
     0
 62
   257
176
     0
 90
        1
176
     0
 90
        1
176
     0
 40
1.0
176
     0
 90
       10
176
     2
 62
     7
176
     0
 40
1.0
176
     0
 90
        1
176
     0
 90
        6
176
     0
 90
        2
176
     0
 62
     7
176
     0
 90
        5
176
     0
 90
        0
176
     0
 90
        0
176
     0
290
     0
176
     0
 90
        1
176
     0
 40
0.0
176
     0
 90
        0
176
     0
290
     0
176
     0
290
     1
176
     0
290
     1
176
     0
290
     0
176
     0
290
     0
176
     0
290
     0
176
     0
290
     0
176
     0
290
     0
176
     0
290
     0
176
     0
 90
       50
176
     0
 40
0.0
176
     0
 40
1.0
176
     0
 90
        0
176
     0
 62
    18
420
        0
176
     0
 90
       50
176
     0
 90
        3
176
     0
 62
     5
420
      255
176
     0
290
     0
176
     0
 90
       50
176
     0
 90
       50
176
     0
 90
       50
176
     0
290
     0
176
     0
 90
       50
176
     0
 62
   256
176
     0
 40
1.0
176
     0
 90
        2
176
     0
  1
strokes_ogs.tif
176
     0
290
     0
176
     0
 40
1.0
176
     0
 40
1.0
176
     0
  0
VISUALSTYLE
  5
38
102
{ACAD_REACTORS
330
2A
102
}
330
2A
100
AcDbVisualStyle
  2
Linepattern
 70
    14
177
     3
291
     1
 70
    58
 90
        2
176
     1
 90
        2
176
     1
 90
        0
176
     1
 90
        0
176
     1
 40
0.6
176
     1
 40
30.0
176
     1
 62
     7
420
 16777215
176
     1
 90
        1
176
     1
 90
        4
176
     1
 62
     7
176
     1
 62
   257
176
     1
 90
        7
176
     1
 90
        7
176
     1
 40
1.0
176
     1
 90
        8
176
     1
 62
     7
176
     1
 40
1.0
176
     1
 90
        1
176
     1
 90
        6
176
     1
 90
        2
176
     1
 62
     7
176
     1
 90
        5
176
     1
 90
        0
176
     1
 90
        0
176
     1
290
     0
176
     1
 90
        1
176
     1
 40
0.0
176
     1
 90
        0
176
     1
290
     0
176
     1
290
     1
176
     1
290
     1
176
     1
290
     0
176
     1
290
     0
176
     1
290
     0
176
     1
290
     0
176
     1
290
     0
176
     1
290
     0
176
     1
 90
       50
176
     1
 40
0.0
176
     1
 40
1.0
176
     1
 90
        0
176
     1
 62
    18
420
        0
176
     1
 90
       50
176
     1
 90
        3
176
     1
 62
     5
420
      255
176
     1
290
     0
176
     1
 90
       50
176
     1
 90
       50
176
     1
 90
       50
176
     1
290
     0
176
     1
 90
       50
176
     1
 62
   256
176
     0
 40
1.0
176
     0
 90
        2
176
     1
  1
strokes_ogs.tif
176
     1
290
     0
176
     1
 40
1.0
176
     1
 40
1.0
176
     1
  0
VISUALSTYLE
  5
3C
102
{ACAD_REACTORS
330
2A
102
}
330
2A
100
AcDbVisualStyle
  2
OverhangOff
 70
    21
177
     3
291
     1
 70
    58
 90
        2
176
     0
 90
        2
176
     0
 90
        0
176
     0
 90
        0
176
     0
 40
0.6
176
     0
 40
30.0
176
     0
 62
     7
420
 16777215
176
     0
 90
        1
176
     0
 90
        4
176
     0
 62
     7
176
     0
 62
   257
176
     0
 90
        1
176
     0
 90
        1
176
     0
 40
1.0
176
     0
 90
        9
176
     2
 62
     7
176
     0
 40
1.0
176
     0
 90
        1
176
     0
 90
        6
176
     0
 90
        2
176
     0
 62
     7
176
     0
 90
        5
176
     0
 90
        0
176
     0
 90
        0
176
     0
290
     0
176
     0
 90
        1
176
     0
 40
0.0
176
     0
 90
        0
176
     0
290
     0
176
     0
290
     1
176
     0
290
     1
176
     0
290
     0
176
     0
290
     0
176
     0
290
     0
176
     0
290
     0
176
     0
290
     0
176
     0
290
     0
176
     0
 90
       50
176
     0
 40
0.0
176
     0
 40
1.0
176
     0
 90
        0
176
     0
 62
    18
420
        0
176
     0
 90
       50
176
     0
 90
        3
176
     0
 62
     5
420
      255
176
     0
290
     0
176
     0
 90
       50
176
     0
 90
       50
176
     0
 90
       50
176
     0
290
     0
176
     0
 90
       50
176
     0
 62
   256
176
     0
 40
1.0
176
     0
 90
        2
176
     0
  1
strokes_ogs.tif
176
     0
290
     0
176
     0
 40
1.0
176
     0
 40
1.0
176
     0
  0
VISUALSTYLE
  5
33
102
{ACAD_REACTORS
330
2A
102
}
330
2A
100
AcDbVisualStyle
  2
Realistic
 70
     8
177
     3
291
     0
 70
    58
 90
        2
176
     1
 90
        3
176
     1
 90
        0
176
     1
 90
        2
176
     1
 40
0.6
176
     1
 40
30.0
176
     1
 62
     7
420
 16777215
176
     1
 90
        0
176
     1
 90
        0
176
     1
 62
     7
176
     1
 62
   257
176
     1
 90
        1
176
     1
 90
        1
176
     1
 40
1.0
176
     1
 90
        8
176
     1
 62
   257
176
     1
 40
1.0
176
     1
 90
        1
176
     1
 90
        6
176
     1
 90
        2
176
     1
 62
     7
176
     1
 90
        3
176
     1
 90
        0
176
     1
 90
        0
176
     1
290
     0
176
     1
 90
       13
176
     1
 40
0.0
176
     1
 90
        0
176
     1
290
     0
176
     1
290
     1
176
     1
290
     1
176
     1
290
     0
176
     1
290
     0
176
     1
290
     0
176
     1
290
     0
176
     1
290
     0
176
     1
290
     0
176
     1
 90
       50
176
     1
 40
0.0
176
     1
 40
1.0
176
     1
 90
        0
176
     1
 62
    18
420
        0
176
     1
 90
       50
176
     1
 90
        3
176
     1
 62
     5
420
      255
176
     1
290
     0
176
     1
 90
       50
176
     1
 90
       50
176
     1
 90
       50
176
     1
290
     0
176
     1
 90
       50
176
     1
 62
   256
176
     0
 40
1.0
176
     0
 90
        2
176
     1
  1
strokes_ogs.tif
176
     1
290
     0
176
     1
 40
1.0
176
     1
 40
1.0
176
     1
  0
VISUALSTYLE
  5
42
102
{ACAD_REACTORS
330
2A
102
}
330
2A
100
AcDbVisualStyle
  2
Shaded
 70
    27
177
     3
291
     0
 70
    58
 90
        2
176
     1
 90
        2
176
     1
 90
        1
176
     1
 90
        2
176
     1
 40
0.6
176
     1
 40
30.0
176
     1
 62
     7
420
 16777215
176
     1
 90
        0
176
     1
 90
        4
176
     1
 62
     7
176
     1
 62
   257
176
     1
 90
        1
176
     1
 90
        1
176
     1
 40
1.0
176
     1
 90
        8
176
     1
 62
   257
176
     1
 40
1.0
176
     1
 90
        1
176
     1
 90
        6
176
     1
 90
        2
176
     1
 62
     8
420
  7895160
176
     1
 90
        3
176
     1
 90
        0
176
     1
 90
        0
176
     1
290
     0
176
     1
 90
        5
176
     1
 40
0.0
176
     1
 90
        0
176
     1
290
     0
176
     1
290
     1
176
     1
290
     1
176
     1
290
     0
176
     1
290
     0
176
     1
290
     0
176
     1
290
     0
176
     1
290
     0
176
     1
290
     0
176
     1
 90
       50
176
     1
 40
0.0
176
     1
 40
1.0
176
     1
 90
        0
176
     1
 62
    18
420
        0
176
     1
 90
       50
176
     1
 90
        3
176
     1
 62
     5
420
      255
176
     1
290
     0
176
     1
 90
       50
176
     1
 90
       50
176
     1
 90
       50
176
     1
290
     0
176
     1
 90
       50
176
     1
 62
   256
176
     0
 40
1.0
176
     0
 90
        2
176
     1
  1
strokes_ogs.tif
176
     1
290
     0
176
     1
 40
1.0
176
     1
 40
1.0
176
     1
  0
VISUALSTYLE
  5
41
102
{ACAD_REACTORS
330
2A
102
}
330
2A
100
AcDbVisualStyle
  2
Shaded with edges
 70
    26
177
     3
291
     0
 70
    58
 90
        2
176
     1
 90
        2
176
     1
 90
        1
176
     1
 90
        2
176
     1
 40
0.6
176
     1
 40
30.0
176
     1
 62
     7
420
 16777215
176
     1
 90
        1
176
     1
 90
       10
176
     1
 62
     7
176
     1
 62
   257
176
     1
 90
        2
176
     1
 90
        1
176
     1
 40
1.0
176
     1
 90
        8
176
     1
 62
   257
176
     1
 40
1.0
176
     1
 90
        1
176
     1
 90
        6
176
     1
 90
        2
176
     1
 62
     7
176
     1
 90
        3
176
     1
 90
        0
176
     1
 90
        0
176
     1
290
     0
176
     1
 90
        5
176
     1
 40
0.0
176
     1
 90
        0
176
     1
290
     0
176
     1
290
     1
176
     1
290
     1
176
     1
290
     0
176
     1
290
     0
176
     1
290
     0
176
     1
290
     0
176
     1
290
     0
176
     1
290
     0
176
     1
 90
       50
176
     1
 40
0.0
176
     1
 40
1.0
176
     1
 90
        0
176
     1
 62
    18
420
        0
176
     1
 90
       50
176
     1
 90
        3
176
     1
 62
     5
420
      255
176
     1
290
     0
176
     1
 90
       50
176
     1
 90
       50
176
     1
 90
       50
176
     1
290
     0
176
     1
 90
       50
176
     1
 62
   256
176
     0
 40
1.0
176
     0
 90
        2
176
     1
  1
strokes_ogs.tif
176
     1
290
     0
176
     1
 40
1.0
176
     1
 40
1.0
176
     1
  0
VISUALSTYLE
  5
3E
102
{ACAD_REACTORS
330
2A
102
}
330
2A
100
AcDbVisualStyle
  2
Shades of Gray
 70
    23
177
     3
291
     0
 70
    58
 90
        2
176
     1
 90
        2
176
     1
 90
        3
176
     1
 90
        0
176
     1
 40
0.6
176
     1
 40
30.0
176
     1
 62
     7
420
 16777215
176
     1
 90
        2
176
     1
 90
        2
176
     1
 62
     7
176
     1
 62
     7
176
     1
 90
        1
176
     1
 90
        1
176
     1
 40
40.0
176
     1
 90
        8
176
     1
 62
     7
176
     1
 40
1.0
176
     1
 90
        1
176
     1
 90
        6
176
     1
 90
        2
176
     1
 62
     7
176
     1
 90
        3
176
     1
 90
        0
176
     1
 90
        0
176
     1
290
     0
176
     1
 90
        1
176
     1
 40
0.0
176
     1
 90
        0
176
     1
290
     0
176
     1
290
     1
176
     1
290
     1
176
     1
290
     0
176
     1
290
     0
176
     1
290
     0
176
     1
290
     0
176
     1
290
     0
176
     1
290
     0
176
     1
 90
       50
176
     1
 40
0.0
176
     1
 40
1.0
176
     1
 90
        0
176
     1
 62
    18
420
        0
176
     1
 90
       50
176
     1
 90
        3
176
     1
 62
     5
420
      255
176
     1
290
     0
176
     1
 90
       50
176
     1
 90
       50
176
     1
 90
       50
176
     1
290
     0
176
     1
 90
       50
176
     1
 62
   256
176
     0
 40
1.0
176
     0
 90
        2
176
     1
  1
strokes_ogs.tif
176
     1
290
     0
176
     1
 40
1.0
176
     1
 40
1.0
176
     1
  0
VISUALSTYLE
  5
3F
102
{ACAD_REACTORS
330
2A
102
}
330
2A
100
AcDbVisualStyle
  2
Sketchy
 70
    24
177
     3
291
     0
 70
    58
 90
        1
176
     1
 90
        2
176
     1
 90
        2
176
     1
 90
        0
176
     1
 40
0.6
176
     1
 40
30.0
176
     1
 62
     7
420
 16777215
176
     1
 90
        2
176
     1
 90
        2
176
     1
 62
     7
176
     1
 62
     7
176
     1
 90
        1
176
     1
 90
        1
176
     1
 40
40.0
176
     1
 90
       11
176
     1
 62
     7
176
     1
 40
1.0
176
     1
 90
        1
176
     1
 90
        6
176
     1
 90
        2
176
     1
 62
     7
176
     1
 90
        6
176
     1
 90
        0
176
     1
 90
        0
176
     1
290
     0
176
     1
 90
        1
176
     1
 40
0.0
176
     1
 90
        0
176
     1
290
     0
176
     1
290
     1
176
     1
290
     1
176
     1
290
     0
176
     1
290
     0
176
     1
290
     0
176
     1
290
     0
176
     1
290
     0
176
     1
290
     0
176
     1
 90
       50
176
     1
 40
0.0
176
     1
 40
1.0
176
     1
 90
        0
176
     1
 62
    18
420
        0
176
     1
 90
       50
176
     1
 90
        3
176
     1
 62
     5
420
      255
176
     1
290
     0
176
     1
 90
       50
176
     1
 90
       50
176
     1
 90
       50
176
     1
290
     0
176
     1
 90
       50
176
     1
 62
   256
176
     0
 40
1.0
176
     0
 90
        2
176
     1
  1
strokes_ogs.tif
176
     1
290
     0
176
     1
 40
1.0
176
     1
 40
1.0
176
     1
  0
VISUALSTYLE
  5
37
102
{ACAD_REACTORS
330
2A
102
}
330
2A
100
AcDbVisualStyle
  2
Thicken
 70
    13
177
     3
291
     1
 70
    58
 90
        2
176
     1
 90
        2
176
     1
 90
        0
176
     1
 90
        0
176
     1
 40
0.6
176
     1
 40
30.0
176
     1
 62
     7
420
 16777215
176
     1
 90
        1
176
     1
 90
        4
176
     1
 62
     7
176
     1
 62
   257
176
     1
 90
        1
176
     1
 90
        1
176
     1
 40
1.0
176
     1
 90
       12
176
     1
 62
     7
176
     1
 40
1.0
176
     1
 90
        1
176
     1
 90
        6
176
     1
 90
        2
176
     1
 62
     7
176
     1
 90
        5
176
     1
 90
        0
176
     1
 90
        0
176
     1
290
     0
176
     1
 90
        1
176
     1
 40
0.0
176
     1
 90
        0
176
     1
290
     0
176
     1
290
     1
176
     1
290
     1
176
     1
290
     0
176
     1
290
     0
176
     1
290
     0
176
     1
290
     0
176
     1
290
     0
176
     1
290
     0
176
     1
 90
       50
176
     1
 40
0.0
176
     1
 40
1.0
176
     1
 90
        0
176
     1
 62
    18
420
        0
176
     1
 90
       50
176
     1
 90
        3
176
     1
 62
     5
420
      255
176
     1
290
     0
176
     1
 90
       50
176
     1
 90
       50
176
     1
 90
       50
176
     1
290
     0
176
     1
 90
       50
176
     1
 62
   256
176
     0
 40
1.0
176
     0
 90
        2
176
     1
  1
strokes_ogs.tif
176
     1
290
     0
176
     1
 40
1.0
176
     1
 40
1.0
176
     1
  0
VISUALSTYLE
  5
30
102
{ACAD_REACTORS
330
2A
102
}
330
2A
100
AcDbVisualStyle
  2
Wireframe
 70
     5
177
     3
291
     0
 70
    58
 90
        0
176
     1
 90
        2
176
     1
 90
        0
176
     1
 90
        0
176
     1
 40
0.6
176
     1
 40
30.0
176
     1
 62
     7
420
 16777215
176
     1
 90
        1
176
     1
 90
        4
176
     1
 62
     7
176
     1
 62
   257
176
     1
 90
        1
176
     1
 90
        1
176
     1
 40
1.0
176
     1
 90
        0
176
     1
 62
   257
176
     1
 40
1.0
176
     1
 90
        1
176
     1
 90
        6
176
     1
 90
        2
176
     1
 62
     7
176
     1
 90
        3
176
     1
 90
        0
176
     1
 90
        0
176
     1
290
     0
176
     1
 90
        1
176
     1
 40
0.0
176
     1
 90
        0
176
     1
290
     0
176
     1
290
     1
176
     1
290
     1
176
     1
290
     0
176
     1
290
     0
176
     1
290
     0
176
     1
290
     0
176
     1
290
     0
176
     1
290
     0
176
     1
 90
       50
176
     1
 40
0.0
176
     1
 40
1.0
176
     1
 90
        0
176
     1
 62
    18
420
        0
176
     1
 90
       50
176
     1
 90
        3
176
     1
 62
     5
420
      255
176
     1
290
     0
176
     1
 90
       50
176
     1
 90
       50
176
     1
 90
       50
176
     1
290
     0
176
     1
 90
       50
176
     1
 62
   256
176
     0
 40
1.0
176
     0
 90
        2
176
     1
  1
strokes_ogs.tif
176
     1
290
     0
176
     1
 40
1.0
176
     1
 40
1.0
176
     1
  0
VISUALSTYLE
  5
40
102
{ACAD_REACTORS
330
2A
102
}
330
2A
100
AcDbVisualStyle
  2
X-Ray
 70
    25
177
     3
291
     0
 70
    58
 90
        2
176
     1
 90
        2
176
     1
 90
        1
176
     1
 90
        1
176
     1
 40
0.5
176
     1
 40
30.0
176
     1
 62
     7
420
 16777215
176
     1
 90
        1
176
     1
 90
        0
176
     1
 62
     7
176
     1
 62
   257
176
     1
 90
        1
176
     1
 90
        1
176
     1
 40
1.0
176
     1
 90
        8
176
     1
 62
     7
176
     1
 40
1.0
176
     1
 90
        1
176
     1
 90
        6
176
     1
 90
        2
176
     1
 62
     7
176
     1
 90
        3
176
     1
 90
        0
176
     1
 90
        0
176
     1
290
     0
176
     1
 90
       13
176
     1
 40
0.0
176
     1
 90
        0
176
     1
290
     0
176
     1
290
     1
176
     1
290
     1
176
     1
290
     0
176
     1
290
     0
176
     1
290
     0
176
     1
290
     0
176
     1
290
     0
176
     1
290
     0
176
     1
 90
       50
176
     1
 40
0.0
176
     1
 40
1.0
176
     1
 90
        0
176
     1
 62
    18
420
        0
176
     1
 90
       50
176
     1
 90
        3
176
     1
 62
     5
420
      255
176
     1
290
     0
176
     1
 90
       50
176
     1
 90
       50
176
     1
 90
       50
176
     1
290
     0
176
     1
 90
       50
176
     1
 62
   256
176
     0
 40
1.0
176
     0
 90
        2
176
     1
  1
strokes_ogs.tif
176
     1
290
     0
176
     1
 40
1.0
176
     1
 40
1.0
176
     1
  0
DICTIONARYVAR
  5
25F
102
{ACAD_REACTORS
330
25E
102
}
330
25E
100
DictionaryVariables
280
     0
  1
1:1
  0
DICTIONARYVAR
  5
264
102
{ACAD_REACTORS
330
25E
102
}
330
25E
100
DictionaryVariables
280
     0
  1
Standard
  0
DICTIONARYVAR
  5
263
102
{ACAD_REACTORS
330
25E
102
}
330
25E
100
DictionaryVariables
280
     0
  1
Standard
  0
DICTIONARY
  5
260
330
6A
100
AcDbDictionary
280
     1
281
     1
  3
ACAD_ROUNDTRIP_2008_TABLESTYLE_CELLSTYLEMAP
360
261
  0
CELLSTYLEMAP
  5
261
102
{ACAD_REACTORS
330
260
102
}
330
260
100
AcDbCellStyleMap
 90
        3
300
CELLSTYLE
  1
TABLEFORMAT_BEGIN
 90
        5
170
     1
 91
        0
 92
    32768
 62
   257
 93
        1
300
CONTENTFORMAT
  1
CONTENTFORMAT_BEGIN
 90
        0
 91
        0
 92
        4
 93
        0
300

 40
0.0
140
1.0
 94
        5
 62
     0
340
11
144
0.25
309
CONTENTFORMAT_END
171
     1
301
MARGIN
  1
CELLMARGIN_BEGIN
 40
0.06
 40
0.06
 40
0.06
 40
0.06
 40
0.06
 40
0.06
309
CELLMARGIN_END
 94
        6
 95
        1
302
GRIDFORMAT
  1
GRIDFORMAT_BEGIN
 90
        0
 91
        1
 62
     0
 92
       -2
340
14
 93
        0
 40
0.045
309
GRIDFORMAT_END
 95
        2
302
GRIDFORMAT
  1
GRIDFORMAT_BEGIN
 90
        0
 91
        1
 62
     0
 92
       -2
340
14
 93
        0
 40
0.045
309
GRIDFORMAT_END
 95
        4
302
GRIDFORMAT
  1
GRIDFORMAT_BEGIN
 90
        0
 91
        1
 62
     0
 92
       -2
340
14
 93
        0
 40
0.045
309
GRIDFORMAT_END
 95
        8
302
GRIDFORMAT
  1
GRIDFORMAT_BEGIN
 90
        0
 91
        1
 62
     0
 92
       -2
340
14
 93
        0
 40
0.045
309
GRIDFORMAT_END
 95
       16
302
GRIDFORMAT
  1
GRIDFORMAT_BEGIN
 90
        0
 91
        1
 62
     0
 92
       -2
340
14
 93
        0
 40
0.045
309
GRIDFORMAT_END
 95
       32
302
GRIDFORMAT
  1
GRIDFORMAT_BEGIN
 90
        0
 91
        1
 62
     0
 92
       -2
340
14
 93
        0
 40
0.045
309
GRIDFORMAT_END
309
TABLEFORMAT_END
  1
CELLSTYLE_BEGIN
 90
        1
 91
        1
300
_TITLE
309
CELLSTYLE_END
300
CELLSTYLE
  1
TABLEFORMAT_BEGIN
 90
        5
170
     1
 91
        0
 92
        0
 62
   257
 93
        1
300
CONTENTFORMAT
  1
CONTENTFORMAT_BEGIN
 90
        0
 91
        0
 92
        4
 93
        0
300

 40
0.0
140
1.0
 94
        5
 62
     0
340
11
144
0.18
309
CONTENTFORMAT_END
171
     1
301
MARGIN
  1
CELLMARGIN_BEGIN
 40
0.06
 40
0.06
 40
0.06
 40
0.06
 40
0.06
 40
0.06
309
CELLMARGIN_END
 94
        6
 95
        1
302
GRIDFORMAT
  1
GRIDFORMAT_BEGIN
 90
        0
 91
        1
 62
     0
 92
       -2
340
14
 93
        0
 40
0.045
309
GRIDFORMAT_END
 95
        2
302
GRIDFORMAT
  1
GRIDFORMAT_BEGIN
 90
        0
 91
        1
 62
     0
 92
       -2
340
14
 93
        0
 40
0.045
309
GRIDFORMAT_END
 95
        4
302
GRIDFORMAT
  1
GRIDFORMAT_BEGIN
 90
        0
 91
        1
 62
     0
 92
       -2
340
14
 93
        0
 40
0.045
309
GRIDFORMAT_END
 95
        8
302
GRIDFORMAT
  1
GRIDFORMAT_BEGIN
 90
        0
 91
        1
 62
     0
 92
       -2
340
14
 93
        0
 40
0.045
309
GRIDFORMAT_END
 95
       16
302
GRIDFORMAT
  1
GRIDFORMAT_BEGIN
 90
        0
 91
        1
 62
     0
 92
       -2
340
14
 93
        0
 40
0.045
309
GRIDFORMAT_END
 95
       32
302
GRIDFORMAT
  1
GRIDFORMAT_BEGIN
 90
        0
 91
        1
 62
     0
 92
       -2
340
14
 93
        0
 40
0.045
309
GRIDFORMAT_END
309
TABLEFORMAT_END
  1
CELLSTYLE_BEGIN
 90
        2
 91
        1
300
_HEADER
309
CELLSTYLE_END
300
CELLSTYLE
  1
TABLEFORMAT_BEGIN
 90
        5
170
     1
 91
        0
 92
        0
 62
   257
 93
        1
300
CONTENTFORMAT
  1
CONTENTFORMAT_BEGIN
 90
        0
 91
        0
 92
        4
 93
        0
300

 40
0.0
140
1.0
 94
        2
 62
     0
340
11
144
0.18
309
CONTENTFORMAT_END
171
     1
301
MARGIN
  1
CELLMARGIN_BEGIN
 40
0.06
 40
0.06
 40
0.06
 40
0.06
 40
0.06
 40
0.06
309
CELLMARGIN_END
 94
        6
 95
        1
302
GRIDFORMAT
  1
GRIDFORMAT_BEGIN
 90
        0
 91
        1
 62
     0
 92
       -2
340
14
 93
        0
 40
0.045
309
GRIDFORMAT_END
 95
        2
302
GRIDFORMAT
  1
GRIDFORMAT_BEGIN
 90
        0
 91
        1
 62
     0
 92
       -2
340
14
 93
        0
 40
0.045
309
GRIDFORMAT_END
 95
        4
302
GRIDFORMAT
  1
GRIDFORMAT_BEGIN
 90
        0
 91
        1
 62
     0
 92
       -2
340
14
 93
        0
 40
0.045
309
GRIDFORMAT_END
 95
        8
302
GRIDFORMAT
  1
GRIDFORMAT_BEGIN
 90
        0
 91
        1
 62
     0
 92
       -2
340
14
 93
        0
 40
0.045
309
GRIDFORMAT_END
 95
       16
302
GRIDFORMAT
  1
GRIDFORMAT_BEGIN
 90
        0
 91
        1
 62
     0
 92
       -2
340
14
 93
        0
 40
0.045
309
GRIDFORMAT_END
 95
       32
302
GRIDFORMAT
  1
GRIDFORMAT_BEGIN
 90
        0
 91
        1
 62
     0
 92
       -2
340
14
 93
        0
 40
0.045
309
GRIDFORMAT_END
309
TABLEFORMAT_END
  1
CELLSTYLE_BEGIN
 90
        3
 91
        2
300
_DATA
309
CELLSTYLE_END
  0
ENDSEC
  0
EOF