0
SECTION
  2
HEADER
  9
$ACADVER
  1
AC1027
  9
$ACADMAINTVER
 70
     8
  9
$DWGCODEPAGE
  3
ANSI_1252
  9
$REQUIREDVERSIONS
160
                 0
  9
$COMMENTS
  1
File was created by Cadenas
  9
$CUSTOMPROPERTYTAG
  1
NN
  9
$CUSTOMPROPERTY
  1
Imperial - IP Piloted Flange Contact Seal
  9
$CUSTOMPROPERTYTAG
  1
NT
  9
$CUSTOMPROPERTY
  1
Imperial Piloted Flange Bearings
  9
$CUSTOMPROPERTYTAG
  1
NB
  9
$CUSTOMPROPERTY
  1
069845
  9
$CUSTOMPROPERTYTAG
  1
NBSYN
  9
$CUSTOMPROPERTY
  1
$PN.
  9
$CUSTOMPROPERTYTAG
  1
LINA
  9
$CUSTOMPROPERTY
  1
069845
  9
$CUSTOMPROPERTYTAG
  1
SS
  9
$CUSTOMPROPERTY
  1
1-3/4
  9
$CUSTOMPROPERTYTAG
  1
PN
  9
$CUSTOMPROPERTY
  1
069845
  9
$CUSTOMPROPERTYTAG
  1
DESCRIPTION
  9
$CUSTOMPROPERTY
  1
FC-IP-112RE
  9
$CUSTOMPROPERTYTAG
  1
EF
  9
$CUSTOMPROPERTY
  1
Expansion Type
  9
$CUSTOMPROPERTYTAG
  1
ST
  9
$CUSTOMPROPERTY
  1
Contact  Seal
  9
$CUSTOMPROPERTYTAG
  1
A
  9
$CUSTOMPROPERTY
  1
2-13/16
  9
$CUSTOMPROPERTYTAG
  1
B
  9
$CUSTOMPROPERTY
  1
6-1/8
  9
$CUSTOMPROPERTYTAG
  1
C
  9
$CUSTOMPROPERTY
  1
1-29/32
  9
$CUSTOMPROPERTYTAG
  1
D
  9
$CUSTOMPROPERTY
  1
3-5/8
  9
$CUSTOMPROPERTYTAG
  1
DD
  9
$CUSTOMPROPERTY
  1
5-1/8
  9
$CUSTOMPROPERTYTAG
  1
E
  9
$CUSTOMPROPERTY
  1
7/8
  9
$CUSTOMPROPERTYTAG
  1
F
  9
$CUSTOMPROPERTY
  1
7/16
  9
$CUSTOMPROPERTYTAG
  1
G
  9
$CUSTOMPROPERTY
  1
1-39/64
  9
$CUSTOMPROPERTYTAG
  1
H
  9
$CUSTOMPROPERTY
  1
1/2
  9
$CUSTOMPROPERTYTAG
  1
K
  9
$CUSTOMPROPERTY
  1
4.250
  9
$CUSTOMPROPERTYTAG
  1
L
  9
$CUSTOMPROPERTY
  1
3
  9
$CUSTOMPROPERTYTAG
  1
M
  9
$CUSTOMPROPERTY
  1
7/16-14
  9
$CUSTOMPROPERTYTAG
  1
N
  9
$CUSTOMPROPERTY
  1
2-55/64
  9
$CUSTOMPROPERTYTAG
  1
P
  9
$CUSTOMPROPERTY
  1
1-13/64
  9
$CUSTOMPROPERTYTAG
  1
Q
  9
$CUSTOMPROPERTY
  1
1-17/64
  9
$CUSTOMPROPERTYTAG
  1
X
  9
$CUSTOMPROPERTY
  1
1/4
  9
$CUSTOMPROPERTYTAG
  1
Y
  9
$CUSTOMPROPERTY
  1
0.020
  9
$CUSTOMPROPERTYTAG
  1
Z
  9
$CUSTOMPROPERTY
  1
2-5/64
  9
$CUSTOMPROPERTYTAG
  1
COMPANY
  9
$CUSTOMPROPERTY
  1
baldor
  9
$INSBASE
 10
0.0
 20
0.0
 30
0.0
  9
$EXTMIN
 10
1.000000000000000E+20
 20
1.000000000000000E+20
 30
1.000000000000000E+20
  9
$EXTMAX
 10
-1.000000000000000E+20
 20
-1.000000000000000E+20
 30
-1.000000000000000E+20
  9
$LIMMIN
 10
0.0
 20
0.0
  9
$LIMMAX
 10
12.0
 20
9.0
  9
$ORTHOMODE
 70
     0
  9
$REGENMODE
 70
     1
  9
$FILLMODE
 70
     1
  9
$QTEXTMODE
 70
     0
  9
$MIRRTEXT
 70
     1
  9
$LTSCALE
 40
1.0
  9
$ATTMODE
 70
     1
  9
$TEXTSIZE
 40
0.2
  9
$TRACEWID
 40
0.05
  9
$TEXTSTYLE
  7
Standard
  9
$CLAYER
  8
0
  9
$CELTYPE
  6
ByLayer
  9
$CECOLOR
 62
   256
  9
$CELTSCALE
 40
1.0
  9
$DISPSILH
 70
     0
  9
$DIMSCALE
 40
1.0
  9
$DIMASZ
 40
0.18
  9
$DIMEXO
 40
0.0625
  9
$DIMDLI
 40
0.38
  9
$DIMRND
 40
0.0
  9
$DIMDLE
 40
0.0
  9
$DIMEXE
 40
0.18
  9
$DIMTP
 40
0.0
  9
$DIMTM
 40
0.0
  9
$DIMTXT
 40
0.18
  9
$DIMCEN
 40
0.09
  9
$DIMTSZ
 40
0.0
  9
$DIMTOL
 70
     0
  9
$DIMLIM
 70
     0
  9
$DIMTIH
 70
     1
  9
$DIMTOH
 70
     1
  9
$DIMSE1
 70
     0
  9
$DIMSE2
 70
     0
  9
$DIMTAD
 70
     0
  9
$DIMZIN
 70
     0
  9
$DIMBLK
  1

  9
$DIMASO
 70
     1
  9
$DIMSHO
 70
     1
  9
$DIMPOST
  1

  9
$DIMAPOST
  1

  9
$DIMALT
 70
     0
  9
$DIMALTD
 70
     2
  9
$DIMALTF
 40
25.4
  9
$DIMLFAC
 40
1.0
  9
$DIMTOFL
 70
     0
  9
$DIMTVP
 40
0.0
  9
$DIMTIX
 70
     0
  9
$DIMSOXD
 70
     0
  9
$DIMSAH
 70
     0
  9
$DIMBLK1
  1

  9
$DIMBLK2
  1

  9
$DIMSTYLE
  2
Standard
  9
$DIMCLRD
 70
     0
  9
$DIMCLRE
 70
     0
  9
$DIMCLRT
 70
     0
  9
$DIMTFAC
 40
1.0
  9
$DIMGAP
 40
0.09
  9
$DIMJUST
 70
     0
  9
$DIMSD1
 70
     0
  9
$DIMSD2
 70
     0
  9
$DIMTOLJ
 70
     1
  9
$DIMTZIN
 70
     0
  9
$DIMALTZ
 70
     0
  9
$DIMALTTZ
 70
     0
  9
$DIMUPT
 70
     0
  9
$DIMDEC
 70
     4
  9
$DIMTDEC
 70
     4
  9
$DIMALTU
 70
     2
  9
$DIMALTTD
 70
     2
  9
$DIMTXSTY
  7
Standard
  9
$DIMAUNIT
 70
     0
  9
$DIMADEC
 70
     0
  9
$DIMALTRND
 40
0.0
  9
$DIMAZIN
 70
     0
  9
$DIMDSEP
 70
    46
  9
$DIMATFIT
 70
     3
  9
$DIMFRAC
 70
     0
  9
$DIMLDRBLK
  1

  9
$DIMLUNIT
 70
     2
  9
$DIMLWD
 70
    -2
  9
$DIMLWE
 70
    -2
  9
$DIMTMOVE
 70
     0
  9
$DIMFXL
 40
1.0
  9
$DIMFXLON
 70
     0
  9
$DIMJOGANG
 40
0.7853981633974483
  9
$DIMTFILL
 70
     0
  9
$DIMTFILLCLR
 70
     0
  9
$DIMARCSYM
 70
     0
  9
$DIMLTYPE
  6

  9
$DIMLTEX1
  6

  9
$DIMLTEX2
  6

  9
$DIMTXTDIRECTION
 70
     0
  9
$LUNITS
 70
     2
  9
$LUPREC
 70
     4
  9
$SKETCHINC
 40
0.1
  9
$FILLETRAD
 40
0.5
  9
$AUNITS
 70
     0
  9
$AUPREC
 70
     0
  9
$MENU
  1
.
  9
$ELEVATION
 40
0.0
  9
$PELEVATION
 40
0.0
  9
$THICKNESS
 40
0.0
  9
$LIMCHECK
 70
     0
  9
$CHAMFERA
 40
0.0
  9
$CHAMFERB
 40
0.0
  9
$CHAMFERC
 40
0.0
  9
$CHAMFERD
 40
0.0
  9
$SKPOLY
 70
     0
  9
$TDCREATE
 40
2458168.989501736
  9
$TDUCREATE
 40
2458168.94783507
  9
$TDUPDATE
 40
2458168.989501921
  9
$TDUUPDATE
 40
2458168.947835254
  9
$TDINDWG
 40
0.0000000116
  9
$TDUSRTIMER
 40
0.0000000116
  9
$USRTIMER
 70
     1
  9
$ANGBASE
 50
0.0
  9
$ANGDIR
 70
     0
  9
$PDMODE
 70
     0
  9
$PDSIZE
 40
0.0
  9
$PLINEWID
 40
0.0
  9
$SPLFRAME
 70
     0
  9
$SPLINETYPE
 70
     6
  9
$SPLINESEGS
 70
     8
  9
$HANDSEED
  5
274
  9
$SURFTAB1
 70
     6
  9
$SURFTAB2
 70
     6
  9
$SURFTYPE
 70
     6
  9
$SURFU
 70
     6
  9
$SURFV
 70
     6
  9
$UCSBASE
  2

  9
$UCSNAME
  2

  9
$UCSORG
 10
0.0
 20
0.0
 30
0.0
  9
$UCSXDIR
 10
1.0
 20
0.0
 30
0.0
  9
$UCSYDIR
 10
0.0
 20
1.0
 30
0.0
  9
$UCSORTHOREF
  2

  9
$UCSORTHOVIEW
 70
     0
  9
$UCSORGTOP
 10
0.0
 20
0.0
 30
0.0
  9
$UCSORGBOTTOM
 10
0.0
 20
0.0
 30
0.0
  9
$UCSORGLEFT
 10
0.0
 20
0.0
 30
0.0
  9
$UCSORGRIGHT
 10
0.0
 20
0.0
 30
0.0
  9
$UCSORGFRONT
 10
0.0
 20
0.0
 30
0.0
  9
$UCSORGBACK
 10
0.0
 20
0.0
 30
0.0
  9
$PUCSBASE
  2

  9
$PUCSNAME
  2

  9
$PUCSORG
 10
0.0
 20
0.0
 30
0.0
  9
$PUCSXDIR
 10
1.0
 20
0.0
 30
0.0
  9
$PUCSYDIR
 10
0.0
 20
1.0
 30
0.0
  9
$PUCSORTHOREF
  2

  9
$PUCSORTHOVIEW
 70
     0
  9
$PUCSORGTOP
 10
0.0
 20
0.0
 30
0.0
  9
$PUCSORGBOTTOM
 10
0.0
 20
0.0
 30
0.0
  9
$PUCSORGLEFT
 10
0.0
 20
0.0
 30
0.0
  9
$PUCSORGRIGHT
 10
0.0
 20
0.0
 30
0.0
  9
$PUCSORGFRONT
 10
0.0
 20
0.0
 30
0.0
  9
$PUCSORGBACK
 10
0.0
 20
0.0
 30
0.0
  9
$USERI1
 70
     0
  9
$USERI2
 70
     0
  9
$USERI3
 70
     0
  9
$USERI4
 70
     0
  9
$USERI5
 70
     0
  9
$USERR1
 40
0.0
  9
$USERR2
 40
0.0
  9
$USERR3
 40
0.0
  9
$USERR4
 40
0.0
  9
$USERR5
 40
0.0
  9
$WORLDVIEW
 70
     1
  9
$SHADEDGE
 70
     3
  9
$SHADEDIF
 70
    70
  9
$TILEMODE
 70
     1
  9
$MAXACTVP
 70
    64
  9
$PINSBASE
 10
0.0
 20
0.0
 30
0.0
  9
$PLIMCHECK
 70
     0
  9
$PEXTMIN
 10
1.000000000000000E+20
 20
1.000000000000000E+20
 30
1.000000000000000E+20
  9
$PEXTMAX
 10
-1.000000000000000E+20
 20
-1.000000000000000E+20
 30
-1.000000000000000E+20
  9
$PLIMMIN
 10
0.0
 20
0.0
  9
$PLIMMAX
 10
12.0
 20
9.0
  9
$UNITMODE
 70
     0
  9
$VISRETAIN
 70
     1
  9
$PLINEGEN
 70
     0
  9
$PSLTSCALE
 70
     1
  9
$TREEDEPTH
 70
  3020
  9
$CMLSTYLE
  2
Standard
  9
$CMLJUST
 70
     0
  9
$CMLSCALE
 40
1.0
  9
$PROXYGRAPHICS
 70
     1
  9
$MEASUREMENT
 70
     0
  9
$CELWEIGHT
370
    -1
  9
$ENDCAPS
280
     0
  9
$JOINSTYLE
280
     0
  9
$LWDISPLAY
290
     0
  9
$INSUNITS
 70
     1
  9
$HYPERLINKBASE
  1

  9
$STYLESHEET
  1

  9
$XEDIT
290
     1
  9
$CEPSNTYPE
380
     0
  9
$PSTYLEMODE
290
     1
  9
$FINGERPRINTGUID
  2
{9C4ED084-A1A4-44F6-923B-78D264A90F56}
  9
$VERSIONGUID
  2
{FAEB1C32-E019-11D5-929B-00C0DF256EC4}
  9
$EXTNAMES
290
     1
  9
$PSVPSCALE
 40
0.0
  9
$OLESTARTUP
290
     0
  9
$SORTENTS
280
   127
  9
$INDEXCTL
280
     0
  9
$HIDETEXT
280
     1
  9
$XCLIPFRAME
280
     2
  9
$HALOGAP
280
     0
  9
$OBSCOLOR
 70
   257
  9
$OBSLTYPE
280
     0
  9
$INTERSECTIONDISPLAY
280
     0
  9
$INTERSECTIONCOLOR
 70
   257
  9
$DIMASSOC
280
     2
  9
$PROJECTNAME
  1

  9
$CAMERADISPLAY
290
     0
  9
$LENSLENGTH
 40
50.0
  9
$CAMERAHEIGHT
 40
0.0
  9
$STEPSPERSEC
 40
2.0
  9
$STEPSIZE
 40
6.0
  9
$3DDWFPREC
 40
2.0
  9
$PSOLWIDTH
 40
0.25
  9
$PSOLHEIGHT
 40
4.0
  9
$LOFTANG1
 40
1.570796326794897
  9
$LOFTANG2
 40
1.570796326794897
  9
$LOFTMAG1
 40
0.0
  9
$LOFTMAG2
 40
0.0
  9
$LOFTPARAM
 70
     7
  9
$LOFTNORMALS
280
     1
  9
$LATITUDE
 40
37.795
  9
$LONGITUDE
 40
-122.394
  9
$NORTHDIRECTION
 40
0.0
  9
$TIMEZONE
 70
 -8000
  9
$LIGHTGLYPHDISPLAY
280
     1
  9
$TILEMODELIGHTSYNCH
280
     1
  9
$CMATERIAL
347
44
  9
$SOLIDHIST
280
     0
  9
$SHOWHIST
280
     1
  9
$DWFFRAME
280
     2
  9
$DGNFRAME
280
     2
  9
$REALWORLDSCALE
290
     1
  9
$INTERFERECOLOR
 62
   256
  9
$CSHADOW
280
     0
  9
$SHADOWPLANELOCATION
 40
0.0
  0
ENDSEC
  0
SECTION
  2
CLASSES
  0
CLASS
  1
ACDBDICTIONARYWDFLT
  2
AcDbDictionaryWithDefault
  3
ObjectDBX Classes
 90
        0
 91
        4
280
     0
281
     0
  0
CLASS
  1
VISUALSTYLE
  2
AcDbVisualStyle
  3
ObjectDBX Classes
 90
     4095
 91
        4
280
     0
281
     0
  0
CLASS
  1
MATERIAL
  2
AcDbMaterial
  3
ObjectDBX Classes
 90
     1153
 91
        4
280
     0
281
     0
  0
CLASS
  1
SCALE
  2
AcDbScale
  3
ObjectDBX Classes
 90
     1153
 91
        4
280
     0
281
     0
  0
CLASS
  1
TABLESTYLE
  2
AcDbTableStyle
  3
ObjectDBX Classes
 90
     4095
 91
        4
280
     0
281
     0
  0
CLASS
  1
MLEADERSTYLE
  2
AcDbMLeaderStyle
  3
ACDB_MLEADERSTYLE_CLASS
 90
     4095
 91
        4
280
     0
281
     0
  0
CLASS
  1
SUN
  2
AcDbSun
  3
SCENEOE
 90
     1153
 91
        4
280
     0
281
     0
  0
CLASS
  1
DICTIONARYVAR
  2
AcDbDictionaryVar
  3
ObjectDBX Classes
 90
        0
 91
        4
280
     0
281
     0
  0
CLASS
  1
CELLSTYLEMAP
  2
AcDbCellStyleMap
  3
ObjectDBX Classes
 90
     1152
 91
        4
280
     0
281
     0
  0
ENDSEC
  0
SECTION
  2
TABLES
  0
TABLE
  2
VPORT
  5
8
330
0
100
AcDbSymbolTable
 70
     1
  0
VPORT
  5
29
330
8
100
AcDbSymbolTableRecord
100
AcDbViewportTableRecord
  2
*Active
 70
     0
 10
0.0
 20
0.0
 11
1.0
 21
1.0
 12
0.0
 22
0.0
 13
0.0
 23
0.0
 14
0.5
 24
0.5
 15
0.5
 25
0.5
 16
0.0
 26
0.0
 36
1.0
 17
0.0
 27
0.0
 37
0.0
 40
3.408075000000001
 41
1.833146277590722
 42
50.0
 43
0.0
 44
0.0
 50
0.0
 51
0.0
 71
     0
 72
   100
 73
     1
 74
     3
 75
     0
 76
     0
 77
     0
 78
     0
281
     0
 65
     1
110
0.0
120
0.0
130
0.0
111
1.0
121
0.0
131
0.0
112
0.0
122
1.0
132
0.0
 79
     0
146
0.0
348
2F
 60
     3
 61
     5
292
     1
282
     1
141
0.0
142
0.0
 63
   250
361
6D
  0
ENDTAB
  0
TABLE
  2
LTYPE
  5
5
330
0
100
AcDbSymbolTable
 70
     3
  0
LTYPE
  5
14
330
5
100
AcDbSymbolTableRecord
100
AcDbLinetypeTableRecord
  2
ByBlock
 70
     0
  3

 72
    65
 73
     0
 40
0.0
  0
LTYPE
  5
15
330
5
100
AcDbSymbolTableRecord
100
AcDbLinetypeTableRecord
  2
ByLayer
 70
     0
  3

 72
    65
 73
     0
 40
0.0
  0
LTYPE
  5
16
330
5
100
AcDbSymbolTableRecord
100
AcDbLinetypeTableRecord
  2
Continuous
 70
     0
  3
Solid line
 72
    65
 73
     0
 40
0.0
  0
LTYPE
  5
9C
330
5
100
AcDbSymbolTableRecord
100
AcDbLinetypeTableRecord
  2
Dashed
 70
     0
  3

 72
    65
 73
     2
 40
2.0
 49
1.0
 74
     0
 49
-1.0
 74
     0
  0
LTYPE
  5
217
330
5
100
AcDbSymbolTableRecord
100
AcDbLinetypeTableRecord
  2
Center
 70
     0
  3

 72
    65
 73
     4
 40
1.5
 49
0.45
 74
     0
 49
-0.5
 74
     0
 49
0.05
 74
     0
 49
-0.5
 74
     0
  0
ENDTAB
  0
TABLE
  2
LAYER
  5
2
330
0
100
AcDbSymbolTable
 70
     7
  0
LAYER
  5
10
330
2
100
AcDbSymbolTableRecord
100
AcDbLayerTableRecord
  2
0
 70
     0
 62
     7
  6
Continuous
370
    -3
390
F
347
46
348
0
  0
LAYER
  5
72
330
2
100
AcDbSymbolTableRecord
100
AcDbLayerTableRecord
  2
AM_6
 70
     0
 62
    -2
  6
Continuous
370
    35
390
F
347
46
348
0
  0
LAYER
  5
9D
330
2
100
AcDbSymbolTableRecord
100
AcDbLayerTableRecord
  2
AM_9
 70
     0
 62
     6
  6
Dashed
370
    25
390
F
347
46
348
0
  0
LAYER
  5
BF
330
2
100
AcDbSymbolTableRecord
100
AcDbLayerTableRecord
  2
AM_4
 70
     0
 62
     7
  6
Continuous
370
    50
390
F
347
46
348
0
  0
LAYER
  5
F8
330
2
100
AcDbSymbolTableRecord
100
AcDbLayerTableRecord
  2
AM_5
 70
     0
 62
     3
  6
Continuous
370
    25
390
F
347
46
348
0
  0
LAYER
  5
218
330
2
100
AcDbSymbolTableRecord
100
AcDbLayerTableRecord
  2
AM_7
 70
     0
 62
     7
  6
Center
370
    25
390
F
347
46
348
0
  0
LAYER
  5
25C
330
2
100
AcDbSymbolTableRecord
100
AcDbLayerTableRecord
  2
ConnectionPoints
 70
     0
 62
     7
  6
Continuous
370
    50
390
F
347
46
348
0
  0
ENDTAB
  0
TABLE
  2
STYLE
  5
3
330
0
100
AcDbSymbolTable
 70
     1
  0
STYLE
  5
11
330
3
100
AcDbSymbolTableRecord
100
AcDbTextStyleTableRecord
  2
Standard
 70
     0
 40
0.0
 41
1.0
 50
0.0
 71
     0
 42
0.2
  3
txt
  4

  0
ENDTAB
  0
TABLE
  2
VIEW
  5
6
330
0
100
AcDbSymbolTable
 70
     0
  0
ENDTAB
  0
TABLE
  2
UCS
  5
7
330
0
100
AcDbSymbolTable
 70
     0
  0
ENDTAB
  0
TABLE
  2
APPID
  5
9
330
0
100
AcDbSymbolTable
 70
     1
  0
APPID
  5
12
330
9
100
AcDbSymbolTableRecord
100
AcDbRegAppTableRecord
  2
ACAD
 70
     0
  0
ENDTAB
  0
TABLE
  2
DIMSTYLE
  5
A
330
0
100
AcDbSymbolTable
 70
     1
100
AcDbDimStyleTable
  0
DIMSTYLE
105
27
330
A
100
AcDbSymbolTableRecord
100
AcDbDimStyleTableRecord
  2
Standard
 70
     0
178
     0
340
11
  0
ENDTAB
  0
TABLE
  2
BLOCK_RECORD
  5
1
330
0
100
AcDbSymbolTable
 70
     8
  0
BLOCK_RECORD
  5
1F
330
1
100
AcDbSymbolTableRecord
100
AcDbBlockTableRecord
  2
*Model_Space
340
22
 70
     0
280
     1
281
     0
  0
BLOCK_RECORD
  5
1B
330
1
100
AcDbSymbolTableRecord
100
AcDbBlockTableRecord
  2
*Paper_Space
340
1E
 70
     0
280
     1
281
     0
  0
BLOCK_RECORD
  5
23
330
1
100
AcDbSymbolTableRecord
100
AcDbBlockTableRecord
  2
*Paper_Space0
340
26
 70
     0
280
     1
281
     0
  0
BLOCK_RECORD
  5
6E
330
1
100
AcDbSymbolTableRecord
100
AcDbBlockTableRecord
  2
1_069845_4
340
0
102
{BLKREFS
331
6F
102
}
 70
     0
280
     1
281
     0
  0
BLOCK_RECORD
  5
90
330
1
100
AcDbSymbolTableRecord
100
AcDbBlockTableRecord
  2
2_405015E_Inch_0_in_069845_4
340
0
102
{BLKREFS
331
91
102
}
 70
     0
280
     1
281
     0
  0
BLOCK_RECORD
  5
E8
330
1
100
AcDbSymbolTableRecord
100
AcDbBlockTableRecord
  2
3_ASME_B18_3_10_1_0_in_069845_4
340
0
102
{BLKREFS
331
E9
102
}
 70
     0
280
     1
281
     0
  0
BLOCK_RECORD
  5
FB
330
1
100
AcDbSymbolTableRecord
100
AcDbBlockTableRecord
  2
4_ASME_B18_3_10_2_0_in_069845_4
340
0
102
{BLKREFS
331
FC
102
}
 70
     0
280
     1
281
     0
  0
BLOCK_RECORD
  5
11D
330
1
100
AcDbSymbolTableRecord
100
AcDbBlockTableRecord
  2
5_070888LW_0_in_069845_4
340
0
102
{BLKREFS
331
11E
102
}
 70
     0
280
     1
281
     0
  0
BLOCK_RECORD
  5
151
330
1
100
AcDbSymbolTableRecord
100
AcDbBlockTableRecord
  2
6_070888I_0_in_069845_4
340
0
102
{BLKREFS
331
152
102
}
 70
     0
280
     1
281
     0
  0
BLOCK_RECORD
  5
1CD
330
1
100
AcDbSymbolTableRecord
100
AcDbBlockTableRecord
  2
7_069845H_0_in_069845_4
340
0
102
{BLKREFS
331
1CE
102
}
 70
     0
280
     1
281
     0
  0
ENDTAB
  0
ENDSEC
  0
SECTION
  2
BLOCKS
  0
BLOCK
  5
20
330
1F
100
AcDbEntity
  8
0
100
AcDbBlockBegin
  2
*Model_Space
 70
     0
 10
0.0
 20
0.0
 30
0.0
  3
*Model_Space
  1

  0
ENDBLK
  5
21
330
1F
100
AcDbEntity
  8
0
100
AcDbBlockEnd
  0
BLOCK
  5
1C
330
1B
100
AcDbEntity
 67
     1
  8
0
100
AcDbBlockBegin
  2
*Paper_Space
 70
     0
 10
0.0
 20
0.0
 30
0.0
  3
*Paper_Space
  1

  0
ENDBLK
  5
1D
330
1B
100
AcDbEntity
 67
     1
  8
0
100
AcDbBlockEnd
  0
BLOCK
  5
24
330
23
100
AcDbEntity
  8
0
100
AcDbBlockBegin
  2
*Paper_Space0
 70
     0
 10
0.0
 20
0.0
 30
0.0
  3
*Paper_Space0
  1

  0
ENDBLK
  5
25
330
23
100
AcDbEntity
  8
0
100
AcDbBlockEnd
  0
BLOCK
  5
70
330
6E
100
AcDbEntity
  8
0
100
AcDbBlockBegin
  2
1_069845_4
 70
     2
 10
0.0
 20
0.0
 30
0.0
  3
1_069845_4
  1

  0
ATTDEF
  5
73
330
6E
100
AcDbEntity
  8
AM_6
100
AcDbText
 10
8.0625
 20
1.670625
 30
0.0
 40
0.5
  1
Imperial - IP Piloted Flange Contact Seal
100
AcDbAttributeDefinition
  3

  2
NN
 70
     8
280
     0
  0
ATTDEF
  5
74
330
6E
100
AcDbEntity
  8
AM_6
100
AcDbText
 10
8.0625
 20
1.170625
 30
0.0
 40
0.5
  1
Imperial Piloted Flange Bearings
100
AcDbAttributeDefinition
  3

  2
NT
 70
     8
280
     0
  0
ATTDEF
  5
75
330
6E
100
AcDbEntity
  8
AM_6
100
AcDbText
 10
8.0625
 20
0.670625
 30
0.0
 40
0.5
  1
069845
100
AcDbAttributeDefinition
  3

  2
NB
 70
     8
280
     0
  0
ATTDEF
  5
76
330
6E
100
AcDbEntity
  8
AM_6
100
AcDbText
 10
8.0625
 20
0.170625
 30
0.0
 40
0.5
  1
$PN.
100
AcDbAttributeDefinition
  3

  2
NBSYN
 70
     8
280
     0
  0
ATTDEF
  5
77
330
6E
100
AcDbEntity
  8
AM_6
100
AcDbText
 10
8.0625
 20
-0.329375
 30
0.0
 40
0.5
  1
069845
100
AcDbAttributeDefinition
  3

  2
LINA
 70
     8
280
     0
  0
ATTDEF
  5
78
330
6E
100
AcDbEntity
  8
AM_6
100
AcDbText
 10
8.0625
 20
-0.829375
 30
0.0
 40
0.5
  1
1-3/4
100
AcDbAttributeDefinition
  3

  2
SS
 70
     8
280
     0
  0
ATTDEF
  5
79
330
6E
100
AcDbEntity
  8
AM_6
100
AcDbText
 10
8.0625
 20
-1.329375
 30
0.0
 40
0.5
  1
069845
100
AcDbAttributeDefinition
  3

  2
PN
 70
     8
280
     0
  0
ATTDEF
  5
7A
330
6E
100
AcDbEntity
  8
AM_6
100
AcDbText
 10
8.0625
 20
-1.829375
 30
0.0
 40
0.5
  1
FC-IP-112RE
100
AcDbAttributeDefinition
  3

  2
DESCRIPTION
 70
     8
280
     0
  0
ATTDEF
  5
7B
330
6E
100
AcDbEntity
  8
AM_6
100
AcDbText
 10
8.0625
 20
-2.329375
 30
0.0
 40
0.5
  1
Expansion Type
100
AcDbAttributeDefinition
  3

  2
EF
 70
     8
280
     0
  0
ATTDEF
  5
7C
330
6E
100
AcDbEntity
  8
AM_6
100
AcDbText
 10
8.0625
 20
-2.829375
 30
0.0
 40
0.5
  1
Contact  Seal
100
AcDbAttributeDefinition
  3

  2
ST
 70
     8
280
     0
  0
ATTDEF
  5
7D
330
6E
100
AcDbEntity
  8
AM_6
100
AcDbText
 10
8.0625
 20
-3.329375
 30
0.0
 40
0.5
  1
2-13/16
100
AcDbAttributeDefinition
  3

  2
A
 70
     8
280
     0
  0
ATTDEF
  5
7E
330
6E
100
AcDbEntity
  8
AM_6
100
AcDbText
 10
8.0625
 20
-3.829375
 30
0.0
 40
0.5
  1
6-1/8
100
AcDbAttributeDefinition
  3

  2
B
 70
     8
280
     0
  0
ATTDEF
  5
7F
330
6E
100
AcDbEntity
  8
AM_6
100
AcDbText
 10
8.0625
 20
-4.329375
 30
0.0
 40
0.5
  1
1-29/32
100
AcDbAttributeDefinition
  3

  2
C
 70
     8
280
     0
  0
ATTDEF
  5
80
330
6E
100
AcDbEntity
  8
AM_6
100
AcDbText
 10
8.0625
 20
-4.829375
 30
0.0
 40
0.5
  1
3-5/8
100
AcDbAttributeDefinition
  3

  2
D
 70
     8
280
     0
  0
ATTDEF
  5
81
330
6E
100
AcDbEntity
  8
AM_6
100
AcDbText
 10
8.0625
 20
-5.329375
 30
0.0
 40
0.5
  1
5-1/8
100
AcDbAttributeDefinition
  3

  2
DD
 70
     8
280
     0
  0
ATTDEF
  5
82
330
6E
100
AcDbEntity
  8
AM_6
100
AcDbText
 10
8.0625
 20
-5.829375
 30
0.0
 40
0.5
  1
7/8
100
AcDbAttributeDefinition
  3

  2
E
 70
     8
280
     0
  0
ATTDEF
  5
83
330
6E
100
AcDbEntity
  8
AM_6
100
AcDbText
 10
8.0625
 20
-6.329375
 30
0.0
 40
0.5
  1
7/16
100
AcDbAttributeDefinition
  3

  2
F
 70
     8
280
     0
  0
ATTDEF
  5
84
330
6E
100
AcDbEntity
  8
AM_6
100
AcDbText
 10
8.0625
 20
-6.829375
 30
0.0
 40
0.5
  1
1-39/64
100
AcDbAttributeDefinition
  3

  2
G
 70
     8
280
     0
  0
ATTDEF
  5
85
330
6E
100
AcDbEntity
  8
AM_6
100
AcDbText
 10
8.0625
 20
-7.329375
 30
0.0
 40
0.5
  1
1/2
100
AcDbAttributeDefinition
  3

  2
H
 70
     8
280
     0
  0
ATTDEF
  5
86
330
6E
100
AcDbEntity
  8
AM_6
100
AcDbText
 10
8.0625
 20
-7.829375
 30
0.0
 40
0.5
  1
4.250
100
AcDbAttributeDefinition
  3

  2
K
 70
     8
280
     0
  0
ATTDEF
  5
87
330
6E
100
AcDbEntity
  8
AM_6
100
AcDbText
 10
8.0625
 20
-8.329374999999999
 30
0.0
 40
0.5
  1
3
100
AcDbAttributeDefinition
  3

  2
L
 70
     8
280
     0
  0
ATTDEF
  5
88
330
6E
100
AcDbEntity
  8
AM_6
100
AcDbText
 10
8.0625
 20
-8.829374999999999
 30
0.0
 40
0.5
  1
7/16-14
100
AcDbAttributeDefinition
  3

  2
M
 70
     8
280
     0
  0
ATTDEF
  5
89
330
6E
100
AcDbEntity
  8
AM_6
100
AcDbText
 10
8.0625
 20
-9.329374999999999
 30
0.0
 40
0.5
  1
2-55/64
100
AcDbAttributeDefinition
  3

  2
N
 70
     8
280
     0
  0
ATTDEF
  5
8A
330
6E
100
AcDbEntity
  8
AM_6
100
AcDbText
 10
8.0625
 20
-9.829374999999999
 30
0.0
 40
0.5
  1
1-13/64
100
AcDbAttributeDefinition
  3

  2
P
 70
     8
280
     0
  0
ATTDEF
  5
8B
330
6E
100
AcDbEntity
  8
AM_6
100
AcDbText
 10
8.0625
 20
-10.329375
 30
0.0
 40
0.5
  1
1-17/64
100
AcDbAttributeDefinition
  3

  2
Q
 70
     8
280
     0
  0
ATTDEF
  5
8C
330
6E
100
AcDbEntity
  8
AM_6
100
AcDbText
 10
8.0625
 20
-10.829375
 30
0.0
 40
0.5
  1
1/4
100
AcDbAttributeDefinition
  3

  2
X
 70
     8
280
     0
  0
ATTDEF
  5
8D
330
6E
100
AcDbEntity
  8
AM_6
100
AcDbText
 10
8.0625
 20
-11.329375
 30
0.0
 40
0.5
  1
0.020
100
AcDbAttributeDefinition
  3

  2
Y
 70
     8
280
     0
  0
ATTDEF
  5
8E
330
6E
100
AcDbEntity
  8
AM_6
100
AcDbText
 10
8.0625
 20
-11.829375
 30
0.0
 40
0.5
  1
2-5/64
100
AcDbAttributeDefinition
  3

  2
Z
 70
     8
280
     0
  0
ATTDEF
  5
8F
330
6E
100
AcDbEntity
  8
AM_6
100
AcDbText
 10
8.0625
 20
-12.329375
 30
0.0
 40
0.5
  1
baldor
100
AcDbAttributeDefinition
  3

  2
COMPANY
 70
     8
280
     0
  0
INSERT
  5
91
330
6E
100
AcDbEntity
  8
0
100
AcDbBlockReference
  2
2_405015E_Inch_0_in_069845_4
 10
0.0
 20
0.0
 30
0.0
  0
INSERT
  5
E9
330
6E
100
AcDbEntity
  8
0
100
AcDbBlockReference
  2
3_ASME_B18_3_10_1_0_in_069845_4
 10
0.0
 20
0.0
 30
0.0
  0
INSERT
  5
FC
330
6E
100
AcDbEntity
  8
0
100
AcDbBlockReference
  2
4_ASME_B18_3_10_2_0_in_069845_4
 10
0.0
 20
0.0
 30
0.0
  0
INSERT
  5
11E
330
6E
100
AcDbEntity
  8
0
100
AcDbBlockReference
  2
5_070888LW_0_in_069845_4
 10
0.0
 20
0.0
 30
0.0
  0
INSERT
  5
152
330
6E
100
AcDbEntity
  8
0
100
AcDbBlockReference
  2
6_070888I_0_in_069845_4
 10
0.0
 20
0.0
 30
0.0
  0
INSERT
  5
1CE
330
6E
100
AcDbEntity
  8
0
100
AcDbBlockReference
  2
7_069845H_0_in_069845_4
 10
0.0
 20
0.0
 30
0.0
  0
ENDBLK
  5
71
330
6E
100
AcDbEntity
  8
0
100
AcDbBlockEnd
  0
BLOCK
  5
92
330
90
100
AcDbEntity
  8
0
100
AcDbBlockBegin
  2
2_405015E_Inch_0_in_069845_4
 70
     2
 10
0.0
 20
0.0
 30
0.0
  3
2_405015E_Inch_0_in_069845_4
  1

  0
ATTDEF
  5
94
330
90
100
AcDbEntity
  8
AM_6
100
AcDbText
 10
5.252590742770462
 20
-0.2093643317609899
 30
0.0
 40
0.5
  1
405015E -Inch
100
AcDbAttributeDefinition
  3

  2
NN
 70
     8
280
     0
  0
ATTDEF
  5
95
330
90
100
AcDbEntity
  8
AM_6
100
AcDbText
 10
5.252590742770462
 20
-0.7093643317609899
 30
0.0
 40
0.5
  1
Grease Fitting
100
AcDbAttributeDefinition
  3

  2
NT
 70
     8
280
     0
  0
ATTDEF
  5
96
330
90
100
AcDbEntity
  8
AM_6
100
AcDbText
 10
5.252590742770462
 20
-1.20936433176099
 30
0.0
 40
0.5
  1
405015E-Inch
100
AcDbAttributeDefinition
  3

  2
NB
 70
     8
280
     0
  0
ATTDEF
  5
97
330
90
100
AcDbEntity
  8
AM_6
100
AcDbText
 10
5.252590742770462
 20
-1.70936433176099
 30
0.0
 40
0.5
  1
$MN.-Inch
100
AcDbAttributeDefinition
  3

  2
NBSYN
 70
     8
280
     0
  0
ATTDEF
  5
98
330
90
100
AcDbEntity
  8
AM_6
100
AcDbText
 10
5.252590742770462
 20
-2.20936433176099
 30
0.0
 40
0.5
  1
405015E
100
AcDbAttributeDefinition
  3

  2
LINA
 70
     8
280
     0
  0
ATTDEF
  5
99
330
90
100
AcDbEntity
  8
AM_6
100
AcDbText
 10
5.252590742770462
 20
-2.70936433176099
 30
0.0
 40
0.5
  1
405015E
100
AcDbAttributeDefinition
  3

  2
MN
 70
     8
280
     0
  0
ATTDEF
  5
9A
330
90
100
AcDbEntity
  8
AM_6
100
AcDbText
 10
5.252590742770462
 20
-3.20936433176099
 30
0.0
 40
0.5
  1
1/8 x 27PTF
100
AcDbAttributeDefinition
  3

  2
T
 70
     8
280
     0
  0
ATTDEF
  5
9B
330
90
100
AcDbEntity
  8
AM_6
100
AcDbText
 10
5.252590742770462
 20
-3.70936433176099
 30
0.0
 40
0.5
  1
baldor
100
AcDbAttributeDefinition
  3

  2
COMPANY
 70
     8
280
     0
  0
LINE
  5
9E
330
90
100
AcDbEntity
  8
AM_9
100
AcDbLine
 10
-0.1262953713852306
 20
-0.7079372686898273
 30
0.0
 11
-0.1262953713852306
 21
-0.6370402716886159
 31
0.0
  0
LINE
  5
9F
330
90
100
AcDbEntity
  8
AM_9
100
AcDbLine
 10
0.1262953713852306
 20
-0.7079372686898273
 30
0.0
 11
0.1262953713852306
 21
-0.6370402716886159
 31
0.0
  0
LWPOLYLINE
  5
A0
330
90
100
AcDbEntity
  8
AM_9
100
AcDbPolyline
 90
        3
 70
     0
 43
0.0
 10
0.1262953713852306
 20
-0.6370402716886159
 10
0.0634316146914367
 20
-0.6312785399444419
 10
0.0
 20
-0.6291874999999997
  0
LWPOLYLINE
  5
A1
330
90
100
AcDbEntity
  8
AM_9
100
AcDbPolyline
 90
        4
 70
     0
 43
0.0
 10
0.0
 20
-0.6291874999999997
 10
-0.0483998160558989
 20
-0.6304151435924474
 10
-0.0967996321117978
 20
-0.6339354085144782
 10
-0.1262953713852306
 20
-0.6370402716886159
  0
LWPOLYLINE
  5
A2
330
90
100
AcDbEntity
  8
AM_9
100
AcDbPolyline
 90
        3
 70
     0
 43
0.0
 10
-0.1262953713852306
 20
-0.6370402716886159
 10
-0.1577272497321276
 20
-0.604057734807367
 10
-0.1894430570778459
 20
-0.5744999999999997
  0
LWPOLYLINE
  5
A3
330
90
100
AcDbEntity
  8
AM_9
100
AcDbPolyline
 90
        3
 70
     0
 43
0.0
 10
0.1894430570778459
 20
-0.5744999999999997
 10
0.1578692142315383
 20
-0.6039164785607691
 10
0.1262953713852306
 20
-0.6370402716886159
  0
LWPOLYLINE
  5
A4
330
90
100
AcDbEntity
  8
AM_9
100
AcDbPolyline
 90
        4
 70
     0
 43
0.0
 10
-0.1018592215583236
 20
-0.7105567304032152
 10
-0.0967996321117978
 20
-0.711042131863965
 10
-0.0485424412477544
 20
-0.7145552368985099
 10
0.0
 20
-0.7157900403784435
  0
LINE
  5
A5
330
90
100
AcDbEntity
  8
AM_9
100
AcDbLine
 10
-0.1050087569988763
 20
-0.7102443229931724
 30
0.0
 11
-0.1018592215583236
 21
-0.7105567304032152
 31
0.0
  0
LINE
  5
A6
330
90
100
AcDbEntity
  8
AM_9
100
AcDbLine
 10
0.101866192704947
 20
-0.7105560475330025
 30
0.0
 11
0.1050474083588161
 21
-0.7102404409503277
 31
0.0
  0
LWPOLYLINE
  5
A7
330
90
100
AcDbEntity
  8
AM_9
100
AcDbPolyline
 90
        3
 70
     0
 43
0.0
 10
0.0
 20
-0.7157900403784435
 10
0.0631476856926153
 20
-0.713717311817674
 10
0.101866192704947
 20
-0.7105560475330025
  0
LWPOLYLINE
  5
A8
330
90
100
AcDbEntity
  8
AM_9
100
AcDbPolyline
 90
        3
 70
     0
 43
0.0
 10
0.2525907427704612
 20
-0.5276652716886158
 10
0.2211588644235643
 20
-0.5491243450815166
 10
0.1894430570778459
 20
-0.5744999999999997
  0
LWPOLYLINE
  5
A9
330
90
100
AcDbEntity
  8
AM_9
100
AcDbPolyline
 90
        3
 70
     0
 43
0.0
 10
-0.1894430570778459
 20
-0.5744999999999997
 10
-0.2210168999241536
 20
-0.5492289785607692
 10
-0.2525907427704612
 20
-0.5276652716886158
  0
LINE
  5
AA
330
90
100
AcDbEntity
  8
AM_9
100
AcDbLine
 10
-0.1321931418159853
 20
-0.2435784344949043
 30
0.0
 11
-0.1621706131788416
 21
-0.2647757077784055
 31
0.0
  0
LINE
  5
AB
330
90
100
AcDbEntity
  8
AM_9
100
AcDbLine
 10
0.1621706131788416
 20
-0.2647757077784055
 30
0.0
 11
0.1321931418159853
 21
-0.2435784344949043
 31
0.0
  0
LINE
  5
AC
330
90
100
AcDbEntity
  8
AM_9
100
AcDbLine
 10
-0.1985852938306408
 20
-0.3203198393135554
 30
0.0
 11
-0.2057184028850727
 21
-0.5179562992223701
 31
0.0
  0
LINE
  5
AD
330
90
100
AcDbEntity
  8
AM_9
100
AcDbLine
 10
0.2057184028850727
 20
-0.5179562992223701
 30
0.0
 11
0.1985852938306408
 21
-0.3203198393135554
 31
0.0
  0
LINE
  5
AE
330
90
100
AcDbEntity
  8
AM_9
100
AcDbLine
 10
0.1017810272422101
 20
-0.7102478741642867
 30
0.0
 11
0.105
 21
-0.7039454795247593
 31
0.0
  0
LINE
  5
AF
330
90
100
AcDbEntity
  8
AM_9
100
AcDbLine
 10
-0.105
 20
-0.7039454795247593
 30
0.0
 11
-0.1017810272422101
 21
-0.7102478741642867
 31
0.0
  0
ELLIPSE
  5
B0
330
90
100
AcDbEntity
  8
AM_9
100
AcDbEllipse
 10
0.0
 20
-0.6973477077758097
 30
0.0
 11
-0.1050000000000001
 21
1.285879139104722E-17
 31
0.0
210
0.0
220
0.0
230
1.0
 40
0.4999999999999964
 41
0.0
 42
3.141592653589793
  0
LINE
  5
B1
330
90
100
AcDbEntity
  8
AM_9
100
AcDbLine
 10
-0.105
 20
-0.7155859365882691
 30
0.0
 11
-0.105
 21
-0.7233284698893426
 31
0.0
  0
LINE
  5
B2
330
90
100
AcDbEntity
  8
AM_9
100
AcDbLine
 10
0.105
 20
-0.7233284698893426
 30
0.0
 11
0.105
 21
-0.7155859365882691
 31
0.0
  0
ELLIPSE
  5
B3
330
90
100
AcDbEntity
  8
AM_9
100
AcDbEllipse
 10
0.0
 20
-0.7233284698893427
 30
0.0
 11
-0.1050000000000002
 21
1.285879139104723E-17
 31
0.0
210
0.0
220
0.0
230
1.0
 40
0.5000000000000001
 41
5.990342535451011
 42
9.717620732497956
  0
LINE
  5
B4
330
90
100
AcDbEntity
  8
AM_9
100
AcDbLine
 10
0.0976523208201058
 20
-0.7032672076371917
 30
0.0
 11
0.1098343496897826
 21
-0.6944803545103417
 31
0.0
  0
LINE
  5
B5
330
90
100
AcDbEntity
  8
AM_9
100
AcDbLine
 10
-0.1098343496897826
 20
-0.6944803545103417
 30
0.0
 11
-0.0976523208201058
 21
-0.7032672076371917
 31
0.0
  0
ELLIPSE
  5
B6
330
90
100
AcDbEntity
  8
AM_9
100
AcDbEllipse
 10
-0.0000000000000018
 20
-0.6694210919047411
 30
0.0
 11
-0.1188200907348996
 21
1.455126437928928E-17
 31
0.0
210
0.0
220
0.0
230
1.0
 40
0.5000000000000185
 41
0.2500328930988793
 42
2.89155976049092
  0
ELLIPSE
  5
B7
330
90
100
AcDbEntity
  8
AM_9
100
AcDbEllipse
 10
0.0
 20
-0.6222790656664139
 30
0.0
 11
-0.1725340532830156
 21
2.112932760969639E-17
 31
0.0
210
0.0
220
0.0
230
1.0
 40
0.5000000000000024
 41
0.6061451401950881
 42
2.535447513394704
  0
ELLIPSE
  5
B8
330
90
100
AcDbEntity
  8
AM_9
100
AcDbEllipse
 10
0.000000000000001
 20
-0.6064150403784405
 30
0.0
 11
-0.2187500000000017
 21
2.678914873134857E-17
 31
0.0
210
0.0
220
0.0
230
1.0
 40
0.5000000000000102
 41
1.065244638251233
 42
2.076348015338553
  0
ELLIPSE
  5
B9
330
90
100
AcDbEntity
  8
AM_9
100
AcDbEllipse
 10
0.0000000000062241
 20
-0.6064150403668336
 30
0.0
 11
-0.2137500000125112
 21
2.617682533330685E-17
 31
0.0
210
0.0
220
0.0
230
1.0
 40
0.5000000000250899
 41
1.04297212417519
 42
2.098620529364292
  0
ELLIPSE
  5
BA
330
90
100
AcDbEntity
  8
AM_9
100
AcDbEllipse
 10
0.0
 20
-0.7752899941164091
 30
0.0
 11
-0.135
 21
1.653273178848927E-17
 31
0.0
210
0.0
220
0.0
230
1.0
 40
0.5000000000000024
 41
0.2354336045415586
 42
2.906159049048235
  0
ELLIPSE
  5
BB
330
90
100
AcDbEntity
  8
AM_9
100
AcDbEllipse
 10
-0.0000000000000005
 20
-0.2903157679971251
 30
0.0
 11
-0.1619028724722695
 21
1.982738345459269E-17
 31
0.0
210
0.0
220
0.0
230
1.0
 40
0.500000000000003
 41
0.0
 42
6.283185307179586
  0
ELLIPSE
  5
BC
330
90
100
AcDbEntity
  8
AM_9
100
AcDbEllipse
 10
0.000000000000001
 20
-0.5198125000000009
 30
0.0
 11
-0.2187500000000017
 21
2.678914873134855E-17
 31
0.0
210
0.0
220
0.0
230
1.0
 40
0.5000000000000018
 41
0.0
 42
6.283185307179586
  0
ELLIPSE
  5
BD
330
90
100
AcDbEntity
  8
AM_9
100
AcDbEllipse
 10
-0.000000000000372
 20
-0.5198125000018562
 30
0.0
 11
-0.2057518972234415
 21
2.519734023531829E-17
 31
0.0
210
0.0
220
0.0
230
1.0
 40
0.5000000000000735
 41
0.0
 42
6.283185307179586
  0
ELLIPSE
  5
BE
330
90
100
AcDbEntity
  8
AM_9
100
AcDbEllipse
 10
-0.0000000000010186
 20
-0.3221116779206237
 30
0.0
 11
-0.198617626782234
 21
2.432364408931064E-17
 31
0.0
210
0.0
220
0.0
230
1.0
 40
0.4999999999998987
 41
0.0
 42
6.283185307179586
  0
LWPOLYLINE
  5
C0
330
90
100
AcDbEntity
  8
AM_4
100
AcDbPolyline
 90
        3
 70
     0
 43
0.0
 10
-0.1894430570778459
 20
-0.6611025403784434
 10
-0.1578692142315383
 20
-0.6863735618176741
 10
-0.1262953713852306
 20
-0.7079372686898273
  0
LINE
  5
C1
330
90
100
AcDbEntity
  8
AM_4
100
AcDbLine
 10
-0.1262953713852306
 20
-0.7079372686898273
 30
0.0
 11
-0.1050087569988763
 21
-0.7102443229931724
 31
0.0
  0
LWPOLYLINE
  5
C2
330
90
100
AcDbEntity
  8
AM_4
100
AcDbPolyline
 90
        3
 70
     0
 43
0.0
 10
0.1262953713852306
 20
-0.7079372686898273
 10
0.1577272497321276
 20
-0.6864781952969264
 10
0.1894430570778459
 20
-0.6611025403784434
  0
LINE
  5
C3
330
90
100
AcDbEntity
  8
AM_4
100
AcDbLine
 10
0.1050474083588161
 20
-0.7102404409503277
 30
0.0
 11
0.1262953713852306
 21
-0.7079372686898273
 31
0.0
  0
LWPOLYLINE
  5
C4
330
90
100
AcDbEntity
  8
AM_4
100
AcDbPolyline
 90
        3
 70
     0
 43
0.0
 10
-0.2525907427704612
 20
-0.5985622686898273
 10
-0.2211588644235643
 20
-0.6315448055710761
 10
-0.1894430570778459
 20
-0.6611025403784434
  0
LWPOLYLINE
  5
C5
330
90
100
AcDbEntity
  8
AM_4
100
AcDbPolyline
 90
        3
 70
     0
 43
0.0
 10
0.1894430570778459
 20
-0.6611025403784434
 10
0.2210168999241535
 20
-0.6316860618176741
 10
0.2525907427704612
 20
-0.5985622686898273
  0
LINE
  5
C6
330
90
100
AcDbEntity
  8
AM_4
100
AcDbLine
 10
0.105
 20
-0.7039454795247593
 30
0.0
 11
0.1151252948555658
 21
-0.6841212657699451
 31
0.0
  0
LINE
  5
C7
330
90
100
AcDbEntity
  8
AM_4
100
AcDbLine
 10
-0.1151252948555658
 20
-0.6841212657699451
 30
0.0
 11
-0.105
 21
-0.7039454795247593
 31
0.0
  0
ELLIPSE
  5
C8
330
90
100
AcDbEntity
  8
AM_4
100
AcDbEllipse
 10
-0.0000000000000045
 20
-0.6694210919047445
 30
0.0
 11
-0.118820090734902
 21
1.455126437928958E-17
 31
0.0
210
0.0
220
0.0
230
1.0
 40
0.4999999999999951
 41
2.891559760490971
 42
6.533218200278428
  0
ELLIPSE
  5
C9
330
90
100
AcDbEntity
  8
AM_4
100
AcDbEllipse
 10
0.0
 20
-0.6973477077758095
 30
0.0
 11
-0.1050000000000001
 21
1.285879139104722E-17
 31
0.0
210
0.0
220
0.0
230
1.0
 40
0.4999999999999992
 41
3.141592653589793
 42
6.283185307179586
  0
LINE
  5
CA
330
90
100
AcDbEntity
  8
AM_4
100
AcDbLine
 10
-0.105
 20
-0.6973477077758096
 30
0.0
 11
-0.105
 21
-0.7155859365882691
 31
0.0
  0
LINE
  5
CB
330
90
100
AcDbEntity
  8
AM_4
100
AcDbLine
 10
0.105
 20
-0.7155859365882691
 30
0.0
 11
0.105
 21
-0.6973477077758096
 31
0.0
  0
LINE
  5
CC
330
90
100
AcDbEntity
  8
AM_4
100
AcDbLine
 10
0.1098343496897826
 20
-0.6944803545103417
 30
0.0
 11
0.1417971541629018
 21
-0.6714256998684853
 31
0.0
  0
LINE
  5
CD
330
90
100
AcDbEntity
  8
AM_4
100
AcDbLine
 10
-0.1417971541629018
 20
-0.6714256998684853
 30
0.0
 11
-0.1098343496897826
 21
-0.6944803545103417
 31
0.0
  0
ELLIPSE
  5
CE
330
90
100
AcDbEntity
  8
AM_4
100
AcDbEllipse
 10
-0.0000000000000026
 20
-0.6222790656664098
 30
0.0
 11
-0.1725340532830181
 21
2.112932760969670E-17
 31
0.0
210
0.0
220
0.0
230
1.0
 40
0.5000000000000073
 41
2.535447513394679
 42
6.889330447374718
  0
ELLIPSE
  5
CF
330
90
100
AcDbEntity
  8
AM_4
100
AcDbEllipse
 10
0.0000000000000008
 20
-0.6064150403784447
 30
0.0
 11
-0.2187500000000013
 21
2.678914873134851E-17
 31
0.0
210
0.0
220
0.0
230
1.0
 40
0.5000000000000031
 41
2.076348015338566
 42
7.348429945430807
  0
LWPOLYLINE
  5
D0
330
90
100
AcDbEntity
  8
AM_4
100
AcDbPolyline
 90
        4
 70
     0
 43
0.0
 10
0.0
 20
-0.4970400403784435
 10
-0.0483998160558989
 20
-0.4958123967859956
 10
-0.0967996321117978
 20
-0.492292131863965
 10
-0.1262953713852306
 20
-0.4891872686898273
  0
LWPOLYLINE
  5
D1
330
90
100
AcDbEntity
  8
AM_4
100
AcDbPolyline
 90
        3
 70
     0
 43
0.0
 10
0.0
 20
-0.4104374999999996
 10
0.0631476856926153
 20
-0.4125102285607691
 10
0.1262953713852306
 20
-0.4182902716886158
  0
LWPOLYLINE
  5
D2
330
90
100
AcDbEntity
  8
AM_4
100
AcDbPolyline
 90
        4
 70
     0
 43
0.0
 10
-0.1262953713852306
 20
-0.4182902716886158
 10
-0.0967996321117978
 20
-0.4151854085144781
 10
-0.0485424412477544
 20
-0.4116723034799333
 10
0.0
 20
-0.4104374999999996
  0
LWPOLYLINE
  5
D3
330
90
100
AcDbEntity
  8
AM_4
100
AcDbPolyline
 90
        3
 70
     0
 43
0.0
 10
0.1262953713852306
 20
-0.4891872686898273
 10
0.0634316146914367
 20
-0.4949490004340012
 10
0.0
 20
-0.4970400403784435
  0
LINE
  5
D4
330
90
100
AcDbEntity
  8
AM_4
100
AcDbLine
 10
0.1262953713852306
 20
-0.4891872686898273
 30
0.0
 11
0.1262953713852306
 21
-0.4182902716886158
 31
0.0
  0
LWPOLYLINE
  5
D5
330
90
100
AcDbEntity
  8
AM_4
100
AcDbPolyline
 90
        3
 70
     0
 43
0.0
 10
0.1894430570778459
 20
-0.5517275403784435
 10
0.1578692142315383
 20
-0.522311061817674
 10
0.1262953713852306
 20
-0.4891872686898273
  0
LWPOLYLINE
  5
D6
330
90
100
AcDbEntity
  8
AM_4
100
AcDbPolyline
 90
        3
 70
     0
 43
0.0
 10
0.2525907427704612
 20
-0.5985622686898273
 10
0.2211588644235643
 20
-0.5771031952969264
 10
0.1894430570778459
 20
-0.5517275403784435
  0
LINE
  5
D7
330
90
100
AcDbEntity
  8
AM_4
100
AcDbLine
 10
0.2525907427704612
 20
-0.5985622686898273
 30
0.0
 11
0.2525907427704612
 21
-0.5276652716886158
 31
0.0
  0
LWPOLYLINE
  5
D8
330
90
100
AcDbEntity
  8
AM_4
100
AcDbPolyline
 90
        3
 70
     0
 43
0.0
 10
0.1894430570778459
 20
-0.4651249999999997
 10
0.2210168999241536
 20
-0.4945414785607691
 10
0.2525907427704612
 20
-0.5276652716886158
  0
LWPOLYLINE
  5
D9
330
90
100
AcDbEntity
  8
AM_4
100
AcDbPolyline
 90
        3
 70
     0
 43
0.0
 10
0.1262953713852306
 20
-0.4182902716886158
 10
0.1577272497321276
 20
-0.4397493450815167
 10
0.1894430570778459
 20
-0.4651249999999997
  0
LINE
  5
DA
330
90
100
AcDbEntity
  8
AM_4
100
AcDbLine
 10
-0.2525907427704612
 20
-0.5985622686898273
 30
0.0
 11
-0.2525907427704612
 21
-0.5276652716886158
 31
0.0
  0
LWPOLYLINE
  5
DB
330
90
100
AcDbEntity
  8
AM_4
100
AcDbPolyline
 90
        3
 70
     0
 43
0.0
 10
-0.1894430570778459
 20
-0.5517275403784435
 10
-0.2210168999241536
 20
-0.576998561817674
 10
-0.2525907427704612
 20
-0.5985622686898273
  0
LWPOLYLINE
  5
DC
330
90
100
AcDbEntity
  8
AM_4
100
AcDbPolyline
 90
        3
 70
     0
 43
0.0
 10
-0.1262953713852306
 20
-0.4891872686898273
 10
-0.1577272497321276
 20
-0.5221698055710761
 10
-0.1894430570778459
 20
-0.5517275403784435
  0
LINE
  5
DD
330
90
100
AcDbEntity
  8
AM_4
100
AcDbLine
 10
-0.1262953713852306
 20
-0.4891872686898273
 30
0.0
 11
-0.1262953713852306
 21
-0.4182902716886158
 31
0.0
  0
LWPOLYLINE
  5
DE
330
90
100
AcDbEntity
  8
AM_4
100
AcDbPolyline
 90
        3
 70
     0
 43
0.0
 10
-0.1894430570778459
 20
-0.4651249999999997
 10
-0.1578692142315383
 20
-0.4398539785607691
 10
-0.1262953713852306
 20
-0.4182902716886158
  0
LWPOLYLINE
  5
DF
330
90
100
AcDbEntity
  8
AM_4
100
AcDbPolyline
 90
        3
 70
     0
 43
0.0
 10
-0.2525907427704612
 20
-0.5276652716886158
 10
-0.2211588644235643
 20
-0.4946827348073671
 10
-0.1894430570778459
 20
-0.4651249999999997
  0
ELLIPSE
  5
E0
330
90
100
AcDbEntity
  8
AM_4
100
AcDbEllipse
 10
-0.0000000000000003
 20
-0.6064150403784432
 30
0.0
 11
-0.2137500000000002
 21
2.617682533177471E-17
 31
0.0
210
0.0
220
0.0
230
1.0
 40
0.5000000000000008
 41
2.098620529422327
 42
7.326157431347055
  0
LINE
  5
E1
330
90
100
AcDbEntity
  8
AM_4
100
AcDbLine
 10
-0.1005298463144155
 20
-0.708173025323115
 30
0.0
 11
-0.1292526595471057
 21
-0.7558044225312591
 31
0.0
  0
LINE
  5
E2
330
90
100
AcDbEntity
  8
AM_4
100
AcDbLine
 10
0.1292526595471057
 20
-0.7558044225312591
 30
0.0
 11
0.1005298463144155
 21
-0.708173025323115
 31
0.0
  0
ELLIPSE
  5
E3
330
90
100
AcDbEntity
  8
AM_4
100
AcDbEllipse
 10
0.0
 20
-0.7233284698893425
 30
0.0
 11
-0.1049999999999998
 21
1.564621938212793E-9
 31
0.0
210
0.0
220
0.0
230
1.0
 40
0.5000000000000017
 41
3.434435453258041
 42
5.990342563390692
  0
LINE
  5
E4
330
90
100
AcDbEntity
  8
AM_4
100
AcDbLine
 10
0.0998453562378797
 20
-0.8565475888603625
 30
0.0
 11
0.1312757938985219
 21
-0.7910353580079867
 31
0.0
  0
LINE
  5
E5
330
90
100
AcDbEntity
  8
AM_4
100
AcDbLine
 10
-0.1312757938985219
 20
-0.7910353580079867
 30
0.0
 11
-0.0998453562378797
 21
-0.8565475888603625
 31
0.0
  0
ELLIPSE
  5
E6
330
90
100
AcDbEntity
  8
AM_4
100
AcDbEllipse
 10
0.0000000000000041
 20
-0.7752899941164039
 30
0.0
 11
-0.1349999999999959
 21
1.653273178848877E-17
 31
0.0
210
0.0
220
0.0
230
1.0
 40
0.500000000000007
 41
2.906159049048155
 42
6.518618911721211
  0
ELLIPSE
  5
E7
330
90
100
AcDbEntity
  8
AM_4
100
AcDbEllipse
 10
-0.0000000000000001
 20
-0.8445720264191641
 30
0.0
 11
-0.1026779019331875
 21
1.257441639456438E-17
 31
0.0
210
0.0
220
0.0
230
1.0
 40
0.4999999999999963
 41
0.0
 42
6.283185307179586
  0
ENDBLK
  5
93
330
90
100
AcDbEntity
  8
0
100
AcDbBlockEnd
  0
BLOCK
  5
EA
330
E8
100
AcDbEntity
  8
0
100
AcDbBlockBegin
  2
3_ASME_B18_3_10_1_0_in_069845_4
 70
     2
 10
0.0
 20
0.0
 30
0.0
  3
3_ASME_B18_3_10_1_0_in_069845_4
  1

  0
ATTDEF
  5
EC
330
E8
100
AcDbEntity
  8
AM_6
100
AcDbText
 10
5.095
 20
-1.10475
 30
0.0
 40
0.5
  1
ANSI/ASME B18.3-1998
100
AcDbAttributeDefinition
  3

  2
NN
 70
     8
280
     0
  0
ATTDEF
  5
ED
330
E8
100
AcDbEntity
  8
AM_6
100
AcDbText
 10
5.095
 20
-1.60475
 30
0.0
 40
0.5
  1
Socket Button Head Cap Screws
100
AcDbAttributeDefinition
  3

  2
NT
 70
     8
280
     0
  0
ATTDEF
  5
EE
330
E8
100
AcDbEntity
  8
AM_6
100
AcDbText
 10
5.095
 20
-2.10475
 30
0.0
 40
0.5
  1
ASME B18.3-10
100
AcDbAttributeDefinition
  3

  2
NB
 70
     8
280
     0
  0
ATTDEF
  5
EF
330
E8
100
AcDbEntity
  8
AM_6
100
AcDbText
 10
5.095
 20
-2.60475
 30
0.0
 40
0.5
  1
ASME B18.3-$NS.
100
AcDbAttributeDefinition
  3

  2
NBSYN
 70
     8
280
     0
  0
ATTDEF
  5
F0
330
E8
100
AcDbEntity
  8
AM_6
100
AcDbText
 10
5.095
 20
-3.10475
 30
0.0
 40
0.5
  1
ASME B18.3-10
100
AcDbAttributeDefinition
  3

  2
LINA
 70
     8
280
     0
  0
ATTDEF
  5
F1
330
E8
100
AcDbEntity
  8
AM_6
100
AcDbText
 10
5.095
 20
-3.60475
 30
0.0
 40
0.5
  1
10
100
AcDbAttributeDefinition
  3

  2
NS
 70
     8
280
     0
  0
ATTDEF
  5
F2
330
E8
100
AcDbEntity
  8
AM_6
100
AcDbText
 10
5.095
 20
-4.10475
 30
0.0
 40
0.5
  1
0.361
100
AcDbAttributeDefinition
  3

  2
A
 70
     8
280
     0
  0
ATTDEF
  5
F3
330
E8
100
AcDbEntity
  8
AM_6
100
AcDbText
 10
5.095
 20
-4.60475
 30
0.0
 40
0.5
  1
0.101
100
AcDbAttributeDefinition
  3

  2
H
 70
     8
280
     0
  0
ATTDEF
  5
F4
330
E8
100
AcDbEntity
  8
AM_6
100
AcDbText
 10
5.095
 20
-5.10475
 30
0.0
 40
0.5
  1
0.800
100
AcDbAttributeDefinition
  3

  2
L
 70
     8
280
     0
  0
ATTDEF
  5
F5
330
E8
100
AcDbEntity
  8
AM_6
100
AcDbText
 10
5.095
 20
-5.60475
 30
0.0
 40
0.5
  1
0.020
100
AcDbAttributeDefinition
  3

  2
S
 70
     8
280
     0
  0
ATTDEF
  5
F6
330
E8
100
AcDbEntity
  8
AM_6
100
AcDbText
 10
5.095
 20
-6.10475
 30
0.0
 40
0.5
  1
0.125000
100
AcDbAttributeDefinition
  3

  2
J
 70
     8
280
     0
  0
ATTDEF
  5
F7
330
E8
100
AcDbEntity
  8
AM_6
100
AcDbText
 10
5.095
 20
-6.60475
 30
0.0
 40
0.5
  1
baldor
100
AcDbAttributeDefinition
  3

  2
COMPANY
 70
     8
280
     0
  0
LINE
  5
F9
330
E8
100
AcDbEntity
  8
AM_5
100
AcDbLine
 10
0.095
 20
-1.10475
 30
0.0
 11
-0.095
 21
-1.10475
 31
0.0
  0
LINE
  5
FA
330
E8
100
AcDbEntity
  8
AM_5
100
AcDbLine
 10
0.0764
 20
-1.10475
 30
0.0
 11
0.095
 21
-1.136966145020781
 31
0.0
  0
ENDBLK
  5
EB
330
E8
100
AcDbEntity
  8
0
100
AcDbBlockEnd
  0
BLOCK
  5
FD
330
FB
100
AcDbEntity
  8
0
100
AcDbBlockBegin
  2
4_ASME_B18_3_10_2_0_in_069845_4
 70
     2
 10
0.0
 20
0.0
 30
0.0
  3
4_ASME_B18_3_10_2_0_in_069845_4
  1

  0
ATTDEF
  5
FF
330
FB
100
AcDbEntity
  8
AM_6
100
AcDbText
 10
5.1805
 20
-0.3847499999999998
 30
0.0
 40
0.5
  1
ANSI/ASME B18.3-1998
100
AcDbAttributeDefinition
  3

  2
NN
 70
     8
280
     0
  0
ATTDEF
  5
100
330
FB
100
AcDbEntity
  8
AM_6
100
AcDbText
 10
5.1805
 20
-0.8847499999999997
 30
0.0
 40
0.5
  1
Socket Button Head Cap Screws
100
AcDbAttributeDefinition
  3

  2
NT
 70
     8
280
     0
  0
ATTDEF
  5
101
330
FB
100
AcDbEntity
  8
AM_6
100
AcDbText
 10
5.1805
 20
-1.38475
 30
0.0
 40
0.5
  1
ASME B18.3-10
100
AcDbAttributeDefinition
  3

  2
NB
 70
     8
280
     0
  0
ATTDEF
  5
102
330
FB
100
AcDbEntity
  8
AM_6
100
AcDbText
 10
5.1805
 20
-1.88475
 30
0.0
 40
0.5
  1
ASME B18.3-$NS.
100
AcDbAttributeDefinition
  3

  2
NBSYN
 70
     8
280
     0
  0
ATTDEF
  5
103
330
FB
100
AcDbEntity
  8
AM_6
100
AcDbText
 10
5.1805
 20
-2.384749999999999
 30
0.0
 40
0.5
  1
ASME B18.3-10
100
AcDbAttributeDefinition
  3

  2
LINA
 70
     8
280
     0
  0
ATTDEF
  5
104
330
FB
100
AcDbEntity
  8
AM_6
100
AcDbText
 10
5.1805
 20
-2.884749999999999
 30
0.0
 40
0.5
  1
10
100
AcDbAttributeDefinition
  3

  2
NS
 70
     8
280
     0
  0
ATTDEF
  5
105
330
FB
100
AcDbEntity
  8
AM_6
100
AcDbText
 10
5.1805
 20
-3.384749999999999
 30
0.0
 40
0.5
  1
0.361
100
AcDbAttributeDefinition
  3

  2
A
 70
     8
280
     0
  0
ATTDEF
  5
106
330
FB
100
AcDbEntity
  8
AM_6
100
AcDbText
 10
5.1805
 20
-3.884749999999999
 30
0.0
 40
0.5
  1
0.101
100
AcDbAttributeDefinition
  3

  2
H
 70
     8
280
     0
  0
ATTDEF
  5
107
330
FB
100
AcDbEntity
  8
AM_6
100
AcDbText
 10
5.1805
 20
-4.384749999999999
 30
0.0
 40
0.5
  1
0.800
100
AcDbAttributeDefinition
  3

  2
L
 70
     8
280
     0
  0
ATTDEF
  5
108
330
FB
100
AcDbEntity
  8
AM_6
100
AcDbText
 10
5.1805
 20
-4.884749999999999
 30
0.0
 40
0.5
  1
0.020
100
AcDbAttributeDefinition
  3

  2
S
 70
     8
280
     0
  0
ATTDEF
  5
109
330
FB
100
AcDbEntity
  8
AM_6
100
AcDbText
 10
5.1805
 20
-5.384749999999999
 30
0.0
 40
0.5
  1
0.125000
100
AcDbAttributeDefinition
  3

  2
J
 70
     8
280
     0
  0
ATTDEF
  5
10A
330
FB
100
AcDbEntity
  8
AM_6
100
AcDbText
 10
5.1805
 20
-5.884749999999999
 30
0.0
 40
0.5
  1
baldor
100
AcDbAttributeDefinition
  3

  2
COMPANY
 70
     8
280
     0
  0
LINE
  5
10B
330
FB
100
AcDbEntity
  8
AM_9
100
AcDbLine
 10
-0.0625
 20
-1.22475
 30
0.0
 11
-0.0625
 21
-1.28575
 31
0.0
  0
LINE
  5
10C
330
FB
100
AcDbEntity
  8
AM_9
100
AcDbLine
 10
0.0625
 20
-1.22475
 30
0.0
 11
0.0625
 21
-1.28575
 31
0.0
  0
LINE
  5
10D
330
FB
100
AcDbEntity
  8
AM_9
100
AcDbLine
 10
-0.0625
 20
-1.22475
 30
0.0
 11
0.0625
 21
-1.22475
 31
0.0
  0
LINE
  5
10E
330
FB
100
AcDbEntity
  8
AM_9
100
AcDbLine
 10
0.0
 20
-1.22475
 30
0.0
 11
0.0
 21
-1.28575
 31
0.0
  0
LINE
  5
10F
330
FB
100
AcDbEntity
  8
AM_9
100
AcDbLine
 10
0.095
 20
-1.18475
 30
0.0
 11
0.095
 21
-0.4033499999999998
 31
0.0
  0
LINE
  5
110
330
FB
100
AcDbEntity
  8
AM_9
100
AcDbLine
 10
-0.095
 20
-0.4033499999999998
 30
0.0
 11
-0.095
 21
-1.18475
 31
0.0
  0
LINE
  5
111
330
FB
100
AcDbEntity
  8
AM_9
100
AcDbLine
 10
-0.0764
 20
-0.3847499999999998
 30
0.0
 11
-0.095
 21
-0.4033499999999998
 31
0.0
  0
LINE
  5
112
330
FB
100
AcDbEntity
  8
AM_9
100
AcDbLine
 10
0.095
 20
-0.4033499999999998
 30
0.0
 11
0.0764
 21
-0.3847499999999998
 31
0.0
  0
LINE
  5
113
330
FB
100
AcDbEntity
  8
AM_9
100
AcDbLine
 10
-0.0764
 20
-0.3847499999999998
 30
0.0
 11
0.0764
 21
-0.3847499999999998
 31
0.0
  0
LINE
  5
114
330
FB
100
AcDbEntity
  8
AM_9
100
AcDbLine
 10
-0.095
 20
-0.4033499999999998
 30
0.0
 11
0.095
 21
-0.4033499999999998
 31
0.0
  0
LINE
  5
115
330
FB
100
AcDbEntity
  8
AM_5
100
AcDbLine
 10
-0.0950000005010016
 20
-1.10475
 30
0.0
 11
0.0950000005010018
 21
-1.10475
 31
0.0
  0
LINE
  5
116
330
FB
100
AcDbEntity
  8
AM_5
100
AcDbLine
 10
-0.0764
 20
-1.10475
 30
0.0
 11
-0.095
 21
-1.136966145020781
 31
0.0
  0
LINE
  5
117
330
FB
100
AcDbEntity
  8
AM_4
100
AcDbLine
 10
-0.0994999993796127
 20
-1.28575
 30
0.0
 11
0.0995
 21
-1.28575
 31
0.0
  0
ARC
  5
118
330
FB
100
AcDbEntity
  8
AM_4
100
AcDbCircle
 10
0.0994999999999995
 20
-1.204749999999999
 30
0.0
 40
0.0810000000000006
100
AcDbArc
 50
270.0
 51
0.0
  0
ARC
  5
119
330
FB
100
AcDbEntity
  8
AM_4
100
AcDbCircle
 10
-0.0994999999999997
 20
-1.20475
 30
0.0
 40
0.0810000000000003
100
AcDbArc
 50
180.0
 51
270.0
  0
LINE
  5
11A
330
FB
100
AcDbEntity
  8
AM_4
100
AcDbLine
 10
0.1805
 20
-1.20475
 30
0.0
 11
0.1805
 21
-1.18475
 31
0.0
  0
LINE
  5
11B
330
FB
100
AcDbEntity
  8
AM_4
100
AcDbLine
 10
-0.1805
 20
-1.18475
 30
0.0
 11
-0.1805
 21
-1.20475
 31
0.0
  0
LINE
  5
11C
330
FB
100
AcDbEntity
  8
AM_4
100
AcDbLine
 10
-0.1805
 20
-1.20475
 30
0.0
 11
0.1805
 21
-1.20475
 31
0.0
  0
ENDBLK
  5
FE
330
FB
100
AcDbEntity
  8
0
100
AcDbBlockEnd
  0
BLOCK
  5
11F
330
11D
100
AcDbEntity
  8
0
100
AcDbBlockBegin
  2
5_070888LW_0_in_069845_4
 70
     2
 10
0.0
 20
0.0
 30
0.0
  3
5_070888LW_0_in_069845_4
  1

  0
ATTDEF
  5
121
330
11D
100
AcDbEntity
  8
AM_6
100
AcDbText
 10
6.5
 20
-0.7447499999999999
 30
0.0
 40
0.5
  1
Imperial Insert Lockwasher -Inch
100
AcDbAttributeDefinition
  3

  2
NN
 70
     8
280
     0
  0
ATTDEF
  5
122
330
11D
100
AcDbEntity
  8
AM_6
100
AcDbText
 10
6.5
 20
-1.24475
 30
0.0
 40
0.5
  1
Imperial Bearings
100
AcDbAttributeDefinition
  3

  2
NT
 70
     8
280
     0
  0
ATTDEF
  5
123
330
11D
100
AcDbEntity
  8
AM_6
100
AcDbText
 10
6.5
 20
-1.74475
 30
0.0
 40
0.5
  1
070888LW
100
AcDbAttributeDefinition
  3

  2
NB
 70
     8
280
     0
  0
ATTDEF
  5
124
330
11D
100
AcDbEntity
  8
AM_6
100
AcDbText
 10
6.5
 20
-2.24475
 30
0.0
 40
0.5
  1
$PN.LW
100
AcDbAttributeDefinition
  3

  2
NBSYN
 70
     8
280
     0
  0
ATTDEF
  5
125
330
11D
100
AcDbEntity
  8
AM_6
100
AcDbText
 10
6.5
 20
-2.74475
 30
0.0
 40
0.5
  1
070888
100
AcDbAttributeDefinition
  3

  2
LINA
 70
     8
280
     0
  0
ATTDEF
  5
126
330
11D
100
AcDbEntity
  8
AM_6
100
AcDbText
 10
6.5
 20
-3.24475
 30
0.0
 40
0.5
  1
1-3/4
100
AcDbAttributeDefinition
  3

  2
SS
 70
     8
280
     0
  0
ATTDEF
  5
127
330
11D
100
AcDbEntity
  8
AM_6
100
AcDbText
 10
6.5
 20
-3.74475
 30
0.0
 40
0.5
  1
1.750000
100
AcDbAttributeDefinition
  3

  2
SS1
 70
     8
280
     0
  0
ATTDEF
  5
128
330
11D
100
AcDbEntity
  8
AM_6
100
AcDbText
 10
6.5
 20
-4.24475
 30
0.0
 40
0.5
  1
070888
100
AcDbAttributeDefinition
  3

  2
PN
 70
     8
280
     0
  0
ATTDEF
  5
129
330
11D
100
AcDbEntity
  8
AM_6
100
AcDbText
 10
6.5
 20
-4.74475
 30
0.0
 40
0.5
  1
INS-IP-112R
100
AcDbAttributeDefinition
  3

  2
DESCRIPTION
 70
     8
280
     0
  0
ATTDEF
  5
12A
330
11D
100
AcDbEntity
  8
AM_6
100
AcDbText
 10
6.5
 20
-5.24475
 30
0.0
 40
0.5
  1
3.3465
100
AcDbAttributeDefinition
  3

  2
A
 70
     8
280
     0
  0
ATTDEF
  5
12B
330
11D
100
AcDbEntity
  8
AM_6
100
AcDbText
 10
6.5
 20
-5.74475
 30
0.0
 40
0.5
  1
61/64
100
AcDbAttributeDefinition
  3

  2
B
 70
     8
280
     0
  0
ATTDEF
  5
12C
330
11D
100
AcDbEntity
  8
AM_6
100
AcDbText
 10
6.5
 20
-6.24475
 30
0.0
 40
0.5
  1
2-13/16
100
AcDbAttributeDefinition
  3

  2
C
 70
     8
280
     0
  0
ATTDEF
  5
12D
330
11D
100
AcDbEntity
  8
AM_6
100
AcDbText
 10
6.5
 20
-6.74475
 30
0.0
 40
0.5
  1
0.954
100
AcDbAttributeDefinition
  3

  2
D
 70
     8
280
     0
  0
ATTDEF
  5
12E
330
11D
100
AcDbEntity
  8
AM_6
100
AcDbText
 10
6.5
 20
-7.24475
 30
0.0
 40
0.5
  1
3
100
AcDbAttributeDefinition
  3

  2
E
 70
     8
280
     0
  0
ATTDEF
  5
12F
330
11D
100
AcDbEntity
  8
AM_6
100
AcDbText
 10
6.5
 20
-7.74475
 30
0.0
 40
0.5
  1
0.1900
100
AcDbAttributeDefinition
  3

  2
NDM
 70
     8
280
     0
  0
ATTDEF
  5
130
330
11D
100
AcDbEntity
  8
AM_6
100
AcDbText
 10
6.5
 20
-8.24475
 30
0.0
 40
0.5
  1
0.1450
100
AcDbAttributeDefinition
  3

  2
KDM
 70
     8
280
     0
  0
ATTDEF
  5
131
330
11D
100
AcDbEntity
  8
AM_6
100
AcDbText
 10
6.5
 20
-8.74475
 30
0.0
 40
0.5
  1
2.42
100
AcDbAttributeDefinition
  3

  2
AL
 70
     8
280
     0
  0
ATTDEF
  5
132
330
11D
100
AcDbEntity
  8
AM_6
100
AcDbText
 10
6.5
 20
-9.24475
 30
0.0
 40
0.5
  1
0.38
100
AcDbAttributeDefinition
  3

  2
BL
 70
     8
280
     0
  0
ATTDEF
  5
133
330
11D
100
AcDbEntity
  8
AM_6
100
AcDbText
 10
6.5
 20
-9.74475
 30
0.0
 40
0.5
  1
0.07
100
AcDbAttributeDefinition
  3

  2
CL
 70
     8
280
     0
  0
ATTDEF
  5
134
330
11D
100
AcDbEntity
  8
AM_6
100
AcDbText
 10
6.5
 20
-10.24475
 30
0.0
 40
0.5
  1
0.44
100
AcDbAttributeDefinition
  3

  2
DL
 70
     8
280
     0
  0
ATTDEF
  5
135
330
11D
100
AcDbEntity
  8
AM_6
100
AcDbText
 10
6.5
 20
-10.74475
 30
0.0
 40
0.5
  1
baldor
100
AcDbAttributeDefinition
  3

  2
COMPANY
 70
     8
280
     0
  0
LINE
  5
136
330
11D
100
AcDbEntity
  8
AM_9
100
AcDbLine
 10
-0.0950703218901522
 20
-1.11475
 30
0.0
 11
-0.0950703218901522
 21
-1.18475
 31
0.0
  0
LINE
  5
137
330
11D
100
AcDbEntity
  8
AM_9
100
AcDbLine
 10
-1.236111111111111
 20
-1.11475
 30
0.0
 11
-1.236111111111111
 21
-1.18475
 31
0.0
  0
LINE
  5
138
330
11D
100
AcDbEntity
  8
AM_9
100
AcDbLine
 10
-1.331181433001264
 20
-1.11475
 30
0.0
 11
-1.331181433001264
 21
-1.18475
 31
0.0
  0
LINE
  5
139
330
11D
100
AcDbEntity
  8
AM_9
100
AcDbLine
 10
1.236111111111111
 20
-1.11475
 30
0.0
 11
1.236111111111111
 21
-1.18475
 31
0.0
  0
LINE
  5
13A
330
11D
100
AcDbEntity
  8
AM_9
100
AcDbLine
 10
1.334837401313113
 20
-1.18475
 30
0.0
 11
1.334837401313113
 21
-1.11475
 31
0.0
  0
LINE
  5
13B
330
11D
100
AcDbEntity
  8
AM_9
100
AcDbLine
 10
0.941163499425881
 20
-1.11475
 30
0.0
 11
0.941163499425881
 21
-1.18475
 31
0.0
  0
LINE
  5
13C
330
11D
100
AcDbEntity
  8
AM_9
100
AcDbLine
 10
-0.7326782368620242
 20
-1.11475
 30
0.0
 11
-0.7326782368620242
 21
-1.18475
 31
0.0
  0
LINE
  5
13D
330
11D
100
AcDbEntity
  8
AM_9
100
AcDbLine
 10
0.7326782368620234
 20
-1.11475
 30
0.0
 11
0.7326782368620235
 21
-1.18475
 31
0.0
  0
LINE
  5
13E
330
11D
100
AcDbEntity
  8
AM_9
100
AcDbLine
 10
-0.4206371553049303
 20
-0.7447499999999999
 30
0.0
 11
-0.4206371553049303
 21
-1.18475
 31
0.0
  0
LINE
  5
13F
330
11D
100
AcDbEntity
  8
AM_9
100
AcDbLine
 10
-0.4479362339656081
 20
-1.11475
 30
0.0
 11
-0.4479362339656081
 21
-1.18475
 31
0.0
  0
LINE
  5
140
330
11D
100
AcDbEntity
  8
AM_9
100
AcDbLine
 10
-0.59832794843658
 20
-1.11475
 30
0.0
 11
-0.59832794843658
 21
-1.18475
 31
0.0
  0
LINE
  5
141
330
11D
100
AcDbEntity
  8
AM_9
100
AcDbLine
 10
-0.2723991227884632
 20
-1.11475
 30
0.0
 11
-0.2723991227884632
 21
-1.18475
 31
0.0
  0
LINE
  5
142
330
11D
100
AcDbEntity
  8
AM_9
100
AcDbLine
 10
-0.2451000441277855
 20
-0.74475
 30
0.0
 11
-0.4383602494133698
 21
-0.7447499999999999
 31
0.0
  0
LINE
  5
143
330
11D
100
AcDbEntity
  8
AM_9
100
AcDbLine
 10
-0.2451000441277855
 20
-0.74475
 30
0.0
 11
-0.2451000441277855
 21
-1.18475
 31
0.0
  0
LINE
  5
144
330
11D
100
AcDbEntity
  8
AM_9
100
AcDbLine
 10
-0.2628231382362254
 20
-1.11475
 30
0.0
 11
-0.2628231382362254
 21
-0.7447499999999999
 31
0.0
  0
LINE
  5
145
330
11D
100
AcDbEntity
  8
AM_9
100
AcDbLine
 10
-0.4383602494133698
 20
-0.7447499999999999
 30
0.0
 11
-0.43836024941337
 21
-1.11475
 31
0.0
  0
LINE
  5
146
330
11D
100
AcDbEntity
  8
AM_9
100
AcDbLine
 10
0.5983279484365795
 20
-1.11475
 30
0.0
 11
0.5983279484365798
 21
-1.18475
 31
0.0
  0
LINE
  5
147
330
11D
100
AcDbEntity
  8
AM_9
100
AcDbLine
 10
-0.9412376931794266
 20
-1.11475
 30
0.0
 11
-0.9412376931794266
 21
-1.18475
 31
0.0
  0
LINE
  5
148
330
11D
100
AcDbEntity
  8
AM_9
100
AcDbLine
 10
-0.8068874047539693
 20
-1.11475
 30
0.0
 11
-0.8068874047539693
 21
-1.18475
 31
0.0
  0
LINE
  5
149
330
11D
100
AcDbEntity
  8
AM_9
100
AcDbLine
 10
-0.9691122816696497
 20
-1.11475
 30
0.0
 11
-0.9691122816696497
 21
-1.18475
 31
0.0
  0
LINE
  5
14A
330
11D
100
AcDbEntity
  8
AM_9
100
AcDbLine
 10
0.8068874047539824
 20
-1.11475
 30
0.0
 11
0.8068874047539824
 21
-1.18475
 31
0.0
  0
LINE
  5
14B
330
11D
100
AcDbEntity
  8
AM_9
100
AcDbLine
 10
0.9691122816696495
 20
-1.18475
 30
0.0
 11
0.9691122816696495
 21
-1.11475
 31
0.0
  0
LINE
  5
14C
330
11D
100
AcDbEntity
  8
AM_9
100
AcDbLine
 10
0.0949999999999999
 20
-1.11475
 30
0.0
 11
0.095
 21
-1.18475
 31
0.0
  0
LINE
  5
14D
330
11D
100
AcDbEntity
  8
AM_4
100
AcDbLine
 10
-1.5
 20
-1.11475
 30
0.0
 11
-1.5
 21
-1.18475
 31
0.0
  0
LINE
  5
14E
330
11D
100
AcDbEntity
  8
AM_4
100
AcDbLine
 10
1.5
 20
-1.18475
 30
0.0
 11
1.5
 21
-1.11475
 31
0.0
  0
LINE
  5
14F
330
11D
100
AcDbEntity
  8
AM_4
100
AcDbLine
 10
-1.5
 20
-1.18475
 30
0.0
 11
1.5
 21
-1.18475
 31
0.0
  0
LINE
  5
150
330
11D
100
AcDbEntity
  8
AM_4
100
AcDbLine
 10
-1.5
 20
-1.11475
 30
0.0
 11
1.5
 21
-1.11475
 31
0.0
  0
ENDBLK
  5
120
330
11D
100
AcDbEntity
  8
0
100
AcDbBlockEnd
  0
BLOCK
  5
153
330
151
100
AcDbEntity
  8
0
100
AcDbBlockBegin
  2
6_070888I_0_in_069845_4
 70
     2
 10
0.0
 20
0.0
 30
0.0
  3
6_070888I_0_in_069845_4
  1

  0
ATTDEF
  5
155
330
151
100
AcDbEntity
  8
AM_6
100
AcDbText
 10
6.673249999999999
 20
1.48875
 30
0.0
 40
0.5
  1
Imperial Insert -Inch
100
AcDbAttributeDefinition
  3

  2
NN
 70
     8
280
     0
  0
ATTDEF
  5
156
330
151
100
AcDbEntity
  8
AM_6
100
AcDbText
 10
6.673249999999999
 20
0.9887500000000002
 30
0.0
 40
0.5
  1
Imperial Bearings
100
AcDbAttributeDefinition
  3

  2
NT
 70
     8
280
     0
  0
ATTDEF
  5
157
330
151
100
AcDbEntity
  8
AM_6
100
AcDbText
 10
6.673249999999999
 20
0.4887500000000002
 30
0.0
 40
0.5
  1
070888I
100
AcDbAttributeDefinition
  3

  2
NB
 70
     8
280
     0
  0
ATTDEF
  5
158
330
151
100
AcDbEntity
  8
AM_6
100
AcDbText
 10
6.673249999999999
 20
-0.0112499999999998
 30
0.0
 40
0.5
  1
$PN.I
100
AcDbAttributeDefinition
  3

  2
NBSYN
 70
     8
280
     0
  0
ATTDEF
  5
159
330
151
100
AcDbEntity
  8
AM_6
100
AcDbText
 10
6.673249999999999
 20
-0.5112499999999998
 30
0.0
 40
0.5
  1
070888
100
AcDbAttributeDefinition
  3

  2
LINA
 70
     8
280
     0
  0
ATTDEF
  5
15A
330
151
100
AcDbEntity
  8
AM_6
100
AcDbText
 10
6.673249999999999
 20
-1.01125
 30
0.0
 40
0.5
  1
1-3/4
100
AcDbAttributeDefinition
  3

  2
SS
 70
     8
280
     0
  0
ATTDEF
  5
15B
330
151
100
AcDbEntity
  8
AM_6
100
AcDbText
 10
6.673249999999999
 20
-1.51125
 30
0.0
 40
0.5
  1
1.750000
100
AcDbAttributeDefinition
  3

  2
SS1
 70
     8
280
     0
  0
ATTDEF
  5
15C
330
151
100
AcDbEntity
  8
AM_6
100
AcDbText
 10
6.673249999999999
 20
-2.01125
 30
0.0
 40
0.5
  1
070888
100
AcDbAttributeDefinition
  3

  2
PN
 70
     8
280
     0
  0
ATTDEF
  5
15D
330
151
100
AcDbEntity
  8
AM_6
100
AcDbText
 10
6.673249999999999
 20
-2.51125
 30
0.0
 40
0.5
  1
INS-IP-112R
100
AcDbAttributeDefinition
  3

  2
DESCRIPTION
 70
     8
280
     0
  0
ATTDEF
  5
15E
330
151
100
AcDbEntity
  8
AM_6
100
AcDbText
 10
6.673249999999999
 20
-3.01125
 30
0.0
 40
0.5
  1
Contact Seal
100
AcDbAttributeDefinition
  3

  2
ST
 70
     8
280
     0
  0
ATTDEF
  5
15F
330
151
100
AcDbEntity
  8
AM_6
100
AcDbText
 10
6.673249999999999
 20
-3.51125
 30
0.0
 40
0.5
  1
3.3465
100
AcDbAttributeDefinition
  3

  2
A
 70
     8
280
     0
  0
ATTDEF
  5
160
330
151
100
AcDbEntity
  8
AM_6
100
AcDbText
 10
6.673249999999999
 20
-4.01125
 30
0.0
 40
0.5
  1
61/64
100
AcDbAttributeDefinition
  3

  2
B
 70
     8
280
     0
  0
ATTDEF
  5
161
330
151
100
AcDbEntity
  8
AM_6
100
AcDbText
 10
6.673249999999999
 20
-4.51125
 30
0.0
 40
0.5
  1
2-13/16
100
AcDbAttributeDefinition
  3

  2
C
 70
     8
280
     0
  0
ATTDEF
  5
162
330
151
100
AcDbEntity
  8
AM_6
100
AcDbText
 10
6.673249999999999
 20
-5.01125
 30
0.0
 40
0.5
  1
0.954
100
AcDbAttributeDefinition
  3

  2
D
 70
     8
280
     0
  0
ATTDEF
  5
163
330
151
100
AcDbEntity
  8
AM_6
100
AcDbText
 10
6.673249999999999
 20
-5.51125
 30
0.0
 40
0.5
  1
3
100
AcDbAttributeDefinition
  3

  2
E
 70
     8
280
     0
  0
ATTDEF
  5
164
330
151
100
AcDbEntity
  8
AM_6
100
AcDbText
 10
6.673249999999999
 20
-6.01125
 30
0.0
 40
0.5
  1
0.1900
100
AcDbAttributeDefinition
  3

  2
NDM
 70
     8
280
     0
  0
ATTDEF
  5
165
330
151
100
AcDbEntity
  8
AM_6
100
AcDbText
 10
6.673249999999999
 20
-6.51125
 30
0.0
 40
0.5
  1
0.101
100
AcDbAttributeDefinition
  3

  2
H
 70
     8
280
     0
  0
ATTDEF
  5
166
330
151
100
AcDbEntity
  8
AM_6
100
AcDbText
 10
6.673249999999999
 20
-7.01125
 30
0.0
 40
0.5
  1
0.1450
100
AcDbAttributeDefinition
  3

  2
KDM
 70
     8
280
     0
  0
ATTDEF
  5
167
330
151
100
AcDbEntity
  8
AM_6
100
AcDbText
 10
6.673249999999999
 20
-7.51125
 30
0.0
 40
0.5
  1
2.42
100
AcDbAttributeDefinition
  3

  2
AL
 70
     8
280
     0
  0
ATTDEF
  5
168
330
151
100
AcDbEntity
  8
AM_6
100
AcDbText
 10
6.673249999999999
 20
-8.01125
 30
0.0
 40
0.5
  1
0.38
100
AcDbAttributeDefinition
  3

  2
BL
 70
     8
280
     0
  0
ATTDEF
  5
169
330
151
100
AcDbEntity
  8
AM_6
100
AcDbText
 10
6.673249999999999
 20
-8.51125
 30
0.0
 40
0.5
  1
0.07
100
AcDbAttributeDefinition
  3

  2
CL
 70
     8
280
     0
  0
ATTDEF
  5
16A
330
151
100
AcDbEntity
  8
AM_6
100
AcDbText
 10
6.673249999999999
 20
-9.01125
 30
0.0
 40
0.5
  1
0.44
100
AcDbAttributeDefinition
  3

  2
DL
 70
     8
280
     0
  0
ATTDEF
  5
16B
330
151
100
AcDbEntity
  8
AM_6
100
AcDbText
 10
6.673249999999999
 20
-9.51125
 30
0.0
 40
0.5
  1
0.8000
100
AcDbAttributeDefinition
  3

  2
LL
 70
     8
280
     0
  0
ATTDEF
  5
16C
330
151
100
AcDbEntity
  8
AM_6
100
AcDbText
 10
6.673249999999999
 20
-10.01125
 30
0.0
 40
0.5
  1
0.020
100
AcDbAttributeDefinition
  3

  2
Y
 70
     8
280
     0
  0
ATTDEF
  5
16D
330
151
100
AcDbEntity
  8
AM_6
100
AcDbText
 10
6.673249999999999
 20
-10.51125
 30
0.0
 40
0.5
  1
0.020000
100
AcDbAttributeDefinition
  3

  2
Y1
 70
     8
280
     0
  0
ATTDEF
  5
16E
330
151
100
AcDbEntity
  8
AM_6
100
AcDbText
 10
6.673249999999999
 20
-11.01125
 30
0.0
 40
0.5
  1
2-5/64
100
AcDbAttributeDefinition
  3

  2
Z
 70
     8
280
     0
  0
ATTDEF
  5
16F
330
151
100
AcDbEntity
  8
AM_6
100
AcDbText
 10
6.673249999999999
 20
-11.51125
 30
0.0
 40
0.5
  1
2.078125
100
AcDbAttributeDefinition
  3

  2
Z1
 70
     8
280
     0
  0
ATTDEF
  5
170
330
151
100
AcDbEntity
  8
AM_6
100
AcDbText
 10
6.673249999999999
 20
-12.01125
 30
0.0
 40
0.5
  1
baldor
100
AcDbAttributeDefinition
  3

  2
COMPANY
 70
     8
280
     0
  0
LINE
  5
171
330
151
100
AcDbEntity
  8
AM_9
100
AcDbLine
 10
-0.245100044127786
 20
0.9913125000000002
 30
0.0
 11
-0.245100044127786
 21
-1.34375
 31
0.0
  0
LINE
  5
172
330
151
100
AcDbEntity
  8
AM_9
100
AcDbLine
 10
-0.4206371553049303
 20
-1.18475
 30
0.0
 11
-0.4206371553049303
 21
0.9913125000000002
 31
0.0
  0
LINE
  5
173
330
151
100
AcDbEntity
  8
AM_9
100
AcDbLine
 10
-0.875
 20
0.9913124999999998
 30
0.0
 11
-0.875
 21
-1.34375
 31
0.0
  0
LINE
  5
174
330
151
100
AcDbEntity
  8
AM_9
100
AcDbLine
 10
0.875
 20
-1.34375
 30
0.0
 11
0.875
 21
0.9913124999999998
 31
0.0
  0
LINE
  5
175
330
151
100
AcDbEntity
  8
AM_9
100
AcDbLine
 10
-0.9210526315789476
 20
1.46875
 30
0.0
 11
-0.9210526315789476
 21
0.9913125000000002
 31
0.0
  0
LINE
  5
176
330
151
100
AcDbEntity
  8
AM_9
100
AcDbLine
 10
0.9210526315789476
 20
0.9913125000000002
 30
0.0
 11
0.9210526315789476
 21
1.46875
 31
0.0
  0
LINE
  5
177
330
151
100
AcDbEntity
  8
AM_9
100
AcDbLine
 10
-0.2628231382362255
 20
-1.18475
 30
0.0
 11
-0.2637581159079195
 21
0.9913125000000002
 31
0.0
  0
LINE
  5
178
330
151
100
AcDbEntity
  8
AM_9
100
AcDbLine
 10
-0.4392952270850639
 20
0.9913125000000002
 30
0.0
 11
-0.4383602494133698
 21
-1.18475
 31
0.0
  0
LINE
  5
179
330
151
100
AcDbEntity
  8
AM_9
100
AcDbLine
 10
-0.9210526315789473
 20
-1.11475
 30
0.0
 11
-0.9210526315789473
 21
-1.18475
 31
0.0
  0
LINE
  5
17A
330
151
100
AcDbEntity
  8
AM_9
100
AcDbLine
 10
0.9210526315789473
 20
-1.18475
 30
0.0
 11
0.9210526315789473
 21
-1.11475
 31
0.0
  0
LINE
  5
17B
330
151
100
AcDbEntity
  8
AM_9
100
AcDbLine
 10
-0.7212489168102787
 20
-0.67475
 30
0.0
 11
-0.7212489168102787
 21
-1.11475
 31
0.0
  0
LINE
  5
17C
330
151
100
AcDbEntity
  8
AM_9
100
AcDbLine
 10
0.7212489168102785
 20
-0.67475
 30
0.0
 11
0.7212489168102785
 21
-1.11475
 31
0.0
  0
LINE
  5
17D
330
151
100
AcDbEntity
  8
AM_9
100
AcDbLine
 10
1.0390625
 20
1.46875
 30
0.0
 11
-1.0390625
 21
1.46875
 31
0.0
  0
LINE
  5
17E
330
151
100
AcDbEntity
  8
AM_9
100
AcDbLine
 10
-1.0390625
 20
1.48875
 30
0.0
 11
-1.0390625
 21
1.46875
 31
0.0
  0
LINE
  5
17F
330
151
100
AcDbEntity
  8
AM_9
100
AcDbLine
 10
1.0390625
 20
1.46875
 30
0.0
 11
1.0390625
 21
1.48875
 31
0.0
  0
LINE
  5
180
330
151
100
AcDbEntity
  8
AM_9
100
AcDbLine
 10
-1.154513888888889
 20
1.265625
 30
0.0
 11
-1.154513888888889
 21
1.1819375
 31
0.0
  0
LINE
  5
181
330
151
100
AcDbEntity
  8
AM_9
100
AcDbLine
 10
1.154513888888889
 20
1.1819375
 30
0.0
 11
1.154513888888889
 21
1.265625
 31
0.0
  0
LINE
  5
182
330
151
100
AcDbEntity
  8
AM_9
100
AcDbLine
 10
-0.9287187364296173
 20
-0.6747499999999998
 30
0.0
 11
-0.7212489168102787
 21
-0.67475
 31
0.0
  0
LINE
  5
183
330
151
100
AcDbEntity
  8
AM_9
100
AcDbLine
 10
0.7212489168102785
 20
-0.67475
 30
0.0
 11
0.928718736429617
 21
-0.6747499999999998
 31
0.0
  0
LINE
  5
184
330
151
100
AcDbEntity
  8
AM_9
100
AcDbLine
 10
0.0
 20
-0.2747499999999997
 30
0.0
 11
-0.0724499999999999
 21
-0.3085339898333292
 31
0.0
  0
LINE
  5
185
330
151
100
AcDbEntity
  8
AM_9
100
AcDbLine
 10
0.0724499999999999
 20
-0.3085339898333292
 30
0.0
 11
0.0
 21
-0.2747499999999997
 31
0.0
  0
LINE
  5
186
330
151
100
AcDbEntity
  8
AM_9
100
AcDbLine
 10
0.0724499999999999
 20
-0.3085339898333292
 30
0.0
 11
-0.0724499999999999
 21
-0.3085339898333292
 31
0.0
  0
LINE
  5
187
330
151
100
AcDbEntity
  8
AM_9
100
AcDbLine
 10
-0.0724499999999999
 20
-0.3085339898333292
 30
0.0
 11
-0.0724499999999999
 21
-1.0922
 31
0.0
  0
LINE
  5
188
330
151
100
AcDbEntity
  8
AM_9
100
AcDbLine
 10
0.0724499999999999
 20
-1.0922
 30
0.0
 11
0.0724499999999999
 21
-0.3085339898333292
 31
0.0
  0
LINE
  5
189
330
151
100
AcDbEntity
  8
AM_9
100
AcDbLine
 10
0.0724499999999999
 20
-1.0922
 30
0.0
 11
-0.0724499999999999
 21
-1.0922
 31
0.0
  0
LINE
  5
18A
330
151
100
AcDbEntity
  8
AM_9
100
AcDbLine
 10
-0.0724499999999999
 20
-1.0922
 30
0.0
 11
-0.0949999999999999
 21
-1.11475
 31
0.0
  0
LINE
  5
18B
330
151
100
AcDbEntity
  8
AM_9
100
AcDbLine
 10
0.0949999999999999
 20
-1.11475
 30
0.0
 11
0.0724499999999999
 21
-1.0922
 31
0.0
  0
LINE
  5
18C
330
151
100
AcDbEntity
  8
AM_9
100
AcDbLine
 10
1.305457578016765
 20
1.1819375
 30
0.0
 11
-1.30545757800606
 21
1.1819375
 31
0.0
  0
ARC
  5
18D
330
151
100
AcDbEntity
  8
AM_9
100
AcDbCircle
 10
-1.305457578016766
 20
1.0819375
 30
0.0
 40
0.0999999999999992
100
AcDbArc
 50
90.0
 51
150.0
  0
ARC
  5
18E
330
151
100
AcDbEntity
  8
AM_9
100
AcDbCircle
 10
1.305457578016766
 20
1.0819375
 30
0.0
 40
0.0999999999999992
100
AcDbArc
 50
30.0
 51
90.0
  0
LINE
  5
18F
330
151
100
AcDbEntity
  8
AM_9
100
AcDbLine
 10
1.392060118395209
 20
1.1319375
 30
0.0
 11
-1.392060118395209
 21
1.1319375
 31
0.0
  0
LINE
  5
190
330
151
100
AcDbEntity
  8
AM_9
100
AcDbLine
 10
-1.392060118395209
 20
1.1319375
 30
0.0
 11
-1.47325
 21
0.9913124999999998
 31
0.0
  0
LINE
  5
191
330
151
100
AcDbEntity
  8
AM_9
100
AcDbLine
 10
1.47325
 20
0.9913124999999998
 30
0.0
 11
1.392060118395209
 21
1.1319375
 31
0.0
  0
LINE
  5
192
330
151
100
AcDbEntity
  8
AM_9
100
AcDbLine
 10
1.516556809835275
 20
-0.640625
 30
0.0
 11
1.540261464675892
 21
0.0381875000000002
 31
0.0
  0
LINE
  5
193
330
151
100
AcDbEntity
  8
AM_9
100
AcDbLine
 10
-1.540261464675892
 20
0.0381875000000002
 30
0.0
 11
-1.516556809835275
 21
-0.640625
 31
0.0
  0
LINE
  5
194
330
151
100
AcDbEntity
  8
AM_9
100
AcDbLine
 10
-1.62559375
 20
0.542264348766068
 30
0.0
 11
-1.62559375
 21
0.4872356512339315
 31
0.0
  0
LINE
  5
195
330
151
100
AcDbEntity
  8
AM_9
100
AcDbLine
 10
1.62559375
 20
0.4872356512339315
 30
0.0
 11
1.62559375
 21
0.542264348766068
 31
0.0
  0
LINE
  5
196
330
151
100
AcDbEntity
  8
AM_9
100
AcDbLine
 10
1.623249999999999
 20
0.0381875000000002
 30
0.0
 11
-1.623249999998801
 21
0.0381875000000002
 31
0.0
  0
ARC
  5
197
330
151
100
AcDbEntity
  8
AM_9
100
AcDbCircle
 10
-1.623249999999999
 20
0.0881875000000006
 30
0.0
 40
0.0500000000000005
100
AcDbArc
 50
180.0
 51
270.0
  0
ARC
  5
198
330
151
100
AcDbEntity
  8
AM_9
100
AcDbCircle
 10
1.623249999999999
 20
0.0881875000000004
 30
0.0
 40
0.0500000000000003
100
AcDbArc
 50
270.0
 51
0.0
  0
LINE
  5
199
330
151
100
AcDbEntity
  8
AM_9
100
AcDbLine
 10
-1.67325
 20
0.9413124999999999
 30
0.0
 11
-1.67325
 21
0.5697786975321362
 31
0.0
  0
LINE
  5
19A
330
151
100
AcDbEntity
  8
AM_9
100
AcDbLine
 10
1.67325
 20
0.5697786975321362
 30
0.0
 11
1.67325
 21
0.9413124999999999
 31
0.0
  0
LINE
  5
19B
330
151
100
AcDbEntity
  8
AM_9
100
AcDbLine
 10
1.62559375
 20
0.4872356512339315
 30
0.0
 11
-1.62559375
 21
0.4872356512339315
 31
0.0
  0
LINE
  5
19C
330
151
100
AcDbEntity
  8
AM_9
100
AcDbLine
 10
-1.62559375
 20
0.4872356512339315
 30
0.0
 11
-1.67325
 21
0.4597213024678633
 31
0.0
  0
LINE
  5
19D
330
151
100
AcDbEntity
  8
AM_9
100
AcDbLine
 10
1.67325
 20
0.4597213024678633
 30
0.0
 11
1.62559375
 21
0.4872356512339315
 31
0.0
  0
LINE
  5
19E
330
151
100
AcDbEntity
  8
AM_9
100
AcDbLine
 10
1.67325
 20
0.5697786975321362
 30
0.0
 11
-1.67325
 21
0.5697786975321362
 31
0.0
  0
LINE
  5
19F
330
151
100
AcDbEntity
  8
AM_9
100
AcDbLine
 10
1.62559375
 20
0.542264348766068
 30
0.0
 11
-1.62559375
 21
0.542264348766068
 31
0.0
  0
LINE
  5
1A0
330
151
100
AcDbEntity
  8
AM_9
100
AcDbLine
 10
1.62559375
 20
0.542264348766068
 30
0.0
 11
1.67325
 21
0.5697786975321362
 31
0.0
  0
LINE
  5
1A1
330
151
100
AcDbEntity
  8
AM_9
100
AcDbLine
 10
-1.67325
 20
0.5697786975321362
 30
0.0
 11
-1.62559375
 21
0.542264348766068
 31
0.0
  0
LINE
  5
1A2
330
151
100
AcDbEntity
  8
AM_9
100
AcDbLine
 10
1.67325
 20
0.4597213024678633
 30
0.0
 11
-1.67325
 21
0.4597213024678633
 31
0.0
  0
LINE
  5
1A3
330
151
100
AcDbEntity
  8
AM_9
100
AcDbLine
 10
1.67325
 20
0.0881875000000007
 30
0.0
 11
-1.67325
 21
0.0881875000000007
 31
0.0
  0
LINE
  5
1A4
330
151
100
AcDbEntity
  8
AM_9
100
AcDbLine
 10
-1.67325
 20
0.4597213024678633
 30
0.0
 11
-1.67325
 21
0.0881875000000007
 31
0.0
  0
LINE
  5
1A5
330
151
100
AcDbEntity
  8
AM_9
100
AcDbLine
 10
1.67325
 20
0.0881875000000007
 30
0.0
 11
1.67325
 21
0.4597213024678633
 31
0.0
  0
LINE
  5
1A6
330
151
100
AcDbEntity
  8
AM_9
100
AcDbLine
 10
1.623250000745059
 20
0.9913124999999998
 30
0.0
 11
-1.623250000743861
 21
0.9913124999999998
 31
0.0
  0
LINE
  5
1A7
330
151
100
AcDbEntity
  8
AM_9
100
AcDbLine
 10
1.67325
 20
0.9413124999999999
 30
0.0
 11
-1.67325
 21
0.9413124999999999
 31
0.0
  0
ARC
  5
1A8
330
151
100
AcDbEntity
  8
AM_9
100
AcDbCircle
 10
-1.623250000000001
 20
0.941312500000001
 30
0.0
 40
0.0499999999999988
100
AcDbArc
 50
90.0
 51
180.0
  0
ARC
  5
1A9
330
151
100
AcDbEntity
  8
AM_9
100
AcDbCircle
 10
1.623250000000001
 20
0.941312500000001
 30
0.0
 40
0.0499999999999989
100
AcDbArc
 50
0.0
 51
90.0
  0
LINE
  5
1AA
330
151
100
AcDbEntity
  8
AM_5
100
AcDbLine
 10
0.0724499999999999
 20
-0.3547500000000044
 30
0.0
 11
0.0949999999999999
 21
-0.3547500000000044
 31
0.0
  0
LINE
  5
1AB
330
151
100
AcDbEntity
  8
AM_5
100
AcDbLine
 10
0.0949999999999999
 20
-0.3547500000000044
 30
0.0
 11
0.0724499999999999
 21
-0.3417307514297687
 31
0.0
  0
LINE
  5
1AC
330
151
100
AcDbEntity
  8
AM_5
100
AcDbLine
 10
-0.0724499999999999
 20
-0.3547500000000044
 30
0.0
 11
-0.0949999999999999
 21
-0.3547500000000044
 31
0.0
  0
LINE
  5
1AD
330
151
100
AcDbEntity
  8
AM_5
100
AcDbLine
 10
-0.0949999999999999
 20
-0.3547500000000044
 30
0.0
 11
-0.0724499999999999
 21
-0.3417307514297687
 31
0.0
  0
LINE
  5
1AE
330
151
100
AcDbEntity
  8
AM_4
100
AcDbLine
 10
-0.4206371553049303
 20
-1.34375
 30
0.0
 11
-0.4206371553049303
 21
-1.18475
 31
0.0
  0
LINE
  5
1AF
330
151
100
AcDbEntity
  8
AM_4
100
AcDbLine
 10
-0.2628231382362254
 20
-1.34375
 30
0.0
 11
-0.2628231382362255
 21
-1.18475
 31
0.0
  0
LINE
  5
1B0
330
151
100
AcDbEntity
  8
AM_4
100
AcDbLine
 10
-0.4383602494133698
 20
-1.18475
 30
0.0
 11
-0.4383602494133698
 21
-1.34375
 31
0.0
  0
LINE
  5
1B1
330
151
100
AcDbEntity
  8
AM_4
100
AcDbLine
 10
-0.9210526315789473
 20
-1.18475
 30
0.0
 11
-0.9210526315789473
 21
-1.34375
 31
0.0
  0
LINE
  5
1B2
330
151
100
AcDbEntity
  8
AM_4
100
AcDbLine
 10
0.9210526315789473
 20
-1.34375
 30
0.0
 11
0.9210526315789473
 21
-1.18475
 31
0.0
  0
LINE
  5
1B3
330
151
100
AcDbEntity
  8
AM_4
100
AcDbLine
 10
0.9210526315789473
 20
-1.34375
 30
0.0
 11
-0.9210526315789473
 21
-1.34375
 31
0.0
  0
ARC
  5
1B4
330
151
100
AcDbEntity
  8
AM_4
100
AcDbCircle
 10
1.451715561259647
 20
-1.06475
 30
0.0
 40
0.0499999999999998
100
AcDbArc
 50
270.0
 51
357.9999999999999
  0
ARC
  5
1B5
330
151
100
AcDbEntity
  8
AM_4
100
AcDbCircle
 10
-1.451715561259647
 20
-1.06475
 30
0.0
 40
0.0499999999999999
100
AcDbArc
 50
182.0000000000003
 51
270.0
  0
LWPOLYLINE
  5
1B6
330
151
100
AcDbEntity
  8
AM_4
100
AcDbPolyline
 90
        6
 70
     0
 43
0.0
 10
1.187668414017759
 20
-1.066494974835125
 10
1.185276901611704
 20
-1.082835137763146
 10
1.179198140676665
 20
-1.097143195988429
 10
1.170093601500119
 20
-1.107866053567919
 10
1.15891686406428
 20
-1.113811012141457
 10
1.152038371976443
 20
-1.11475
  0
LWPOLYLINE
  5
1B7
330
151
100
AcDbEntity
  8
AM_4
100
AcDbPolyline
 90
        6
 70
     0
 43
0.0
 10
-1.152038371976443
 20
-1.11475
 10
-1.157179401881074
 20
-1.114227677997732
 10
-1.168670885864119
 20
-1.108977214874398
 10
-1.178246925837471
 20
-1.098649476214342
 10
-1.184793095789032
 20
-1.084495490382564
 10
-1.187668414017758
 20
-1.066494974835125
  0
LINE
  5
1B8
330
151
100
AcDbEntity
  8
AM_4
100
AcDbLine
 10
-0.9899494936611664
 20
-0.67475
 30
0.0
 11
-0.9899494936611664
 21
-1.11475
 31
0.0
  0
LINE
  5
1B9
330
151
100
AcDbEntity
  8
AM_4
100
AcDbLine
 10
0.9899494936611667
 20
-0.67475
 30
0.0
 11
0.9899494936611667
 21
-1.11475
 31
0.0
  0
LINE
  5
1BA
330
151
100
AcDbEntity
  8
AM_4
100
AcDbLine
 10
1.127871260683761
 20
1.48875
 30
0.0
 11
-1.127871260681049
 21
1.48875
 31
0.0
  0
ARC
  5
1BB
330
151
100
AcDbEntity
  8
AM_4
100
AcDbCircle
 10
-1.127871260683762
 20
1.462107371794872
 30
0.0
 40
0.0266426282051273
100
AcDbArc
 50
90.0
 51
180.0
  0
ARC
  5
1BC
330
151
100
AcDbEntity
  8
AM_4
100
AcDbCircle
 10
1.127871260683762
 20
1.462107371794872
 30
0.0
 40
0.0266426282051273
100
AcDbArc
 50
0.0
 51
90.0
  0
LINE
  5
1BD
330
151
100
AcDbEntity
  8
AM_4
100
AcDbLine
 10
1.154513888888889
 20
1.462107371794872
 30
0.0
 11
-1.154513888888889
 21
1.462107371794872
 31
0.0
  0
LINE
  5
1BE
330
151
100
AcDbEntity
  8
AM_4
100
AcDbLine
 10
-1.154513888888889
 20
1.462107371794872
 30
0.0
 11
-1.154513888888889
 21
1.265625
 31
0.0
  0
LINE
  5
1BF
330
151
100
AcDbEntity
  8
AM_4
100
AcDbLine
 10
1.154513888888889
 20
1.265625
 30
0.0
 11
1.154513888888889
 21
1.462107371794872
 31
0.0
  0
LWPOLYLINE
  5
1C0
330
151
100
AcDbEntity
  8
AM_4
100
AcDbPolyline
 90
        6
 70
     0
 43
0.0
 10
0.8833377951255554
 20
-1.11475
 10
0.8884788250301865
 20
-1.114227677997732
 10
0.8999703090132312
 20
-1.108977214874398
 10
0.9095463489865829
 20
-1.098649476214342
 10
0.9160925189381444
 20
-1.084495490382564
 10
0.9189678371668706
 20
-1.066494974835125
  0
LWPOLYLINE
  5
1C1
330
151
100
AcDbEntity
  8
AM_4
100
AcDbPolyline
 90
        6
 70
     0
 43
0.0
 10
-0.9189678371668707
 20
-1.066494974835125
 10
-0.9165763247608161
 20
-1.082835137763146
 10
-0.9104975638257773
 20
-1.097143195988429
 10
-0.9013930246492313
 20
-1.107866053567919
 10
-0.8902162872133919
 20
-1.113811012141457
 10
-0.8833377951255554
 20
-1.11475
  0
LINE
  5
1C2
330
151
100
AcDbEntity
  8
AM_4
100
AcDbLine
 10
-1.187668414017758
 20
-1.066494974835125
 30
0.0
 11
-1.501685102610602
 21
-1.066494974835125
 31
0.0
  0
LINE
  5
1C3
330
151
100
AcDbEntity
  8
AM_4
100
AcDbLine
 10
-1.187668414017758
 20
-1.066494974835125
 30
0.0
 11
-1.197419313280505
 21
-0.67475
 31
0.0
  0
LINE
  5
1C4
330
151
100
AcDbEntity
  8
AM_4
100
AcDbLine
 10
-1.197419313280505
 20
-0.67475
 30
0.0
 11
-0.9287187364296173
 21
-0.6747499999999998
 31
0.0
  0
LINE
  5
1C5
330
151
100
AcDbEntity
  8
AM_4
100
AcDbLine
 10
-0.9287187364296173
 20
-0.6747499999999998
 30
0.0
 11
-0.9189678371668707
 21
-1.066494974835125
 31
0.0
  0
LINE
  5
1C6
330
151
100
AcDbEntity
  8
AM_4
100
AcDbLine
 10
0.9189678371668706
 20
-1.066494974835125
 30
0.0
 11
-0.9189678371668707
 21
-1.066494974835125
 31
0.0
  0
LINE
  5
1C7
330
151
100
AcDbEntity
  8
AM_4
100
AcDbLine
 10
0.9189678371668706
 20
-1.066494974835125
 30
0.0
 11
0.928718736429617
 21
-0.6747499999999998
 31
0.0
  0
LINE
  5
1C8
330
151
100
AcDbEntity
  8
AM_4
100
AcDbLine
 10
0.928718736429617
 20
-0.6747499999999998
 30
0.0
 11
1.197419313280505
 21
-0.67475
 31
0.0
  0
LINE
  5
1C9
330
151
100
AcDbEntity
  8
AM_4
100
AcDbLine
 10
1.197419313280505
 20
-0.67475
 30
0.0
 11
1.187668414017759
 21
-1.066494974835125
 31
0.0
  0
LINE
  5
1CA
330
151
100
AcDbEntity
  8
AM_4
100
AcDbLine
 10
1.501685102610602
 20
-1.066494974835125
 30
0.0
 11
1.516556809835275
 21
-0.640625
 31
0.0
  0
LINE
  5
1CB
330
151
100
AcDbEntity
  8
AM_4
100
AcDbLine
 10
-1.516556809835275
 20
-0.640625
 30
0.0
 11
-1.501685102610602
 21
-1.066494974835125
 31
0.0
  0
LINE
  5
1CC
330
151
100
AcDbEntity
  8
AM_4
100
AcDbLine
 10
1.501685102610602
 20
-1.066494974835125
 30
0.0
 11
1.187668414017759
 21
-1.066494974835125
 31
0.0
  0
ENDBLK
  5
154
330
151
100
AcDbEntity
  8
0
100
AcDbBlockEnd
  0
BLOCK
  5
1CF
330
1CD
100
AcDbEntity
  8
0
100
AcDbBlockBegin
  2
7_069845H_0_in_069845_4
 70
     2
 10
0.0
 20
0.0
 30
0.0
  3
7_069845H_0_in_069845_4
  1

  0
ATTDEF
  5
1D1
330
1CD
100
AcDbEntity
  8
AM_6
100
AcDbText
 10
8.0625
 20
1.670625
 30
0.0
 40
0.5
  1
FC-IP -(Contact Seal)-Housing -Inch
100
AcDbAttributeDefinition
  3

  2
NN
 70
     8
280
     0
  0
ATTDEF
  5
1D2
330
1CD
100
AcDbEntity
  8
AM_6
100
AcDbText
 10
8.0625
 20
1.170625
 30
0.0
 40
0.5
  1
Imperial Piloted Flange Bearings
100
AcDbAttributeDefinition
  3

  2
NT
 70
     8
280
     0
  0
ATTDEF
  5
1D3
330
1CD
100
AcDbEntity
  8
AM_6
100
AcDbText
 10
8.0625
 20
0.670625
 30
0.0
 40
0.5
  1
069845H
100
AcDbAttributeDefinition
  3

  2
NB
 70
     8
280
     0
  0
ATTDEF
  5
1D4
330
1CD
100
AcDbEntity
  8
AM_6
100
AcDbText
 10
8.0625
 20
0.170625
 30
0.0
 40
0.5
  1
$PN.H
100
AcDbAttributeDefinition
  3

  2
NBSYN
 70
     8
280
     0
  0
ATTDEF
  5
1D5
330
1CD
100
AcDbEntity
  8
AM_6
100
AcDbText
 10
8.0625
 20
-0.329375
 30
0.0
 40
0.5
  1
069845
100
AcDbAttributeDefinition
  3

  2
LINA
 70
     8
280
     0
  0
ATTDEF
  5
1D6
330
1CD
100
AcDbEntity
  8
AM_6
100
AcDbText
 10
8.0625
 20
-0.829375
 30
0.0
 40
0.5
  1
1-3/4
100
AcDbAttributeDefinition
  3

  2
SS
 70
     8
280
     0
  0
ATTDEF
  5
1D7
330
1CD
100
AcDbEntity
  8
AM_6
100
AcDbText
 10
8.0625
 20
-1.329375
 30
0.0
 40
0.5
  1
069845
100
AcDbAttributeDefinition
  3

  2
PN
 70
     8
280
     0
  0
ATTDEF
  5
1D8
330
1CD
100
AcDbEntity
  8
AM_6
100
AcDbText
 10
8.0625
 20
-1.829375
 30
0.0
 40
0.5
  1
FC-IP-112RE
100
AcDbAttributeDefinition
  3

  2
DESCRIPTION
 70
     8
280
     0
  0
ATTDEF
  5
1D9
330
1CD
100
AcDbEntity
  8
AM_6
100
AcDbText
 10
8.0625
 20
-2.329375
 30
0.0
 40
0.5
  1
Expansion Type
100
AcDbAttributeDefinition
  3

  2
EF
 70
     8
280
     0
  0
ATTDEF
  5
1DA
330
1CD
100
AcDbEntity
  8
AM_6
100
AcDbText
 10
8.0625
 20
-2.829375
 30
0.0
 40
0.5
  1
Contact  Seal
100
AcDbAttributeDefinition
  3

  2
ST
 70
     8
280
     0
  0
ATTDEF
  5
1DB
330
1CD
100
AcDbEntity
  8
AM_6
100
AcDbText
 10
8.0625
 20
-3.329375
 30
0.0
 40
0.5
  1
2-13/16
100
AcDbAttributeDefinition
  3

  2
A
 70
     8
280
     0
  0
ATTDEF
  5
1DC
330
1CD
100
AcDbEntity
  8
AM_6
100
AcDbText
 10
8.0625
 20
-3.829375
 30
0.0
 40
0.5
  1
6-1/8
100
AcDbAttributeDefinition
  3

  2
B
 70
     8
280
     0
  0
ATTDEF
  5
1DD
330
1CD
100
AcDbEntity
  8
AM_6
100
AcDbText
 10
8.0625
 20
-4.329375
 30
0.0
 40
0.5
  1
1-29/32
100
AcDbAttributeDefinition
  3

  2
C
 70
     8
280
     0
  0
ATTDEF
  5
1DE
330
1CD
100
AcDbEntity
  8
AM_6
100
AcDbText
 10
8.0625
 20
-4.829375
 30
0.0
 40
0.5
  1
3-5/8
100
AcDbAttributeDefinition
  3

  2
D
 70
     8
280
     0
  0
ATTDEF
  5
1DF
330
1CD
100
AcDbEntity
  8
AM_6
100
AcDbText
 10
8.0625
 20
-5.329375
 30
0.0
 40
0.5
  1
5-1/8
100
AcDbAttributeDefinition
  3

  2
DD
 70
     8
280
     0
  0
ATTDEF
  5
1E0
330
1CD
100
AcDbEntity
  8
AM_6
100
AcDbText
 10
8.0625
 20
-5.829375
 30
0.0
 40
0.5
  1
7/8
100
AcDbAttributeDefinition
  3

  2
E
 70
     8
280
     0
  0
ATTDEF
  5
1E1
330
1CD
100
AcDbEntity
  8
AM_6
100
AcDbText
 10
8.0625
 20
-6.329375
 30
0.0
 40
0.5
  1
7/16
100
AcDbAttributeDefinition
  3

  2
F
 70
     8
280
     0
  0
ATTDEF
  5
1E2
330
1CD
100
AcDbEntity
  8
AM_6
100
AcDbText
 10
8.0625
 20
-6.829375
 30
0.0
 40
0.5
  1
1-39/64
100
AcDbAttributeDefinition
  3

  2
G
 70
     8
280
     0
  0
ATTDEF
  5
1E3
330
1CD
100
AcDbEntity
  8
AM_6
100
AcDbText
 10
8.0625
 20
-7.329375
 30
0.0
 40
0.5
  1
1/2
100
AcDbAttributeDefinition
  3

  2
H
 70
     8
280
     0
  0
ATTDEF
  5
1E4
330
1CD
100
AcDbEntity
  8
AM_6
100
AcDbText
 10
8.0625
 20
-7.829375
 30
0.0
 40
0.5
  1
4.250
100
AcDbAttributeDefinition
  3

  2
K
 70
     8
280
     0
  0
ATTDEF
  5
1E5
330
1CD
100
AcDbEntity
  8
AM_6
100
AcDbText
 10
8.0625
 20
-8.329374999999999
 30
0.0
 40
0.5
  1
3
100
AcDbAttributeDefinition
  3

  2
L
 70
     8
280
     0
  0
ATTDEF
  5
1E6
330
1CD
100
AcDbEntity
  8
AM_6
100
AcDbText
 10
8.0625
 20
-8.829374999999999
 30
0.0
 40
0.5
  1
7/16-14
100
AcDbAttributeDefinition
  3

  2
M
 70
     8
280
     0
  0
ATTDEF
  5
1E7
330
1CD
100
AcDbEntity
  8
AM_6
100
AcDbText
 10
8.0625
 20
-9.329374999999999
 30
0.0
 40
0.5
  1
2-55/64
100
AcDbAttributeDefinition
  3

  2
N
 70
     8
280
     0
  0
ATTDEF
  5
1E8
330
1CD
100
AcDbEntity
  8
AM_6
100
AcDbText
 10
8.0625
 20
-9.829374999999999
 30
0.0
 40
0.5
  1
1-13/64
100
AcDbAttributeDefinition
  3

  2
P
 70
     8
280
     0
  0
ATTDEF
  5
1E9
330
1CD
100
AcDbEntity
  8
AM_6
100
AcDbText
 10
8.0625
 20
-10.329375
 30
0.0
 40
0.5
  1
1-17/64
100
AcDbAttributeDefinition
  3

  2
Q
 70
     8
280
     0
  0
ATTDEF
  5
1EA
330
1CD
100
AcDbEntity
  8
AM_6
100
AcDbText
 10
8.0625
 20
-10.829375
 30
0.0
 40
0.5
  1
1/4
100
AcDbAttributeDefinition
  3

  2
X
 70
     8
280
     0
  0
ATTDEF
  5
1EB
330
1CD
100
AcDbEntity
  8
AM_6
100
AcDbText
 10
8.0625
 20
-11.329375
 30
0.0
 40
0.5
  1
0.020
100
AcDbAttributeDefinition
  3

  2
Y
 70
     8
280
     0
  0
ATTDEF
  5
1EC
330
1CD
100
AcDbEntity
  8
AM_6
100
AcDbText
 10
8.0625
 20
-11.829375
 30
0.0
 40
0.5
  1
2-5/64
100
AcDbAttributeDefinition
  3

  2
Z
 70
     8
280
     0
  0
ATTDEF
  5
1ED
330
1CD
100
AcDbEntity
  8
AM_6
100
AcDbText
 10
8.0625
 20
-12.329375
 30
0.0
 40
0.5
  1
baldor
100
AcDbAttributeDefinition
  3

  2
COMPANY
 70
     8
280
     0
  0
LINE
  5
1EE
330
1CD
100
AcDbEntity
  8
AM_9
100
AcDbLine
 10
0.5
 20
-0.6072916666666668
 30
0.0
 11
-0.5
 21
-0.6072916666666668
 31
0.0
  0
LINE
  5
1EF
330
1CD
100
AcDbEntity
  8
AM_9
100
AcDbLine
 10
-2.76435
 20
-0.0169000000000002
 30
0.0
 11
-2.76435
 21
-0.3830999999999999
 31
0.0
  0
LINE
  5
1F0
330
1CD
100
AcDbEntity
  8
AM_9
100
AcDbLine
 10
-2.36065
 20
-0.3830999999999999
 30
0.0
 11
-2.36065
 21
-0.0169000000000002
 31
0.0
  0
LINE
  5
1F1
330
1CD
100
AcDbEntity
  8
AM_9
100
AcDbLine
 10
2.36065
 20
-0.0169000000000002
 30
0.0
 11
2.36065
 21
-0.3830999999999999
 31
0.0
  0
LINE
  5
1F2
330
1CD
100
AcDbEntity
  8
AM_9
100
AcDbLine
 10
2.76435
 20
-0.3830999999999999
 30
0.0
 11
2.76435
 21
-0.0169000000000002
 31
0.0
  0
LINE
  5
1F3
330
1CD
100
AcDbEntity
  8
AM_9
100
AcDbLine
 10
-2.36065
 20
-0.0169000000000002
 30
0.0
 11
-2.764349999999999
 21
-0.0169000000000002
 31
0.0
  0
LINE
  5
1F4
330
1CD
100
AcDbEntity
  8
AM_9
100
AcDbLine
 10
-2.36065
 20
-0.0169000000000002
 30
0.0
 11
-2.34375
 21
0.0
 31
0.0
  0
LINE
  5
1F5
330
1CD
100
AcDbEntity
  8
AM_9
100
AcDbLine
 10
-2.781249999999999
 20
0.0
 30
0.0
 11
-2.764349999999999
 21
-0.0169000000000002
 31
0.0
  0
LINE
  5
1F6
330
1CD
100
AcDbEntity
  8
AM_9
100
AcDbLine
 10
-2.36065
 20
-0.3830999999999999
 30
0.0
 11
-2.76435
 21
-0.3830999999999999
 31
0.0
  0
LINE
  5
1F7
330
1CD
100
AcDbEntity
  8
AM_9
100
AcDbLine
 10
-2.76435
 20
-0.3830999999999999
 30
0.0
 11
-2.78125
 21
-0.4
 31
0.0
  0
LINE
  5
1F8
330
1CD
100
AcDbEntity
  8
AM_9
100
AcDbLine
 10
-2.34375
 20
-0.4
 30
0.0
 11
-2.36065
 21
-0.3830999999999999
 31
0.0
  0
LINE
  5
1F9
330
1CD
100
AcDbEntity
  8
AM_9
100
AcDbLine
 10
2.76435
 20
-0.0169000000000002
 30
0.0
 11
2.36065
 21
-0.0169000000000002
 31
0.0
  0
LINE
  5
1FA
330
1CD
100
AcDbEntity
  8
AM_9
100
AcDbLine
 10
2.76435
 20
-0.0169000000000002
 30
0.0
 11
2.78125
 21
0.0
 31
0.0
  0
LINE
  5
1FB
330
1CD
100
AcDbEntity
  8
AM_9
100
AcDbLine
 10
2.34375
 20
0.0
 30
0.0
 11
2.36065
 21
-0.0169000000000002
 31
0.0
  0
LINE
  5
1FC
330
1CD
100
AcDbEntity
  8
AM_9
100
AcDbLine
 10
2.76435
 20
-0.3830999999999999
 30
0.0
 11
2.36065
 21
-0.3830999999999999
 31
0.0
  0
LINE
  5
1FD
330
1CD
100
AcDbEntity
  8
AM_9
100
AcDbLine
 10
2.36065
 20
-0.3830999999999999
 30
0.0
 11
2.34375
 21
-0.4
 31
0.0
  0
LINE
  5
1FE
330
1CD
100
AcDbEntity
  8
AM_9
100
AcDbLine
 10
2.78125
 20
-0.4
 30
0.0
 11
2.76435
 21
-0.3830999999999999
 31
0.0
  0
LINE
  5
1FF
330
1CD
100
AcDbEntity
  8
AM_9
100
AcDbLine
 10
1.950854581151687
 20
-0.3999999999999999
 30
0.0
 11
1.950854581151687
 21
-0.4999999999999999
 31
0.0
  0
LINE
  5
200
330
1CD
100
AcDbEntity
  8
AM_9
100
AcDbLine
 10
1.932769785580586
 20
-0.3999999999999999
 30
0.0
 11
1.932769785580586
 21
-0.4999999999999999
 31
0.0
  0
LINE
  5
201
330
1CD
100
AcDbEntity
  8
AM_9
100
AcDbLine
 10
-1.950854581151687
 20
-0.3999999999999999
 30
0.0
 11
-1.950854581151687
 21
-0.4999999999999999
 31
0.0
  0
LINE
  5
202
330
1CD
100
AcDbEntity
  8
AM_9
100
AcDbLine
 10
-1.932769785580586
 20
-0.4999999999999999
 30
0.0
 11
-1.932769785580586
 21
-0.3999999999999999
 31
0.0
  0
LINE
  5
203
330
1CD
100
AcDbEntity
  8
AM_9
100
AcDbLine
 10
-1.941409345779211
 20
-0.3999999999999999
 30
0.0
 11
-1.941409345779211
 21
-0.4999999999999999
 31
0.0
  0
LINE
  5
204
330
1CD
100
AcDbEntity
  8
AM_9
100
AcDbLine
 10
-2.125
 20
-0.4
 30
0.0
 11
-2.125
 21
-0.5000000000000001
 31
0.0
  0
LINE
  5
205
330
1CD
100
AcDbEntity
  8
AM_9
100
AcDbLine
 10
1.941409345779212
 20
-0.3999999999999999
 30
0.0
 11
1.941409345779211
 21
-0.4999999999999999
 31
0.0
  0
LINE
  5
206
330
1CD
100
AcDbEntity
  8
AM_9
100
AcDbLine
 10
2.125
 20
-0.4999999999999997
 30
0.0
 11
2.125
 21
-0.4
 31
0.0
  0
LINE
  5
207
330
1CD
100
AcDbEntity
  8
AM_9
100
AcDbLine
 10
1.67325
 20
-0.640625
 30
0.0
 11
1.67325
 21
1.265625
 31
0.0
  0
LINE
  5
208
330
1CD
100
AcDbEntity
  8
AM_9
100
AcDbLine
 10
-1.67325
 20
1.265625
 30
0.0
 11
-1.67325
 21
-0.640625
 31
0.0
  0
LINE
  5
209
330
1CD
100
AcDbEntity
  8
AM_9
100
AcDbLine
 10
1.932769785580586
 20
-0.3999999999999999
 30
0.0
 11
2.473542885777587
 21
-0.3999999999999999
 31
0.0
  0
LINE
  5
20A
330
1CD
100
AcDbEntity
  8
AM_9
100
AcDbLine
 10
2.435529838774805
 20
-0.3999999999999999
 30
0.0
 11
2.435529838774805
 21
-0.4999999999999999
 31
0.0
  0
LINE
  5
20B
330
1CD
100
AcDbEntity
  8
AM_9
100
AcDbLine
 10
-2.435529838774805
 20
-0.3999999999999999
 30
0.0
 11
-2.435529838774805
 21
-0.4999999999999999
 31
0.0
  0
LINE
  5
20C
330
1CD
100
AcDbEntity
  8
AM_9
100
AcDbLine
 10
-2.473542885777586
 20
-0.3999999999999999
 30
0.0
 11
-1.932769785580586
 21
-0.3999999999999999
 31
0.0
  0
LINE
  5
20D
330
1CD
100
AcDbEntity
  8
AM_9
100
AcDbLine
 10
2.030711126790528
 20
-0.5
 30
0.0
 11
2.030711126790528
 21
0.0000000000000001
 31
0.0
  0
LINE
  5
20E
330
1CD
100
AcDbEntity
  8
AM_9
100
AcDbLine
 10
1.593211126790528
 20
0.0000000000000001
 30
0.0
 11
1.593211126790528
 21
-0.5
 31
0.0
  0
LINE
  5
20F
330
1CD
100
AcDbEntity
  8
AM_9
100
AcDbLine
 10
-1.593211126790528
 20
-0.5
 30
0.0
 11
-1.593211126790528
 21
0.0000000000000001
 31
0.0
  0
LINE
  5
210
330
1CD
100
AcDbEntity
  8
AM_9
100
AcDbLine
 10
-2.030711126790528
 20
0.0000000000000001
 30
0.0
 11
-2.030711126790528
 21
-0.5
 31
0.0
  0
LINE
  5
211
330
1CD
100
AcDbEntity
  8
AM_9
100
AcDbLine
 10
-0.2115029497787619
 20
-0.6406249999999998
 30
0.0
 11
0.2115355549966961
 21
-0.6406249999999998
 31
0.0
  0
LINE
  5
212
330
1CD
100
AcDbEntity
  8
AM_9
100
AcDbLine
 10
0.2124957308788009
 20
-0.6396249999999999
 30
0.0
 11
-0.2124887179629562
 21
-0.6396249999999999
 31
0.0
  0
LINE
  5
213
330
1CD
100
AcDbEntity
  8
AM_5
100
AcDbLine
 10
2.78125
 20
0.0
 30
0.0
 11
2.78125
 21
-0.4
 31
0.0
  0
LINE
  5
214
330
1CD
100
AcDbEntity
  8
AM_5
100
AcDbLine
 10
2.34375
 20
-0.0000000000000003
 30
0.0
 11
2.34375
 21
-0.3999999999999997
 31
0.0
  0
LINE
  5
215
330
1CD
100
AcDbEntity
  8
AM_5
100
AcDbLine
 10
-2.34375
 20
0.0
 30
0.0
 11
-2.34375
 21
-0.4
 31
0.0
  0
LINE
  5
216
330
1CD
100
AcDbEntity
  8
AM_5
100
AcDbLine
 10
-2.78125
 20
0.0000000000000003
 30
0.0
 11
-2.78125
 21
-0.4
 31
0.0
  0
LINE
  5
219
330
1CD
100
AcDbEntity
  8
AM_7
100
AcDbLine
 10
-1.811961126790528
 20
0.0262499999999999
 30
0.0
 11
-1.811961126790528
 21
-0.5512500000000001
 31
0.0
  0
LINE
  5
21A
330
1CD
100
AcDbEntity
  8
AM_7
100
AcDbLine
 10
1.811961126790528
 20
0.0262499999999999
 30
0.0
 11
1.811961126790528
 21
-0.5512500000000001
 31
0.0
  0
LINE
  5
21B
330
1CD
100
AcDbEntity
  8
AM_7
100
AcDbLine
 10
2.5625
 20
0.02
 30
0.0
 11
2.5625
 21
-0.42
 31
0.0
  0
LINE
  5
21C
330
1CD
100
AcDbEntity
  8
AM_7
100
AcDbLine
 10
-2.5625
 20
0.02
 30
0.0
 11
-2.5625
 21
-0.42
 31
0.0
  0
LINE
  5
21D
330
1CD
100
AcDbEntity
  8
AM_7
100
AcDbLine
 10
0.0
 20
1.670625
 30
0.0
 11
0.0
 21
-1.670625
 31
0.0
  0
LINE
  5
21E
330
1CD
100
AcDbEntity
  8
AM_4
100
AcDbLine
 10
-2.125
 20
-0.5000000000000001
 30
0.0
 11
-2.125
 21
-0.6072916666666668
 31
0.0
  0
LINE
  5
21F
330
1CD
100
AcDbEntity
  8
AM_4
100
AcDbLine
 10
2.125
 20
-0.6072916666666668
 30
0.0
 11
2.125
 21
-0.4999999999999997
 31
0.0
  0
LINE
  5
220
330
1CD
100
AcDbEntity
  8
AM_4
100
AcDbLine
 10
-1.743290484551277
 20
-0.6072916666666667
 30
0.0
 11
-1.743290484551277
 21
-0.4999999999999999
 31
0.0
  0
LINE
  5
221
330
1CD
100
AcDbEntity
  8
AM_4
100
AcDbLine
 10
1.743290484551276
 20
-0.6072916666666667
 30
0.0
 11
1.743290484551276
 21
-0.4999999999999999
 31
0.0
  0
LWPOLYLINE
  5
222
330
1CD
100
AcDbEntity
  8
AM_4
100
AcDbPolyline
 90
        7
 70
     0
 43
0.0
 10
1.67911048992142
 20
-0.6398841781056354
 10
1.691467833777818
 20
-0.6372330678983004
 10
1.703277281999674
 20
-0.6331127561978868
 10
1.718485622808207
 20
-0.6256177400365749
 10
1.731945321836038
 20
-0.6167733586342716
 10
1.743075333893022
 20
-0.6074934625432019
 10
1.743290484551277
 20
-0.6072916666666667
  0
LINE
  5
223
330
1CD
100
AcDbEntity
  8
AM_4
100
AcDbLine
 10
1.743290484551276
 20
-0.6072916666666667
 30
0.0
 11
2.125
 21
-0.6072916666666668
 31
0.0
  0
ARC
  5
224
330
1CD
100
AcDbEntity
  8
AM_4
100
AcDbCircle
 10
2.091666666666666
 20
-0.6072916666666665
 30
0.0
 40
0.0333333333333335
100
AcDbArc
 50
270.0
 51
0.0
  0
LWPOLYLINE
  5
225
330
1CD
100
AcDbEntity
  8
AM_4
100
AcDbPolyline
 90
        7
 70
     0
 43
0.0
 10
-1.743290484551277
 20
-0.6072916666666667
 10
-1.743075333893005
 20
-0.6074934625431377
 10
-1.730118466434373
 20
-0.6181103560124831
 10
-1.713754567048517
 20
-0.6282173819275865
 10
-1.70137980368762
 20
-0.6338749219435572
 10
-1.687425432240705
 20
-0.6382949766637946
 10
-1.679110496063222
 20
-0.6398841772417552
  0
ARC
  5
226
330
1CD
100
AcDbEntity
  8
AM_4
100
AcDbCircle
 10
-2.091666666666666
 20
-0.6072916666666665
 30
0.0
 40
0.0333333333333337
100
AcDbArc
 50
180.0
 51
270.0
  0
LINE
  5
227
330
1CD
100
AcDbEntity
  8
AM_4
100
AcDbLine
 10
-2.125
 20
-0.6072916666666668
 30
0.0
 11
-1.743290484551277
 21
-0.6072916666666667
 31
0.0
  0
LINE
  5
228
330
1CD
100
AcDbEntity
  8
AM_4
100
AcDbLine
 10
-1.679110496063222
 20
-0.6398841772417552
 30
0.0
 11
-1.679110496063222
 21
-0.4999999999999999
 31
0.0
  0
LWPOLYLINE
  5
229
330
1CD
100
AcDbEntity
  8
AM_4
100
AcDbPolyline
 90
        3
 70
     0
 43
0.0
 10
-1.66832762890564
 20
-0.6406249999999998
 10
-1.672533137121179
 20
-0.6405150344482452
 10
-1.679110496063222
 20
-0.6398841772417552
  0
LINE
  5
22A
330
1CD
100
AcDbEntity
  8
AM_4
100
AcDbLine
 10
1.67911048992142
 20
-0.6398841781056354
 30
0.0
 11
1.668327628905641
 21
-0.6406249999999998
 31
0.0
  0
LINE
  5
22B
330
1CD
100
AcDbEntity
  8
AM_4
100
AcDbLine
 10
1.67911048992142
 20
-0.6398841781056354
 30
0.0
 11
1.67911048992142
 21
-0.4999999999999999
 31
0.0
  0
LINE
  5
22C
330
1CD
100
AcDbEntity
  8
AM_4
100
AcDbLine
 10
-1.25894460734154
 20
-0.6398841781056354
 30
0.0
 11
-1.25894460734154
 21
-0.4999999999999998
 31
0.0
  0
LINE
  5
22D
330
1CD
100
AcDbEntity
  8
AM_4
100
AcDbLine
 10
1.258944605866101
 20
-0.6398841772417552
 30
0.0
 11
1.258944605866101
 21
-0.4999999999999998
 31
0.0
  0
LINE
  5
22E
330
1CD
100
AcDbEntity
  8
AM_4
100
AcDbLine
 10
2.475090329086589
 20
-0.4999999999999998
 30
0.0
 11
2.475090329086589
 21
-0.3999999999999999
 31
0.0
  0
LINE
  5
22F
330
1CD
100
AcDbEntity
  8
AM_4
100
AcDbLine
 10
2.475090329086589
 20
-0.4999999999999998
 30
0.0
 11
0.864033999401143
 21
-0.4999999999999998
 31
0.0
  0
LINE
  5
230
330
1CD
100
AcDbEntity
  8
AM_4
100
AcDbLine
 10
-0.8640339994011421
 20
-0.4999999999999998
 30
0.0
 11
-2.475090329086589
 21
-0.4999999999999998
 31
0.0
  0
LINE
  5
231
330
1CD
100
AcDbEntity
  8
AM_4
100
AcDbLine
 10
-2.475090329086589
 20
-0.3999999999999999
 30
0.0
 11
-2.475090329086589
 21
-0.4999999999999998
 31
0.0
  0
LINE
  5
232
330
1CD
100
AcDbEntity
  8
AM_4
100
AcDbLine
 10
-1.961884159486456
 20
1.265625
 30
0.0
 11
1.961884159480241
 21
1.265625
 31
0.0
  0
ARC
  5
233
330
1CD
100
AcDbEntity
  8
AM_4
100
AcDbCircle
 10
1.961884159486455
 20
1.215624999999999
 30
0.0
 40
0.0500000000000008
100
AcDbArc
 50
2.000000000000859
 51
90.0
  0
ARC
  5
234
330
1CD
100
AcDbEntity
  8
AM_4
100
AcDbCircle
 10
-1.961884159486455
 20
1.215624999999999
 30
0.0
 40
0.0500000000000012
100
AcDbArc
 50
90.0
 51
177.9999999999988
  0
LINE
  5
235
330
1CD
100
AcDbEntity
  8
AM_4
100
AcDbLine
 10
-2.011853700837411
 20
1.217369974835125
 30
0.0
 11
2.011853700837411
 21
1.217369974835125
 31
0.0
  0
LINE
  5
236
330
1CD
100
AcDbEntity
  8
AM_4
100
AcDbLine
 10
-2.011853700837411
 20
1.217369974835125
 30
0.0
 11
-2.022124421198923
 21
0.923255025164875
 31
0.0
  0
LINE
  5
237
330
1CD
100
AcDbEntity
  8
AM_4
100
AcDbLine
 10
2.022124421198923
 20
0.923255025164875
 30
0.0
 11
2.011853700837411
 21
1.217369974835125
 31
0.0
  0
LINE
  5
238
330
1CD
100
AcDbEntity
  8
AM_4
100
AcDbLine
 10
-0.8640339994011422
 20
-0.3999999999999999
 30
0.0
 11
-0.8640339994011421
 21
-0.4999999999999998
 31
0.0
  0
LINE
  5
239
330
1CD
100
AcDbEntity
  8
AM_4
100
AcDbLine
 10
-1.215139204565869
 20
-0.6072916666666667
 30
0.0
 11
-1.215139204565869
 21
-0.4999999999999998
 31
0.0
  0
LINE
  5
23A
330
1CD
100
AcDbEntity
  8
AM_4
100
AcDbLine
 10
1.215139204565869
 20
-0.6072916666666667
 30
0.0
 11
1.215139204565869
 21
-0.4999999999999998
 31
0.0
  0
LINE
  5
23B
330
1CD
100
AcDbEntity
  8
AM_4
100
AcDbLine
 10
0.8640339994011428
 20
-0.3999999999999999
 30
0.0
 11
0.864033999401143
 21
-0.4999999999999998
 31
0.0
  0
LINE
  5
23C
330
1CD
100
AcDbEntity
  8
AM_4
100
AcDbLine
 10
-2.022124421198923
 20
0.923255025164875
 30
0.0
 11
2.022124421198923
 21
0.923255025164875
 31
0.0
  0
ARC
  5
23D
330
1CD
100
AcDbEntity
  8
AM_4
100
AcDbCircle
 10
2.072093962549877
 20
0.9249999999999995
 30
0.0
 40
0.0499999999999994
100
AcDbArc
 50
181.9999999999994
 51
270.0
  0
ARC
  5
23E
330
1CD
100
AcDbEntity
  8
AM_4
100
AcDbCircle
 10
-2.072093962549878
 20
0.9249999999999996
 30
0.0
 40
0.0499999999999996
100
AcDbArc
 50
270.0
 51
358.0000000000002
  0
LINE
  5
23F
330
1CD
100
AcDbEntity
  8
AM_4
100
AcDbLine
 10
-1.25894460734154
 20
-0.6398841781056354
 30
0.0
 11
-1.261646688686864
 21
-0.6406249999999998
 31
0.0
  0
LINE
  5
240
330
1CD
100
AcDbEntity
  8
AM_4
100
AcDbLine
 10
0.2115355549966961
 20
-0.6406249999999998
 30
0.0
 11
2.091666666666667
 21
-0.640625
 31
0.0
  0
LINE
  5
241
330
1CD
100
AcDbEntity
  8
AM_4
100
AcDbLine
 10
-2.091666666666667
 20
-0.640625
 30
0.0
 11
-0.2115029497787619
 21
-0.6406249999999998
 31
0.0
  0
LWPOLYLINE
  5
242
330
1CD
100
AcDbEntity
  8
AM_4
100
AcDbPolyline
 90
        3
 70
     0
 43
0.0
 10
1.261646688686864
 20
-0.6406249999999998
 10
1.260566170160741
 20
-0.6405150344482452
 10
1.258944605866101
 20
-0.6398841772417552
  0
LWPOLYLINE
  5
243
330
1CD
100
AcDbEntity
  8
AM_4
100
AcDbPolyline
 90
        7
 70
     0
 43
0.0
 10
1.215139204565869
 20
-0.6072916666666667
 10
1.215446742704065
 20
-0.6074934625431376
 10
1.230710853878319
 20
-0.6181103560124831
 10
1.243917678267364
 20
-0.6282173819275865
 10
1.250963850999712
 20
-0.6338749219435572
 10
1.256596134309754
 20
-0.6382949766637946
 10
1.258944605866101
 20
-0.6398841772417552
  0
LINE
  5
244
330
1CD
100
AcDbEntity
  8
AM_4
100
AcDbLine
 10
0.5
 20
-0.6072916666666667
 30
0.0
 11
1.215139204565869
 21
-0.6072916666666667
 31
0.0
  0
LINE
  5
245
330
1CD
100
AcDbEntity
  8
AM_4
100
AcDbLine
 10
-1.215139204565869
 20
-0.6072916666666667
 30
0.0
 11
-0.5
 21
-0.6072916666666667
 31
0.0
  0
LWPOLYLINE
  5
246
330
1CD
100
AcDbEntity
  8
AM_4
100
AcDbPolyline
 90
        7
 70
     0
 43
0.0
 10
-1.25894460734154
 20
-0.6398841781056354
 10
-1.25519186828727
 20
-0.6372330678983004
 10
-1.250018634415897
 20
-0.6331127561978868
 10
-1.240617161407127
 20
-0.6256177400365749
 10
-1.228877593809161
 20
-0.6167733586342716
 10
-1.21544674270404
 20
-0.6074934625432018
 10
-1.215139204565869
 20
-0.6072916666666667
  0
LINE
  5
247
330
1CD
100
AcDbEntity
  8
AM_4
100
AcDbLine
 10
-2.125
 20
0.875
 30
0.0
 11
2.125
 21
0.875
 31
0.0
  0
LINE
  5
248
330
1CD
100
AcDbEntity
  8
AM_4
100
AcDbLine
 10
2.125
 20
0.0
 30
0.0
 11
2.125
 21
0.875
 31
0.0
  0
LINE
  5
249
330
1CD
100
AcDbEntity
  8
AM_4
100
AcDbLine
 10
-2.125
 20
0.875
 30
0.0
 11
-2.125
 21
0.0
 31
0.0
  0
LINE
  5
24A
330
1CD
100
AcDbEntity
  8
AM_4
100
AcDbLine
 10
0.9620520665374779
 20
-0.3999999999999999
 30
0.0
 11
0.9620520665374779
 21
-0.4999999999999998
 31
0.0
  0
LINE
  5
24B
330
1CD
100
AcDbEntity
  8
AM_4
100
AcDbLine
 10
-0.9620520665374771
 20
-0.3999999999999999
 30
0.0
 11
-0.9620520665374771
 21
-0.4999999999999998
 31
0.0
  0
LINE
  5
24C
330
1CD
100
AcDbEntity
  8
AM_4
100
AcDbLine
 10
-1.654240069629153
 20
-0.3999999999999999
 30
0.0
 11
-1.654240069629153
 21
-0.4999999999999998
 31
0.0
  0
LINE
  5
24D
330
1CD
100
AcDbEntity
  8
AM_4
100
AcDbLine
 10
1.654240069629154
 20
-0.3999999999999999
 30
0.0
 11
1.654240069629154
 21
-0.4999999999999998
 31
0.0
  0
LINE
  5
24E
330
1CD
100
AcDbEntity
  8
AM_4
100
AcDbLine
 10
-0.5
 20
-0.3999999999999996
 30
0.0
 11
-0.5
 21
-0.6396249999999999
 31
0.0
  0
LINE
  5
24F
330
1CD
100
AcDbEntity
  8
AM_4
100
AcDbLine
 10
-0.2124887179629562
 20
-0.6396249999999999
 30
0.0
 11
-0.5
 21
-0.6396249999999999
 31
0.0
  0
LINE
  5
250
330
1CD
100
AcDbEntity
  8
AM_4
100
AcDbLine
 10
0.5
 20
-0.6396249999999999
 30
0.0
 11
0.2124957308788009
 21
-0.6396249999999999
 31
0.0
  0
LINE
  5
251
330
1CD
100
AcDbEntity
  8
AM_4
100
AcDbLine
 10
0.5
 20
-0.3999999999999996
 30
0.0
 11
0.5
 21
-0.6396249999999999
 31
0.0
  0
LINE
  5
252
330
1CD
100
AcDbEntity
  8
AM_4
100
AcDbLine
 10
-3.0625
 20
0.0
 30
0.0
 11
3.0625
 21
0.0
 31
0.0
  0
LINE
  5
253
330
1CD
100
AcDbEntity
  8
AM_4
100
AcDbLine
 10
-1.805683206495284
 20
-0.3999999999999999
 30
0.0
 11
-1.805683206495284
 21
-0.4999999999999998
 31
0.0
  0
LINE
  5
254
330
1CD
100
AcDbEntity
  8
AM_4
100
AcDbLine
 10
1.805683206495284
 20
-0.3999999999999999
 30
0.0
 11
-1.805683206495284
 21
-0.3999999999999999
 31
0.0
  0
LINE
  5
255
330
1CD
100
AcDbEntity
  8
AM_4
100
AcDbLine
 10
1.805683206495284
 20
-0.4999999999999998
 30
0.0
 11
1.805683206495284
 21
-0.3999999999999999
 31
0.0
  0
LINE
  5
256
330
1CD
100
AcDbEntity
  8
AM_4
100
AcDbLine
 10
2.473542885777587
 20
-0.3999999999999999
 30
0.0
 11
2.473542885777587
 21
-0.4999999999999998
 31
0.0
  0
LINE
  5
257
330
1CD
100
AcDbEntity
  8
AM_4
100
AcDbLine
 10
-2.473542885777586
 20
-0.3999999999999999
 30
0.0
 11
-3.0625
 21
-0.3999999999999999
 31
0.0
  0
LINE
  5
258
330
1CD
100
AcDbEntity
  8
AM_4
100
AcDbLine
 10
-2.473542885777586
 20
-0.4999999999999998
 30
0.0
 11
-2.473542885777586
 21
-0.3999999999999999
 31
0.0
  0
LINE
  5
259
330
1CD
100
AcDbEntity
  8
AM_4
100
AcDbLine
 10
3.0625
 20
-0.3999999999999999
 30
0.0
 11
3.0625
 21
0.0
 31
0.0
  0
LINE
  5
25A
330
1CD
100
AcDbEntity
  8
AM_4
100
AcDbLine
 10
-3.0625
 20
0.0
 30
0.0
 11
-3.0625
 21
-0.3999999999999999
 31
0.0
  0
LINE
  5
25B
330
1CD
100
AcDbEntity
  8
AM_4
100
AcDbLine
 10
3.0625
 20
-0.3999999999999999
 30
0.0
 11
2.473542885777587
 21
-0.3999999999999999
 31
0.0
  0
ENDBLK
  5
1D0
330
1CD
100
AcDbEntity
  8
0
100
AcDbBlockEnd
  0
ENDSEC
  0
SECTION
  2
ENTITIES
  0
INSERT
  5
6F
330
1F
100
AcDbEntity
  8
0
100
AcDbBlockReference
  2
1_069845_4
 10
0.0
 20
0.0
 30
0.0
  0
POINT
  5
25D
330
1F
100
AcDbEntity
  8
ConnectionPoints
100
AcDbPoint
 10
0.0
 20
-1.18475
 30
-1.236111111111111
  0
POINT
  5
25E
330
1F
100
AcDbEntity
  8
ConnectionPoints
100
AcDbPoint
 10
0.0
 20
-1.18475
 30
1.236111111111111
  0
POINT
  5
25F
330
1F
100
AcDbEntity
  8
ConnectionPoints
100
AcDbPoint
 10
0.0
 20
-1.11475
 30
0.0000000000000001
  0
POINT
  5
260
330
1F
100
AcDbEntity
  8
ConnectionPoints
100
AcDbPoint
 10
0.0
 20
-1.34375
 30
0.0000000000000001
  0
POINT
  5
261
330
1F
100
AcDbEntity
  8
ConnectionPoints
100
AcDbPoint
 10
0.0
 20
-1.31375
 30
0.0000000000000001
  0
POINT
  5
262
330
1F
100
AcDbEntity
  8
ConnectionPoints
100
AcDbPoint
 10
0.0
 20
-1.11475
 30
1.236111111111111
  0
POINT
  5
263
330
1F
100
AcDbEntity
  8
ConnectionPoints
100
AcDbPoint
 10
0.0
 20
-1.24275
 30
1.236111111111111
  0
POINT
  5
264
330
1F
100
AcDbEntity
  8
ConnectionPoints
100
AcDbPoint
 10
0.0
 20
-1.11475
 30
-1.236111111111111
  0
POINT
  5
265
330
1F
100
AcDbEntity
  8
ConnectionPoints
100
AcDbPoint
 10
0.0
 20
-1.24275
 30
-1.236111111111111
  0
POINT
  5
266
330
1F
100
AcDbEntity
  8
ConnectionPoints
100
AcDbPoint
 10
0.0
 20
-1.11475
 30
0.0000000000000001
  0
POINT
  5
267
330
1F
100
AcDbEntity
  8
ConnectionPoints
100
AcDbPoint
 10
0.0
 20
-0.5198124999999997
 30
2.332521337381846
  0
POINT
  5
268
330
1F
100
AcDbEntity
  8
ConnectionPoints
100
AcDbPoint
 10
0.0
 20
-0.4110905184457727
 30
2.520833333333333
  0
POINT
  5
269
330
1F
100
AcDbEntity
  8
ConnectionPoints
100
AcDbPoint
 10
0.0
 20
-1.34375
 30
0.0000000000000001
  0
POINT
  5
26A
330
1F
100
AcDbEntity
  8
ConnectionPoints
100
AcDbPoint
 10
0.0
 20
-1.59375
 30
0.0000000000000001
  0
ENDSEC
  0
SECTION
  2
OBJECTS
  0
DICTIONARY
  5
C
330
0
100
AcDbDictionary
281
     1
  3
ACAD_DETAILVIEWSTYLE
350
272
  3
ACAD_GROUP
350
D
  3
ACAD_LAYOUT
350
1A
  3
ACAD_MATERIAL
350
43
  3
ACAD_MLEADERSTYLE
350
6B
  3
ACAD_MLINESTYLE
350
17
  3
ACAD_PLOTSETTINGS
350
19
  3
ACAD_PLOTSTYLENAME
350
E
  3
ACAD_SCALELIST
350
47
  3
ACAD_SECTIONVIEWSTYLE
350
273
  3
ACAD_TABLESTYLE
350
69
  3
ACAD_VISUALSTYLE
350
2A
  3
ACDB_RECOMPOSE_DATA
350
26F
  3
AcDbVariableDictionary
350
26B
  0
SUN
  5
6D
330
29
100
AcDbSun
 90
        1
290
     0
 63
     7
421
 16777215
 40
1.0
291
     1
 91
  2455826
 92
 54000000
292
     0
 70
     2
 71
   256
280
     1
  0
DICTIONARY
  5
272
102
{ACAD_REACTORS
330
C
102
}
330
C
100
AcDbDictionary
281
     1
  0
DICTIONARY
  5
D
102
{ACAD_REACTORS
330
C
102
}
330
C
100
AcDbDictionary
281
     1
  0
DICTIONARY
  5
1A
102
{ACAD_REACTORS
330
C
102
}
330
C
100
AcDbDictionary
281
     1
  3
Layout1
350
1E
  3
Layout2
350
26
  3
Model
350
22
  0
DICTIONARY
  5
43
102
{ACAD_REACTORS
330
C
102
}
330
C
100
AcDbDictionary
281
     1
  3
ByBlock
350
45
  3
ByLayer
350
44
  3
Global
350
46
  0
DICTIONARY
  5
6B
102
{ACAD_REACTORS
330
C
102
}
330
C
100
AcDbDictionary
281
     1
  3
Standard
350
6C
  0
DICTIONARY
  5
17
102
{ACAD_REACTORS
330
C
102
}
330
C
100
AcDbDictionary
281
     1
  3
Standard
350
18
  0
DICTIONARY
  5
19
102
{ACAD_REACTORS
330
C
102
}
330
C
100
AcDbDictionary
281
     1
  0
ACDBDICTIONARYWDFLT
  5
E
102
{ACAD_REACTORS
330
C
102
}
330
C
100
AcDbDictionary
281
     1
  3
Normal
350
F
100
AcDbDictionaryWithDefault
340
F
  0
DICTIONARY
  5
47
102
{ACAD_REACTORS
330
C
102
}
330
C
100
AcDbDictionary
281
     1
  3
A0
350
48
  3
A1
350
49
  3
A2
350
4A
  3
A3
350
4B
  3
A4
350
4C
  3
A5
350
4D
  3
A6
350
4E
  3
A7
350
4F
  3
A8
350
50
  3
A9
350
51
  3
B0
350
52
  3
B1
350
53
  3
B2
350
54
  3
B3
350
55
  3
B4
350
56
  3
B5
350
57
  3
B6
350
58
  3
B7
350
59
  3
B8
350
5A
  3
B9
350
5B
  3
C0
350
5C
  3
C1
350
5D
  3
C2
350
5E
  3
C3
350
5F
  3
C4
350
60
  3
C5
350
61
  3
C6
350
62
  3
C7
350
63
  3
C8
350
64
  3
C9
350
65
  3
D0
350
66
  3
D1
350
67
  3
D2
350
68
  0
DICTIONARY
  5
273
102
{ACAD_REACTORS
330
C
102
}
330
C
100
AcDbDictionary
281
     1
  0
DICTIONARY
  5
69
102
{ACAD_REACTORS
330
C
102
}
330
C
100
AcDbDictionary
281
     1
  3
Standard
350
6A
  0
DICTIONARY
  5
2A
102
{ACAD_REACTORS
330
C
102
}
330
C
100
AcDbDictionary
281
     1
  3
2dWireframe
350
2F
  3
Basic
350
32
  3
Brighten
350
36
  3
ColorChange
350
3A
  3
Conceptual
350
34
  3
Dim
350
35
  3
EdgeColorOff
350
3D
  3
Facepattern
350
39
  3
Flat
350
2B
  3
FlatWithEdges
350
2C
  3
Gouraud
350
2D
  3
GouraudWithEdges
350
2E
  3
Hidden
350
31
  3
JitterOff
350
3B
  3
Linepattern
350
38
  3
OverhangOff
350
3C
  3
Realistic
350
33
  3
Shaded
350
42
  3
Shaded with edges
350
41
  3
Shades of Gray
350
3E
  3
Sketchy
350
3F
  3
Thicken
350
37
  3
Wireframe
350
30
  3
X-Ray
350
40
  0
XRECORD
  5
26F
102
{ACAD_REACTORS
330
C
102
}
330
C
100
AcDbXrecord
280
     1
 90
        1
330
6A
  0
DICTIONARY
  5
26B
102
{ACAD_REACTORS
330
C
102
}
330
C
100
AcDbDictionary
281
     1
  3
CANNOSCALE
350
26C
  3
CMLEADERSTYLE
350
271
  3
CTABLESTYLE
350
270
  0
LAYOUT
  5
1E
102
{ACAD_REACTORS
330
1A
102
}
330
1A
100
AcDbPlotSettings
  1

  2
none_device
  4

  6

 40
0.0
 41
0.0
 42
0.0
 43
0.0
 44
0.0
 45
0.0
 46
0.0
 47
0.0
 48
0.0
 49
0.0
140
0.0
141
0.0
142
1.0
143
1.0
 70
   688
 72
     0
 73
     0
 74
     5
  7

 75
    16
 76
     0
 77
     2
 78
   300
147
1.0
148
0.0
149
0.0
100
AcDbLayout
  1
Layout1
 70
     1
 71
     1
 10
0.0
 20
0.0
 11
12.0
 21
9.0
 12
0.0
 22
0.0
 32
0.0
 14
1.000000000000000E+20
 24
1.000000000000000E+20
 34
1.000000000000000E+20
 15
-1.000000000000000E+20
 25
-1.000000000000000E+20
 35
-1.000000000000000E+20
146
0.0
 13
0.0
 23
0.0
 33
0.0
 16
1.0
 26
0.0
 36
0.0
 17
0.0
 27
1.0
 37
0.0
 76
     0
330
1B
  0
LAYOUT
  5
26
102
{ACAD_REACTORS
330
1A
102
}
330
1A
100
AcDbPlotSettings
  1

  2
none_device
  4

  6

 40
0.0
 41
0.0
 42
0.0
 43
0.0
 44
0.0
 45
0.0
 46
0.0
 47
0.0
 48
0.0
 49
0.0
140
0.0
141
0.0
142
1.0
143
1.0
 70
   688
 72
     0
 73
     0
 74
     5
  7

 75
    16
 76
     0
 77
     2
 78
   300
147
1.0
148
0.0
149
0.0
100
AcDbLayout
  1
Layout2
 70
     1
 71
     2
 10
0.0
 20
0.0
 11
0.0
 21
0.0
 12
0.0
 22
0.0
 32
0.0
 14
0.0
 24
0.0
 34
0.0
 15
0.0
 25
0.0
 35
0.0
146
0.0
 13
0.0
 23
0.0
 33
0.0
 16
1.0
 26
0.0
 36
0.0
 17
0.0
 27
1.0
 37
0.0
 76
     0
330
23
  0
LAYOUT
  5
22
102
{ACAD_REACTORS
330
1A
102
}
330
1A
100
AcDbPlotSettings
  1

  2
none_device
  4
Letter_(8.50_x_11.00_Inches)
  6

 40
6.35
 41
6.35
 42
6.35000508
 43
6.35000508
 44
215.9
 45
279.4
 46
0.0
 47
0.0
 48
0.0
 49
0.0
140
0.0
141
0.0
142
1.0
143
1.0
 70
  1712
 72
     0
 73
     0
 74
     0
  7

 75
     0
 76
     0
 77
     2
 78
   300
147
1.0
148
0.0
149
0.0
100
AcDbLayout
  1
Model
 70
     1
 71
     0
 10
0.0
 20
0.0
 11
12.0
 21
9.0
 12
0.0
 22
0.0
 32
0.0
 14
1.000000000000000E+20
 24
1.000000000000000E+20
 34
1.000000000000000E+20
 15
-1.000000000000000E+20
 25
-1.000000000000000E+20
 35
-1.000000000000000E+20
146
0.0
 13
0.0
 23
0.0
 33
0.0
 16
1.0
 26
0.0
 36
0.0
 17
0.0
 27
1.0
 37
0.0
 76
     0
330
1F
331
29
  0
MATERIAL
  5
45
102
{ACAD_REACTORS
330
43
102
}
330
43
100
AcDbMaterial
  1
ByBlock
 72
     1
 94
      127
  0
MATERIAL
  5
44
102
{ACAD_REACTORS
330
43
102
}
330
43
100
AcDbMaterial
  1
ByLayer
 72
     1
 94
      127
  0
MATERIAL
  5
46
102
{ACAD_REACTORS
330
43
102
}
330
43
100
AcDbMaterial
  1
Global
 72
     1
 94
      127
  0
MLEADERSTYLE
  5
6C
102
{ACAD_REACTORS
330
6B
102
}
330
6B
100
AcDbMLeaderStyle
179
     2
170
     2
171
     1
172
     0
 90
        2
 40
0.0
 41
0.0
173
     1
 91
-1056964608
340
14
 92
       -2
290
     1
 42
0.09
291
     1
 43
0.36
  3
Standard
341
0
 44
0.18
300

342
11
174
     1
178
     6
175
     1
176
     0
 93
-1056964608
 45
0.18
292
     0
297
     0
 46
0.18
343
0
 94
-1056964608
 47
1.0
 49
1.0
140
1.0
293
     1
141
0.0
294
     1
177
     0
142
1.0
295
     0
296
     0
143
0.125
271
     0
272
     9
273
     9
298
     0
  0
MLINESTYLE
  5
18
102
{ACAD_REACTORS
330
17
102
}
330
17
100
AcDbMlineStyle
  2
Standard
 70
     0
  3

 62
   256
 51
90.0
 52
90.0
 71
     2
 49
0.5
 62
   256
  6
BYLAYER
 49
-0.5
 62
   256
  6
BYLAYER
  0
ACDBPLACEHOLDER
  5
F
102
{ACAD_REACTORS
330
E
102
}
330
E
  0
SCALE
  5
48
102
{ACAD_REACTORS
330
47
102
}
330
47
100
AcDbScale
 70
     0
300
1:1
140
1.0
141
1.0
290
     1
  0
SCALE
  5
49
102
{ACAD_REACTORS
330
47
102
}
330
47
100
AcDbScale
 70
     0
300
1:2
140
1.0
141
2.0
290
     0
  0
SCALE
  5
4A
102
{ACAD_REACTORS
330
47
102
}
330
47
100
AcDbScale
 70
     0
300
1:4
140
1.0
141
4.0
290
     0
  0
SCALE
  5
4B
102
{ACAD_REACTORS
330
47
102
}
330
47
100
AcDbScale
 70
     0
300
1:5
140
1.0
141
5.0
290
     0
  0
SCALE
  5
4C
102
{ACAD_REACTORS
330
47
102
}
330
47
100
AcDbScale
 70
     0
300
1:8
140
1.0
141
8.0
290
     0
  0
SCALE
  5
4D
102
{ACAD_REACTORS
330
47
102
}
330
47
100
AcDbScale
 70
     0
300
1:10
140
1.0
141
10.0
290
     0
  0
SCALE
  5
4E
102
{ACAD_REACTORS
330
47
102
}
330
47
100
AcDbScale
 70
     0
300
1:16
140
1.0
141
16.0
290
     0
  0
SCALE
  5
4F
102
{ACAD_REACTORS
330
47
102
}
330
47
100
AcDbScale
 70
     0
300
1:20
140
1.0
141
20.0
290
     0
  0
SCALE
  5
50
102
{ACAD_REACTORS
330
47
102
}
330
47
100
AcDbScale
 70
     0
300
1:30
140
1.0
141
30.0
290
     0
  0
SCALE
  5
51
102
{ACAD_REACTORS
330
47
102
}
330
47
100
AcDbScale
 70
     0
300
1:40
140
1.0
141
40.0
290
     0
  0
SCALE
  5
52
102
{ACAD_REACTORS
330
47
102
}
330
47
100
AcDbScale
 70
     0
300
1:50
140
1.0
141
50.0
290
     0
  0
SCALE
  5
53
102
{ACAD_REACTORS
330
47
102
}
330
47
100
AcDbScale
 70
     0
300
1:100
140
1.0
141
100.0
290
     0
  0
SCALE
  5
54
102
{ACAD_REACTORS
330
47
102
}
330
47
100
AcDbScale
 70
     0
300
2:1
140
2.0
141
1.0
290
     0
  0
SCALE
  5
55
102
{ACAD_REACTORS
330
47
102
}
330
47
100
AcDbScale
 70
     0
300
4:1
140
4.0
141
1.0
290
     0
  0
SCALE
  5
56
102
{ACAD_REACTORS
330
47
102
}
330
47
100
AcDbScale
 70
     0
300
8:1
140
8.0
141
1.0
290
     0
  0
SCALE
  5
57
102
{ACAD_REACTORS
330
47
102
}
330
47
100
AcDbScale
 70
     0
300
10:1
140
10.0
141
1.0
290
     0
  0
SCALE
  5
58
102
{ACAD_REACTORS
330
47
102
}
330
47
100
AcDbScale
 70
     0
300
100:1
140
100.0
141
1.0
290
     0
  0
SCALE
  5
59
102
{ACAD_REACTORS
330
47
102
}
330
47
100
AcDbScale
 70
     0
300
1/128" = 1'-0"
140
0.0078125
141
12.0
290
     0
  0
SCALE
  5
5A
102
{ACAD_REACTORS
330
47
102
}
330
47
100
AcDbScale
 70
     0
300
1/64" = 1'-0"
140
0.015625
141
12.0
290
     0
  0
SCALE
  5
5B
102
{ACAD_REACTORS
330
47
102
}
330
47
100
AcDbScale
 70
     0
300
1/32" = 1'-0"
140
0.03125
141
12.0
290
     0
  0
SCALE
  5
5C
102
{ACAD_REACTORS
330
47
102
}
330
47
100
AcDbScale
 70
     0
300
1/16" = 1'-0"
140
0.0625
141
12.0
290
     0
  0
SCALE
  5
5D
102
{ACAD_REACTORS
330
47
102
}
330
47
100
AcDbScale
 70
     0
300
3/32" = 1'-0"
140
0.09375
141
12.0
290
     0
  0
SCALE
  5
5E
102
{ACAD_REACTORS
330
47
102
}
330
47
100
AcDbScale
 70
     0
300
1/8" = 1'-0"
140
0.125
141
12.0
290
     0
  0
SCALE
  5
5F
102
{ACAD_REACTORS
330
47
102
}
330
47
100
AcDbScale
 70
     0
300
3/16" = 1'-0"
140
0.1875
141
12.0
290
     0
  0
SCALE
  5
60
102
{ACAD_REACTORS
330
47
102
}
330
47
100
AcDbScale
 70
     0
300
1/4" = 1'-0"
140
0.25
141
12.0
290
     0
  0
SCALE
  5
61
102
{ACAD_REACTORS
330
47
102
}
330
47
100
AcDbScale
 70
     0
300
3/8" = 1'-0"
140
0.375
141
12.0
290
     0
  0
SCALE
  5
62
102
{ACAD_REACTORS
330
47
102
}
330
47
100
AcDbScale
 70
     0
300
1/2" = 1'-0"
140
0.5
141
12.0
290
     0
  0
SCALE
  5
63
102
{ACAD_REACTORS
330
47
102
}
330
47
100
AcDbScale
 70
     0
300
3/4" = 1'-0"
140
0.75
141
12.0
290
     0
  0
SCALE
  5
64
102
{ACAD_REACTORS
330
47
102
}
330
47
100
AcDbScale
 70
     0
300
1" = 1'-0"
140
1.0
141
12.0
290
     0
  0
SCALE
  5
65
102
{ACAD_REACTORS
330
47
102
}
330
47
100
AcDbScale
 70
     0
300
1-1/2" = 1'-0"
140
1.5
141
12.0
290
     0
  0
SCALE
  5
66
102
{ACAD_REACTORS
330
47
102
}
330
47
100
AcDbScale
 70
     0
300
3" = 1'-0"
140
3.0
141
12.0
290
     0
  0
SCALE
  5
67
102
{ACAD_REACTORS
330
47
102
}
330
47
100
AcDbScale
 70
     0
300
6" = 1'-0"
140
6.0
141
12.0
290
     0
  0
SCALE
  5
68
102
{ACAD_REACTORS
330
47
102
}
330
47
100
AcDbScale
 70
     0
300
1'-0" = 1'-0"
140
12.0
141
12.0
290
     0
  0
TABLESTYLE
  5
6A
102
{ACAD_REACTORS
330
69
102
}
102
{ACAD_XDICTIONARY
360
26D
102
}
330
69
100
AcDbTableStyle
  3
Standard
 70
     0
 71
     0
 40
0.06
 41
0.06
280
     0
281
     0
  7
Standard
140
0.18
170
     2
 62
     0
 63
   257
283
     0
 90
        4
 91
        0
  1

274
    -2
284
     1
 64
     0
275
    -2
285
     1
 65
     0
276
    -2
286
     1
 66
     0
277
    -2
287
     1
 67
     0
278
    -2
288
     1
 68
     0
279
    -2
289
     1
 69
     0
  7
Standard
140
0.25
170
     5
 62
     0
 63
   257
283
     0
 90
        4
 91
        0
  1

274
    -2
284
     1
 64
     0
275
    -2
285
     1
 65
     0
276
    -2
286
     1
 66
     0
277
    -2
287
     1
 67
     0
278
    -2
288
     1
 68
     0
279
    -2
289
     1
 69
     0
  7
Standard
140
0.18
170
     5
 62
     0
 63
   257
283
     0
 90
        4
 91
        0
  1

274
    -2
284
     1
 64
     0
275
    -2
285
     1
 65
     0
276
    -2
286
     1
 66
     0
277
    -2
287
     1
 67
     0
278
    -2
288
     1
 68
     0
279
    -2
289
     1
 69
     0
  0
VISUALSTYLE
  5
2F
102
{ACAD_REACTORS
330
2A
102
}
330
2A
100
AcDbVisualStyle
  2
2dWireframe
 70
     4
177
     3
291
     0
 70
    58
 90
        0
176
     1
 90
        2
176
     1
 90
        0
176
     1
 90
        0
176
     1
 40
0.6
176
     1
 40
30.0
176
     1
 62
     7
420
 16777215
176
     1
 90
        1
176
     1
 90
        4
176
     1
 62
     7
176
     1
 62
   257
176
     1
 90
        1
176
     1
 90
        1
176
     1
 40
1.0
176
     1
 90
        0
176
     1
 62
   257
176
     1
 40
1.0
176
     1
 90
        1
176
     1
 90
        6
176
     1
 90
        2
176
     1
 62
     7
176
     1
 90
        5
176
     1
 90
        0
176
     1
 90
        0
176
     1
290
     0
176
     1
 90
        1
176
     1
 40
0.0
176
     1
 90
        0
176
     1
290
     1
176
     1
290
     1
176
     1
290
     0
176
     1
290
     0
176
     1
290
     0
176
     1
290
     0
176
     1
290
     0
176
     1
290
     0
176
     1
290
     0
176
     1
 90
       50
176
     1
 40
0.0
176
     1
 40
1.0
176
     1
 90
        0
176
     1
 62
    18
420
        0
176
     1
 90
       50
176
     1
 90
        3
176
     1
 62
     5
420
      255
176
     1
290
     0
176
     1
 90
       50
176
     1
 90
       50
176
     1
 90
       50
176
     1
290
     0
176
     1
 90
       50
176
     1
 62
   256
176
     0
 40
1.0
176
     0
 90
        2
176
     1
  1
strokes_ogs.tif
176
     1
290
     0
176
     1
 40
1.0
176
     1
 40
1.0
176
     1
  0
VISUALSTYLE
  5
32
102
{ACAD_REACTORS
330
2A
102
}
330
2A
100
AcDbVisualStyle
  2
Basic
 70
     7
177
     3
291
     1
 70
    58
 90
        1
176
     1
 90
        0
176
     1
 90
        1
176
     1
 90
        0
176
     1
 40
0.6
176
     1
 40
30.0
176
     1
 62
     7
420
 16777215
176
     1
 90
        0
176
     1
 90
        4
176
     1
 62
     7
176
     1
 62
   257
176
     1
 90
        1
176
     1
 90
        1
176
     1
 40
1.0
176
     1
 90
        8
176
     1
 62
     7
176
     1
 40
1.0
176
     1
 90
        1
176
     1
 90
        6
176
     1
 90
        2
176
     1
 62
     7
176
     1
 90
        5
176
     1
 90
        0
176
     1
 90
        0
176
     1
290
     0
176
     1
 90
        1
176
     1
 40
0.0
176
     1
 90
        0
176
     1
290
     0
176
     1
290
     1
176
     1
290
     1
176
     1
290
     0
176
     1
290
     0
176
     1
290
     0
176
     1
290
     0
176
     1
290
     0
176
     1
290
     0
176
     1
 90
       50
176
     1
 40
0.0
176
     1
 40
1.0
176
     1
 90
        0
176
     1
 62
    18
420
        0
176
     1
 90
       50
176
     1
 90
        3
176
     1
 62
     5
420
      255
176
     1
290
     0
176
     1
 90
       50
176
     1
 90
       50
176
     1
 90
       50
176
     1
290
     0
176
     1
 90
       50
176
     1
 62
   256
176
     0
 40
1.0
176
     0
 90
        2
176
     1
  1
strokes_ogs.tif
176
     1
290
     0
176
     1
 40
1.0
176
     1
 40
1.0
176
     1
  0
VISUALSTYLE
  5
36
102
{ACAD_REACTORS
330
2A
102
}
330
2A
100
AcDbVisualStyle
  2
Brighten
 70
    12
177
     3
291
     1
 70
    58
 90
        2
176
     1
 90
        2
176
     1
 90
        0
176
     1
 90
        0
176
     1
 40
0.6
176
     1
 40
30.0
176
     1
 62
     7
420
 16777215
176
     1
 90
        1
176
     1
 90
        4
176
     1
 62
     7
176
     1
 62
   257
176
     1
 90
        1
176
     1
 90
        1
176
     1
 40
1.0
176
     1
 90
        8
176
     1
 62
     7
176
     1
 40
1.0
176
     1
 90
        1
176
     1
 90
        6
176
     1
 90
        2
176
     1
 62
     7
176
     1
 90
        5
176
     1
 90
        0
176
     1
 90
        0
176
     1
290
     0
176
     1
 90
        1
176
     1
 40
50.0
176
     1
 90
        0
176
     1
290
     0
176
     1
290
     1
176
     1
290
     1
176
     1
290
     0
176
     1
290
     0
176
     1
290
     0
176
     1
290
     0
176
     1
290
     0
176
     1
290
     0
176
     1
 90
       50
176
     1
 40
0.0
176
     1
 40
1.0
176
     1
 90
        0
176
     1
 62
    18
420
        0
176
     1
 90
       50
176
     1
 90
        3
176
     1
 62
     5
420
      255
176
     1
290
     0
176
     1
 90
       50
176
     1
 90
       50
176
     1
 90
       50
176
     1
290
     0
176
     1
 90
       50
176
     1
 62
   256
176
     0
 40
1.0
176
     0
 90
        2
176
     1
  1
strokes_ogs.tif
176
     1
290
     0
176
     1
 40
1.0
176
     1
 40
1.0
176
     1
  0
VISUALSTYLE
  5
3A
102
{ACAD_REACTORS
330
2A
102
}
330
2A
100
AcDbVisualStyle
  2
ColorChange
 70
    16
177
     3
291
     1
 70
    58
 90
        2
176
     1
 90
        2
176
     1
 90
        3
176
     1
 90
        0
176
     1
 40
0.6
176
     1
 40
30.0
176
     1
 62
     8
420
  8421504
176
     1
 90
        1
176
     1
 90
        4
176
     1
 62
     7
176
     1
 62
   257
176
     1
 90
        1
176
     1
 90
        1
176
     1
 40
1.0
176
     1
 90
        8
176
     1
 62
     8
420
  8421504
176
     1
 40
1.0
176
     1
 90
        1
176
     1
 90
        6
176
     1
 90
        2
176
     1
 62
     7
176
     1
 90
        5
176
     1
 90
        0
176
     1
 90
        0
176
     1
290
     0
176
     1
 90
        1
176
     1
 40
0.0
176
     1
 90
        0
176
     1
290
     0
176
     1
290
     1
176
     1
290
     1
176
     1
290
     0
176
     1
290
     0
176
     1
290
     0
176
     1
290
     0
176
     1
290
     0
176
     1
290
     0
176
     1
 90
       50
176
     1
 40
0.0
176
     1
 40
1.0
176
     1
 90
        0
176
     1
 62
    18
420
        0
176
     1
 90
       50
176
     1
 90
        3
176
     1
 62
     5
420
      255
176
     1
290
     0
176
     1
 90
       50
176
     1
 90
       50
176
     1
 90
       50
176
     1
290
     0
176
     1
 90
       50
176
     1
 62
   256
176
     0
 40
1.0
176
     0
 90
        2
176
     1
  1
strokes_ogs.tif
176
     1
290
     0
176
     1
 40
1.0
176
     1
 40
1.0
176
     1
  0
VISUALSTYLE
  5
34
102
{ACAD_REACTORS
330
2A
102
}
330
2A
100
AcDbVisualStyle
  2
Conceptual
 70
     9
177
     3
291
     0
 70
    58
 90
        3
176
     1
 90
        2
176
     1
 90
        0
176
     1
 90
        0
176
     1
 40
0.6
176
     1
 40
30.0
176
     1
 62
     7
420
 16777215
176
     1
 90
        2
176
     1
 90
        2
176
     1
 62
     7
176
     1
 62
   257
176
     1
 90
        1
176
     1
 90
        1
176
     1
 40
179.0
176
     1
 90
        8
176
     1
 62
     7
176
     1
 40
1.0
176
     1
 90
        1
176
     1
 90
        6
176
     1
 90
        2
176
     1
 62
     7
176
     1
 90
        3
176
     1
 90
        0
176
     1
 90
        0
176
     1
290
     0
176
     1
 90
        1
176
     1
 40
0.0
176
     1
 90
        0
176
     1
290
     0
176
     1
290
     1
176
     1
290
     1
176
     1
290
     0
176
     1
290
     0
176
     1
290
     0
176
     1
290
     0
176
     1
290
     0
176
     1
290
     0
176
     1
 90
       50
176
     1
 40
0.0
176
     1
 40
1.0
176
     1
 90
        0
176
     1
 62
    18
420
        0
176
     1
 90
       50
176
     1
 90
        3
176
     1
 62
     5
420
      255
176
     1
290
     0
176
     1
 90
       50
176
     1
 90
       50
176
     1
 90
       50
176
     1
290
     0
176
     1
 90
       50
176
     1
 62
   256
176
     0
 40
1.0
176
     0
 90
        2
176
     1
  1
strokes_ogs.tif
176
     1
290
     0
176
     1
 40
1.0
176
     1
 40
1.0
176
     1
  0
VISUALSTYLE
  5
35
102
{ACAD_REACTORS
330
2A
102
}
330
2A
100
AcDbVisualStyle
  2
Dim
 70
    11
177
     3
291
     1
 70
    58
 90
        2
176
     1
 90
        2
176
     1
 90
        0
176
     1
 90
        0
176
     1
 40
0.6
176
     1
 40
30.0
176
     1
 62
     7
420
 16777215
176
     1
 90
        1
176
     1
 90
        4
176
     1
 62
     7
176
     1
 62
   257
176
     1
 90
        1
176
     1
 90
        1
176
     1
 40
1.0
176
     1
 90
        8
176
     1
 62
     7
176
     1
 40
1.0
176
     1
 90
        1
176
     1
 90
        6
176
     1
 90
        2
176
     1
 62
     7
176
     1
 90
        5
176
     1
 90
        0
176
     1
 90
        0
176
     1
290
     0
176
     1
 90
        1
176
     1
 40
-50.0
176
     1
 90
        0
176
     1
290
     0
176
     1
290
     1
176
     1
290
     1
176
     1
290
     0
176
     1
290
     0
176
     1
290
     0
176
     1
290
     0
176
     1
290
     0
176
     1
290
     0
176
     1
 90
       50
176
     1
 40
0.0
176
     1
 40
1.0
176
     1
 90
        0
176
     1
 62
    18
420
        0
176
     1
 90
       50
176
     1
 90
        3
176
     1
 62
     5
420
      255
176
     1
290
     0
176
     1
 90
       50
176
     1
 90
       50
176
     1
 90
       50
176
     1
290
     0
176
     1
 90
       50
176
     1
 62
   256
176
     0
 40
1.0
176
     0
 90
        2
176
     1
  1
strokes_ogs.tif
176
     1
290
     0
176
     1
 40
1.0
176
     1
 40
1.0
176
     1
  0
VISUALSTYLE
  5
3D
102
{ACAD_REACTORS
330
2A
102
}
330
2A
100
AcDbVisualStyle
  2
EdgeColorOff
 70
    22
177
     3
291
     1
 70
    58
 90
        2
176
     0
 90
        2
176
     0
 90
        0
176
     0
 90
        0
176
     0
 40
0.6
176
     0
 40
30.0
176
     0
 62
     7
420
 16777215
176
     0
 90
        1
176
     0
 90
        4
176
     0
 62
     7
176
     0
 62
   257
176
     0
 90
        1
176
     0
 90
        1
176
     0
 40
1.0
176
     0
 90
        8
176
     2
 62
     7
176
     0
 40
1.0
176
     0
 90
        1
176
     0
 90
        6
176
     0
 90
        2
176
     0
 62
     7
176
     0
 90
        5
176
     0
 90
        0
176
     0
 90
        0
176
     0
290
     0
176
     0
 90
        1
176
     0
 40
0.0
176
     0
 90
        0
176
     0
290
     0
176
     0
290
     1
176
     0
290
     1
176
     0
290
     0
176
     0
290
     0
176
     0
290
     0
176
     0
290
     0
176
     0
290
     0
176
     0
290
     0
176
     0
 90
       50
176
     0
 40
0.0
176
     0
 40
1.0
176
     0
 90
        0
176
     0
 62
    18
420
        0
176
     0
 90
       50
176
     0
 90
        3
176
     0
 62
     5
420
      255
176
     0
290
     0
176
     0
 90
       50
176
     0
 90
       50
176
     0
 90
       50
176
     0
290
     0
176
     0
 90
       50
176
     0
 62
   256
176
     0
 40
1.0
176
     0
 90
        2
176
     0
  1
strokes_ogs.tif
176
     0
290
     0
176
     0
 40
1.0
176
     0
 40
1.0
176
     0
  0
VISUALSTYLE
  5
39
102
{ACAD_REACTORS
330
2A
102
}
330
2A
100
AcDbVisualStyle
  2
Facepattern
 70
    15
177
     3
291
     1
 70
    58
 90
        2
176
     1
 90
        2
176
     1
 90
        0
176
     1
 90
        0
176
     1
 40
0.6
176
     1
 40
30.0
176
     1
 62
     7
420
 16777215
176
     1
 90
        1
176
     1
 90
        4
176
     1
 62
     7
176
     1
 62
   257
176
     1
 90
        1
176
     1
 90
        1
176
     1
 40
1.0
176
     1
 90
        8
176
     1
 62
     7
176
     1
 40
1.0
176
     1
 90
        1
176
     1
 90
        6
176
     1
 90
        2
176
     1
 62
     7
176
     1
 90
        5
176
     1
 90
        0
176
     1
 90
        0
176
     1
290
     0
176
     1
 90
        1
176
     1
 40
0.0
176
     1
 90
        0
176
     1
290
     0
176
     1
290
     1
176
     1
290
     1
176
     1
290
     0
176
     1
290
     0
176
     1
290
     0
176
     1
290
     0
176
     1
290
     0
176
     1
290
     0
176
     1
 90
       50
176
     1
 40
0.0
176
     1
 40
1.0
176
     1
 90
        0
176
     1
 62
    18
420
        0
176
     1
 90
       50
176
     1
 90
        3
176
     1
 62
     5
420
      255
176
     1
290
     0
176
     1
 90
       50
176
     1
 90
       50
176
     1
 90
       50
176
     1
290
     0
176
     1
 90
       50
176
     1
 62
   256
176
     0
 40
1.0
176
     0
 90
        2
176
     1
  1
strokes_ogs.tif
176
     1
290
     0
176
     1
 40
1.0
176
     1
 40
1.0
176
     1
  0
VISUALSTYLE
  5
2B
102
{ACAD_REACTORS
330
2A
102
}
330
2A
100
AcDbVisualStyle
  2
Flat
 70
     0
177
     3
291
     1
 70
    58
 90
        2
176
     1
 90
        1
176
     1
 90
        1
176
     1
 90
        2
176
     1
 40
0.6
176
     1
 40
30.0
176
     1
 62
     7
420
 16777215
176
     1
 90
        0
176
     1
 90
        0
176
     1
 62
     7
176
     1
 62
   257
176
     1
 90
        1
176
     1
 90
        1
176
     1
 40
1.0
176
     1
 90
        8
176
     1
 62
     7
176
     1
 40
1.0
176
     1
 90
        1
176
     1
 90
        6
176
     1
 90
        2
176
     1
 62
     7
176
     1
 90
        5
176
     1
 90
        0
176
     1
 90
        0
176
     1
290
     0
176
     1
 90
       13
176
     1
 40
0.0
176
     1
 90
        0
176
     1
290
     0
176
     1
290
     1
176
     1
290
     1
176
     1
290
     0
176
     1
290
     0
176
     1
290
     0
176
     1
290
     0
176
     1
290
     0
176
     1
290
     0
176
     1
 90
       50
176
     1
 40
0.0
176
     1
 40
1.0
176
     1
 90
        0
176
     1
 62
    18
420
        0
176
     1
 90
       50
176
     1
 90
        3
176
     1
 62
     5
420
      255
176
     1
290
     0
176
     1
 90
       50
176
     1
 90
       50
176
     1
 90
       50
176
     1
290
     0
176
     1
 90
       50
176
     1
 62
   256
176
     0
 40
1.0
176
     0
 90
        2
176
     1
  1
strokes_ogs.tif
176
     1
290
     0
176
     1
 40
1.0
176
     1
 40
1.0
176
     1
  0
VISUALSTYLE
  5
2C
102
{ACAD_REACTORS
330
2A
102
}
330
2A
100
AcDbVisualStyle
  2
FlatWithEdges
 70
     1
177
     3
291
     1
 70
    58
 90
        2
176
     1
 90
        1
176
     1
 90
        1
176
     1
 90
        2
176
     1
 40
0.6
176
     1
 40
30.0
176
     1
 62
     7
420
 16777215
176
     1
 90
        1
176
     1
 90
        0
176
     1
 62
     7
176
     1
 62
   257
176
     1
 90
        1
176
     1
 90
        1
176
     1
 40
1.0
176
     1
 90
        0
176
     1
 62
   257
176
     1
 40
1.0
176
     1
 90
        1
176
     1
 90
        6
176
     1
 90
        2
176
     1
 62
     7
176
     1
 90
        5
176
     1
 90
        0
176
     1
 90
        0
176
     1
290
     0
176
     1
 90
       13
176
     1
 40
0.0
176
     1
 90
        0
176
     1
290
     0
176
     1
290
     1
176
     1
290
     1
176
     1
290
     0
176
     1
290
     0
176
     1
290
     0
176
     1
290
     0
176
     1
290
     0
176
     1
290
     0
176
     1
 90
       50
176
     1
 40
0.0
176
     1
 40
1.0
176
     1
 90
        0
176
     1
 62
    18
420
        0
176
     1
 90
       50
176
     1
 90
        3
176
     1
 62
     5
420
      255
176
     1
290
     0
176
     1
 90
       50
176
     1
 90
       50
176
     1
 90
       50
176
     1
290
     0
176
     1
 90
       50
176
     1
 62
   256
176
     0
 40
1.0
176
     0
 90
        2
176
     1
  1
strokes_ogs.tif
176
     1
290
     0
176
     1
 40
1.0
176
     1
 40
1.0
176
     1
  0
VISUALSTYLE
  5
2D
102
{ACAD_REACTORS
330
2A
102
}
330
2A
100
AcDbVisualStyle
  2
Gouraud
 70
     2
177
     3
291
     1
 70
    58
 90
        2
176
     1
 90
        2
176
     1
 90
        1
176
     1
 90
        2
176
     1
 40
0.6
176
     1
 40
30.0
176
     1
 62
     7
420
 16777215
176
     1
 90
        0
176
     1
 90
        0
176
     1
 62
     7
176
     1
 62
   257
176
     1
 90
        1
176
     1
 90
        1
176
     1
 40
1.0
176
     1
 90
        0
176
     1
 62
     7
176
     1
 40
1.0
176
     1
 90
        1
176
     1
 90
        6
176
     1
 90
        2
176
     1
 62
     7
176
     1
 90
        5
176
     1
 90
        0
176
     1
 90
        0
176
     1
290
     0
176
     1
 90
       13
176
     1
 40
0.0
176
     1
 90
        0
176
     1
290
     0
176
     1
290
     1
176
     1
290
     1
176
     1
290
     0
176
     1
290
     0
176
     1
290
     0
176
     1
290
     0
176
     1
290
     0
176
     1
290
     0
176
     1
 90
       50
176
     1
 40
0.0
176
     1
 40
1.0
176
     1
 90
        0
176
     1
 62
    18
420
        0
176
     1
 90
       50
176
     1
 90
        3
176
     1
 62
     5
420
      255
176
     1
290
     0
176
     1
 90
       50
176
     1
 90
       50
176
     1
 90
       50
176
     1
290
     0
176
     1
 90
       50
176
     1
 62
   256
176
     0
 40
1.0
176
     0
 90
        2
176
     1
  1
strokes_ogs.tif
176
     1
290
     0
176
     1
 40
1.0
176
     1
 40
1.0
176
     1
  0
VISUALSTYLE
  5
2E
102
{ACAD_REACTORS
330
2A
102
}
330
2A
100
AcDbVisualStyle
  2
GouraudWithEdges
 70
     3
177
     3
291
     1
 70
    58
 90
        2
176
     1
 90
        2
176
     1
 90
        1
176
     1
 90
        2
176
     1
 40
0.6
176
     1
 40
30.0
176
     1
 62
     7
420
 16777215
176
     1
 90
        1
176
     1
 90
        0
176
     1
 62
     7
176
     1
 62
   257
176
     1
 90
        1
176
     1
 90
        1
176
     1
 40
1.0
176
     1
 90
        0
176
     1
 62
   257
176
     1
 40
1.0
176
     1
 90
        1
176
     1
 90
        6
176
     1
 90
        2
176
     1
 62
     7
176
     1
 90
        5
176
     1
 90
        0
176
     1
 90
        0
176
     1
290
     0
176
     1
 90
       13
176
     1
 40
0.0
176
     1
 90
        0
176
     1
290
     0
176
     1
290
     1
176
     1
290
     1
176
     1
290
     0
176
     1
290
     0
176
     1
290
     0
176
     1
290
     0
176
     1
290
     0
176
     1
290
     0
176
     1
 90
       50
176
     1
 40
0.0
176
     1
 40
1.0
176
     1
 90
        0
176
     1
 62
    18
420
        0
176
     1
 90
       50
176
     1
 90
        3
176
     1
 62
     5
420
      255
176
     1
290
     0
176
     1
 90
       50
176
     1
 90
       50
176
     1
 90
       50
176
     1
290
     0
176
     1
 90
       50
176
     1
 62
   256
176
     0
 40
1.0
176
     0
 90
        2
176
     1
  1
strokes_ogs.tif
176
     1
290
     0
176
     1
 40
1.0
176
     1
 40
1.0
176
     1
  0
VISUALSTYLE
  5
31
102
{ACAD_REACTORS
330
2A
102
}
330
2A
100
AcDbVisualStyle
  2
Hidden
 70
     6
177
     3
291
     0
 70
    58
 90
        1
176
     1
 90
        2
176
     1
 90
        2
176
     1
 90
        0
176
     1
 40
0.6
176
     1
 40
30.0
176
     1
 62
     7
420
 16777215
176
     1
 90
        2
176
     1
 90
        2
176
     1
 62
     7
176
     1
 62
   257
176
     1
 90
        2
176
     1
 90
        1
176
     1
 40
40.0
176
     1
 90
        0
176
     1
 62
   257
176
     1
 40
1.0
176
     1
 90
        1
176
     1
 90
        6
176
     1
 90
        2
176
     1
 62
     7
176
     1
 90
        3
176
     1
 90
        0
176
     1
 90
        0
176
     1
290
     0
176
     1
 90
        1
176
     1
 40
0.0
176
     1
 90
        0
176
     1
290
     0
176
     1
290
     1
176
     1
290
     1
176
     1
290
     0
176
     1
290
     0
176
     1
290
     0
176
     1
290
     0
176
     1
290
     0
176
     1
290
     0
176
     1
 90
       50
176
     1
 40
0.0
176
     1
 40
1.0
176
     1
 90
        0
176
     1
 62
    18
420
        0
176
     1
 90
       50
176
     1
 90
        3
176
     1
 62
     5
420
      255
176
     1
290
     0
176
     1
 90
       50
176
     1
 90
       50
176
     1
 90
       50
176
     1
290
     0
176
     1
 90
       50
176
     1
 62
   256
176
     0
 40
1.0
176
     0
 90
        2
176
     1
  1
strokes_ogs.tif
176
     1
290
     0
176
     1
 40
1.0
176
     1
 40
1.0
176
     1
  0
VISUALSTYLE
  5
3B
102
{ACAD_REACTORS
330
2A
102
}
330
2A
100
AcDbVisualStyle
  2
JitterOff
 70
    20
177
     3
291
     1
 70
    58
 90
        2
176
     0
 90
        2
176
     0
 90
        0
176
     0
 90
        0
176
     0
 40
0.6
176
     0
 40
30.0
176
     0
 62
     7
420
 16777215
176
     0
 90
        1
176
     0
 90
        4
176
     0
 62
     7
176
     0
 62
   257
176
     0
 90
        1
176
     0
 90
        1
176
     0
 40
1.0
176
     0
 90
       10
176
     2
 62
     7
176
     0
 40
1.0
176
     0
 90
        1
176
     0
 90
        6
176
     0
 90
        2
176
     0
 62
     7
176
     0
 90
        5
176
     0
 90
        0
176
     0
 90
        0
176
     0
290
     0
176
     0
 90
        1
176
     0
 40
0.0
176
     0
 90
        0
176
     0
290
     0
176
     0
290
     1
176
     0
290
     1
176
     0
290
     0
176
     0
290
     0
176
     0
290
     0
176
     0
290
     0
176
     0
290
     0
176
     0
290
     0
176
     0
 90
       50
176
     0
 40
0.0
176
     0
 40
1.0
176
     0
 90
        0
176
     0
 62
    18
420
        0
176
     0
 90
       50
176
     0
 90
        3
176
     0
 62
     5
420
      255
176
     0
290
     0
176
     0
 90
       50
176
     0
 90
       50
176
     0
 90
       50
176
     0
290
     0
176
     0
 90
       50
176
     0
 62
   256
176
     0
 40
1.0
176
     0
 90
        2
176
     0
  1
strokes_ogs.tif
176
     0
290
     0
176
     0
 40
1.0
176
     0
 40
1.0
176
     0
  0
VISUALSTYLE
  5
38
102
{ACAD_REACTORS
330
2A
102
}
330
2A
100
AcDbVisualStyle
  2
Linepattern
 70
    14
177
     3
291
     1
 70
    58
 90
        2
176
     1
 90
        2
176
     1
 90
        0
176
     1
 90
        0
176
     1
 40
0.6
176
     1
 40
30.0
176
     1
 62
     7
420
 16777215
176
     1
 90
        1
176
     1
 90
        4
176
     1
 62
     7
176
     1
 62
   257
176
     1
 90
        7
176
     1
 90
        7
176
     1
 40
1.0
176
     1
 90
        8
176
     1
 62
     7
176
     1
 40
1.0
176
     1
 90
        1
176
     1
 90
        6
176
     1
 90
        2
176
     1
 62
     7
176
     1
 90
        5
176
     1
 90
        0
176
     1
 90
        0
176
     1
290
     0
176
     1
 90
        1
176
     1
 40
0.0
176
     1
 90
        0
176
     1
290
     0
176
     1
290
     1
176
     1
290
     1
176
     1
290
     0
176
     1
290
     0
176
     1
290
     0
176
     1
290
     0
176
     1
290
     0
176
     1
290
     0
176
     1
 90
       50
176
     1
 40
0.0
176
     1
 40
1.0
176
     1
 90
        0
176
     1
 62
    18
420
        0
176
     1
 90
       50
176
     1
 90
        3
176
     1
 62
     5
420
      255
176
     1
290
     0
176
     1
 90
       50
176
     1
 90
       50
176
     1
 90
       50
176
     1
290
     0
176
     1
 90
       50
176
     1
 62
   256
176
     0
 40
1.0
176
     0
 90
        2
176
     1
  1
strokes_ogs.tif
176
     1
290
     0
176
     1
 40
1.0
176
     1
 40
1.0
176
     1
  0
VISUALSTYLE
  5
3C
102
{ACAD_REACTORS
330
2A
102
}
330
2A
100
AcDbVisualStyle
  2
OverhangOff
 70
    21
177
     3
291
     1
 70
    58
 90
        2
176
     0
 90
        2
176
     0
 90
        0
176
     0
 90
        0
176
     0
 40
0.6
176
     0
 40
30.0
176
     0
 62
     7
420
 16777215
176
     0
 90
        1
176
     0
 90
        4
176
     0
 62
     7
176
     0
 62
   257
176
     0
 90
        1
176
     0
 90
        1
176
     0
 40
1.0
176
     0
 90
        9
176
     2
 62
     7
176
     0
 40
1.0
176
     0
 90
        1
176
     0
 90
        6
176
     0
 90
        2
176
     0
 62
     7
176
     0
 90
        5
176
     0
 90
        0
176
     0
 90
        0
176
     0
290
     0
176
     0
 90
        1
176
     0
 40
0.0
176
     0
 90
        0
176
     0
290
     0
176
     0
290
     1
176
     0
290
     1
176
     0
290
     0
176
     0
290
     0
176
     0
290
     0
176
     0
290
     0
176
     0
290
     0
176
     0
290
     0
176
     0
 90
       50
176
     0
 40
0.0
176
     0
 40
1.0
176
     0
 90
        0
176
     0
 62
    18
420
        0
176
     0
 90
       50
176
     0
 90
        3
176
     0
 62
     5
420
      255
176
     0
290
     0
176
     0
 90
       50
176
     0
 90
       50
176
     0
 90
       50
176
     0
290
     0
176
     0
 90
       50
176
     0
 62
   256
176
     0
 40
1.0
176
     0
 90
        2
176
     0
  1
strokes_ogs.tif
176
     0
290
     0
176
     0
 40
1.0
176
     0
 40
1.0
176
     0
  0
VISUALSTYLE
  5
33
102
{ACAD_REACTORS
330
2A
102
}
330
2A
100
AcDbVisualStyle
  2
Realistic
 70
     8
177
     3
291
     0
 70
    58
 90
        2
176
     1
 90
        3
176
     1
 90
        0
176
     1
 90
        2
176
     1
 40
0.6
176
     1
 40
30.0
176
     1
 62
     7
420
 16777215
176
     1
 90
        0
176
     1
 90
        0
176
     1
 62
     7
176
     1
 62
   257
176
     1
 90
        1
176
     1
 90
        1
176
     1
 40
1.0
176
     1
 90
        8
176
     1
 62
   257
176
     1
 40
1.0
176
     1
 90
        1
176
     1
 90
        6
176
     1
 90
        2
176
     1
 62
     7
176
     1
 90
        3
176
     1
 90
        0
176
     1
 90
        0
176
     1
290
     0
176
     1
 90
       13
176
     1
 40
0.0
176
     1
 90
        0
176
     1
290
     0
176
     1
290
     1
176
     1
290
     1
176
     1
290
     0
176
     1
290
     0
176
     1
290
     0
176
     1
290
     0
176
     1
290
     0
176
     1
290
     0
176
     1
 90
       50
176
     1
 40
0.0
176
     1
 40
1.0
176
     1
 90
        0
176
     1
 62
    18
420
        0
176
     1
 90
       50
176
     1
 90
        3
176
     1
 62
     5
420
      255
176
     1
290
     0
176
     1
 90
       50
176
     1
 90
       50
176
     1
 90
       50
176
     1
290
     0
176
     1
 90
       50
176
     1
 62
   256
176
     0
 40
1.0
176
     0
 90
        2
176
     1
  1
strokes_ogs.tif
176
     1
290
     0
176
     1
 40
1.0
176
     1
 40
1.0
176
     1
  0
VISUALSTYLE
  5
42
102
{ACAD_REACTORS
330
2A
102
}
330
2A
100
AcDbVisualStyle
  2
Shaded
 70
    27
177
     3
291
     0
 70
    58
 90
        2
176
     1
 90
        2
176
     1
 90
        1
176
     1
 90
        2
176
     1
 40
0.6
176
     1
 40
30.0
176
     1
 62
     7
420
 16777215
176
     1
 90
        0
176
     1
 90
        4
176
     1
 62
     7
176
     1
 62
   257
176
     1
 90
        1
176
     1
 90
        1
176
     1
 40
1.0
176
     1
 90
        8
176
     1
 62
   257
176
     1
 40
1.0
176
     1
 90
        1
176
     1
 90
        6
176
     1
 90
        2
176
     1
 62
     8
420
  7895160
176
     1
 90
        3
176
     1
 90
        0
176
     1
 90
        0
176
     1
290
     0
176
     1
 90
        5
176
     1
 40
0.0
176
     1
 90
        0
176
     1
290
     0
176
     1
290
     1
176
     1
290
     1
176
     1
290
     0
176
     1
290
     0
176
     1
290
     0
176
     1
290
     0
176
     1
290
     0
176
     1
290
     0
176
     1
 90
       50
176
     1
 40
0.0
176
     1
 40
1.0
176
     1
 90
        0
176
     1
 62
    18
420
        0
176
     1
 90
       50
176
     1
 90
        3
176
     1
 62
     5
420
      255
176
     1
290
     0
176
     1
 90
       50
176
     1
 90
       50
176
     1
 90
       50
176
     1
290
     0
176
     1
 90
       50
176
     1
 62
   256
176
     0
 40
1.0
176
     0
 90
        2
176
     1
  1
strokes_ogs.tif
176
     1
290
     0
176
     1
 40
1.0
176
     1
 40
1.0
176
     1
  0
VISUALSTYLE
  5
41
102
{ACAD_REACTORS
330
2A
102
}
330
2A
100
AcDbVisualStyle
  2
Shaded with edges
 70
    26
177
     3
291
     0
 70
    58
 90
        2
176
     1
 90
        2
176
     1
 90
        1
176
     1
 90
        2
176
     1
 40
0.6
176
     1
 40
30.0
176
     1
 62
     7
420
 16777215
176
     1
 90
        1
176
     1
 90
       10
176
     1
 62
     7
176
     1
 62
   257
176
     1
 90
        2
176
     1
 90
        1
176
     1
 40
1.0
176
     1
 90
        8
176
     1
 62
   257
176
     1
 40
1.0
176
     1
 90
        1
176
     1
 90
        6
176
     1
 90
        2
176
     1
 62
     7
176
     1
 90
        3
176
     1
 90
        0
176
     1
 90
        0
176
     1
290
     0
176
     1
 90
        5
176
     1
 40
0.0
176
     1
 90
        0
176
     1
290
     0
176
     1
290
     1
176
     1
290
     1
176
     1
290
     0
176
     1
290
     0
176
     1
290
     0
176
     1
290
     0
176
     1
290
     0
176
     1
290
     0
176
     1
 90
       50
176
     1
 40
0.0
176
     1
 40
1.0
176
     1
 90
        0
176
     1
 62
    18
420
        0
176
     1
 90
       50
176
     1
 90
        3
176
     1
 62
     5
420
      255
176
     1
290
     0
176
     1
 90
       50
176
     1
 90
       50
176
     1
 90
       50
176
     1
290
     0
176
     1
 90
       50
176
     1
 62
   256
176
     0
 40
1.0
176
     0
 90
        2
176
     1
  1
strokes_ogs.tif
176
     1
290
     0
176
     1
 40
1.0
176
     1
 40
1.0
176
     1
  0
VISUALSTYLE
  5
3E
102
{ACAD_REACTORS
330
2A
102
}
330
2A
100
AcDbVisualStyle
  2
Shades of Gray
 70
    23
177
     3
291
     0
 70
    58
 90
        2
176
     1
 90
        2
176
     1
 90
        3
176
     1
 90
        0
176
     1
 40
0.6
176
     1
 40
30.0
176
     1
 62
     7
420
 16777215
176
     1
 90
        2
176
     1
 90
        2
176
     1
 62
     7
176
     1
 62
     7
176
     1
 90
        1
176
     1
 90
        1
176
     1
 40
40.0
176
     1
 90
        8
176
     1
 62
     7
176
     1
 40
1.0
176
     1
 90
        1
176
     1
 90
        6
176
     1
 90
        2
176
     1
 62
     7
176
     1
 90
        3
176
     1
 90
        0
176
     1
 90
        0
176
     1
290
     0
176
     1
 90
        1
176
     1
 40
0.0
176
     1
 90
        0
176
     1
290
     0
176
     1
290
     1
176
     1
290
     1
176
     1
290
     0
176
     1
290
     0
176
     1
290
     0
176
     1
290
     0
176
     1
290
     0
176
     1
290
     0
176
     1
 90
       50
176
     1
 40
0.0
176
     1
 40
1.0
176
     1
 90
        0
176
     1
 62
    18
420
        0
176
     1
 90
       50
176
     1
 90
        3
176
     1
 62
     5
420
      255
176
     1
290
     0
176
     1
 90
       50
176
     1
 90
       50
176
     1
 90
       50
176
     1
290
     0
176
     1
 90
       50
176
     1
 62
   256
176
     0
 40
1.0
176
     0
 90
        2
176
     1
  1
strokes_ogs.tif
176
     1
290
     0
176
     1
 40
1.0
176
     1
 40
1.0
176
     1
  0
VISUALSTYLE
  5
3F
102
{ACAD_REACTORS
330
2A
102
}
330
2A
100
AcDbVisualStyle
  2
Sketchy
 70
    24
177
     3
291
     0
 70
    58
 90
        1
176
     1
 90
        2
176
     1
 90
        2
176
     1
 90
        0
176
     1
 40
0.6
176
     1
 40
30.0
176
     1
 62
     7
420
 16777215
176
     1
 90
        2
176
     1
 90
        2
176
     1
 62
     7
176
     1
 62
     7
176
     1
 90
        1
176
     1
 90
        1
176
     1
 40
40.0
176
     1
 90
       11
176
     1
 62
     7
176
     1
 40
1.0
176
     1
 90
        1
176
     1
 90
        6
176
     1
 90
        2
176
     1
 62
     7
176
     1
 90
        6
176
     1
 90
        0
176
     1
 90
        0
176
     1
290
     0
176
     1
 90
        1
176
     1
 40
0.0
176
     1
 90
        0
176
     1
290
     0
176
     1
290
     1
176
     1
290
     1
176
     1
290
     0
176
     1
290
     0
176
     1
290
     0
176
     1
290
     0
176
     1
290
     0
176
     1
290
     0
176
     1
 90
       50
176
     1
 40
0.0
176
     1
 40
1.0
176
     1
 90
        0
176
     1
 62
    18
420
        0
176
     1
 90
       50
176
     1
 90
        3
176
     1
 62
     5
420
      255
176
     1
290
     0
176
     1
 90
       50
176
     1
 90
       50
176
     1
 90
       50
176
     1
290
     0
176
     1
 90
       50
176
     1
 62
   256
176
     0
 40
1.0
176
     0
 90
        2
176
     1
  1
strokes_ogs.tif
176
     1
290
     0
176
     1
 40
1.0
176
     1
 40
1.0
176
     1
  0
VISUALSTYLE
  5
37
102
{ACAD_REACTORS
330
2A
102
}
330
2A
100
AcDbVisualStyle
  2
Thicken
 70
    13
177
     3
291
     1
 70
    58
 90
        2
176
     1
 90
        2
176
     1
 90
        0
176
     1
 90
        0
176
     1
 40
0.6
176
     1
 40
30.0
176
     1
 62
     7
420
 16777215
176
     1
 90
        1
176
     1
 90
        4
176
     1
 62
     7
176
     1
 62
   257
176
     1
 90
        1
176
     1
 90
        1
176
     1
 40
1.0
176
     1
 90
       12
176
     1
 62
     7
176
     1
 40
1.0
176
     1
 90
        1
176
     1
 90
        6
176
     1
 90
        2
176
     1
 62
     7
176
     1
 90
        5
176
     1
 90
        0
176
     1
 90
        0
176
     1
290
     0
176
     1
 90
        1
176
     1
 40
0.0
176
     1
 90
        0
176
     1
290
     0
176
     1
290
     1
176
     1
290
     1
176
     1
290
     0
176
     1
290
     0
176
     1
290
     0
176
     1
290
     0
176
     1
290
     0
176
     1
290
     0
176
     1
 90
       50
176
     1
 40
0.0
176
     1
 40
1.0
176
     1
 90
        0
176
     1
 62
    18
420
        0
176
     1
 90
       50
176
     1
 90
        3
176
     1
 62
     5
420
      255
176
     1
290
     0
176
     1
 90
       50
176
     1
 90
       50
176
     1
 90
       50
176
     1
290
     0
176
     1
 90
       50
176
     1
 62
   256
176
     0
 40
1.0
176
     0
 90
        2
176
     1
  1
strokes_ogs.tif
176
     1
290
     0
176
     1
 40
1.0
176
     1
 40
1.0
176
     1
  0
VISUALSTYLE
  5
30
102
{ACAD_REACTORS
330
2A
102
}
330
2A
100
AcDbVisualStyle
  2
Wireframe
 70
     5
177
     3
291
     0
 70
    58
 90
        0
176
     1
 90
        2
176
     1
 90
        0
176
     1
 90
        0
176
     1
 40
0.6
176
     1
 40
30.0
176
     1
 62
     7
420
 16777215
176
     1
 90
        1
176
     1
 90
        4
176
     1
 62
     7
176
     1
 62
   257
176
     1
 90
        1
176
     1
 90
        1
176
     1
 40
1.0
176
     1
 90
        0
176
     1
 62
   257
176
     1
 40
1.0
176
     1
 90
        1
176
     1
 90
        6
176
     1
 90
        2
176
     1
 62
     7
176
     1
 90
        3
176
     1
 90
        0
176
     1
 90
        0
176
     1
290
     0
176
     1
 90
        1
176
     1
 40
0.0
176
     1
 90
        0
176
     1
290
     0
176
     1
290
     1
176
     1
290
     1
176
     1
290
     0
176
     1
290
     0
176
     1
290
     0
176
     1
290
     0
176
     1
290
     0
176
     1
290
     0
176
     1
 90
       50
176
     1
 40
0.0
176
     1
 40
1.0
176
     1
 90
        0
176
     1
 62
    18
420
        0
176
     1
 90
       50
176
     1
 90
        3
176
     1
 62
     5
420
      255
176
     1
290
     0
176
     1
 90
       50
176
     1
 90
       50
176
     1
 90
       50
176
     1
290
     0
176
     1
 90
       50
176
     1
 62
   256
176
     0
 40
1.0
176
     0
 90
        2
176
     1
  1
strokes_ogs.tif
176
     1
290
     0
176
     1
 40
1.0
176
     1
 40
1.0
176
     1
  0
VISUALSTYLE
  5
40
102
{ACAD_REACTORS
330
2A
102
}
330
2A
100
AcDbVisualStyle
  2
X-Ray
 70
    25
177
     3
291
     0
 70
    58
 90
        2
176
     1
 90
        2
176
     1
 90
        1
176
     1
 90
        1
176
     1
 40
0.5
176
     1
 40
30.0
176
     1
 62
     7
420
 16777215
176
     1
 90
        1
176
     1
 90
        0
176
     1
 62
     7
176
     1
 62
   257
176
     1
 90
        1
176
     1
 90
        1
176
     1
 40
1.0
176
     1
 90
        8
176
     1
 62
     7
176
     1
 40
1.0
176
     1
 90
        1
176
     1
 90
        6
176
     1
 90
        2
176
     1
 62
     7
176
     1
 90
        3
176
     1
 90
        0
176
     1
 90
        0
176
     1
290
     0
176
     1
 90
       13
176
     1
 40
0.0
176
     1
 90
        0
176
     1
290
     0
176
     1
290
     1
176
     1
290
     1
176
     1
290
     0
176
     1
290
     0
176
     1
290
     0
176
     1
290
     0
176
     1
290
     0
176
     1
290
     0
176
     1
 90
       50
176
     1
 40
0.0
176
     1
 40
1.0
176
     1
 90
        0
176
     1
 62
    18
420
        0
176
     1
 90
       50
176
     1
 90
        3
176
     1
 62
     5
420
      255
176
     1
290
     0
176
     1
 90
       50
176
     1
 90
       50
176
     1
 90
       50
176
     1
290
     0
176
     1
 90
       50
176
     1
 62
   256
176
     0
 40
1.0
176
     0
 90
        2
176
     1
  1
strokes_ogs.tif
176
     1
290
     0
176
     1
 40
1.0
176
     1
 40
1.0
176
     1
  0
DICTIONARYVAR
  5
26C
102
{ACAD_REACTORS
330
26B
102
}
330
26B
100
DictionaryVariables
280
     0
  1
1:1
  0
DICTIONARYVAR
  5
271
102
{ACAD_REACTORS
330
26B
102
}
330
26B
100
DictionaryVariables
280
     0
  1
Standard
  0
DICTIONARYVAR
  5
270
102
{ACAD_REACTORS
330
26B
102
}
330
26B
100
DictionaryVariables
280
     0
  1
Standard
  0
DICTIONARY
  5
26D
330
6A
100
AcDbDictionary
280
     1
281
     1
  3
ACAD_ROUNDTRIP_2008_TABLESTYLE_CELLSTYLEMAP
360
26E
  0
CELLSTYLEMAP
  5
26E
102
{ACAD_REACTORS
330
26D
102
}
330
26D
100
AcDbCellStyleMap
 90
        3
300
CELLSTYLE
  1
TABLEFORMAT_BEGIN
 90
        5
170
     1
 91
        0
 92
    32768
 62
   257
 93
        1
300
CONTENTFORMAT
  1
CONTENTFORMAT_BEGIN
 90
        0
 91
        0
 92
        4
 93
        0
300

 40
0.0
140
1.0
 94
        5
 62
     0
340
11
144
0.25
309
CONTENTFORMAT_END
171
     1
301
MARGIN
  1
CELLMARGIN_BEGIN
 40
0.06
 40
0.06
 40
0.06
 40
0.06
 40
0.06
 40
0.06
309
CELLMARGIN_END
 94
        6
 95
        1
302
GRIDFORMAT
  1
GRIDFORMAT_BEGIN
 90
        0
 91
        1
 62
     0
 92
       -2
340
14
 93
        0
 40
0.045
309
GRIDFORMAT_END
 95
        2
302
GRIDFORMAT
  1
GRIDFORMAT_BEGIN
 90
        0
 91
        1
 62
     0
 92
       -2
340
14
 93
        0
 40
0.045
309
GRIDFORMAT_END
 95
        4
302
GRIDFORMAT
  1
GRIDFORMAT_BEGIN
 90
        0
 91
        1
 62
     0
 92
       -2
340
14
 93
        0
 40
0.045
309
GRIDFORMAT_END
 95
        8
302
GRIDFORMAT
  1
GRIDFORMAT_BEGIN
 90
        0
 91
        1
 62
     0
 92
       -2
340
14
 93
        0
 40
0.045
309
GRIDFORMAT_END
 95
       16
302
GRIDFORMAT
  1
GRIDFORMAT_BEGIN
 90
        0
 91
        1
 62
     0
 92
       -2
340
14
 93
        0
 40
0.045
309
GRIDFORMAT_END
 95
       32
302
GRIDFORMAT
  1
GRIDFORMAT_BEGIN
 90
        0
 91
        1
 62
     0
 92
       -2
340
14
 93
        0
 40
0.045
309
GRIDFORMAT_END
309
TABLEFORMAT_END
  1
CELLSTYLE_BEGIN
 90
        1
 91
        1
300
_TITLE
309
CELLSTYLE_END
300
CELLSTYLE
  1
TABLEFORMAT_BEGIN
 90
        5
170
     1
 91
        0
 92
        0
 62
   257
 93
        1
300
CONTENTFORMAT
  1
CONTENTFORMAT_BEGIN
 90
        0
 91
        0
 92
        4
 93
        0
300

 40
0.0
140
1.0
 94
        5
 62
     0
340
11
144
0.18
309
CONTENTFORMAT_END
171
     1
301
MARGIN
  1
CELLMARGIN_BEGIN
 40
0.06
 40
0.06
 40
0.06
 40
0.06
 40
0.06
 40
0.06
309
CELLMARGIN_END
 94
        6
 95
        1
302
GRIDFORMAT
  1
GRIDFORMAT_BEGIN
 90
        0
 91
        1
 62
     0
 92
       -2
340
14
 93
        0
 40
0.045
309
GRIDFORMAT_END
 95
        2
302
GRIDFORMAT
  1
GRIDFORMAT_BEGIN
 90
        0
 91
        1
 62
     0
 92
       -2
340
14
 93
        0
 40
0.045
309
GRIDFORMAT_END
 95
        4
302
GRIDFORMAT
  1
GRIDFORMAT_BEGIN
 90
        0
 91
        1
 62
     0
 92
       -2
340
14
 93
        0
 40
0.045
309
GRIDFORMAT_END
 95
        8
302
GRIDFORMAT
  1
GRIDFORMAT_BEGIN
 90
        0
 91
        1
 62
     0
 92
       -2
340
14
 93
        0
 40
0.045
309
GRIDFORMAT_END
 95
       16
302
GRIDFORMAT
  1
GRIDFORMAT_BEGIN
 90
        0
 91
        1
 62
     0
 92
       -2
340
14
 93
        0
 40
0.045
309
GRIDFORMAT_END
 95
       32
302
GRIDFORMAT
  1
GRIDFORMAT_BEGIN
 90
        0
 91
        1
 62
     0
 92
       -2
340
14
 93
        0
 40
0.045
309
GRIDFORMAT_END
309
TABLEFORMAT_END
  1
CELLSTYLE_BEGIN
 90
        2
 91
        1
300
_HEADER
309
CELLSTYLE_END
300
CELLSTYLE
  1
TABLEFORMAT_BEGIN
 90
        5
170
     1
 91
        0
 92
        0
 62
   257
 93
        1
300
CONTENTFORMAT
  1
CONTENTFORMAT_BEGIN
 90
        0
 91
        0
 92
        4
 93
        0
300

 40
0.0
140
1.0
 94
        2
 62
     0
340
11
144
0.18
309
CONTENTFORMAT_END
171
     1
301
MARGIN
  1
CELLMARGIN_BEGIN
 40
0.06
 40
0.06
 40
0.06
 40
0.06
 40
0.06
 40
0.06
309
CELLMARGIN_END
 94
        6
 95
        1
302
GRIDFORMAT
  1
GRIDFORMAT_BEGIN
 90
        0
 91
        1
 62
     0
 92
       -2
340
14
 93
        0
 40
0.045
309
GRIDFORMAT_END
 95
        2
302
GRIDFORMAT
  1
GRIDFORMAT_BEGIN
 90
        0
 91
        1
 62
     0
 92
       -2
340
14
 93
        0
 40
0.045
309
GRIDFORMAT_END
 95
        4
302
GRIDFORMAT
  1
GRIDFORMAT_BEGIN
 90
        0
 91
        1
 62
     0
 92
       -2
340
14
 93
        0
 40
0.045
309
GRIDFORMAT_END
 95
        8
302
GRIDFORMAT
  1
GRIDFORMAT_BEGIN
 90
        0
 91
        1
 62
     0
 92
       -2
340
14
 93
        0
 40
0.045
309
GRIDFORMAT_END
 95
       16
302
GRIDFORMAT
  1
GRIDFORMAT_BEGIN
 90
        0
 91
        1
 62
     0
 92
       -2
340
14
 93
        0
 40
0.045
309
GRIDFORMAT_END
 95
       32
302
GRIDFORMAT
  1
GRIDFORMAT_BEGIN
 90
        0
 91
        1
 62
     0
 92
       -2
340
14
 93
        0
 40
0.045
309
GRIDFORMAT_END
309
TABLEFORMAT_END
  1
CELLSTYLE_BEGIN
 90
        3
 91
        2
300
_DATA
309
CELLSTYLE_END
  0
ENDSEC
  0
EOF