0
SECTION
  2
HEADER
  9
$ACADVER
  1
AC1027
  9
$ACADMAINTVER
 70
     8
  9
$DWGCODEPAGE
  3
ANSI_1252
  9
$REQUIREDVERSIONS
160
                 0
  9
$COMMENTS
  1
File was created by Cadenas
  9
$CUSTOMPROPERTYTAG
  1
NN
  9
$CUSTOMPROPERTY
  1
Imperial - IP Piloted Flange Contact Seal
  9
$CUSTOMPROPERTYTAG
  1
NT
  9
$CUSTOMPROPERTY
  1
Imperial Piloted Flange Bearings
  9
$CUSTOMPROPERTYTAG
  1
NB
  9
$CUSTOMPROPERTY
  1
069833
  9
$CUSTOMPROPERTYTAG
  1
NBSYN
  9
$CUSTOMPROPERTY
  1
$PN.
  9
$CUSTOMPROPERTYTAG
  1
LINA
  9
$CUSTOMPROPERTY
  1
069833
  9
$CUSTOMPROPERTYTAG
  1
SS
  9
$CUSTOMPROPERTY
  1
4-7/16
  9
$CUSTOMPROPERTYTAG
  1
PN
  9
$CUSTOMPROPERTY
  1
069833
  9
$CUSTOMPROPERTYTAG
  1
DESCRIPTION
  9
$CUSTOMPROPERTY
  1
FC-IP-407R
  9
$CUSTOMPROPERTYTAG
  1
EF
  9
$CUSTOMPROPERTY
  1
Non-Expansion Type
  9
$CUSTOMPROPERTYTAG
  1
ST
  9
$CUSTOMPROPERTY
  1
Contact  Seal
  9
$CUSTOMPROPERTYTAG
  1
A
  9
$CUSTOMPROPERTY
  1
5-15/64
  9
$CUSTOMPROPERTYTAG
  1
B
  9
$CUSTOMPROPERTY
  1
13-1/2
  9
$CUSTOMPROPERTYTAG
  1
C
  9
$CUSTOMPROPERTY
  1
4
  9
$CUSTOMPROPERTYTAG
  1
D
  9
$CUSTOMPROPERTY
  1
8-5/16
  9
$CUSTOMPROPERTYTAG
  1
DD
  9
$CUSTOMPROPERTY
  1
11-3/4
  9
$CUSTOMPROPERTYTAG
  1
E
  9
$CUSTOMPROPERTY
  1
1-29/64
  9
$CUSTOMPROPERTYTAG
  1
F
  9
$CUSTOMPROPERTY
  1
3/4
  9
$CUSTOMPROPERTYTAG
  1
G
  9
$CUSTOMPROPERTY
  1
3-9/16
  9
$CUSTOMPROPERTYTAG
  1
H
  9
$CUSTOMPROPERTY
  1
1
  9
$CUSTOMPROPERTYTAG
  1
K
  9
$CUSTOMPROPERTY
  1
10.250
  9
$CUSTOMPROPERTYTAG
  1
L
  9
$CUSTOMPROPERTY
  1
6-7/16
  9
$CUSTOMPROPERTYTAG
  1
M
  9
$CUSTOMPROPERTY
  1
3/4-10
  9
$CUSTOMPROPERTYTAG
  1
N
  9
$CUSTOMPROPERTY
  1
5-35/64
  9
$CUSTOMPROPERTYTAG
  1
P
  9
$CUSTOMPROPERTY
  1
1-43/64
  9
$CUSTOMPROPERTYTAG
  1
Q
  9
$CUSTOMPROPERTY
  1
1-63/64
  9
$CUSTOMPROPERTYTAG
  1
X
  9
$CUSTOMPROPERTY
  1
3/8
  9
$CUSTOMPROPERTYTAG
  1
Y
  9
$CUSTOMPROPERTY
  1
0.036
  9
$CUSTOMPROPERTYTAG
  1
Z
  9
$CUSTOMPROPERTY
  1
5
  9
$CUSTOMPROPERTYTAG
  1
COMPANY
  9
$CUSTOMPROPERTY
  1
baldor
  9
$INSBASE
 10
0.0
 20
0.0
 30
0.0
  9
$EXTMIN
 10
1.000000000000000E+20
 20
1.000000000000000E+20
 30
1.000000000000000E+20
  9
$EXTMAX
 10
-1.000000000000000E+20
 20
-1.000000000000000E+20
 30
-1.000000000000000E+20
  9
$LIMMIN
 10
0.0
 20
0.0
  9
$LIMMAX
 10
12.0
 20
9.0
  9
$ORTHOMODE
 70
     0
  9
$REGENMODE
 70
     1
  9
$FILLMODE
 70
     1
  9
$QTEXTMODE
 70
     0
  9
$MIRRTEXT
 70
     1
  9
$LTSCALE
 40
1.0
  9
$ATTMODE
 70
     1
  9
$TEXTSIZE
 40
0.2
  9
$TRACEWID
 40
0.05
  9
$TEXTSTYLE
  7
Standard
  9
$CLAYER
  8
0
  9
$CELTYPE
  6
ByLayer
  9
$CECOLOR
 62
   256
  9
$CELTSCALE
 40
1.0
  9
$DISPSILH
 70
     0
  9
$DIMSCALE
 40
1.0
  9
$DIMASZ
 40
0.18
  9
$DIMEXO
 40
0.0625
  9
$DIMDLI
 40
0.38
  9
$DIMRND
 40
0.0
  9
$DIMDLE
 40
0.0
  9
$DIMEXE
 40
0.18
  9
$DIMTP
 40
0.0
  9
$DIMTM
 40
0.0
  9
$DIMTXT
 40
0.18
  9
$DIMCEN
 40
0.09
  9
$DIMTSZ
 40
0.0
  9
$DIMTOL
 70
     0
  9
$DIMLIM
 70
     0
  9
$DIMTIH
 70
     1
  9
$DIMTOH
 70
     1
  9
$DIMSE1
 70
     0
  9
$DIMSE2
 70
     0
  9
$DIMTAD
 70
     0
  9
$DIMZIN
 70
     0
  9
$DIMBLK
  1

  9
$DIMASO
 70
     1
  9
$DIMSHO
 70
     1
  9
$DIMPOST
  1

  9
$DIMAPOST
  1

  9
$DIMALT
 70
     0
  9
$DIMALTD
 70
     2
  9
$DIMALTF
 40
25.4
  9
$DIMLFAC
 40
1.0
  9
$DIMTOFL
 70
     0
  9
$DIMTVP
 40
0.0
  9
$DIMTIX
 70
     0
  9
$DIMSOXD
 70
     0
  9
$DIMSAH
 70
     0
  9
$DIMBLK1
  1

  9
$DIMBLK2
  1

  9
$DIMSTYLE
  2
Standard
  9
$DIMCLRD
 70
     0
  9
$DIMCLRE
 70
     0
  9
$DIMCLRT
 70
     0
  9
$DIMTFAC
 40
1.0
  9
$DIMGAP
 40
0.09
  9
$DIMJUST
 70
     0
  9
$DIMSD1
 70
     0
  9
$DIMSD2
 70
     0
  9
$DIMTOLJ
 70
     1
  9
$DIMTZIN
 70
     0
  9
$DIMALTZ
 70
     0
  9
$DIMALTTZ
 70
     0
  9
$DIMUPT
 70
     0
  9
$DIMDEC
 70
     4
  9
$DIMTDEC
 70
     4
  9
$DIMALTU
 70
     2
  9
$DIMALTTD
 70
     2
  9
$DIMTXSTY
  7
Standard
  9
$DIMAUNIT
 70
     0
  9
$DIMADEC
 70
     0
  9
$DIMALTRND
 40
0.0
  9
$DIMAZIN
 70
     0
  9
$DIMDSEP
 70
    46
  9
$DIMATFIT
 70
     3
  9
$DIMFRAC
 70
     0
  9
$DIMLDRBLK
  1

  9
$DIMLUNIT
 70
     2
  9
$DIMLWD
 70
    -2
  9
$DIMLWE
 70
    -2
  9
$DIMTMOVE
 70
     0
  9
$DIMFXL
 40
1.0
  9
$DIMFXLON
 70
     0
  9
$DIMJOGANG
 40
0.7853981633974483
  9
$DIMTFILL
 70
     0
  9
$DIMTFILLCLR
 70
     0
  9
$DIMARCSYM
 70
     0
  9
$DIMLTYPE
  6

  9
$DIMLTEX1
  6

  9
$DIMLTEX2
  6

  9
$DIMTXTDIRECTION
 70
     0
  9
$LUNITS
 70
     2
  9
$LUPREC
 70
     4
  9
$SKETCHINC
 40
0.1
  9
$FILLETRAD
 40
0.5
  9
$AUNITS
 70
     0
  9
$AUPREC
 70
     0
  9
$MENU
  1
.
  9
$ELEVATION
 40
0.0
  9
$PELEVATION
 40
0.0
  9
$THICKNESS
 40
0.0
  9
$LIMCHECK
 70
     0
  9
$CHAMFERA
 40
0.0
  9
$CHAMFERB
 40
0.0
  9
$CHAMFERC
 40
0.0
  9
$CHAMFERD
 40
0.0
  9
$SKPOLY
 70
     0
  9
$TDCREATE
 40
2458168.989862373
  9
$TDUCREATE
 40
2458168.948195706
  9
$TDUPDATE
 40
2458168.989862558
  9
$TDUUPDATE
 40
2458168.948195891
  9
$TDINDWG
 40
0.0000000116
  9
$TDUSRTIMER
 40
0.0000000116
  9
$USRTIMER
 70
     1
  9
$ANGBASE
 50
0.0
  9
$ANGDIR
 70
     0
  9
$PDMODE
 70
     0
  9
$PDSIZE
 40
0.0
  9
$PLINEWID
 40
0.0
  9
$SPLFRAME
 70
     0
  9
$SPLINETYPE
 70
     6
  9
$SPLINESEGS
 70
     8
  9
$HANDSEED
  5
288
  9
$SURFTAB1
 70
     6
  9
$SURFTAB2
 70
     6
  9
$SURFTYPE
 70
     6
  9
$SURFU
 70
     6
  9
$SURFV
 70
     6
  9
$UCSBASE
  2

  9
$UCSNAME
  2

  9
$UCSORG
 10
0.0
 20
0.0
 30
0.0
  9
$UCSXDIR
 10
1.0
 20
0.0
 30
0.0
  9
$UCSYDIR
 10
0.0
 20
1.0
 30
0.0
  9
$UCSORTHOREF
  2

  9
$UCSORTHOVIEW
 70
     0
  9
$UCSORGTOP
 10
0.0
 20
0.0
 30
0.0
  9
$UCSORGBOTTOM
 10
0.0
 20
0.0
 30
0.0
  9
$UCSORGLEFT
 10
0.0
 20
0.0
 30
0.0
  9
$UCSORGRIGHT
 10
0.0
 20
0.0
 30
0.0
  9
$UCSORGFRONT
 10
0.0
 20
0.0
 30
0.0
  9
$UCSORGBACK
 10
0.0
 20
0.0
 30
0.0
  9
$PUCSBASE
  2

  9
$PUCSNAME
  2

  9
$PUCSORG
 10
0.0
 20
0.0
 30
0.0
  9
$PUCSXDIR
 10
1.0
 20
0.0
 30
0.0
  9
$PUCSYDIR
 10
0.0
 20
1.0
 30
0.0
  9
$PUCSORTHOREF
  2

  9
$PUCSORTHOVIEW
 70
     0
  9
$PUCSORGTOP
 10
0.0
 20
0.0
 30
0.0
  9
$PUCSORGBOTTOM
 10
0.0
 20
0.0
 30
0.0
  9
$PUCSORGLEFT
 10
0.0
 20
0.0
 30
0.0
  9
$PUCSORGRIGHT
 10
0.0
 20
0.0
 30
0.0
  9
$PUCSORGFRONT
 10
0.0
 20
0.0
 30
0.0
  9
$PUCSORGBACK
 10
0.0
 20
0.0
 30
0.0
  9
$USERI1
 70
     0
  9
$USERI2
 70
     0
  9
$USERI3
 70
     0
  9
$USERI4
 70
     0
  9
$USERI5
 70
     0
  9
$USERR1
 40
0.0
  9
$USERR2
 40
0.0
  9
$USERR3
 40
0.0
  9
$USERR4
 40
0.0
  9
$USERR5
 40
0.0
  9
$WORLDVIEW
 70
     1
  9
$SHADEDGE
 70
     3
  9
$SHADEDIF
 70
    70
  9
$TILEMODE
 70
     1
  9
$MAXACTVP
 70
    64
  9
$PINSBASE
 10
0.0
 20
0.0
 30
0.0
  9
$PLIMCHECK
 70
     0
  9
$PEXTMIN
 10
1.000000000000000E+20
 20
1.000000000000000E+20
 30
1.000000000000000E+20
  9
$PEXTMAX
 10
-1.000000000000000E+20
 20
-1.000000000000000E+20
 30
-1.000000000000000E+20
  9
$PLIMMIN
 10
0.0
 20
0.0
  9
$PLIMMAX
 10
12.0
 20
9.0
  9
$UNITMODE
 70
     0
  9
$VISRETAIN
 70
     1
  9
$PLINEGEN
 70
     0
  9
$PSLTSCALE
 70
     1
  9
$TREEDEPTH
 70
  3020
  9
$CMLSTYLE
  2
Standard
  9
$CMLJUST
 70
     0
  9
$CMLSCALE
 40
1.0
  9
$PROXYGRAPHICS
 70
     1
  9
$MEASUREMENT
 70
     0
  9
$CELWEIGHT
370
    -1
  9
$ENDCAPS
280
     0
  9
$JOINSTYLE
280
     0
  9
$LWDISPLAY
290
     0
  9
$INSUNITS
 70
     1
  9
$HYPERLINKBASE
  1

  9
$STYLESHEET
  1

  9
$XEDIT
290
     1
  9
$CEPSNTYPE
380
     0
  9
$PSTYLEMODE
290
     1
  9
$FINGERPRINTGUID
  2
{9D8B35F0-C5ED-4ACE-B50A-DF1CC285A9C6}
  9
$VERSIONGUID
  2
{FAEB1C32-E019-11D5-929B-00C0DF256EC4}
  9
$EXTNAMES
290
     1
  9
$PSVPSCALE
 40
0.0
  9
$OLESTARTUP
290
     0
  9
$SORTENTS
280
   127
  9
$INDEXCTL
280
     0
  9
$HIDETEXT
280
     1
  9
$XCLIPFRAME
280
     2
  9
$HALOGAP
280
     0
  9
$OBSCOLOR
 70
   257
  9
$OBSLTYPE
280
     0
  9
$INTERSECTIONDISPLAY
280
     0
  9
$INTERSECTIONCOLOR
 70
   257
  9
$DIMASSOC
280
     2
  9
$PROJECTNAME
  1

  9
$CAMERADISPLAY
290
     0
  9
$LENSLENGTH
 40
50.0
  9
$CAMERAHEIGHT
 40
0.0
  9
$STEPSPERSEC
 40
2.0
  9
$STEPSIZE
 40
6.0
  9
$3DDWFPREC
 40
2.0
  9
$PSOLWIDTH
 40
0.25
  9
$PSOLHEIGHT
 40
4.0
  9
$LOFTANG1
 40
1.570796326794897
  9
$LOFTANG2
 40
1.570796326794897
  9
$LOFTMAG1
 40
0.0
  9
$LOFTMAG2
 40
0.0
  9
$LOFTPARAM
 70
     7
  9
$LOFTNORMALS
280
     1
  9
$LATITUDE
 40
37.795
  9
$LONGITUDE
 40
-122.394
  9
$NORTHDIRECTION
 40
0.0
  9
$TIMEZONE
 70
 -8000
  9
$LIGHTGLYPHDISPLAY
280
     1
  9
$TILEMODELIGHTSYNCH
280
     1
  9
$CMATERIAL
347
44
  9
$SOLIDHIST
280
     0
  9
$SHOWHIST
280
     1
  9
$DWFFRAME
280
     2
  9
$DGNFRAME
280
     2
  9
$REALWORLDSCALE
290
     1
  9
$INTERFERECOLOR
 62
   256
  9
$CSHADOW
280
     0
  9
$SHADOWPLANELOCATION
 40
0.0
  0
ENDSEC
  0
SECTION
  2
CLASSES
  0
CLASS
  1
ACDBDICTIONARYWDFLT
  2
AcDbDictionaryWithDefault
  3
ObjectDBX Classes
 90
        0
 91
        4
280
     0
281
     0
  0
CLASS
  1
VISUALSTYLE
  2
AcDbVisualStyle
  3
ObjectDBX Classes
 90
     4095
 91
        4
280
     0
281
     0
  0
CLASS
  1
MATERIAL
  2
AcDbMaterial
  3
ObjectDBX Classes
 90
     1153
 91
        4
280
     0
281
     0
  0
CLASS
  1
SCALE
  2
AcDbScale
  3
ObjectDBX Classes
 90
     1153
 91
        4
280
     0
281
     0
  0
CLASS
  1
TABLESTYLE
  2
AcDbTableStyle
  3
ObjectDBX Classes
 90
     4095
 91
        4
280
     0
281
     0
  0
CLASS
  1
MLEADERSTYLE
  2
AcDbMLeaderStyle
  3
ACDB_MLEADERSTYLE_CLASS
 90
     4095
 91
        4
280
     0
281
     0
  0
CLASS
  1
SUN
  2
AcDbSun
  3
SCENEOE
 90
     1153
 91
        4
280
     0
281
     0
  0
CLASS
  1
DICTIONARYVAR
  2
AcDbDictionaryVar
  3
ObjectDBX Classes
 90
        0
 91
        4
280
     0
281
     0
  0
CLASS
  1
CELLSTYLEMAP
  2
AcDbCellStyleMap
  3
ObjectDBX Classes
 90
     1152
 91
        4
280
     0
281
     0
  0
ENDSEC
  0
SECTION
  2
TABLES
  0
TABLE
  2
VPORT
  5
8
330
0
100
AcDbSymbolTable
 70
     1
  0
VPORT
  5
29
330
8
100
AcDbSymbolTableRecord
100
AcDbViewportTableRecord
  2
*Active
 70
     0
 10
0.0
 20
0.0
 11
1.0
 21
1.0
 12
-0.6033218750000007
 22
0.0
 13
0.0
 23
0.0
 14
0.5
 24
0.5
 15
0.5
 25
0.5
 16
0.0
 26
0.0
 36
1.0
 17
0.0
 27
0.0
 37
0.0
 40
13.77
 41
0.4774365740740742
 42
50.0
 43
0.0
 44
0.0
 50
0.0
 51
0.0
 71
     0
 72
   100
 73
     1
 74
     3
 75
     0
 76
     0
 77
     0
 78
     0
281
     0
 65
     1
110
0.0
120
0.0
130
0.0
111
1.0
121
0.0
131
0.0
112
0.0
122
1.0
132
0.0
 79
     0
146
0.0
348
2F
 60
     3
 61
     5
292
     1
282
     1
141
0.0
142
0.0
 63
   250
361
6D
  0
ENDTAB
  0
TABLE
  2
LTYPE
  5
5
330
0
100
AcDbSymbolTable
 70
     3
  0
LTYPE
  5
14
330
5
100
AcDbSymbolTableRecord
100
AcDbLinetypeTableRecord
  2
ByBlock
 70
     0
  3

 72
    65
 73
     0
 40
0.0
  0
LTYPE
  5
15
330
5
100
AcDbSymbolTableRecord
100
AcDbLinetypeTableRecord
  2
ByLayer
 70
     0
  3

 72
    65
 73
     0
 40
0.0
  0
LTYPE
  5
16
330
5
100
AcDbSymbolTableRecord
100
AcDbLinetypeTableRecord
  2
Continuous
 70
     0
  3
Solid line
 72
    65
 73
     0
 40
0.0
  0
LTYPE
  5
9C
330
5
100
AcDbSymbolTableRecord
100
AcDbLinetypeTableRecord
  2
Dashed
 70
     0
  3

 72
    65
 73
     2
 40
2.0
 49
1.0
 74
     0
 49
-1.0
 74
     0
  0
LTYPE
  5
AA
330
5
100
AcDbSymbolTableRecord
100
AcDbLinetypeTableRecord
  2
Center
 70
     0
  3

 72
    65
 73
     4
 40
1.5
 49
0.45
 74
     0
 49
-0.5
 74
     0
 49
0.05
 74
     0
 49
-0.5
 74
     0
  0
ENDTAB
  0
TABLE
  2
LAYER
  5
2
330
0
100
AcDbSymbolTable
 70
     7
  0
LAYER
  5
10
330
2
100
AcDbSymbolTableRecord
100
AcDbLayerTableRecord
  2
0
 70
     0
 62
     7
  6
Continuous
370
    -3
390
F
347
46
348
0
  0
LAYER
  5
72
330
2
100
AcDbSymbolTableRecord
100
AcDbLayerTableRecord
  2
AM_6
 70
     0
 62
    -2
  6
Continuous
370
    35
390
F
347
46
348
0
  0
LAYER
  5
9D
330
2
100
AcDbSymbolTableRecord
100
AcDbLayerTableRecord
  2
AM_9
 70
     0
 62
     6
  6
Dashed
370
    25
390
F
347
46
348
0
  0
LAYER
  5
A4
330
2
100
AcDbSymbolTableRecord
100
AcDbLayerTableRecord
  2
AM_5
 70
     0
 62
     3
  6
Continuous
370
    25
390
F
347
46
348
0
  0
LAYER
  5
AB
330
2
100
AcDbSymbolTableRecord
100
AcDbLayerTableRecord
  2
AM_7
 70
     0
 62
     7
  6
Center
370
    25
390
F
347
46
348
0
  0
LAYER
  5
AD
330
2
100
AcDbSymbolTableRecord
100
AcDbLayerTableRecord
  2
AM_4
 70
     0
 62
     7
  6
Continuous
370
    50
390
F
347
46
348
0
  0
LAYER
  5
270
330
2
100
AcDbSymbolTableRecord
100
AcDbLayerTableRecord
  2
ConnectionPoints
 70
     0
 62
     7
  6
Continuous
370
    50
390
F
347
46
348
0
  0
ENDTAB
  0
TABLE
  2
STYLE
  5
3
330
0
100
AcDbSymbolTable
 70
     1
  0
STYLE
  5
11
330
3
100
AcDbSymbolTableRecord
100
AcDbTextStyleTableRecord
  2
Standard
 70
     0
 40
0.0
 41
1.0
 50
0.0
 71
     0
 42
0.2
  3
txt
  4

  0
ENDTAB
  0
TABLE
  2
VIEW
  5
6
330
0
100
AcDbSymbolTable
 70
     0
  0
ENDTAB
  0
TABLE
  2
UCS
  5
7
330
0
100
AcDbSymbolTable
 70
     0
  0
ENDTAB
  0
TABLE
  2
APPID
  5
9
330
0
100
AcDbSymbolTable
 70
     1
  0
APPID
  5
12
330
9
100
AcDbSymbolTableRecord
100
AcDbRegAppTableRecord
  2
ACAD
 70
     0
  0
ENDTAB
  0
TABLE
  2
DIMSTYLE
  5
A
330
0
100
AcDbSymbolTable
 70
     1
100
AcDbDimStyleTable
  0
DIMSTYLE
105
27
330
A
100
AcDbSymbolTableRecord
100
AcDbDimStyleTableRecord
  2
Standard
 70
     0
178
     0
340
11
  0
ENDTAB
  0
TABLE
  2
BLOCK_RECORD
  5
1
330
0
100
AcDbSymbolTable
 70
     8
  0
BLOCK_RECORD
  5
1F
330
1
100
AcDbSymbolTableRecord
100
AcDbBlockTableRecord
  2
*Model_Space
340
22
 70
     0
280
     1
281
     0
  0
BLOCK_RECORD
  5
1B
330
1
100
AcDbSymbolTableRecord
100
AcDbBlockTableRecord
  2
*Paper_Space
340
1E
 70
     0
280
     1
281
     0
  0
BLOCK_RECORD
  5
23
330
1
100
AcDbSymbolTableRecord
100
AcDbBlockTableRecord
  2
*Paper_Space0
340
26
 70
     0
280
     1
281
     0
  0
BLOCK_RECORD
  5
6E
330
1
100
AcDbSymbolTableRecord
100
AcDbBlockTableRecord
  2
1_069833_2
340
0
102
{BLKREFS
331
6F
102
}
 70
     0
280
     1
281
     0
  0
BLOCK_RECORD
  5
90
330
1
100
AcDbSymbolTableRecord
100
AcDbBlockTableRecord
  2
2_405015E_Inch_0_in_069833_2
340
0
102
{BLKREFS
331
91
102
}
 70
     0
280
     1
281
     0
  0
BLOCK_RECORD
  5
CC
330
1
100
AcDbSymbolTableRecord
100
AcDbBlockTableRecord
  2
3_ASME_B18_3_1_4_1_0_in_069833_2
340
0
102
{BLKREFS
331
CD
102
}
 70
     0
280
     1
281
     0
  0
BLOCK_RECORD
  5
F0
330
1
100
AcDbSymbolTableRecord
100
AcDbBlockTableRecord
  2
4_ASME_B18_3_1_4_2_0_in_069833_2
340
0
102
{BLKREFS
331
F1
102
}
 70
     0
280
     1
281
     0
  0
BLOCK_RECORD
  5
114
330
1
100
AcDbSymbolTableRecord
100
AcDbBlockTableRecord
  2
5_070908LW_0_in_069833_2
340
0
102
{BLKREFS
331
115
102
}
 70
     0
280
     1
281
     0
  0
BLOCK_RECORD
  5
14A
330
1
100
AcDbSymbolTableRecord
100
AcDbBlockTableRecord
  2
6_070908I_0_in_069833_2
340
0
102
{BLKREFS
331
14B
102
}
 70
     0
280
     1
281
     0
  0
BLOCK_RECORD
  5
1D1
330
1
100
AcDbSymbolTableRecord
100
AcDbBlockTableRecord
  2
7_069833H_0_in_069833_2
340
0
102
{BLKREFS
331
1D2
102
}
 70
     0
280
     1
281
     0
  0
ENDTAB
  0
ENDSEC
  0
SECTION
  2
BLOCKS
  0
BLOCK
  5
20
330
1F
100
AcDbEntity
  8
0
100
AcDbBlockBegin
  2
*Model_Space
 70
     0
 10
0.0
 20
0.0
 30
0.0
  3
*Model_Space
  1

  0
ENDBLK
  5
21
330
1F
100
AcDbEntity
  8
0
100
AcDbBlockEnd
  0
BLOCK
  5
1C
330
1B
100
AcDbEntity
 67
     1
  8
0
100
AcDbBlockBegin
  2
*Paper_Space
 70
     0
 10
0.0
 20
0.0
 30
0.0
  3
*Paper_Space
  1

  0
ENDBLK
  5
1D
330
1B
100
AcDbEntity
 67
     1
  8
0
100
AcDbBlockEnd
  0
BLOCK
  5
24
330
23
100
AcDbEntity
  8
0
100
AcDbBlockBegin
  2
*Paper_Space0
 70
     0
 10
0.0
 20
0.0
 30
0.0
  3
*Paper_Space0
  1

  0
ENDBLK
  5
25
330
23
100
AcDbEntity
  8
0
100
AcDbBlockEnd
  0
BLOCK
  5
70
330
6E
100
AcDbEntity
  8
0
100
AcDbBlockBegin
  2
1_069833_2
 70
     2
 10
0.0
 20
0.0
 30
0.0
  3
1_069833_2
  1

  0
ATTDEF
  5
73
330
6E
100
AcDbEntity
  8
AM_6
100
AcDbText
 10
7.619375
 20
6.75
 30
0.0
 40
0.5
  1
Imperial - IP Piloted Flange Contact Seal
100
AcDbAttributeDefinition
  3

  2
NN
 70
     8
280
     0
  0
ATTDEF
  5
74
330
6E
100
AcDbEntity
  8
AM_6
100
AcDbText
 10
7.619375
 20
6.25
 30
0.0
 40
0.5
  1
Imperial Piloted Flange Bearings
100
AcDbAttributeDefinition
  3

  2
NT
 70
     8
280
     0
  0
ATTDEF
  5
75
330
6E
100
AcDbEntity
  8
AM_6
100
AcDbText
 10
7.619375
 20
5.75
 30
0.0
 40
0.5
  1
069833
100
AcDbAttributeDefinition
  3

  2
NB
 70
     8
280
     0
  0
ATTDEF
  5
76
330
6E
100
AcDbEntity
  8
AM_6
100
AcDbText
 10
7.619375
 20
5.25
 30
0.0
 40
0.5
  1
$PN.
100
AcDbAttributeDefinition
  3

  2
NBSYN
 70
     8
280
     0
  0
ATTDEF
  5
77
330
6E
100
AcDbEntity
  8
AM_6
100
AcDbText
 10
7.619375
 20
4.75
 30
0.0
 40
0.5
  1
069833
100
AcDbAttributeDefinition
  3

  2
LINA
 70
     8
280
     0
  0
ATTDEF
  5
78
330
6E
100
AcDbEntity
  8
AM_6
100
AcDbText
 10
7.619375
 20
4.25
 30
0.0
 40
0.5
  1
4-7/16
100
AcDbAttributeDefinition
  3

  2
SS
 70
     8
280
     0
  0
ATTDEF
  5
79
330
6E
100
AcDbEntity
  8
AM_6
100
AcDbText
 10
7.619375
 20
3.75
 30
0.0
 40
0.5
  1
069833
100
AcDbAttributeDefinition
  3

  2
PN
 70
     8
280
     0
  0
ATTDEF
  5
7A
330
6E
100
AcDbEntity
  8
AM_6
100
AcDbText
 10
7.619375
 20
3.25
 30
0.0
 40
0.5
  1
FC-IP-407R
100
AcDbAttributeDefinition
  3

  2
DESCRIPTION
 70
     8
280
     0
  0
ATTDEF
  5
7B
330
6E
100
AcDbEntity
  8
AM_6
100
AcDbText
 10
7.619375
 20
2.75
 30
0.0
 40
0.5
  1
Non-Expansion Type
100
AcDbAttributeDefinition
  3

  2
EF
 70
     8
280
     0
  0
ATTDEF
  5
7C
330
6E
100
AcDbEntity
  8
AM_6
100
AcDbText
 10
7.619375
 20
2.25
 30
0.0
 40
0.5
  1
Contact  Seal
100
AcDbAttributeDefinition
  3

  2
ST
 70
     8
280
     0
  0
ATTDEF
  5
7D
330
6E
100
AcDbEntity
  8
AM_6
100
AcDbText
 10
7.619375
 20
1.75
 30
0.0
 40
0.5
  1
5-15/64
100
AcDbAttributeDefinition
  3

  2
A
 70
     8
280
     0
  0
ATTDEF
  5
7E
330
6E
100
AcDbEntity
  8
AM_6
100
AcDbText
 10
7.619375
 20
1.25
 30
0.0
 40
0.5
  1
13-1/2
100
AcDbAttributeDefinition
  3

  2
B
 70
     8
280
     0
  0
ATTDEF
  5
7F
330
6E
100
AcDbEntity
  8
AM_6
100
AcDbText
 10
7.619375
 20
0.75
 30
0.0
 40
0.5
  1
4
100
AcDbAttributeDefinition
  3

  2
C
 70
     8
280
     0
  0
ATTDEF
  5
80
330
6E
100
AcDbEntity
  8
AM_6
100
AcDbText
 10
7.619375
 20
0.25
 30
0.0
 40
0.5
  1
8-5/16
100
AcDbAttributeDefinition
  3

  2
D
 70
     8
280
     0
  0
ATTDEF
  5
81
330
6E
100
AcDbEntity
  8
AM_6
100
AcDbText
 10
7.619375
 20
-0.25
 30
0.0
 40
0.5
  1
11-3/4
100
AcDbAttributeDefinition
  3

  2
DD
 70
     8
280
     0
  0
ATTDEF
  5
82
330
6E
100
AcDbEntity
  8
AM_6
100
AcDbText
 10
7.619375
 20
-0.75
 30
0.0
 40
0.5
  1
1-29/64
100
AcDbAttributeDefinition
  3

  2
E
 70
     8
280
     0
  0
ATTDEF
  5
83
330
6E
100
AcDbEntity
  8
AM_6
100
AcDbText
 10
7.619375
 20
-1.25
 30
0.0
 40
0.5
  1
3/4
100
AcDbAttributeDefinition
  3

  2
F
 70
     8
280
     0
  0
ATTDEF
  5
84
330
6E
100
AcDbEntity
  8
AM_6
100
AcDbText
 10
7.619375
 20
-1.75
 30
0.0
 40
0.5
  1
3-9/16
100
AcDbAttributeDefinition
  3

  2
G
 70
     8
280
     0
  0
ATTDEF
  5
85
330
6E
100
AcDbEntity
  8
AM_6
100
AcDbText
 10
7.619375
 20
-2.25
 30
0.0
 40
0.5
  1
1
100
AcDbAttributeDefinition
  3

  2
H
 70
     8
280
     0
  0
ATTDEF
  5
86
330
6E
100
AcDbEntity
  8
AM_6
100
AcDbText
 10
7.619375
 20
-2.75
 30
0.0
 40
0.5
  1
10.250
100
AcDbAttributeDefinition
  3

  2
K
 70
     8
280
     0
  0
ATTDEF
  5
87
330
6E
100
AcDbEntity
  8
AM_6
100
AcDbText
 10
7.619375
 20
-3.25
 30
0.0
 40
0.5
  1
6-7/16
100
AcDbAttributeDefinition
  3

  2
L
 70
     8
280
     0
  0
ATTDEF
  5
88
330
6E
100
AcDbEntity
  8
AM_6
100
AcDbText
 10
7.619375
 20
-3.75
 30
0.0
 40
0.5
  1
3/4-10
100
AcDbAttributeDefinition
  3

  2
M
 70
     8
280
     0
  0
ATTDEF
  5
89
330
6E
100
AcDbEntity
  8
AM_6
100
AcDbText
 10
7.619375
 20
-4.25
 30
0.0
 40
0.5
  1
5-35/64
100
AcDbAttributeDefinition
  3

  2
N
 70
     8
280
     0
  0
ATTDEF
  5
8A
330
6E
100
AcDbEntity
  8
AM_6
100
AcDbText
 10
7.619375
 20
-4.75
 30
0.0
 40
0.5
  1
1-43/64
100
AcDbAttributeDefinition
  3

  2
P
 70
     8
280
     0
  0
ATTDEF
  5
8B
330
6E
100
AcDbEntity
  8
AM_6
100
AcDbText
 10
7.619375
 20
-5.25
 30
0.0
 40
0.5
  1
1-63/64
100
AcDbAttributeDefinition
  3

  2
Q
 70
     8
280
     0
  0
ATTDEF
  5
8C
330
6E
100
AcDbEntity
  8
AM_6
100
AcDbText
 10
7.619375
 20
-5.75
 30
0.0
 40
0.5
  1
3/8
100
AcDbAttributeDefinition
  3

  2
X
 70
     8
280
     0
  0
ATTDEF
  5
8D
330
6E
100
AcDbEntity
  8
AM_6
100
AcDbText
 10
7.619375
 20
-6.25
 30
0.0
 40
0.5
  1
0.036
100
AcDbAttributeDefinition
  3

  2
Y
 70
     8
280
     0
  0
ATTDEF
  5
8E
330
6E
100
AcDbEntity
  8
AM_6
100
AcDbText
 10
7.619375
 20
-6.75
 30
0.0
 40
0.5
  1
5
100
AcDbAttributeDefinition
  3

  2
Z
 70
     8
280
     0
  0
ATTDEF
  5
8F
330
6E
100
AcDbEntity
  8
AM_6
100
AcDbText
 10
7.619375
 20
-7.25
 30
0.0
 40
0.5
  1
baldor
100
AcDbAttributeDefinition
  3

  2
COMPANY
 70
     8
280
     0
  0
INSERT
  5
91
330
6E
100
AcDbEntity
  8
0
100
AcDbBlockReference
  2
2_405015E_Inch_0_in_069833_2
 10
0.0
 20
0.0
 30
0.0
  0
INSERT
  5
CD
330
6E
100
AcDbEntity
  8
0
100
AcDbBlockReference
  2
3_ASME_B18_3_1_4_1_0_in_069833_2
 10
0.0
 20
0.0
 30
0.0
  0
INSERT
  5
F1
330
6E
100
AcDbEntity
  8
0
100
AcDbBlockReference
  2
4_ASME_B18_3_1_4_2_0_in_069833_2
 10
0.0
 20
0.0
 30
0.0
  0
INSERT
  5
115
330
6E
100
AcDbEntity
  8
0
100
AcDbBlockReference
  2
5_070908LW_0_in_069833_2
 10
0.0
 20
0.0
 30
0.0
  0
INSERT
  5
14B
330
6E
100
AcDbEntity
  8
0
100
AcDbBlockReference
  2
6_070908I_0_in_069833_2
 10
0.0
 20
0.0
 30
0.0
  0
INSERT
  5
1D2
330
6E
100
AcDbEntity
  8
0
100
AcDbBlockReference
  2
7_069833H_0_in_069833_2
 10
0.0
 20
0.0
 30
0.0
  0
ENDBLK
  5
71
330
6E
100
AcDbEntity
  8
0
100
AcDbBlockEnd
  0
BLOCK
  5
92
330
90
100
AcDbEntity
  8
0
100
AcDbBlockBegin
  2
2_405015E_Inch_0_in_069833_2
 70
     2
 10
0.0
 20
0.0
 30
0.0
  3
2_405015E_Inch_0_in_069833_2
  1

  0
ATTDEF
  5
94
330
90
100
AcDbEntity
  8
AM_6
100
AcDbText
 10
3.67213182583582
 20
6.053207385767141
 30
0.0
 40
0.5
  1
405015E -Inch
100
AcDbAttributeDefinition
  3

  2
NN
 70
     8
280
     0
  0
ATTDEF
  5
95
330
90
100
AcDbEntity
  8
AM_6
100
AcDbText
 10
3.67213182583582
 20
5.553207385767141
 30
0.0
 40
0.5
  1
Grease Fitting
100
AcDbAttributeDefinition
  3

  2
NT
 70
     8
280
     0
  0
ATTDEF
  5
96
330
90
100
AcDbEntity
  8
AM_6
100
AcDbText
 10
3.67213182583582
 20
5.053207385767141
 30
0.0
 40
0.5
  1
405015E-Inch
100
AcDbAttributeDefinition
  3

  2
NB
 70
     8
280
     0
  0
ATTDEF
  5
97
330
90
100
AcDbEntity
  8
AM_6
100
AcDbText
 10
3.67213182583582
 20
4.553207385767141
 30
0.0
 40
0.5
  1
$MN.-Inch
100
AcDbAttributeDefinition
  3

  2
NBSYN
 70
     8
280
     0
  0
ATTDEF
  5
98
330
90
100
AcDbEntity
  8
AM_6
100
AcDbText
 10
3.67213182583582
 20
4.053207385767141
 30
0.0
 40
0.5
  1
405015E
100
AcDbAttributeDefinition
  3

  2
LINA
 70
     8
280
     0
  0
ATTDEF
  5
99
330
90
100
AcDbEntity
  8
AM_6
100
AcDbText
 10
3.67213182583582
 20
3.553207385767141
 30
0.0
 40
0.5
  1
405015E
100
AcDbAttributeDefinition
  3

  2
MN
 70
     8
280
     0
  0
ATTDEF
  5
9A
330
90
100
AcDbEntity
  8
AM_6
100
AcDbText
 10
3.67213182583582
 20
3.053207385767141
 30
0.0
 40
0.5
  1
1/8 x 27PTF
100
AcDbAttributeDefinition
  3

  2
T
 70
     8
280
     0
  0
ATTDEF
  5
9B
330
90
100
AcDbEntity
  8
AM_6
100
AcDbText
 10
3.67213182583582
 20
2.553207385767141
 30
0.0
 40
0.5
  1
baldor
100
AcDbAttributeDefinition
  3

  2
COMPANY
 70
     8
280
     0
  0
LINE
  5
9E
330
90
100
AcDbEntity
  8
AM_9
100
AcDbLine
 10
-1.489771046636449
 20
5.504073713779056
 30
0.0
 11
-1.32786817416418
 21
5.78449771479237
 31
0.0
  0
LINE
  5
9F
330
90
100
AcDbEntity
  8
AM_9
100
AcDbLine
 10
-1.32786817416418
 20
5.78449771479237
 30
0.0
 11
-1.341306706934958
 21
5.834651001872095
 31
0.0
  0
LINE
  5
A0
330
90
100
AcDbEntity
  8
AM_9
100
AcDbLine
 10
-1.539924333716174
 20
5.490635181008278
 30
0.0
 11
-1.489771046636449
 21
5.504073713779056
 31
0.0
  0
LINE
  5
A1
330
90
100
AcDbEntity
  8
AM_9
100
AcDbLine
 10
-1.539924333716174
 20
5.490635181008278
 30
0.0
 11
-1.341306706934958
 21
5.834651001872095
 31
0.0
  0
LINE
  5
A2
330
90
100
AcDbEntity
  8
AM_9
100
AcDbLine
 10
-1.341306706934958
 20
5.834651001872095
 30
0.0
 11
-1.535440393791656
 21
5.954972084157736
 31
0.0
  0
LINE
  5
A3
330
90
100
AcDbEntity
  8
AM_9
100
AcDbLine
 10
-1.741192291014726
 20
5.598599344413691
 30
0.0
 11
-1.539924333716174
 21
5.490635181008278
 31
0.0
  0
LINE
  5
A5
330
90
100
AcDbEntity
  8
AM_5
100
AcDbLine
 10
-1.665986746273282
 20
5.598599344413691
 30
0.0
 11
-1.48977104663645
 21
5.504073713779056
 31
0.0
  0
LINE
  5
A6
330
90
100
AcDbEntity
  8
AM_5
100
AcDbLine
 10
-1.741192291014726
 20
5.598599344413691
 30
0.0
 11
-1.665986746273282
 21
5.598599344413691
 31
0.0
  0
LINE
  5
A7
330
90
100
AcDbEntity
  8
AM_5
100
AcDbLine
 10
-1.48005394097133
 20
5.920644409990484
 30
0.0
 11
-1.683770426722887
 21
5.567797106329406
 31
0.0
  0
LINE
  5
A8
330
90
100
AcDbEntity
  8
AM_5
100
AcDbLine
 10
-1.497837621420934
 20
5.8898421719062
 30
0.0
 11
-1.32786817416418
 21
5.78449771479237
 31
0.0
  0
LINE
  5
A9
330
90
100
AcDbEntity
  8
AM_5
100
AcDbLine
 10
-1.535440393791656
 20
5.954972084157736
 30
0.0
 11
-1.497837621420934
 21
5.8898421719062
 31
0.0
  0
LINE
  5
AC
330
90
100
AcDbEntity
  8
AM_7
100
AcDbLine
 10
-1.990788681743457
 20
5.980285714285714
 30
0.0
 11
-1.381106797479212
 21
5.628285714285714
 31
0.0
  0
LINE
  5
AE
330
90
100
AcDbEntity
  8
AM_4
100
AcDbLine
 10
-1.763351550179
 20
5.970218381683079
 30
0.0
 11
-1.789332312292534
 21
5.98521838168308
 31
0.0
  0
LINE
  5
AF
330
90
100
AcDbEntity
  8
AM_4
100
AcDbLine
 10
-1.894332312292534
 20
5.803353046888347
 30
0.0
 11
-1.868351550179001
 21
5.788353046888347
 31
0.0
  0
LINE
  5
B0
330
90
100
AcDbEntity
  8
AM_4
100
AcDbLine
 10
-1.868351550179001
 20
5.788353046888347
 30
0.0
 11
-1.763351550179
 21
5.970218381683079
 31
0.0
  0
LINE
  5
B1
330
90
100
AcDbEntity
  8
AM_4
100
AcDbLine
 10
-1.868351550179001
 20
5.788353046888347
 30
0.0
 11
-1.847334979675386
 21
5.760261058038607
 31
0.0
  0
LINE
  5
B2
330
90
100
AcDbEntity
  8
AM_4
100
AcDbLine
 10
-1.728514888940488
 20
5.966063492151393
 30
0.0
 11
-1.763351550179
 21
5.970218381683079
 31
0.0
  0
LINE
  5
B3
330
90
100
AcDbEntity
  8
AM_4
100
AcDbLine
 10
-2.014414819788949
 20
5.875364042804286
 30
0.0
 11
-1.911736917855761
 21
6.053207385767141
 31
0.0
  0
LINE
  5
B4
330
90
100
AcDbEntity
  8
AM_4
100
AcDbLine
 10
-2.014414819788949
 20
5.875364042804286
 30
0.0
 11
-1.9612938365196
 21
5.807372284774814
 31
0.0
  0
LINE
  5
B5
330
90
100
AcDbEntity
  8
AM_4
100
AcDbLine
 10
-1.8262938365196
 20
6.041199143796613
 30
0.0
 11
-1.911736917855761
 21
6.053207385767141
 31
0.0
  0
LINE
  5
B6
330
90
100
AcDbEntity
  8
AM_4
100
AcDbLine
 10
-1.9612938365196
 20
5.807372284774814
 30
0.0
 11
-1.8262938365196
 21
6.041199143796613
 31
0.0
  0
LINE
  5
B7
330
90
100
AcDbEntity
  8
AM_4
100
AcDbLine
 10
-1.894332312292534
 20
5.803353046888347
 30
0.0
 11
-1.789332312292534
 21
5.98521838168308
 31
0.0
  0
LINE
  5
B8
330
90
100
AcDbEntity
  8
AM_4
100
AcDbLine
 10
-1.789332312292534
 20
5.98521838168308
 30
0.0
 11
-1.8262938365196
 21
6.041199143796613
 31
0.0
  0
LINE
  5
B9
330
90
100
AcDbEntity
  8
AM_4
100
AcDbLine
 10
-1.9612938365196
 20
5.807372284774814
 30
0.0
 11
-1.894332312292534
 21
5.803353046888347
 31
0.0
  0
LINE
  5
BA
330
90
100
AcDbEntity
  8
AM_4
100
AcDbLine
 10
-1.847334979675386
 20
5.760261058038607
 30
0.0
 11
-1.728514888940488
 21
5.966063492151393
 31
0.0
  0
LINE
  5
BB
330
90
100
AcDbEntity
  8
AM_4
100
AcDbLine
 10
-1.847334979675386
 20
5.760261058038607
 30
0.0
 11
-1.827049934711113
 21
5.686525940395165
 31
0.0
  0
LINE
  5
BC
330
90
100
AcDbEntity
  8
AM_4
100
AcDbLine
 10
-1.654515881428098
 20
5.985363686717144
 30
0.0
 11
-1.728514888940488
 21
5.966063492151393
 31
0.0
  0
LINE
  5
BD
330
90
100
AcDbEntity
  8
AM_4
100
AcDbLine
 10
-1.528941342403191
 20
5.96622877136356
 30
0.0
 11
-1.615543882781634
 21
6.01622877136356
 31
0.0
  0
LINE
  5
BE
330
90
100
AcDbEntity
  8
AM_4
100
AcDbLine
 10
-1.834293882781634
 20
5.637342657207867
 30
0.0
 11
-1.615543882781634
 21
6.01622877136356
 31
0.0
  0
LINE
  5
BF
330
90
100
AcDbEntity
  8
AM_4
100
AcDbLine
 10
-1.834293882781634
 20
5.637342657207867
 30
0.0
 11
-1.747691342403191
 21
5.587342657207867
 31
0.0
  0
LINE
  5
C0
330
90
100
AcDbEntity
  8
AM_4
100
AcDbLine
 10
-1.827049934711113
 20
5.686525940395165
 30
0.0
 11
-1.654515881428098
 21
5.985363686717144
 31
0.0
  0
LINE
  5
C1
330
90
100
AcDbEntity
  8
AM_4
100
AcDbLine
 10
-1.827049934711113
 20
5.686525940395165
 30
0.0
 11
-1.831793882781634
 21
5.64167278422679
 31
0.0
  0
LINE
  5
C2
330
90
100
AcDbEntity
  8
AM_4
100
AcDbLine
 10
-1.618043882781635
 20
6.011898644344638
 30
0.0
 11
-1.654515881428098
 21
5.985363686717144
 31
0.0
  0
LWPOLYLINE
  5
C3
330
90
100
AcDbEntity
  8
AM_4
100
AcDbPolyline
 90
        3
 70
     0
 43
0.0
 10
-1.826441111093018
 20
5.63280885735956
 10
-1.804982037700117
 20
5.683283212253404
 10
-1.779606382781634
 20
5.732064185746791
  0
LWPOLYLINE
  5
C4
330
90
100
AcDbEntity
  8
AM_4
100
AcDbPolyline
 90
        3
 70
     0
 43
0.0
 10
-1.69300384240319
 20
5.682064185746791
 10
-1.72242032096396
 20
5.635900111869846
 10
-1.755544114091807
 20
5.591876457056175
  0
LWPOLYLINE
  5
C5
330
90
100
AcDbEntity
  8
AM_4
100
AcDbPolyline
 90
        3
 70
     0
 43
0.0
 10
-1.646169114091807
 20
5.781319514134021
 10
-1.667628187484708
 20
5.730845159240178
 10
-1.69300384240319
 20
5.682064185746791
  0
LWPOLYLINE
  5
C6
330
90
100
AcDbEntity
  8
AM_4
100
AcDbPolyline
 90
        3
 70
     0
 43
0.0
 10
-1.779606382781634
 20
5.732064185746791
 10
-1.750189904220865
 20
5.778228259623734
 10
-1.717066111093018
 20
5.822251914437406
  0
LWPOLYLINE
  5
C7
330
90
100
AcDbEntity
  8
AM_4
100
AcDbPolyline
 90
        3
 70
     0
 43
0.0
 10
-1.670231382781634
 20
5.921507242824637
 10
-1.640814904220865
 20
5.967671316701581
 10
-1.607691111093018
 20
6.011694971515253
  0
LWPOLYLINE
  5
C8
330
90
100
AcDbEntity
  8
AM_4
100
AcDbPolyline
 90
        3
 70
     0
 43
0.0
 10
-1.717066111093018
 20
5.822251914437406
 10
-1.695607037700117
 20
5.872726269331249
 10
-1.670231382781634
 20
5.921507242824637
  0
LINE
  5
C9
330
90
100
AcDbEntity
  8
AM_4
100
AcDbLine
 10
-1.717066111093018
 20
5.822251914437406
 30
0.0
 11
-1.646169114091807
 21
5.781319514134021
 31
0.0
  0
LWPOLYLINE
  5
CA
330
90
100
AcDbEntity
  8
AM_4
100
AcDbPolyline
 90
        3
 70
     0
 43
0.0
 10
-1.583628842403191
 20
5.871507242824636
 10
-1.61304532096396
 20
5.825343168947692
 10
-1.646169114091807
 20
5.781319514134021
  0
LWPOLYLINE
  5
CB
330
90
100
AcDbEntity
  8
AM_4
100
AcDbPolyline
 90
        3
 70
     0
 43
0.0
 10
-1.536794114091807
 20
5.970762571211867
 10
-1.558253187484708
 20
5.920288216318024
 10
-1.583628842403191
 20
5.871507242824636
  0
ENDBLK
  5
93
330
90
100
AcDbEntity
  8
0
100
AcDbBlockEnd
  0
BLOCK
  5
CE
330
CC
100
AcDbEntity
  8
0
100
AcDbBlockBegin
  2
3_ASME_B18_3_1_4_1_0_in_069833_2
 70
     2
 10
0.0
 20
0.0
 30
0.0
  3
3_ASME_B18_3_1_4_1_0_in_069833_2
  1

  0
ATTDEF
  5
D0
330
CC
100
AcDbEntity
  8
AM_6
100
AcDbText
 10
2.56
 20
-2.623513888888889
 30
0.0
 40
0.5
  1
ANSI/ASME B18.3-1998
100
AcDbAttributeDefinition
  3

  2
NN
 70
     8
280
     0
  0
ATTDEF
  5
D1
330
CC
100
AcDbEntity
  8
AM_6
100
AcDbText
 10
2.56
 20
-3.123513888888889
 30
0.0
 40
0.5
  1
Socket Button Head Cap Screws
100
AcDbAttributeDefinition
  3

  2
NT
 70
     8
280
     0
  0
ATTDEF
  5
D2
330
CC
100
AcDbEntity
  8
AM_6
100
AcDbText
 10
2.56
 20
-3.623513888888889
 30
0.0
 40
0.5
  1
ASME B18.3-1/4
100
AcDbAttributeDefinition
  3

  2
NB
 70
     8
280
     0
  0
ATTDEF
  5
D3
330
CC
100
AcDbEntity
  8
AM_6
100
AcDbText
 10
2.56
 20
-4.123513888888889
 30
0.0
 40
0.5
  1
ASME B18.3-$NS.
100
AcDbAttributeDefinition
  3

  2
NBSYN
 70
     8
280
     0
  0
ATTDEF
  5
D4
330
CC
100
AcDbEntity
  8
AM_6
100
AcDbText
 10
2.56
 20
-4.623513888888889
 30
0.0
 40
0.5
  1
ASME B18.3-1/4
100
AcDbAttributeDefinition
  3

  2
LINA
 70
     8
280
     0
  0
ATTDEF
  5
D5
330
CC
100
AcDbEntity
  8
AM_6
100
AcDbText
 10
2.56
 20
-5.123513888888889
 30
0.0
 40
0.5
  1
1/4
100
AcDbAttributeDefinition
  3

  2
NS
 70
     8
280
     0
  0
ATTDEF
  5
D6
330
CC
100
AcDbEntity
  8
AM_6
100
AcDbText
 10
2.56
 20
-5.623513888888889
 30
0.0
 40
0.5
  1
0.437
100
AcDbAttributeDefinition
  3

  2
A
 70
     8
280
     0
  0
ATTDEF
  5
D7
330
CC
100
AcDbEntity
  8
AM_6
100
AcDbText
 10
2.56
 20
-6.123513888888889
 30
0.0
 40
0.5
  1
0.132
100
AcDbAttributeDefinition
  3

  2
H
 70
     8
280
     0
  0
ATTDEF
  5
D8
330
CC
100
AcDbEntity
  8
AM_6
100
AcDbText
 10
2.56
 20
-6.623513888888889
 30
0.0
 40
0.5
  1
0.800
100
AcDbAttributeDefinition
  3

  2
L
 70
     8
280
     0
  0
ATTDEF
  5
D9
330
CC
100
AcDbEntity
  8
AM_6
100
AcDbText
 10
2.56
 20
-7.123513888888889
 30
0.0
 40
0.5
  1
0.031
100
AcDbAttributeDefinition
  3

  2
S
 70
     8
280
     0
  0
ATTDEF
  5
DA
330
CC
100
AcDbEntity
  8
AM_6
100
AcDbText
 10
2.56
 20
-7.623513888888889
 30
0.0
 40
0.5
  1
0.156250
100
AcDbAttributeDefinition
  3

  2
J
 70
     8
280
     0
  0
ATTDEF
  5
DB
330
CC
100
AcDbEntity
  8
AM_6
100
AcDbText
 10
2.56
 20
-8.123513888888889
 30
0.0
 40
0.5
  1
baldor
100
AcDbAttributeDefinition
  3

  2
COMPANY
 70
     8
280
     0
  0
LINE
  5
DC
330
CC
100
AcDbEntity
  8
AM_9
100
AcDbLine
 10
-3.302
 20
-2.932224868449768
 30
0.0
 11
-3.372
 21
-2.932224868449768
 31
0.0
  0
LINE
  5
DD
330
CC
100
AcDbEntity
  8
AM_9
100
AcDbLine
 10
-3.302
 20
-2.75180290932801
 30
0.0
 11
-3.372
 21
-2.75180290932801
 31
0.0
  0
LINE
  5
DE
330
CC
100
AcDbEntity
  8
AM_9
100
AcDbLine
 10
-3.302
 20
-2.796908399108449
 30
0.0
 11
-3.372
 21
-2.796908399108449
 31
0.0
  0
LINE
  5
DF
330
CC
100
AcDbEntity
  8
AM_9
100
AcDbLine
 10
-3.302
 20
-2.887119378669329
 30
0.0
 11
-3.372
 21
-2.887119378669329
 31
0.0
  0
LINE
  5
E0
330
CC
100
AcDbEntity
  8
AM_9
100
AcDbLine
 10
-3.302
 20
-2.75180290932801
 30
0.0
 11
-3.302
 21
-2.932224868449768
 31
0.0
  0
LINE
  5
E1
330
CC
100
AcDbEntity
  8
AM_9
100
AcDbLine
 10
-2.44
 20
-2.735613888888889
 30
0.0
 11
-2.44
 21
-2.948413888888889
 31
0.0
  0
LINE
  5
E2
330
CC
100
AcDbEntity
  8
AM_9
100
AcDbLine
 10
-2.44
 20
-2.735613888888889
 30
0.0
 11
-2.4586
 21
-2.717013888888889
 31
0.0
  0
LINE
  5
E3
330
CC
100
AcDbEntity
  8
AM_9
100
AcDbLine
 10
-2.4586
 20
-2.967013888888889
 30
0.0
 11
-2.44
 21
-2.948413888888889
 31
0.0
  0
LINE
  5
E4
330
CC
100
AcDbEntity
  8
AM_9
100
AcDbLine
 10
-2.4586
 20
-2.717013888888889
 30
0.0
 11
-2.4586
 21
-2.967013888888889
 31
0.0
  0
LINE
  5
E5
330
CC
100
AcDbEntity
  8
AM_9
100
AcDbLine
 10
-3.24
 20
-2.967013888888889
 30
0.0
 11
-2.4586
 21
-2.967013888888889
 31
0.0
  0
LINE
  5
E6
330
CC
100
AcDbEntity
  8
AM_9
100
AcDbLine
 10
-2.4586
 20
-2.717013888888889
 30
0.0
 11
-3.24
 21
-2.717013888888889
 31
0.0
  0
LINE
  5
E7
330
CC
100
AcDbEntity
  8
AM_5
100
AcDbLine
 10
-3.16
 20
-2.948413888888889
 30
0.0
 11
-3.192216145020781
 21
-2.967013888888889
 31
0.0
  0
LINE
  5
E8
330
CC
100
AcDbEntity
  8
AM_5
100
AcDbLine
 10
-3.16
 20
-2.71701390731727
 30
0.0
 11
-3.16
 21
-2.967013963532771
 31
0.0
  0
LINE
  5
E9
330
CC
100
AcDbEntity
  8
AM_5
100
AcDbLine
 10
-3.16
 20
-2.735613888888889
 30
0.0
 11
-3.192216145020781
 21
-2.717013888888889
 31
0.0
  0
LINE
  5
EA
330
CC
100
AcDbEntity
  8
AM_4
100
AcDbLine
 10
-3.372
 20
-2.724513888888889
 30
0.0
 11
-3.372
 21
-2.959513888888889
 31
0.0
  0
ARC
  5
EB
330
CC
100
AcDbEntity
  8
AM_4
100
AcDbCircle
 10
-3.270999999999999
 20
-2.959513888888889
 30
0.0
 40
0.1010000000000004
100
AcDbArc
 50
180.0
 51
270.0
  0
ARC
  5
EC
330
CC
100
AcDbEntity
  8
AM_4
100
AcDbCircle
 10
-3.270999999999999
 20
-2.72451388888889
 30
0.0
 40
0.1010000000000004
100
AcDbArc
 50
90.0
 51
180.0
  0
LINE
  5
ED
330
CC
100
AcDbEntity
  8
AM_4
100
AcDbLine
 10
-3.271
 20
-2.623513888888889
 30
0.0
 11
-3.271
 21
-3.060513888888889
 31
0.0
  0
LINE
  5
EE
330
CC
100
AcDbEntity
  8
AM_4
100
AcDbLine
 10
-3.271
 20
-3.060513888888889
 30
0.0
 11
-3.24
 21
-3.060513888888889
 31
0.0
  0
LINE
  5
EF
330
CC
100
AcDbEntity
  8
AM_4
100
AcDbLine
 10
-3.24
 20
-2.623513888888889
 30
0.0
 11
-3.271
 21
-2.623513888888889
 31
0.0
  0
ENDBLK
  5
CF
330
CC
100
AcDbEntity
  8
0
100
AcDbBlockEnd
  0
BLOCK
  5
F2
330
F0
100
AcDbEntity
  8
0
100
AcDbBlockBegin
  2
4_ASME_B18_3_1_4_2_0_in_069833_2
 70
     2
 10
0.0
 20
0.0
 30
0.0
  3
4_ASME_B18_3_1_4_2_0_in_069833_2
  1

  0
ATTDEF
  5
F4
330
F0
100
AcDbEntity
  8
AM_6
100
AcDbText
 10
2.56
 20
3.060513888888889
 30
0.0
 40
0.5
  1
ANSI/ASME B18.3-1998
100
AcDbAttributeDefinition
  3

  2
NN
 70
     8
280
     0
  0
ATTDEF
  5
F5
330
F0
100
AcDbEntity
  8
AM_6
100
AcDbText
 10
2.56
 20
2.560513888888889
 30
0.0
 40
0.5
  1
Socket Button Head Cap Screws
100
AcDbAttributeDefinition
  3

  2
NT
 70
     8
280
     0
  0
ATTDEF
  5
F6
330
F0
100
AcDbEntity
  8
AM_6
100
AcDbText
 10
2.56
 20
2.060513888888889
 30
0.0
 40
0.5
  1
ASME B18.3-1/4
100
AcDbAttributeDefinition
  3

  2
NB
 70
     8
280
     0
  0
ATTDEF
  5
F7
330
F0
100
AcDbEntity
  8
AM_6
100
AcDbText
 10
2.56
 20
1.560513888888889
 30
0.0
 40
0.5
  1
ASME B18.3-$NS.
100
AcDbAttributeDefinition
  3

  2
NBSYN
 70
     8
280
     0
  0
ATTDEF
  5
F8
330
F0
100
AcDbEntity
  8
AM_6
100
AcDbText
 10
2.56
 20
1.060513888888889
 30
0.0
 40
0.5
  1
ASME B18.3-1/4
100
AcDbAttributeDefinition
  3

  2
LINA
 70
     8
280
     0
  0
ATTDEF
  5
F9
330
F0
100
AcDbEntity
  8
AM_6
100
AcDbText
 10
2.56
 20
0.560513888888889
 30
0.0
 40
0.5
  1
1/4
100
AcDbAttributeDefinition
  3

  2
NS
 70
     8
280
     0
  0
ATTDEF
  5
FA
330
F0
100
AcDbEntity
  8
AM_6
100
AcDbText
 10
2.56
 20
0.060513888888889
 30
0.0
 40
0.5
  1
0.437
100
AcDbAttributeDefinition
  3

  2
A
 70
     8
280
     0
  0
ATTDEF
  5
FB
330
F0
100
AcDbEntity
  8
AM_6
100
AcDbText
 10
2.56
 20
-0.439486111111111
 30
0.0
 40
0.5
  1
0.132
100
AcDbAttributeDefinition
  3

  2
H
 70
     8
280
     0
  0
ATTDEF
  5
FC
330
F0
100
AcDbEntity
  8
AM_6
100
AcDbText
 10
2.56
 20
-0.939486111111111
 30
0.0
 40
0.5
  1
0.800
100
AcDbAttributeDefinition
  3

  2
L
 70
     8
280
     0
  0
ATTDEF
  5
FD
330
F0
100
AcDbEntity
  8
AM_6
100
AcDbText
 10
2.56
 20
-1.439486111111111
 30
0.0
 40
0.5
  1
0.031
100
AcDbAttributeDefinition
  3

  2
S
 70
     8
280
     0
  0
ATTDEF
  5
FE
330
F0
100
AcDbEntity
  8
AM_6
100
AcDbText
 10
2.56
 20
-1.939486111111111
 30
0.0
 40
0.5
  1
0.156250
100
AcDbAttributeDefinition
  3

  2
J
 70
     8
280
     0
  0
ATTDEF
  5
FF
330
F0
100
AcDbEntity
  8
AM_6
100
AcDbText
 10
2.56
 20
-2.439486111111111
 30
0.0
 40
0.5
  1
baldor
100
AcDbAttributeDefinition
  3

  2
COMPANY
 70
     8
280
     0
  0
LINE
  5
100
330
F0
100
AcDbEntity
  8
AM_9
100
AcDbLine
 10
-3.302
 20
2.932224868449768
 30
0.0
 11
-3.372
 21
2.932224868449768
 31
0.0
  0
LINE
  5
101
330
F0
100
AcDbEntity
  8
AM_9
100
AcDbLine
 10
-3.302
 20
2.75180290932801
 30
0.0
 11
-3.372
 21
2.75180290932801
 31
0.0
  0
LINE
  5
102
330
F0
100
AcDbEntity
  8
AM_9
100
AcDbLine
 10
-3.302
 20
2.887119378669329
 30
0.0
 11
-3.372
 21
2.887119378669329
 31
0.0
  0
LINE
  5
103
330
F0
100
AcDbEntity
  8
AM_9
100
AcDbLine
 10
-3.302
 20
2.932224868449768
 30
0.0
 11
-3.302
 21
2.75180290932801
 31
0.0
  0
LINE
  5
104
330
F0
100
AcDbEntity
  8
AM_9
100
AcDbLine
 10
-3.302
 20
2.796908399108449
 30
0.0
 11
-3.372
 21
2.796908399108449
 31
0.0
  0
LINE
  5
105
330
F0
100
AcDbEntity
  8
AM_9
100
AcDbLine
 10
-2.44
 20
2.948413888888889
 30
0.0
 11
-2.44
 21
2.735613888888889
 31
0.0
  0
LINE
  5
106
330
F0
100
AcDbEntity
  8
AM_9
100
AcDbLine
 10
-2.44
 20
2.948413888888889
 30
0.0
 11
-2.4586
 21
2.967013888888889
 31
0.0
  0
LINE
  5
107
330
F0
100
AcDbEntity
  8
AM_9
100
AcDbLine
 10
-2.4586
 20
2.717013888888889
 30
0.0
 11
-2.44
 21
2.735613888888889
 31
0.0
  0
LINE
  5
108
330
F0
100
AcDbEntity
  8
AM_9
100
AcDbLine
 10
-2.4586
 20
2.967013888888889
 30
0.0
 11
-2.4586
 21
2.717013888888889
 31
0.0
  0
LINE
  5
109
330
F0
100
AcDbEntity
  8
AM_9
100
AcDbLine
 10
-3.24
 20
2.717013888888889
 30
0.0
 11
-2.4586
 21
2.717013888888889
 31
0.0
  0
LINE
  5
10A
330
F0
100
AcDbEntity
  8
AM_9
100
AcDbLine
 10
-2.4586
 20
2.967013888888889
 30
0.0
 11
-3.24
 21
2.967013888888889
 31
0.0
  0
LINE
  5
10B
330
F0
100
AcDbEntity
  8
AM_5
100
AcDbLine
 10
-3.16
 20
2.735613888888889
 30
0.0
 11
-3.192216145020781
 21
2.717013888888889
 31
0.0
  0
LINE
  5
10C
330
F0
100
AcDbEntity
  8
AM_5
100
AcDbLine
 10
-3.16
 20
2.96701396353277
 30
0.0
 11
-3.16
 21
2.717013907317359
 31
0.0
  0
LINE
  5
10D
330
F0
100
AcDbEntity
  8
AM_5
100
AcDbLine
 10
-3.16
 20
2.948413888888889
 30
0.0
 11
-3.192216145020781
 21
2.967013888888889
 31
0.0
  0
LINE
  5
10E
330
F0
100
AcDbEntity
  8
AM_4
100
AcDbLine
 10
-3.372
 20
2.959513888888889
 30
0.0
 11
-3.372
 21
2.724513888888889
 31
0.0
  0
ARC
  5
10F
330
F0
100
AcDbEntity
  8
AM_4
100
AcDbCircle
 10
-3.270999999999999
 20
2.72451388888889
 30
0.0
 40
0.1010000000000009
100
AcDbArc
 50
180.0
 51
270.0
  0
ARC
  5
110
330
F0
100
AcDbEntity
  8
AM_4
100
AcDbCircle
 10
-3.270999999999999
 20
2.959513888888889
 30
0.0
 40
0.101
100
AcDbArc
 50
90.0
 51
180.0
  0
LINE
  5
111
330
F0
100
AcDbEntity
  8
AM_4
100
AcDbLine
 10
-3.271
 20
3.060513888888889
 30
0.0
 11
-3.271
 21
2.623513888888889
 31
0.0
  0
LINE
  5
112
330
F0
100
AcDbEntity
  8
AM_4
100
AcDbLine
 10
-3.271
 20
2.623513888888889
 30
0.0
 11
-3.24
 21
2.623513888888889
 31
0.0
  0
LINE
  5
113
330
F0
100
AcDbEntity
  8
AM_4
100
AcDbLine
 10
-3.24
 20
3.060513888888889
 30
0.0
 11
-3.271
 21
3.060513888888889
 31
0.0
  0
ENDBLK
  5
F3
330
F0
100
AcDbEntity
  8
0
100
AcDbBlockEnd
  0
BLOCK
  5
116
330
114
100
AcDbEntity
  8
0
100
AcDbBlockBegin
  2
5_070908LW_0_in_069833_2
 70
     2
 10
0.0
 20
0.0
 30
0.0
  3
5_070908LW_0_in_069833_2
  1

  0
ATTDEF
  5
118
330
114
100
AcDbEntity
  8
AM_6
100
AcDbText
 10
2.26
 20
3.21875
 30
0.0
 40
0.5
  1
Imperial Insert Lockwasher -Inch
100
AcDbAttributeDefinition
  3

  2
NN
 70
     8
280
     0
  0
ATTDEF
  5
119
330
114
100
AcDbEntity
  8
AM_6
100
AcDbText
 10
2.26
 20
2.71875
 30
0.0
 40
0.5
  1
Imperial Bearings
100
AcDbAttributeDefinition
  3

  2
NT
 70
     8
280
     0
  0
ATTDEF
  5
11A
330
114
100
AcDbEntity
  8
AM_6
100
AcDbText
 10
2.26
 20
2.21875
 30
0.0
 40
0.5
  1
070908LW
100
AcDbAttributeDefinition
  3

  2
NB
 70
     8
280
     0
  0
ATTDEF
  5
11B
330
114
100
AcDbEntity
  8
AM_6
100
AcDbText
 10
2.26
 20
1.71875
 30
0.0
 40
0.5
  1
$PN.LW
100
AcDbAttributeDefinition
  3

  2
NBSYN
 70
     8
280
     0
  0
ATTDEF
  5
11C
330
114
100
AcDbEntity
  8
AM_6
100
AcDbText
 10
2.26
 20
1.21875
 30
0.0
 40
0.5
  1
070908
100
AcDbAttributeDefinition
  3

  2
LINA
 70
     8
280
     0
  0
ATTDEF
  5
11D
330
114
100
AcDbEntity
  8
AM_6
100
AcDbText
 10
2.26
 20
0.71875
 30
0.0
 40
0.5
  1
4-7/16
100
AcDbAttributeDefinition
  3

  2
SS
 70
     8
280
     0
  0
ATTDEF
  5
11E
330
114
100
AcDbEntity
  8
AM_6
100
AcDbText
 10
2.26
 20
0.21875
 30
0.0
 40
0.5
  1
4.437500
100
AcDbAttributeDefinition
  3

  2
SS1
 70
     8
280
     0
  0
ATTDEF
  5
11F
330
114
100
AcDbEntity
  8
AM_6
100
AcDbText
 10
2.26
 20
-0.28125
 30
0.0
 40
0.5
  1
070908
100
AcDbAttributeDefinition
  3

  2
PN
 70
     8
280
     0
  0
ATTDEF
  5
120
330
114
100
AcDbEntity
  8
AM_6
100
AcDbText
 10
2.26
 20
-0.78125
 30
0.0
 40
0.5
  1
INS-IP-407R
100
AcDbAttributeDefinition
  3

  2
DESCRIPTION
 70
     8
280
     0
  0
ATTDEF
  5
121
330
114
100
AcDbEntity
  8
AM_6
100
AcDbText
 10
2.26
 20
-1.28125
 30
0.0
 40
0.5
  1
7.8740
100
AcDbAttributeDefinition
  3

  2
A
 70
     8
280
     0
  0
ATTDEF
  5
122
330
114
100
AcDbEntity
  8
AM_6
100
AcDbText
 10
2.26
 20
-1.78125
 30
0.0
 40
0.5
  1
2-5/32
100
AcDbAttributeDefinition
  3

  2
B
 70
     8
280
     0
  0
ATTDEF
  5
123
330
114
100
AcDbEntity
  8
AM_6
100
AcDbText
 10
2.26
 20
-2.28125
 30
0.0
 40
0.5
  1
5-15/64
100
AcDbAttributeDefinition
  3

  2
C
 70
     8
280
     0
  0
ATTDEF
  5
124
330
114
100
AcDbEntity
  8
AM_6
100
AcDbText
 10
2.26
 20
-2.78125
 30
0.0
 40
0.5
  1
1.935
100
AcDbAttributeDefinition
  3

  2
D
 70
     8
280
     0
  0
ATTDEF
  5
125
330
114
100
AcDbEntity
  8
AM_6
100
AcDbText
 10
2.26
 20
-3.28125
 30
0.0
 40
0.5
  1
6-7/16
100
AcDbAttributeDefinition
  3

  2
E
 70
     8
280
     0
  0
ATTDEF
  5
126
330
114
100
AcDbEntity
  8
AM_6
100
AcDbText
 10
2.26
 20
-3.78125
 30
0.0
 40
0.5
  1
0.2500
100
AcDbAttributeDefinition
  3

  2
NDM
 70
     8
280
     0
  0
ATTDEF
  5
127
330
114
100
AcDbEntity
  8
AM_6
100
AcDbText
 10
2.26
 20
-4.28125
 30
0.0
 40
0.5
  1
0.1960
100
AcDbAttributeDefinition
  3

  2
KDM
 70
     8
280
     0
  0
ATTDEF
  5
128
330
114
100
AcDbEntity
  8
AM_6
100
AcDbText
 10
2.26
 20
-4.78125
 30
0.0
 40
0.5
  1
5.60
100
AcDbAttributeDefinition
  3

  2
AL
 70
     8
280
     0
  0
ATTDEF
  5
129
330
114
100
AcDbEntity
  8
AM_6
100
AcDbText
 10
2.26
 20
-5.28125
 30
0.0
 40
0.5
  1
0.50
100
AcDbAttributeDefinition
  3

  2
BL
 70
     8
280
     0
  0
ATTDEF
  5
12A
330
114
100
AcDbEntity
  8
AM_6
100
AcDbText
 10
2.26
 20
-5.78125
 30
0.0
 40
0.5
  1
0.07
100
AcDbAttributeDefinition
  3

  2
CL
 70
     8
280
     0
  0
ATTDEF
  5
12B
330
114
100
AcDbEntity
  8
AM_6
100
AcDbText
 10
2.26
 20
-6.28125
 30
0.0
 40
0.5
  1
0.50
100
AcDbAttributeDefinition
  3

  2
DL
 70
     8
280
     0
  0
ATTDEF
  5
12C
330
114
100
AcDbEntity
  8
AM_6
100
AcDbText
 10
2.26
 20
-6.78125
 30
0.0
 40
0.5
  1
baldor
100
AcDbAttributeDefinition
  3

  2
COMPANY
 70
     8
280
     0
  0
LINE
  5
12D
330
114
100
AcDbEntity
  8
AM_9
100
AcDbLine
 10
-3.17
 20
2.165215802686831
 30
0.0
 11
-3.24
 21
2.165215802686831
 31
0.0
  0
LINE
  5
12E
330
114
100
AcDbEntity
  8
AM_9
100
AcDbLine
 10
-2.74
 20
2.106816873328723
 30
0.0
 11
-3.17
 21
2.106816873328723
 31
0.0
  0
LINE
  5
12F
330
114
100
AcDbEntity
  8
AM_9
100
AcDbLine
 10
-2.74
 20
1.998766601352861
 30
0.0
 11
-3.24
 21
1.998766601352861
 31
0.0
  0
LINE
  5
130
330
114
100
AcDbEntity
  8
AM_9
100
AcDbLine
 10
-3.17
 20
2.202487731419996
 30
0.0
 11
-2.74
 21
2.202487731419996
 31
0.0
  0
LINE
  5
131
330
114
100
AcDbEntity
  8
AM_9
100
AcDbLine
 10
-2.74
 20
2.094437459444133
 30
0.0
 11
-3.24
 21
2.094437459444133
 31
0.0
  0
LINE
  5
132
330
114
100
AcDbEntity
  8
AM_9
100
AcDbLine
 10
-2.74
 20
1.998766601352861
 30
0.0
 11
-2.74
 21
2.202487731419996
 31
0.0
  0
LINE
  5
133
330
114
100
AcDbEntity
  8
AM_9
100
AcDbLine
 10
-3.17
 20
2.260886660778103
 30
0.0
 11
-3.24
 21
2.260886660778103
 31
0.0
  0
LINE
  5
134
330
114
100
AcDbEntity
  8
AM_9
100
AcDbLine
 10
-3.17
 20
2.842013888888888
 30
0.0
 11
-3.24
 21
2.842013888888888
 31
0.0
  0
LINE
  5
135
330
114
100
AcDbEntity
  8
AM_9
100
AcDbLine
 10
-3.17
 20
2.967044140985962
 30
0.0
 11
-3.24
 21
2.967044140985962
 31
0.0
  0
LINE
  5
136
330
114
100
AcDbEntity
  8
AM_9
100
AcDbLine
 10
-3.17
 20
-2.842013888888888
 30
0.0
 11
-3.24
 21
-2.842013888888888
 31
0.0
  0
LINE
  5
137
330
114
100
AcDbEntity
  8
AM_9
100
AcDbLine
 10
-3.24
 20
-2.969794402693084
 30
0.0
 11
-3.17
 21
-2.969794402693084
 31
0.0
  0
LINE
  5
138
330
114
100
AcDbEntity
  8
AM_9
100
AcDbLine
 10
-3.17
 20
2.395389392074697
 30
0.0
 11
-3.24
 21
2.395389392074697
 31
0.0
  0
LINE
  5
139
330
114
100
AcDbEntity
  8
AM_9
100
AcDbLine
 10
-3.17
 20
-2.395389392074697
 30
0.0
 11
-3.24
 21
-2.395389392074697
 31
0.0
  0
LINE
  5
13A
330
114
100
AcDbEntity
  8
AM_9
100
AcDbLine
 10
-3.17
 20
-1.782184430366658
 30
0.0
 11
-3.24
 21
-1.782184430366658
 31
0.0
  0
LINE
  5
13B
330
114
100
AcDbEntity
  8
AM_9
100
AcDbLine
 10
-3.17
 20
1.782184430366659
 30
0.0
 11
-3.24
 21
1.782184430366664
 31
0.0
  0
LINE
  5
13C
330
114
100
AcDbEntity
  8
AM_9
100
AcDbLine
 10
-3.17
 20
1.605407735070022
 30
0.0
 11
-3.24
 21
1.605407735070022
 31
0.0
  0
LINE
  5
13D
330
114
100
AcDbEntity
  8
AM_9
100
AcDbLine
 10
-3.17
 20
-1.60540773507002
 30
0.0
 11
-3.24
 21
-1.60540773507002
 31
0.0
  0
LINE
  5
13E
330
114
100
AcDbEntity
  8
AM_9
100
AcDbLine
 10
-3.17
 20
2.097995640708003
 30
0.0
 11
-3.24
 21
2.097995640708003
 31
0.0
  0
LINE
  5
13F
330
114
100
AcDbEntity
  8
AM_9
100
AcDbLine
 10
-3.17
 20
1.921218945411366
 30
0.0
 11
-3.24
 21
1.921218945411366
 31
0.0
  0
LINE
  5
140
330
114
100
AcDbEntity
  8
AM_9
100
AcDbLine
 10
-3.17
 20
2.134628685594622
 30
0.0
 11
-3.24
 21
2.134628685594622
 31
0.0
  0
LINE
  5
141
330
114
100
AcDbEntity
  8
AM_9
100
AcDbLine
 10
-3.17
 20
-1.921218945411365
 30
0.0
 11
-3.24
 21
-1.921218945411365
 31
0.0
  0
LINE
  5
142
330
114
100
AcDbEntity
  8
AM_9
100
AcDbLine
 10
-3.17
 20
-2.09799564070799
 30
0.0
 11
-3.24
 21
-2.09799564070799
 31
0.0
  0
LINE
  5
143
330
114
100
AcDbEntity
  8
AM_9
100
AcDbLine
 10
-3.24
 20
-2.13462868559462
 30
0.0
 11
-3.17
 21
-2.13462868559462
 31
0.0
  0
LINE
  5
144
330
114
100
AcDbEntity
  8
AM_9
100
AcDbLine
 10
-3.17
 20
0.125000000000001
 30
0.0
 11
-3.24
 21
0.125000000000001
 31
0.0
  0
LINE
  5
145
330
114
100
AcDbEntity
  8
AM_9
100
AcDbLine
 10
-3.17
 20
-0.1249999999999993
 30
0.0
 11
-3.24
 21
-0.1249999999999993
 31
0.0
  0
LINE
  5
146
330
114
100
AcDbEntity
  8
AM_4
100
AcDbLine
 10
-3.17
 20
3.21875
 30
0.0
 11
-3.24
 21
3.21875
 31
0.0
  0
LINE
  5
147
330
114
100
AcDbEntity
  8
AM_4
100
AcDbLine
 10
-3.24
 20
-3.21875
 30
0.0
 11
-3.17
 21
-3.21875
 31
0.0
  0
LINE
  5
148
330
114
100
AcDbEntity
  8
AM_4
100
AcDbLine
 10
-3.24
 20
3.21875
 30
0.0
 11
-3.24
 21
-3.21875
 31
0.0
  0
LINE
  5
149
330
114
100
AcDbEntity
  8
AM_4
100
AcDbLine
 10
-3.17
 20
3.21875
 30
0.0
 11
-3.17
 21
-3.21875
 31
0.0
  0
ENDBLK
  5
117
330
114
100
AcDbEntity
  8
0
100
AcDbBlockEnd
  0
BLOCK
  5
14C
330
14A
100
AcDbEntity
  8
0
100
AcDbBlockBegin
  2
6_070908I_0_in_069833_2
 70
     2
 10
0.0
 20
0.0
 30
0.0
  3
6_070908I_0_in_069833_2
  1

  0
ATTDEF
  5
14E
330
14A
100
AcDbEntity
  8
AM_6
100
AcDbText
 10
6.707875000000004
 20
3.936999999999999
 30
0.0
 40
0.5
  1
Imperial Insert -Inch
100
AcDbAttributeDefinition
  3

  2
NN
 70
     8
280
     0
  0
ATTDEF
  5
14F
330
14A
100
AcDbEntity
  8
AM_6
100
AcDbText
 10
6.707875000000004
 20
3.436999999999999
 30
0.0
 40
0.5
  1
Imperial Bearings
100
AcDbAttributeDefinition
  3

  2
NT
 70
     8
280
     0
  0
ATTDEF
  5
150
330
14A
100
AcDbEntity
  8
AM_6
100
AcDbText
 10
6.707875000000004
 20
2.936999999999999
 30
0.0
 40
0.5
  1
070908I
100
AcDbAttributeDefinition
  3

  2
NB
 70
     8
280
     0
  0
ATTDEF
  5
151
330
14A
100
AcDbEntity
  8
AM_6
100
AcDbText
 10
6.707875000000004
 20
2.436999999999999
 30
0.0
 40
0.5
  1
$PN.I
100
AcDbAttributeDefinition
  3

  2
NBSYN
 70
     8
280
     0
  0
ATTDEF
  5
152
330
14A
100
AcDbEntity
  8
AM_6
100
AcDbText
 10
6.707875000000004
 20
1.936999999999999
 30
0.0
 40
0.5
  1
070908
100
AcDbAttributeDefinition
  3

  2
LINA
 70
     8
280
     0
  0
ATTDEF
  5
153
330
14A
100
AcDbEntity
  8
AM_6
100
AcDbText
 10
6.707875000000004
 20
1.436999999999999
 30
0.0
 40
0.5
  1
4-7/16
100
AcDbAttributeDefinition
  3

  2
SS
 70
     8
280
     0
  0
ATTDEF
  5
154
330
14A
100
AcDbEntity
  8
AM_6
100
AcDbText
 10
6.707875000000004
 20
0.9369999999999994
 30
0.0
 40
0.5
  1
4.437500
100
AcDbAttributeDefinition
  3

  2
SS1
 70
     8
280
     0
  0
ATTDEF
  5
155
330
14A
100
AcDbEntity
  8
AM_6
100
AcDbText
 10
6.707875000000004
 20
0.4369999999999994
 30
0.0
 40
0.5
  1
070908
100
AcDbAttributeDefinition
  3

  2
PN
 70
     8
280
     0
  0
ATTDEF
  5
156
330
14A
100
AcDbEntity
  8
AM_6
100
AcDbText
 10
6.707875000000004
 20
-0.0630000000000006
 30
0.0
 40
0.5
  1
INS-IP-407R
100
AcDbAttributeDefinition
  3

  2
DESCRIPTION
 70
     8
280
     0
  0
ATTDEF
  5
157
330
14A
100
AcDbEntity
  8
AM_6
100
AcDbText
 10
6.707875000000004
 20
-0.5630000000000006
 30
0.0
 40
0.5
  1
Contact Seal
100
AcDbAttributeDefinition
  3

  2
ST
 70
     8
280
     0
  0
ATTDEF
  5
158
330
14A
100
AcDbEntity
  8
AM_6
100
AcDbText
 10
6.707875000000004
 20
-1.063000000000001
 30
0.0
 40
0.5
  1
7.8740
100
AcDbAttributeDefinition
  3

  2
A
 70
     8
280
     0
  0
ATTDEF
  5
159
330
14A
100
AcDbEntity
  8
AM_6
100
AcDbText
 10
6.707875000000004
 20
-1.563000000000001
 30
0.0
 40
0.5
  1
2-5/32
100
AcDbAttributeDefinition
  3

  2
B
 70
     8
280
     0
  0
ATTDEF
  5
15A
330
14A
100
AcDbEntity
  8
AM_6
100
AcDbText
 10
6.707875000000004
 20
-2.063000000000001
 30
0.0
 40
0.5
  1
5-15/64
100
AcDbAttributeDefinition
  3

  2
C
 70
     8
280
     0
  0
ATTDEF
  5
15B
330
14A
100
AcDbEntity
  8
AM_6
100
AcDbText
 10
6.707875000000004
 20
-2.563000000000001
 30
0.0
 40
0.5
  1
1.935
100
AcDbAttributeDefinition
  3

  2
D
 70
     8
280
     0
  0
ATTDEF
  5
15C
330
14A
100
AcDbEntity
  8
AM_6
100
AcDbText
 10
6.707875000000004
 20
-3.063000000000001
 30
0.0
 40
0.5
  1
6-7/16
100
AcDbAttributeDefinition
  3

  2
E
 70
     8
280
     0
  0
ATTDEF
  5
15D
330
14A
100
AcDbEntity
  8
AM_6
100
AcDbText
 10
6.707875000000004
 20
-3.563000000000001
 30
0.0
 40
0.5
  1
0.2500
100
AcDbAttributeDefinition
  3

  2
NDM
 70
     8
280
     0
  0
ATTDEF
  5
15E
330
14A
100
AcDbEntity
  8
AM_6
100
AcDbText
 10
6.707875000000004
 20
-4.063000000000001
 30
0.0
 40
0.5
  1
0.132
100
AcDbAttributeDefinition
  3

  2
H
 70
     8
280
     0
  0
ATTDEF
  5
15F
330
14A
100
AcDbEntity
  8
AM_6
100
AcDbText
 10
6.707875000000004
 20
-4.563000000000001
 30
0.0
 40
0.5
  1
0.1960
100
AcDbAttributeDefinition
  3

  2
KDM
 70
     8
280
     0
  0
ATTDEF
  5
160
330
14A
100
AcDbEntity
  8
AM_6
100
AcDbText
 10
6.707875000000004
 20
-5.063000000000001
 30
0.0
 40
0.5
  1
5.60
100
AcDbAttributeDefinition
  3

  2
AL
 70
     8
280
     0
  0
ATTDEF
  5
161
330
14A
100
AcDbEntity
  8
AM_6
100
AcDbText
 10
6.707875000000004
 20
-5.563000000000001
 30
0.0
 40
0.5
  1
0.50
100
AcDbAttributeDefinition
  3

  2
BL
 70
     8
280
     0
  0
ATTDEF
  5
162
330
14A
100
AcDbEntity
  8
AM_6
100
AcDbText
 10
6.707875000000004
 20
-6.063000000000001
 30
0.0
 40
0.5
  1
0.07
100
AcDbAttributeDefinition
  3

  2
CL
 70
     8
280
     0
  0
ATTDEF
  5
163
330
14A
100
AcDbEntity
  8
AM_6
100
AcDbText
 10
6.707875000000004
 20
-6.563000000000001
 30
0.0
 40
0.5
  1
0.50
100
AcDbAttributeDefinition
  3

  2
DL
 70
     8
280
     0
  0
ATTDEF
  5
164
330
14A
100
AcDbEntity
  8
AM_6
100
AcDbText
 10
6.707875000000004
 20
-7.063000000000001
 30
0.0
 40
0.5
  1
0.8000
100
AcDbAttributeDefinition
  3

  2
LL
 70
     8
280
     0
  0
ATTDEF
  5
165
330
14A
100
AcDbEntity
  8
AM_6
100
AcDbText
 10
6.707875000000004
 20
-7.563000000000001
 30
0.0
 40
0.5
  1
0.036
100
AcDbAttributeDefinition
  3

  2
Y
 70
     8
280
     0
  0
ATTDEF
  5
166
330
14A
100
AcDbEntity
  8
AM_6
100
AcDbText
 10
6.707875000000004
 20
-8.063
 30
0.0
 40
0.5
  1
0.036000
100
AcDbAttributeDefinition
  3

  2
Y1
 70
     8
280
     0
  0
ATTDEF
  5
167
330
14A
100
AcDbEntity
  8
AM_6
100
AcDbText
 10
6.707875000000004
 20
-8.563
 30
0.0
 40
0.5
  1
5
100
AcDbAttributeDefinition
  3

  2
Z
 70
     8
280
     0
  0
ATTDEF
  5
168
330
14A
100
AcDbEntity
  8
AM_6
100
AcDbText
 10
6.707875000000004
 20
-9.063
 30
0.0
 40
0.5
  1
5.000000
100
AcDbAttributeDefinition
  3

  2
Z1
 70
     8
280
     0
  0
ATTDEF
  5
169
330
14A
100
AcDbEntity
  8
AM_6
100
AcDbText
 10
6.707875000000004
 20
-9.563
 30
0.0
 40
0.5
  1
baldor
100
AcDbAttributeDefinition
  3

  2
COMPANY
 70
     8
280
     0
  0
LINE
  5
16A
330
14A
100
AcDbEntity
  8
AM_9
100
AcDbLine
 10
0.8149999999999995
 20
2.208189140102027
 30
0.0
 11
-3.169999999999999
 21
2.208189140102027
 31
0.0
  0
LINE
  5
16B
330
14A
100
AcDbEntity
  8
AM_9
100
AcDbLine
 10
0.8149999999999995
 20
2.112518282010754
 30
0.0
 11
-3.169999999999999
 21
2.112518282010754
 31
0.0
  0
LINE
  5
16C
330
14A
100
AcDbEntity
  8
AM_9
100
AcDbLine
 10
-2.330000000000007
 20
-2.842013888888889
 30
0.0
 11
-2.375674835116271
 21
-2.744063888888889
 31
0.0
  0
LINE
  5
16D
330
14A
100
AcDbEntity
  8
AM_9
100
AcDbLine
 10
-2.375674835116271
 20
-2.939963888888889
 30
0.0
 11
-2.330000000000007
 21
-2.842013888888889
 31
0.0
  0
LINE
  5
16E
330
14A
100
AcDbEntity
  8
AM_9
100
AcDbLine
 10
-2.33
 20
2.842013888888889
 30
0.0
 11
-2.375674835116281
 21
2.939963888888889
 31
0.0
  0
LINE
  5
16F
330
14A
100
AcDbEntity
  8
AM_9
100
AcDbLine
 10
-2.375674835116281
 20
2.744063888888889
 30
0.0
 11
-2.33
 21
2.842013888888889
 31
0.0
  0
LINE
  5
170
330
14A
100
AcDbEntity
  8
AM_9
100
AcDbLine
 10
-3.142949999999994
 20
-2.939963888888889
 30
0.0
 11
-2.375674835116271
 21
-2.939963888888889
 31
0.0
  0
LINE
  5
171
330
14A
100
AcDbEntity
  8
AM_9
100
AcDbLine
 10
-2.375674835116271
 20
-2.744063888888889
 30
0.0
 11
-3.142949999999994
 21
-2.744063888888889
 31
0.0
  0
LINE
  5
172
330
14A
100
AcDbEntity
  8
AM_9
100
AcDbLine
 10
-2.375674835116271
 20
-2.744063888888889
 30
0.0
 11
-2.375674835116271
 21
-2.939963888888889
 31
0.0
  0
LINE
  5
173
330
14A
100
AcDbEntity
  8
AM_9
100
AcDbLine
 10
-2.375674835116281
 20
2.744063888888889
 30
0.0
 11
-2.375674835116281
 21
2.939963888888889
 31
0.0
  0
LINE
  5
174
330
14A
100
AcDbEntity
  8
AM_9
100
AcDbLine
 10
-2.375674835116281
 20
2.939963888888889
 30
0.0
 11
-3.14295
 21
2.939963888888889
 31
0.0
  0
LINE
  5
175
330
14A
100
AcDbEntity
  8
AM_9
100
AcDbLine
 10
-3.14295
 20
2.744063888888889
 30
0.0
 11
-2.375674835116281
 21
2.744063888888889
 31
0.0
  0
LINE
  5
176
330
14A
100
AcDbEntity
  8
AM_9
100
AcDbLine
 10
-3.14295
 20
2.744063888888889
 30
0.0
 11
-3.14295
 21
2.939963888888889
 31
0.0
  0
LINE
  5
177
330
14A
100
AcDbEntity
  8
AM_9
100
AcDbLine
 10
-3.14295
 20
2.939963888888889
 30
0.0
 11
-3.17
 21
2.967013888888889
 31
0.0
  0
LINE
  5
178
330
14A
100
AcDbEntity
  8
AM_9
100
AcDbLine
 10
-3.17
 20
2.717013888888889
 30
0.0
 11
-3.14295
 21
2.744063888888889
 31
0.0
  0
LINE
  5
179
330
14A
100
AcDbEntity
  8
AM_9
100
AcDbLine
 10
-3.142949999999994
 20
-2.744063888888889
 30
0.0
 11
-3.169999999999999
 21
-2.717013888888889
 31
0.0
  0
LINE
  5
17A
330
14A
100
AcDbEntity
  8
AM_9
100
AcDbLine
 10
-3.169999999999999
 20
-2.967013888888889
 30
0.0
 11
-3.142949999999994
 21
-2.939963888888889
 31
0.0
  0
LINE
  5
17B
330
14A
100
AcDbEntity
  8
AM_9
100
AcDbLine
 10
-3.142949999999994
 20
-2.744063888888889
 30
0.0
 11
-3.142949999999994
 21
-2.939963888888889
 31
0.0
  0
LINE
  5
17C
330
14A
100
AcDbEntity
  8
AM_9
100
AcDbLine
 10
-2.669999999999999
 20
1.803122292025696
 30
0.0
 11
-3.17
 21
1.803122292025696
 31
0.0
  0
LINE
  5
17D
330
14A
100
AcDbEntity
  8
AM_9
100
AcDbLine
 10
-2.669999999999999
 20
-1.803122292025696
 30
0.0
 11
-3.17
 21
-1.803122292025696
 31
0.0
  0
LINE
  5
17E
330
14A
100
AcDbEntity
  8
AM_9
100
AcDbLine
 10
0.8149999999999995
 20
2.094437459444133
 30
0.0
 11
-3.5625
 21
2.094437459444134
 31
0.0
  0
LINE
  5
17F
330
14A
100
AcDbEntity
  8
AM_9
100
AcDbLine
 10
-3.5625
 20
1.998766601352861
 30
0.0
 11
0.8149999999999995
 21
1.99876660135286
 31
0.0
  0
LINE
  5
180
330
14A
100
AcDbEntity
  8
AM_9
100
AcDbLine
 10
0.8150000000000001
 20
2.21875
 30
0.0
 11
-3.562499999999999
 21
2.21875
 31
0.0
  0
LINE
  5
181
330
14A
100
AcDbEntity
  8
AM_9
100
AcDbLine
 10
-3.562499999999999
 20
-2.21875
 30
0.0
 11
0.8150000000000001
 21
-2.21875
 31
0.0
  0
LINE
  5
182
330
14A
100
AcDbEntity
  8
AM_9
100
AcDbLine
 10
1.671875000000001
 20
2.335526315789474
 30
0.0
 11
0.8150000000000001
 21
2.335526315789474
 31
0.0
  0
LINE
  5
183
330
14A
100
AcDbEntity
  8
AM_9
100
AcDbLine
 10
0.8150000000000001
 20
-2.335526315789474
 30
0.0
 11
1.671875000000001
 21
-2.335526315789474
 31
0.0
  0
LINE
  5
184
330
14A
100
AcDbEntity
  8
AM_9
100
AcDbLine
 10
-3.5625
 20
2.202487731419996
 30
0.0
 11
-3.17
 21
2.202487731419996
 31
0.0
  0
LINE
  5
185
330
14A
100
AcDbEntity
  8
AM_9
100
AcDbLine
 10
-3.17
 20
2.106816873328723
 30
0.0
 11
-3.5625
 21
2.106816873328723
 31
0.0
  0
LINE
  5
186
330
14A
100
AcDbEntity
  8
AM_9
100
AcDbLine
 10
-3.17
 20
2.335526315789474
 30
0.0
 11
-3.24
 21
2.335526315789474
 31
0.0
  0
LINE
  5
187
330
14A
100
AcDbEntity
  8
AM_9
100
AcDbLine
 10
-3.24
 20
-2.335526315789474
 30
0.0
 11
-3.17
 21
-2.335526315789474
 31
0.0
  0
LINE
  5
188
330
14A
100
AcDbEntity
  8
AM_9
100
AcDbLine
 10
-2.669999999999999
 20
-1.803122292025696
 30
0.0
 11
-2.669999999999999
 21
-2.104731320724462
 31
0.0
  0
LINE
  5
189
330
14A
100
AcDbEntity
  8
AM_9
100
AcDbLine
 10
-2.669999999999999
 20
2.104731320724462
 30
0.0
 11
-2.669999999999999
 21
1.803122292025696
 31
0.0
  0
LINE
  5
18A
330
14A
100
AcDbEntity
  8
AM_9
100
AcDbLine
 10
1.671875000000001
 20
-2.5
 30
0.0
 11
1.671875000000001
 21
2.5
 31
0.0
  0
LINE
  5
18B
330
14A
100
AcDbEntity
  8
AM_9
100
AcDbLine
 10
1.707875000000004
 20
2.5
 30
0.0
 11
1.671875000000001
 21
2.5
 31
0.0
  0
LINE
  5
18C
330
14A
100
AcDbEntity
  8
AM_9
100
AcDbLine
 10
1.671875000000001
 20
-2.5
 30
0.0
 11
1.707875000000004
 21
-2.5
 31
0.0
  0
LINE
  5
18D
330
14A
100
AcDbEntity
  8
AM_9
100
AcDbLine
 10
1.707875
 20
-2.713675213675213
 30
0.0
 11
1.707875
 21
2.713675213675213
 31
0.0
  0
ARC
  5
18E
330
14A
100
AcDbEntity
  8
AM_9
100
AcDbCircle
 10
1.643772435897436
 20
2.713675213675213
 30
0.0
 40
0.0641025641025641
100
AcDbArc
 50
0.0
 51
90.0
  0
ARC
  5
18F
330
14A
100
AcDbEntity
  8
AM_9
100
AcDbCircle
 10
1.643772435897436
 20
-2.713675213675213
 30
0.0
 40
0.0641025641025643
100
AcDbArc
 50
270.0
 51
0.0
  0
LINE
  5
190
330
14A
100
AcDbEntity
  8
AM_9
100
AcDbLine
 10
1.643772435897437
 20
-2.777777777777778
 30
0.0
 11
1.643772435897437
 21
2.777777777777778
 31
0.0
  0
LINE
  5
191
330
14A
100
AcDbEntity
  8
AM_9
100
AcDbLine
 10
1.643772435897437
 20
2.777777777777778
 30
0.0
 11
1.24625
 21
2.777777777777778
 31
0.0
  0
LINE
  5
192
330
14A
100
AcDbEntity
  8
AM_9
100
AcDbLine
 10
1.24625
 20
-2.777777777777778
 30
0.0
 11
1.643772435897437
 21
-2.777777777777778
 31
0.0
  0
LINE
  5
193
330
14A
100
AcDbEntity
  8
AM_9
100
AcDbLine
 10
-2.015625
 20
-3.25906166328204
 30
0.0
 11
-1.34125
 21
-3.282611357208038
 31
0.0
  0
LINE
  5
194
330
14A
100
AcDbEntity
  8
AM_9
100
AcDbLine
 10
-1.34125
 20
3.282611357208038
 30
0.0
 11
-2.015625
 21
3.25906166328204
 31
0.0
  0
LINE
  5
195
330
14A
100
AcDbEntity
  8
AM_9
100
AcDbLine
 10
1.24625
 20
-3.430282670983127
 30
0.0
 11
1.24625
 21
3.430282670983127
 31
0.0
  0
ARC
  5
196
330
14A
100
AcDbEntity
  8
AM_9
100
AcDbCircle
 10
1.14625
 20
3.430282669493011
 30
0.0
 40
0.1000000000000001
100
AcDbArc
 50
0.0
 51
59.99999999999986
  0
ARC
  5
197
330
14A
100
AcDbEntity
  8
AM_9
100
AcDbCircle
 10
1.146249999999998
 20
-3.43028266949301
 30
0.0
 40
0.1000000000000013
100
AcDbArc
 50
300.0000000000008
 51
0.0
  0
LINE
  5
198
330
14A
100
AcDbEntity
  8
AM_9
100
AcDbLine
 10
1.19625
 20
-3.516885209871455
 30
0.0
 11
1.19625
 21
3.516885209871455
 31
0.0
  0
LINE
  5
199
330
14A
100
AcDbEntity
  8
AM_9
100
AcDbLine
 10
1.19625
 20
3.516885209871455
 30
0.0
 11
0.8150000000000001
 21
3.737
 31
0.0
  0
LINE
  5
19A
330
14A
100
AcDbEntity
  8
AM_9
100
AcDbLine
 10
0.8150000000000001
 20
-3.737
 30
0.0
 11
1.19625
 21
-3.516885209871455
 31
0.0
  0
LINE
  5
19B
330
14A
100
AcDbEntity
  8
AM_9
100
AcDbLine
 10
-0.2008794241029933
 20
3.8291875
 30
0.0
 11
-0.3253705758970062
 21
3.8291875
 31
0.0
  0
LINE
  5
19C
330
14A
100
AcDbEntity
  8
AM_9
100
AcDbLine
 10
-0.3253705758970062
 20
-3.8291875
 30
0.0
 11
-0.2008794241029933
 21
-3.8291875
 31
0.0
  0
LINE
  5
19D
330
14A
100
AcDbEntity
  8
AM_9
100
AcDbLine
 10
0.8150000000000001
 20
-3.887
 30
0.0
 11
0.8150000000000001
 21
3.887
 31
0.0
  0
ARC
  5
19E
330
14A
100
AcDbEntity
  8
AM_9
100
AcDbCircle
 10
0.7650000000000015
 20
3.887000000000001
 30
0.0
 40
0.0499999999999986
100
AcDbArc
 50
0.0
 51
90.0
  0
ARC
  5
19F
330
14A
100
AcDbEntity
  8
AM_9
100
AcDbCircle
 10
0.7650000000000015
 20
-3.887000000000001
 30
0.0
 40
0.049999999999998
100
AcDbArc
 50
270.0
 51
0.0
  0
LINE
  5
1A0
330
14A
100
AcDbEntity
  8
AM_9
100
AcDbLine
 10
-0.2008794241029933
 20
-3.8291875
 30
0.0
 11
-0.2008794241029933
 21
3.8291875
 31
0.0
  0
LINE
  5
1A1
330
14A
100
AcDbEntity
  8
AM_9
100
AcDbLine
 10
-0.2008794241029933
 20
-3.8291875
 30
0.0
 11
-0.1386338482059871
 21
-3.936999999999999
 31
0.0
  0
LINE
  5
1A2
330
14A
100
AcDbEntity
  8
AM_9
100
AcDbLine
 10
-0.1386338482059871
 20
3.936999999999999
 30
0.0
 11
-0.2008794241029933
 21
3.8291875
 31
0.0
  0
LINE
  5
1A3
330
14A
100
AcDbEntity
  8
AM_9
100
AcDbLine
 10
-0.3253705758970062
 20
-3.8291875
 30
0.0
 11
-0.3253705758970062
 21
3.8291875
 31
0.0
  0
LINE
  5
1A4
330
14A
100
AcDbEntity
  8
AM_9
100
AcDbLine
 10
-0.3253705758970062
 20
3.8291875
 30
0.0
 11
-0.387616151794013
 21
3.936999999999999
 31
0.0
  0
LINE
  5
1A5
330
14A
100
AcDbEntity
  8
AM_9
100
AcDbLine
 10
-0.387616151794013
 20
-3.936999999999999
 30
0.0
 11
-0.3253705758970062
 21
-3.8291875
 31
0.0
  0
LINE
  5
1A6
330
14A
100
AcDbEntity
  8
AM_9
100
AcDbLine
 10
-1.34125
 20
-3.886999999999998
 30
0.0
 11
-1.34125
 21
3.886999999999998
 31
0.0
  0
ARC
  5
1A7
330
14A
100
AcDbEntity
  8
AM_9
100
AcDbCircle
 10
-1.291250000000001
 20
3.887
 30
0.0
 40
0.0499999999999989
100
AcDbArc
 50
90.0
 51
180.0
  0
ARC
  5
1A8
330
14A
100
AcDbEntity
  8
AM_9
100
AcDbCircle
 10
-1.291250000000001
 20
-3.887
 30
0.0
 40
0.0499999999999989
100
AcDbArc
 50
180.0
 51
270.0
  0
LINE
  5
1A9
330
14A
100
AcDbEntity
  8
AM_9
100
AcDbLine
 10
0.7650000000000003
 20
-3.936999999999999
 30
0.0
 11
0.7650000000000003
 21
3.936999999999999
 31
0.0
  0
LINE
  5
1AA
330
14A
100
AcDbEntity
  8
AM_9
100
AcDbLine
 10
-0.1386338482059871
 20
-3.936999999999999
 30
0.0
 11
-0.1386338482059871
 21
3.936999999999999
 31
0.0
  0
LINE
  5
1AB
330
14A
100
AcDbEntity
  8
AM_9
100
AcDbLine
 10
0.7650000000000003
 20
3.936999999999999
 30
0.0
 11
-0.1386338482059871
 21
3.936999999999999
 31
0.0
  0
LINE
  5
1AC
330
14A
100
AcDbEntity
  8
AM_9
100
AcDbLine
 10
-0.1386338482059871
 20
-3.936999999999999
 30
0.0
 11
0.7650000000000003
 21
-3.936999999999999
 31
0.0
  0
LINE
  5
1AD
330
14A
100
AcDbEntity
  8
AM_9
100
AcDbLine
 10
-0.387616151794013
 20
-3.936999999999999
 30
0.0
 11
-0.387616151794013
 21
3.936999999999999
 31
0.0
  0
LINE
  5
1AE
330
14A
100
AcDbEntity
  8
AM_9
100
AcDbLine
 10
-1.29125
 20
-3.936999999999999
 30
0.0
 11
-1.29125
 21
3.936999999999999
 31
0.0
  0
LINE
  5
1AF
330
14A
100
AcDbEntity
  8
AM_9
100
AcDbLine
 10
-0.387616151794013
 20
3.936999999999999
 30
0.0
 11
-1.29125
 21
3.936999999999999
 31
0.0
  0
LINE
  5
1B0
330
14A
100
AcDbEntity
  8
AM_9
100
AcDbLine
 10
-1.29125
 20
-3.936999999999999
 30
0.0
 11
-0.387616151794013
 21
-3.936999999999999
 31
0.0
  0
LINE
  5
1B1
330
14A
100
AcDbEntity
  8
AM_5
100
AcDbLine
 10
-2.409999999999999
 20
2.939963888888889
 30
0.0
 11
-2.409999999999999
 21
2.967013888888889
 31
0.0
  0
LINE
  5
1B2
330
14A
100
AcDbEntity
  8
AM_5
100
AcDbLine
 10
-2.409999999999999
 20
2.967013888888889
 30
0.0
 11
-2.394382675218421
 21
2.939963888888889
 31
0.0
  0
LINE
  5
1B3
330
14A
100
AcDbEntity
  8
AM_5
100
AcDbLine
 10
-2.409999999999999
 20
2.744063888888889
 30
0.0
 11
-2.409999999999999
 21
2.717013888888889
 31
0.0
  0
LINE
  5
1B4
330
14A
100
AcDbEntity
  8
AM_5
100
AcDbLine
 10
-2.409999999999999
 20
2.717013888888889
 30
0.0
 11
-2.394382675218421
 21
2.744063888888889
 31
0.0
  0
LINE
  5
1B5
330
14A
100
AcDbEntity
  8
AM_5
100
AcDbLine
 10
-2.410000000000003
 20
-2.939963888888889
 30
0.0
 11
-2.410000000000003
 21
-2.967013888888889
 31
0.0
  0
LINE
  5
1B6
330
14A
100
AcDbEntity
  8
AM_5
100
AcDbLine
 10
-2.410000000000003
 20
-2.967013888888889
 30
0.0
 11
-2.394382675218422
 21
-2.939963888888889
 31
0.0
  0
LINE
  5
1B7
330
14A
100
AcDbEntity
  8
AM_5
100
AcDbLine
 10
-2.410000000000003
 20
-2.744063888888889
 30
0.0
 11
-2.410000000000003
 21
-2.717013888888889
 31
0.0
  0
LINE
  5
1B8
330
14A
100
AcDbEntity
  8
AM_5
100
AcDbLine
 10
-2.410000000000003
 20
-2.717013888888889
 30
0.0
 11
-2.394382675218422
 21
-2.744063888888889
 31
0.0
  0
LINE
  5
1B9
330
14A
100
AcDbEntity
  8
AM_7
100
AcDbLine
 10
-2.288
 20
2.842013888888889
 30
0.0
 11
-3.4186
 21
2.842013888888889
 31
0.0
  0
LINE
  5
1BA
330
14A
100
AcDbEntity
  8
AM_7
100
AcDbLine
 10
-2.288000000000007
 20
-2.842013888888889
 30
0.0
 11
-3.4186
 21
-2.842013888888889
 31
0.0
  0
ARC
  5
1BB
330
14A
100
AcDbEntity
  8
AM_4
100
AcDbCircle
 10
-3.119999999999999
 20
-3.170465561259649
 30
0.0
 40
0.0500000000000012
100
AcDbArc
 50
180.0
 51
267.999999999998
  0
ARC
  5
1BC
330
14A
100
AcDbEntity
  8
AM_4
100
AcDbCircle
 10
-3.119999999999999
 20
3.170465561259649
 30
0.0
 40
0.0500000000000008
100
AcDbArc
 50
92.00000000000199
 51
180.0
  0
LWPOLYLINE
  5
1BD
330
14A
100
AcDbEntity
  8
AM_4
100
AcDbPolyline
 90
        6
 70
     0
 43
0.0
 10
-3.121744974835126
 20
-2.447096303867925
 10
-3.138144229136175
 20
-2.444700575480429
 10
-3.152505368853466
 20
-2.438601254882651
 10
-3.163227265277026
 20
-2.429476916689536
 10
-3.169106385331661
 20
-2.418329013760631
 10
-3.17
 20
-2.411653859161965
  0
LWPOLYLINE
  5
1BE
330
14A
100
AcDbEntity
  8
AM_4
100
AcDbPolyline
 90
        6
 70
     0
 43
0.0
 10
-3.17
 20
2.411653859161965
 10
-3.16944893265234
 20
2.416904818123677
 10
-3.164184045278353
 20
2.428254643563232
 10
-3.1539046397095
 20
2.437719425164448
 10
-3.139800574892906
 20
2.444218690395056
 10
-3.121744974835126
 20
2.447096303867924
  0
LINE
  5
1BF
330
14A
100
AcDbEntity
  8
AM_4
100
AcDbLine
 10
-2.669999999999999
 20
2.156675682618969
 30
0.0
 11
-3.17
 21
2.156675682618969
 31
0.0
  0
LINE
  5
1C0
330
14A
100
AcDbEntity
  8
AM_4
100
AcDbLine
 10
-2.669999999999999
 20
-2.15667568261897
 30
0.0
 11
-3.17
 21
-2.15667568261897
 31
0.0
  0
LINE
  5
1C1
330
14A
100
AcDbEntity
  8
AM_4
100
AcDbLine
 10
-3.24
 20
2.335526315789474
 30
0.0
 11
-3.5625
 21
2.335526315789474
 31
0.0
  0
LINE
  5
1C2
330
14A
100
AcDbEntity
  8
AM_4
100
AcDbLine
 10
-3.5625
 20
-2.335526315789474
 30
0.0
 11
-3.24
 21
-2.335526315789474
 31
0.0
  0
LINE
  5
1C3
330
14A
100
AcDbEntity
  8
AM_4
100
AcDbLine
 10
-3.5625
 20
-2.335526315789474
 30
0.0
 11
-3.5625
 21
2.335526315789474
 31
0.0
  0
LWPOLYLINE
  5
1C4
330
14A
100
AcDbEntity
  8
AM_4
100
AcDbPolyline
 90
        6
 70
     0
 43
0.0
 10
-3.121744974835126
 20
2.093542913274651
 10
-3.138144229136175
 20
2.091147184887156
 10
-3.152505368853465
 20
2.085047864289379
 10
-3.163227265277026
 20
2.075923526096263
 10
-3.169106385331661
 20
2.064775623167359
 10
-3.17
 20
2.058100468568692
  0
LWPOLYLINE
  5
1C5
330
14A
100
AcDbEntity
  8
AM_4
100
AcDbPolyline
 90
        6
 70
     0
 43
0.0
 10
-3.17
 20
-2.058100468568691
 10
-3.16944893265234
 20
-2.063351427530405
 10
-3.164184045278354
 20
-2.074701252969958
 10
-3.1539046397095
 20
-2.084166034571175
 10
-3.139800574892906
 20
-2.090665299801784
 10
-3.121744974835126
 20
-2.093542913274652
  0
LINE
  5
1C6
330
14A
100
AcDbEntity
  8
AM_4
100
AcDbLine
 10
-3.121744974835126
 20
-2.093542913274652
 30
0.0
 11
-3.121744974835126
 21
2.093542913274651
 31
0.0
  0
LINE
  5
1C7
330
14A
100
AcDbEntity
  8
AM_4
100
AcDbLine
 10
-3.121744974835126
 20
-2.093542913274652
 30
0.0
 11
-2.669999999999999
 21
-2.104731320724462
 31
0.0
  0
LINE
  5
1C8
330
14A
100
AcDbEntity
  8
AM_4
100
AcDbLine
 10
-2.669999999999999
 20
-2.104731320724462
 30
0.0
 11
-2.669999999999999
 21
-2.458284711317735
 31
0.0
  0
LINE
  5
1C9
330
14A
100
AcDbEntity
  8
AM_4
100
AcDbLine
 10
-2.669999999999999
 20
-2.458284711317735
 30
0.0
 11
-3.121744974835126
 21
-2.447096303867925
 31
0.0
  0
LINE
  5
1CA
330
14A
100
AcDbEntity
  8
AM_4
100
AcDbLine
 10
-3.121744974835126
 20
2.447096303867924
 30
0.0
 11
-3.121744974835126
 21
3.220435102610604
 31
0.0
  0
LINE
  5
1CB
330
14A
100
AcDbEntity
  8
AM_4
100
AcDbLine
 10
-3.121744974835126
 20
2.447096303867924
 30
0.0
 11
-2.669999999999999
 21
2.458284711317735
 31
0.0
  0
LINE
  5
1CC
330
14A
100
AcDbEntity
  8
AM_4
100
AcDbLine
 10
-2.669999999999999
 20
2.458284711317735
 30
0.0
 11
-2.669999999999999
 21
2.104731320724462
 31
0.0
  0
LINE
  5
1CD
330
14A
100
AcDbEntity
  8
AM_4
100
AcDbLine
 10
-2.669999999999999
 20
2.104731320724462
 30
0.0
 11
-3.121744974835126
 21
2.093542913274651
 31
0.0
  0
LINE
  5
1CE
330
14A
100
AcDbEntity
  8
AM_4
100
AcDbLine
 10
-3.121744974835126
 20
-3.220435102610604
 30
0.0
 11
-2.015625
 21
-3.25906166328204
 31
0.0
  0
LINE
  5
1CF
330
14A
100
AcDbEntity
  8
AM_4
100
AcDbLine
 10
-2.015625
 20
3.25906166328204
 30
0.0
 11
-3.121744974835126
 21
3.220435102610604
 31
0.0
  0
LINE
  5
1D0
330
14A
100
AcDbEntity
  8
AM_4
100
AcDbLine
 10
-3.121744974835126
 20
-3.220435102610604
 30
0.0
 11
-3.121744974835126
 21
-2.447096303867925
 31
0.0
  0
ENDBLK
  5
14D
330
14A
100
AcDbEntity
  8
0
100
AcDbBlockEnd
  0
BLOCK
  5
1D3
330
1D1
100
AcDbEntity
  8
0
100
AcDbBlockBegin
  2
7_069833H_0_in_069833_2
 70
     2
 10
0.0
 20
0.0
 30
0.0
  3
7_069833H_0_in_069833_2
  1

  0
ATTDEF
  5
1D5
330
1D1
100
AcDbEntity
  8
AM_6
100
AcDbText
 10
7.619375
 20
6.75
 30
0.0
 40
0.5
  1
FC-IP -(Contact Seal)-Housing -Inch
100
AcDbAttributeDefinition
  3

  2
NN
 70
     8
280
     0
  0
ATTDEF
  5
1D6
330
1D1
100
AcDbEntity
  8
AM_6
100
AcDbText
 10
7.619375
 20
6.25
 30
0.0
 40
0.5
  1
Imperial Piloted Flange Bearings
100
AcDbAttributeDefinition
  3

  2
NT
 70
     8
280
     0
  0
ATTDEF
  5
1D7
330
1D1
100
AcDbEntity
  8
AM_6
100
AcDbText
 10
7.619375
 20
5.75
 30
0.0
 40
0.5
  1
069833H
100
AcDbAttributeDefinition
  3

  2
NB
 70
     8
280
     0
  0
ATTDEF
  5
1D8
330
1D1
100
AcDbEntity
  8
AM_6
100
AcDbText
 10
7.619375
 20
5.25
 30
0.0
 40
0.5
  1
$PN.H
100
AcDbAttributeDefinition
  3

  2
NBSYN
 70
     8
280
     0
  0
ATTDEF
  5
1D9
330
1D1
100
AcDbEntity
  8
AM_6
100
AcDbText
 10
7.619375
 20
4.75
 30
0.0
 40
0.5
  1
069833
100
AcDbAttributeDefinition
  3

  2
LINA
 70
     8
280
     0
  0
ATTDEF
  5
1DA
330
1D1
100
AcDbEntity
  8
AM_6
100
AcDbText
 10
7.619375
 20
4.25
 30
0.0
 40
0.5
  1
4-7/16
100
AcDbAttributeDefinition
  3

  2
SS
 70
     8
280
     0
  0
ATTDEF
  5
1DB
330
1D1
100
AcDbEntity
  8
AM_6
100
AcDbText
 10
7.619375
 20
3.75
 30
0.0
 40
0.5
  1
069833
100
AcDbAttributeDefinition
  3

  2
PN
 70
     8
280
     0
  0
ATTDEF
  5
1DC
330
1D1
100
AcDbEntity
  8
AM_6
100
AcDbText
 10
7.619375
 20
3.25
 30
0.0
 40
0.5
  1
FC-IP-407R
100
AcDbAttributeDefinition
  3

  2
DESCRIPTION
 70
     8
280
     0
  0
ATTDEF
  5
1DD
330
1D1
100
AcDbEntity
  8
AM_6
100
AcDbText
 10
7.619375
 20
2.75
 30
0.0
 40
0.5
  1
Non-Expansion Type
100
AcDbAttributeDefinition
  3

  2
EF
 70
     8
280
     0
  0
ATTDEF
  5
1DE
330
1D1
100
AcDbEntity
  8
AM_6
100
AcDbText
 10
7.619375
 20
2.25
 30
0.0
 40
0.5
  1
Contact  Seal
100
AcDbAttributeDefinition
  3

  2
ST
 70
     8
280
     0
  0
ATTDEF
  5
1DF
330
1D1
100
AcDbEntity
  8
AM_6
100
AcDbText
 10
7.619375
 20
1.75
 30
0.0
 40
0.5
  1
5-15/64
100
AcDbAttributeDefinition
  3

  2
A
 70
     8
280
     0
  0
ATTDEF
  5
1E0
330
1D1
100
AcDbEntity
  8
AM_6
100
AcDbText
 10
7.619375
 20
1.25
 30
0.0
 40
0.5
  1
13-1/2
100
AcDbAttributeDefinition
  3

  2
B
 70
     8
280
     0
  0
ATTDEF
  5
1E1
330
1D1
100
AcDbEntity
  8
AM_6
100
AcDbText
 10
7.619375
 20
0.75
 30
0.0
 40
0.5
  1
4
100
AcDbAttributeDefinition
  3

  2
C
 70
     8
280
     0
  0
ATTDEF
  5
1E2
330
1D1
100
AcDbEntity
  8
AM_6
100
AcDbText
 10
7.619375
 20
0.25
 30
0.0
 40
0.5
  1
8-5/16
100
AcDbAttributeDefinition
  3

  2
D
 70
     8
280
     0
  0
ATTDEF
  5
1E3
330
1D1
100
AcDbEntity
  8
AM_6
100
AcDbText
 10
7.619375
 20
-0.25
 30
0.0
 40
0.5
  1
11-3/4
100
AcDbAttributeDefinition
  3

  2
DD
 70
     8
280
     0
  0
ATTDEF
  5
1E4
330
1D1
100
AcDbEntity
  8
AM_6
100
AcDbText
 10
7.619375
 20
-0.75
 30
0.0
 40
0.5
  1
1-29/64
100
AcDbAttributeDefinition
  3

  2
E
 70
     8
280
     0
  0
ATTDEF
  5
1E5
330
1D1
100
AcDbEntity
  8
AM_6
100
AcDbText
 10
7.619375
 20
-1.25
 30
0.0
 40
0.5
  1
3/4
100
AcDbAttributeDefinition
  3

  2
F
 70
     8
280
     0
  0
ATTDEF
  5
1E6
330
1D1
100
AcDbEntity
  8
AM_6
100
AcDbText
 10
7.619375
 20
-1.75
 30
0.0
 40
0.5
  1
3-9/16
100
AcDbAttributeDefinition
  3

  2
G
 70
     8
280
     0
  0
ATTDEF
  5
1E7
330
1D1
100
AcDbEntity
  8
AM_6
100
AcDbText
 10
7.619375
 20
-2.25
 30
0.0
 40
0.5
  1
1
100
AcDbAttributeDefinition
  3

  2
H
 70
     8
280
     0
  0
ATTDEF
  5
1E8
330
1D1
100
AcDbEntity
  8
AM_6
100
AcDbText
 10
7.619375
 20
-2.75
 30
0.0
 40
0.5
  1
10.250
100
AcDbAttributeDefinition
  3

  2
K
 70
     8
280
     0
  0
ATTDEF
  5
1E9
330
1D1
100
AcDbEntity
  8
AM_6
100
AcDbText
 10
7.619375
 20
-3.25
 30
0.0
 40
0.5
  1
6-7/16
100
AcDbAttributeDefinition
  3

  2
L
 70
     8
280
     0
  0
ATTDEF
  5
1EA
330
1D1
100
AcDbEntity
  8
AM_6
100
AcDbText
 10
7.619375
 20
-3.75
 30
0.0
 40
0.5
  1
3/4-10
100
AcDbAttributeDefinition
  3

  2
M
 70
     8
280
     0
  0
ATTDEF
  5
1EB
330
1D1
100
AcDbEntity
  8
AM_6
100
AcDbText
 10
7.619375
 20
-4.25
 30
0.0
 40
0.5
  1
5-35/64
100
AcDbAttributeDefinition
  3

  2
N
 70
     8
280
     0
  0
ATTDEF
  5
1EC
330
1D1
100
AcDbEntity
  8
AM_6
100
AcDbText
 10
7.619375
 20
-4.75
 30
0.0
 40
0.5
  1
1-43/64
100
AcDbAttributeDefinition
  3

  2
P
 70
     8
280
     0
  0
ATTDEF
  5
1ED
330
1D1
100
AcDbEntity
  8
AM_6
100
AcDbText
 10
7.619375
 20
-5.25
 30
0.0
 40
0.5
  1
1-63/64
100
AcDbAttributeDefinition
  3

  2
Q
 70
     8
280
     0
  0
ATTDEF
  5
1EE
330
1D1
100
AcDbEntity
  8
AM_6
100
AcDbText
 10
7.619375
 20
-5.75
 30
0.0
 40
0.5
  1
3/8
100
AcDbAttributeDefinition
  3

  2
X
 70
     8
280
     0
  0
ATTDEF
  5
1EF
330
1D1
100
AcDbEntity
  8
AM_6
100
AcDbText
 10
7.619375
 20
-6.25
 30
0.0
 40
0.5
  1
0.036
100
AcDbAttributeDefinition
  3

  2
Y
 70
     8
280
     0
  0
ATTDEF
  5
1F0
330
1D1
100
AcDbEntity
  8
AM_6
100
AcDbText
 10
7.619375
 20
-6.75
 30
0.0
 40
0.5
  1
5
100
AcDbAttributeDefinition
  3

  2
Z
 70
     8
280
     0
  0
ATTDEF
  5
1F1
330
1D1
100
AcDbEntity
  8
AM_6
100
AcDbText
 10
7.619375
 20
-7.25
 30
0.0
 40
0.5
  1
baldor
100
AcDbAttributeDefinition
  3

  2
COMPANY
 70
     8
280
     0
  0
LINE
  5
1F2
330
1D1
100
AcDbEntity
  8
AM_9
100
AcDbLine
 10
-0.0169000000000001
 20
-2.579399999999999
 30
0.0
 11
-0.7831000000000006
 21
-2.579399999999999
 31
0.0
  0
LINE
  5
1F3
330
1D1
100
AcDbEntity
  8
AM_9
100
AcDbLine
 10
-0.7831000000000006
 20
-3.2956
 30
0.0
 11
-0.0169000000000001
 21
-3.2956
 31
0.0
  0
LINE
  5
1F4
330
1D1
100
AcDbEntity
  8
AM_9
100
AcDbLine
 10
-0.7831000000000006
 20
-3.2956
 30
0.0
 11
-0.7831000000000006
 21
-2.579399999999999
 31
0.0
  0
LINE
  5
1F5
330
1D1
100
AcDbEntity
  8
AM_9
100
AcDbLine
 10
-0.7831000000000006
 20
-2.579399999999999
 30
0.0
 11
-0.8000000000000004
 21
-2.562499999999999
 31
0.0
  0
LINE
  5
1F6
330
1D1
100
AcDbEntity
  8
AM_9
100
AcDbLine
 10
-0.8000000000000004
 20
-3.3125
 30
0.0
 11
-0.7831000000000006
 21
-3.2956
 31
0.0
  0
LINE
  5
1F7
330
1D1
100
AcDbEntity
  8
AM_9
100
AcDbLine
 10
-0.0169000000000001
 20
-3.2956
 30
0.0
 11
-0.0169000000000001
 21
-2.579399999999999
 31
0.0
  0
LINE
  5
1F8
330
1D1
100
AcDbEntity
  8
AM_9
100
AcDbLine
 10
-0.0169000000000001
 20
-3.2956
 30
0.0
 11
-0.0000000000000003
 21
-3.3125
 31
0.0
  0
LINE
  5
1F9
330
1D1
100
AcDbEntity
  8
AM_9
100
AcDbLine
 10
-0.0000000000000003
 20
-2.562499999999999
 30
0.0
 11
-0.0169000000000001
 21
-2.579399999999999
 31
0.0
  0
LINE
  5
1FA
330
1D1
100
AcDbEntity
  8
AM_9
100
AcDbLine
 10
-0.7999999999999998
 20
-5.015796495000207
 30
0.0
 11
-0.9999999999999999
 21
-5.015796495000207
 31
0.0
  0
LINE
  5
1FB
330
1D1
100
AcDbEntity
  8
AM_9
100
AcDbLine
 10
-0.7999999999999998
 20
-4.944354016937514
 30
0.0
 11
-0.9999999999999999
 21
-4.944354016937514
 31
0.0
  0
LINE
  5
1FC
330
1D1
100
AcDbEntity
  8
AM_9
100
AcDbLine
 10
-0.7999999999999998
 20
5.015796495000206
 30
0.0
 11
-0.9999999999999999
 21
5.015796495000206
 31
0.0
  0
LINE
  5
1FD
330
1D1
100
AcDbEntity
  8
AM_9
100
AcDbLine
 10
-0.9999999999999999
 20
4.944354016937513
 30
0.0
 11
-0.7999999999999998
 21
4.944354016937513
 31
0.0
  0
LINE
  5
1FE
330
1D1
100
AcDbEntity
  8
AM_9
100
AcDbLine
 10
-0.7999999999999998
 20
-4.951138842592443
 30
0.0
 11
-0.9999999999999999
 21
-4.951138842592443
 31
0.0
  0
LINE
  5
1FF
330
1D1
100
AcDbEntity
  8
AM_9
100
AcDbLine
 10
-1.0
 20
-5.125
 30
0.0
 11
-0.7999999999999999
 21
-5.125
 31
0.0
  0
LINE
  5
200
330
1D1
100
AcDbEntity
  8
AM_9
100
AcDbLine
 10
-0.7999999999999999
 20
5.10055144077579
 30
0.0
 11
-0.9999999999999997
 21
5.10055144077579
 31
0.0
  0
LINE
  5
201
330
1D1
100
AcDbEntity
  8
AM_9
100
AcDbLine
 10
-0.7999999999999998
 20
4.951138842592442
 30
0.0
 11
-0.9999999999999999
 21
4.951138842592441
 31
0.0
  0
LINE
  5
202
330
1D1
100
AcDbEntity
  8
AM_9
100
AcDbLine
 10
-0.7999999999999998
 20
-6.05489104870149
 30
0.0
 11
-0.9999999999999999
 21
-6.05489104870149
 31
0.0
  0
LINE
  5
203
330
1D1
100
AcDbEntity
  8
AM_9
100
AcDbLine
 10
-0.7999999999999997
 20
-5.428086489841203
 30
0.0
 11
-0.7999999999999998
 21
-6.188778169213744
 31
0.0
  0
LINE
  5
204
330
1D1
100
AcDbEntity
  8
AM_9
100
AcDbLine
 10
-0.7999999999999998
 20
6.054891048701486
 30
0.0
 11
-0.9999999999999999
 21
6.054891048701486
 31
0.0
  0
LINE
  5
205
330
1D1
100
AcDbEntity
  8
AM_9
100
AcDbLine
 10
-0.7999999999999998
 20
6.188778169213744
 30
0.0
 11
-0.7999999999999997
 21
5.42808648984122
 31
0.0
  0
LINE
  5
206
330
1D1
100
AcDbEntity
  8
AM_9
100
AcDbLine
 10
-2.015625
 20
4.112899247233577
 30
0.0
 11
-0.9999999999999999
 21
4.112899247233577
 31
0.0
  0
LINE
  5
207
330
1D1
100
AcDbEntity
  8
AM_9
100
AcDbLine
 10
-0.9999999999999999
 20
-4.112899247233577
 30
0.0
 11
-2.015625
 21
-4.112899247233577
 31
0.0
  0
LINE
  5
208
330
1D1
100
AcDbEntity
  8
AM_9
100
AcDbLine
 10
-2.011119528873205
 20
-4.114021705676867
 30
0.0
 11
-0.9999999999999999
 21
-4.114021705676867
 31
0.0
  0
LINE
  5
209
330
1D1
100
AcDbEntity
  8
AM_9
100
AcDbLine
 10
-2.011119532484675
 20
4.114021704962054
 30
0.0
 11
-0.9999999999999999
 21
4.114021704962054
 31
0.0
  0
LINE
  5
20A
330
1D1
100
AcDbEntity
  8
AM_9
100
AcDbLine
 10
-0.9999999999999997
 20
-5.462899247233579
 30
0.0
 11
0.0000000000000002
 21
-5.462899247233579
 31
0.0
  0
LINE
  5
20B
330
1D1
100
AcDbEntity
  8
AM_9
100
AcDbLine
 10
0.0000000000000002
 20
-4.712899247233578
 30
0.0
 11
-0.9999999999999997
 21
-4.712899247233578
 31
0.0
  0
LINE
  5
20C
330
1D1
100
AcDbEntity
  8
AM_9
100
AcDbLine
 10
-0.9999999999999997
 20
4.712899247233578
 30
0.0
 11
0.0000000000000002
 21
4.712899247233578
 31
0.0
  0
LINE
  5
20D
330
1D1
100
AcDbEntity
  8
AM_9
100
AcDbLine
 10
0.0000000000000002
 20
5.462899247233579
 30
0.0
 11
-0.9999999999999997
 21
5.462899247233579
 31
0.0
  0
LINE
  5
20E
330
1D1
100
AcDbEntity
  8
AM_9
100
AcDbLine
 10
-2.015625
 20
-3.936999999999999
 30
0.0
 11
1.984375
 21
-3.936999999999999
 31
0.0
  0
LINE
  5
20F
330
1D1
100
AcDbEntity
  8
AM_9
100
AcDbLine
 10
1.984375
 20
3.936999999999999
 30
0.0
 11
-2.015625
 21
3.936999999999999
 31
0.0
  0
LINE
  5
210
330
1D1
100
AcDbEntity
  8
AM_9
100
AcDbLine
 10
-0.0168999999999994
 20
3.2956
 30
0.0
 11
-0.7831
 21
3.2956
 31
0.0
  0
LINE
  5
211
330
1D1
100
AcDbEntity
  8
AM_9
100
AcDbLine
 10
-0.7831
 20
2.579399999999999
 30
0.0
 11
-0.0168999999999994
 21
2.579399999999999
 31
0.0
  0
LINE
  5
212
330
1D1
100
AcDbEntity
  8
AM_9
100
AcDbLine
 10
-0.7831
 20
2.579399999999999
 30
0.0
 11
-0.7831
 21
3.2956
 31
0.0
  0
LINE
  5
213
330
1D1
100
AcDbEntity
  8
AM_9
100
AcDbLine
 10
-0.7831
 20
3.2956
 30
0.0
 11
-0.7999999999999998
 21
3.312500000000001
 31
0.0
  0
LINE
  5
214
330
1D1
100
AcDbEntity
  8
AM_9
100
AcDbLine
 10
-0.7999999999999998
 20
2.562499999999998
 30
0.0
 11
-0.7831
 21
2.579399999999999
 31
0.0
  0
LINE
  5
215
330
1D1
100
AcDbEntity
  8
AM_9
100
AcDbLine
 10
-0.0168999999999994
 20
2.5794
 30
0.0
 11
-0.0168999999999994
 21
3.295599999999999
 31
0.0
  0
LINE
  5
216
330
1D1
100
AcDbEntity
  8
AM_9
100
AcDbLine
 10
-0.0168999999999994
 20
2.5794
 30
0.0
 11
0.0000000000000003
 21
2.562499999999999
 31
0.0
  0
LINE
  5
217
330
1D1
100
AcDbEntity
  8
AM_9
100
AcDbLine
 10
0.0000000000000003
 20
3.3125
 30
0.0
 11
-0.0168999999999994
 21
3.295599999999999
 31
0.0
  0
LINE
  5
218
330
1D1
100
AcDbEntity
  8
AM_9
100
AcDbLine
 10
-0.9999999999999994
 20
-0.3750000000000022
 30
0.0
 11
0.0000000000000004
 21
-0.3750000000000022
 31
0.0
  0
LINE
  5
219
330
1D1
100
AcDbEntity
  8
AM_9
100
AcDbLine
 10
0.0000000000000004
 20
0.3749999999999978
 30
0.0
 11
-0.9999999999999994
 21
0.3749999999999978
 31
0.0
  0
LINE
  5
21A
330
1D1
100
AcDbEntity
  8
AM_5
100
AcDbLine
 10
0.0000000000000006
 20
2.749999999999999
 30
0.0
 11
-0.7999999999999997
 21
2.749999999999999
 31
0.0
  0
LINE
  5
21B
330
1D1
100
AcDbEntity
  8
AM_5
100
AcDbLine
 10
-0.0000000000000009
 20
3.124999999999999
 30
0.0
 11
-0.7999999999999986
 21
3.124999999999999
 31
0.0
  0
LINE
  5
21C
330
1D1
100
AcDbEntity
  8
AM_5
100
AcDbLine
 10
-0.0000000000000006
 20
-3.124999999999999
 30
0.0
 11
-0.8
 21
-3.124999999999999
 31
0.0
  0
LINE
  5
21D
330
1D1
100
AcDbEntity
  8
AM_5
100
AcDbLine
 10
0.0000000000000009
 20
-2.749999999999999
 30
0.0
 11
-0.8000000000000002
 21
-2.749999999999999
 31
0.0
  0
LINE
  5
21E
330
1D1
100
AcDbEntity
  8
AM_7
100
AcDbLine
 10
0.0524999999999998
 20
5.087899247233578
 30
0.0
 11
-1.1025
 21
5.087899247233578
 31
0.0
  0
LINE
  5
21F
330
1D1
100
AcDbEntity
  8
AM_7
100
AcDbLine
 10
0.0524999999999998
 20
-5.087899247233576
 30
0.0
 11
-1.1025
 21
-5.087899247233576
 31
0.0
  0
LINE
  5
220
330
1D1
100
AcDbEntity
  8
AM_7
100
AcDbLine
 10
0.0400000000000003
 20
2.9375
 30
0.0
 11
-0.8399999999999999
 21
2.9375
 31
0.0
  0
LINE
  5
221
330
1D1
100
AcDbEntity
  8
AM_7
100
AcDbLine
 10
0.0399999999999997
 20
-2.9375
 30
0.0
 11
-0.8400000000000004
 21
-2.9375
 31
0.0
  0
LINE
  5
222
330
1D1
100
AcDbEntity
  8
AM_7
100
AcDbLine
 10
2.619375
 20
0.0
 30
0.0
 11
-3.826018750000001
 21
0.0
 31
0.0
  0
LINE
  5
223
330
1D1
100
AcDbEntity
  8
AM_4
100
AcDbLine
 10
-2.014625
 20
5.125
 30
0.0
 11
-2.014625
 21
5.045121084764763
 31
0.0
  0
LINE
  5
224
330
1D1
100
AcDbEntity
  8
AM_4
100
AcDbLine
 10
-0.7999999999999999
 20
6.428571428571428
 30
0.0
 11
-1.262007684806381
 21
6.428571428571428
 31
0.0
  0
LINE
  5
225
330
1D1
100
AcDbEntity
  8
AM_4
100
AcDbLine
 10
-1.262007684806381
 20
6.428571428571428
 30
0.0
 11
-2.014625
 21
5.125
 31
0.0
  0
LINE
  5
226
330
1D1
100
AcDbEntity
  8
AM_4
100
AcDbLine
 10
-1.948958333333334
 20
-5.125
 30
0.0
 11
-1.0
 21
-5.125
 31
0.0
  0
LINE
  5
227
330
1D1
100
AcDbEntity
  8
AM_4
100
AcDbLine
 10
-0.9999999999999997
 20
5.10055144077579
 30
0.0
 11
-1.948958333333333
 21
5.100551440775791
 31
0.0
  0
LINE
  5
228
330
1D1
100
AcDbEntity
  8
AM_4
100
AcDbLine
 10
-1.948958333333334
 20
4.728610698797663
 30
0.0
 11
-0.9999999999999999
 21
4.728610698797663
 31
0.0
  0
LINE
  5
229
330
1D1
100
AcDbEntity
  8
AM_4
100
AcDbLine
 10
-1.948958333333334
 20
-4.728610698797667
 30
0.0
 11
-0.9999999999999999
 21
-4.728610698797667
 31
0.0
  0
LWPOLYLINE
  5
22A
330
1D1
100
AcDbEntity
  8
AM_4
100
AcDbPolyline
 90
        7
 70
     0
 43
0.0
 10
-2.011119532484675
 20
-4.641465407826977
 10
-2.003435590578079
 20
-4.662872320638951
 10
-1.993138623973237
 20
-4.682228129093158
 10
-1.976415226575471
 20
-4.704599016719947
 10
-1.957620702489251
 20
-4.722354529622506
 10
-1.949237975236989
 20
-4.728425887203364
 10
-1.948958333333334
 20
-4.728610698797665
  0
LINE
  5
22B
330
1D1
100
AcDbEntity
  8
AM_4
100
AcDbLine
 10
-1.948958333333334
 20
-4.728610698797667
 30
0.0
 11
-1.948958333333334
 21
-5.125
 31
0.0
  0
ARC
  5
22C
330
1D1
100
AcDbEntity
  8
AM_4
100
AcDbCircle
 10
-1.948958333333333
 20
-5.058333333333333
 30
0.0
 40
0.0666666666666671
100
AcDbArc
 50
180.0
 51
270.0
  0
LWPOLYLINE
  5
22D
330
1D1
100
AcDbEntity
  8
AM_4
100
AcDbPolyline
 90
        7
 70
     0
 43
0.0
 10
-1.948958333333334
 20
4.728610698797663
 10
-1.949237975237105
 20
4.728425887203387
 10
-1.966006657339638
 20
4.715196958147318
 10
-1.982353771665421
 20
4.697541205735462
 10
-1.995387774915788
 20
4.678503616639707
 10
-2.006483306271109
 20
4.65555010846831
 10
-2.011119528873206
 20
4.641465421074308
  0
LINE
  5
22E
330
1D1
100
AcDbEntity
  8
AM_4
100
AcDbLine
 10
-1.948958333333333
 20
5.100551440775791
 30
0.0
 11
-1.948958333333334
 21
4.728610698797663
 31
0.0
  0
LWPOLYLINE
  5
22F
330
1D1
100
AcDbEntity
  8
AM_4
100
AcDbPolyline
 90
        7
 70
     0
 43
0.0
 10
-2.014625
 20
5.045121084764763
 10
-2.014078034072512
 20
5.047909318467433
 10
-2.005615028404179
 20
5.068867620649699
 10
-1.990703694507329
 20
5.085792711670713
 10
-1.971097036540563
 20
5.096750028370614
 10
-1.949065522373034
 20
5.100551354191513
 10
-1.948958333333333
 20
5.100551440775791
  0
ARC
  5
230
330
1D1
100
AcDbEntity
  8
AM_4
100
AcDbCircle
 10
-1.948958333333265
 20
5.05833333333333
 30
0.0
 40
0.0666666666667348
100
AcDbArc
 50
170.0636329278671
 51
180.0
  0
LINE
  5
231
330
1D1
100
AcDbEntity
  8
AM_4
100
AcDbLine
 10
-2.011119528873206
 20
4.641465421074308
 30
0.0
 11
-0.9999999999999999
 21
4.641465421074308
 31
0.0
  0
LWPOLYLINE
  5
232
330
1D1
100
AcDbEntity
  8
AM_4
100
AcDbPolyline
 90
        3
 70
     0
 43
0.0
 10
-2.015625
 20
4.606548393471047
 10
-2.015500693142588
 20
4.612544943172626
 10
-2.011119528873206
 20
4.641465421074308
  0
LINE
  5
233
330
1D1
100
AcDbEntity
  8
AM_4
100
AcDbLine
 10
-2.011119532484675
 20
-4.641465407826977
 30
0.0
 11
-2.015625
 21
-4.60654839347105
 31
0.0
  0
LINE
  5
234
330
1D1
100
AcDbEntity
  8
AM_4
100
AcDbLine
 10
-2.011119532484675
 20
-4.641465407826977
 30
0.0
 11
-0.9999999999999999
 21
-4.641465407826977
 31
0.0
  0
LINE
  5
235
330
1D1
100
AcDbEntity
  8
AM_4
100
AcDbLine
 10
-2.00854829088471
 20
-4.114237562217531
 30
0.0
 11
-0.9999999999999999
 21
-4.114237562217531
 31
0.0
  0
LINE
  5
236
330
1D1
100
AcDbEntity
  8
AM_4
100
AcDbLine
 10
-0.9999999999999999
 20
4.11423756221753
 30
0.0
 11
-2.008355948791615
 21
4.11423756221753
 31
0.0
  0
LWPOLYLINE
  5
237
330
1D1
100
AcDbEntity
  8
AM_4
100
AcDbPolyline
 90
        7
 70
     0
 43
0.0
 10
-2.008690301689744
 20
4.114237540409031
 10
-2.003435357296303
 20
4.113554101055848
 10
-1.993138037590869
 20
4.109809730865032
 10
-1.976414456067332
 20
4.099817704932371
 10
-1.957619779369963
 20
4.084371116361325
 10
-1.949237975237194
 20
4.076143349080722
 10
-1.948958333333333
 20
4.075854178504271
  0
LINE
  5
238
330
1D1
100
AcDbEntity
  8
AM_4
100
AcDbLine
 10
-0.7999999999999997
 20
-3.831561751215422
 30
0.0
 11
-0.9999999999999997
 21
-3.831561751215422
 31
0.0
  0
LINE
  5
239
330
1D1
100
AcDbEntity
  8
AM_4
100
AcDbLine
 10
-0.7999999999999997
 20
3.831561751215419
 30
0.0
 11
-0.9999999999999997
 21
3.831561751215419
 31
0.0
  0
LINE
  5
23A
330
1D1
100
AcDbEntity
  8
AM_4
100
AcDbLine
 10
-0.7999999999999997
 20
5.106199917685699
 30
0.0
 11
-0.9999999999999997
 21
5.106199917685699
 31
0.0
  0
LINE
  5
23B
330
1D1
100
AcDbEntity
  8
AM_4
100
AcDbLine
 10
-0.7999999999999997
 20
-5.106199917685704
 30
0.0
 11
-0.9999999999999997
 21
-5.106199917685704
 31
0.0
  0
LINE
  5
23C
330
1D1
100
AcDbEntity
  8
AM_4
100
AcDbLine
 10
1.984375
 20
4.76583184467918
 30
0.0
 11
1.984375
 21
-4.76583184467918
 31
0.0
  0
ARC
  5
23D
330
1D1
100
AcDbEntity
  8
AM_4
100
AcDbCircle
 10
1.884374999999998
 20
-4.765831844679181
 30
0.0
 40
0.1000000000000007
100
AcDbArc
 50
272.0000000000009
 51
0.0
  0
ARC
  5
23E
330
1D1
100
AcDbEntity
  8
AM_4
100
AcDbCircle
 10
1.884374999999998
 20
4.765831844679181
 30
0.0
 40
0.1000000000000014
100
AcDbArc
 50
0.0
 51
87.99999999999915
  0
LINE
  5
23F
330
1D1
100
AcDbEntity
  8
AM_4
100
AcDbLine
 10
1.88786494967025
 20
4.865770927381091
 30
0.0
 11
1.54963505032975
 21
4.877582175731177
 31
0.0
  0
LINE
  5
240
330
1D1
100
AcDbEntity
  8
AM_4
100
AcDbLine
 10
1.54963505032975
 20
-4.877582175731177
 30
0.0
 11
1.88786494967025
 21
-4.865770927381091
 31
0.0
  0
LINE
  5
241
330
1D1
100
AcDbEntity
  8
AM_4
100
AcDbLine
 10
1.88786494967025
 20
4.865770927381091
 30
0.0
 11
1.88786494967025
 21
-4.865770927381091
 31
0.0
  0
ARC
  5
242
330
1D1
100
AcDbEntity
  8
AM_4
100
AcDbCircle
 10
1.553125
 20
-4.977521258433087
 30
0.0
 40
0.0999999999999998
100
AcDbArc
 50
92.00000000000011
 51
180.0
  0
ARC
  5
243
330
1D1
100
AcDbEntity
  8
AM_4
100
AcDbCircle
 10
1.553125
 20
4.977521258433087
 30
0.0
 40
0.1000000000000001
100
AcDbArc
 50
180.0
 51
267.9999999999999
  0
LINE
  5
244
330
1D1
100
AcDbEntity
  8
AM_4
100
AcDbLine
 10
1.54963505032975
 20
4.877582175731177
 30
0.0
 11
1.54963505032975
 21
-4.877582175731177
 31
0.0
  0
LINE
  5
245
330
1D1
100
AcDbEntity
  8
AM_4
100
AcDbLine
 10
-1.948958333333333
 20
-4.075854178504274
 30
0.0
 11
-0.9999999999999999
 21
-4.075854178504274
 31
0.0
  0
LINE
  5
246
330
1D1
100
AcDbEntity
  8
AM_4
100
AcDbLine
 10
-0.7999999999999997
 20
-3.6218184653653
 30
0.0
 11
-0.9999999999999997
 21
-3.621818465365299
 31
0.0
  0
LINE
  5
247
330
1D1
100
AcDbEntity
  8
AM_4
100
AcDbLine
 10
-0.7999999999999997
 20
3.621818465365299
 30
0.0
 11
-0.9999999999999997
 21
3.621818465365299
 31
0.0
  0
LINE
  5
248
330
1D1
100
AcDbEntity
  8
AM_4
100
AcDbLine
 10
-1.948958333333333
 20
4.07585417850427
 30
0.0
 11
-0.9999999999999999
 21
4.07585417850427
 31
0.0
  0
LINE
  5
249
330
1D1
100
AcDbEntity
  8
AM_4
100
AcDbLine
 10
-2.011119528873206
 20
0.527443715397438
 30
0.0
 11
-0.9999999999999997
 21
0.527443715397438
 31
0.0
  0
LINE
  5
24A
330
1D1
100
AcDbEntity
  8
AM_4
100
AcDbLine
 10
-1.948958333333333
 20
0.6527565202933877
 30
0.0
 11
-0.9999999999999997
 21
0.6527565202933877
 31
0.0
  0
LINE
  5
24B
330
1D1
100
AcDbEntity
  8
AM_4
100
AcDbLine
 10
-2.011119532484675
 20
-0.5274437028649241
 30
0.0
 11
-2.015625
 21
-0.4936233996781764
 31
0.0
  0
LINE
  5
24C
330
1D1
100
AcDbEntity
  8
AM_4
100
AcDbLine
 10
-2.015625
 20
5.058333333333334
 30
0.0
 11
-2.015625
 21
-5.058333333333334
 31
0.0
  0
LWPOLYLINE
  5
24D
330
1D1
100
AcDbEntity
  8
AM_4
100
AcDbPolyline
 90
        3
 70
     0
 43
0.0
 10
-2.015625
 20
-4.11292499379288
 10
-2.015500693142588
 20
-4.112999290205829
 10
-2.011119528873205
 20
-4.114021705676867
  0
LWPOLYLINE
  5
24E
330
1D1
100
AcDbEntity
  8
AM_4
100
AcDbPolyline
 90
        7
 70
     0
 43
0.0
 10
-1.948958333333331
 20
-4.075854178504274
 10
-1.949237975237056
 20
-4.076143349080777
 10
-1.96600665733964
 20
-4.091775471630992
 10
-1.982353771665454
 20
-4.103812214668715
 10
-1.995387818740688
 20
-4.110822989281323
 10
-2.006483376342612
 20
-4.114098319145585
 10
-2.008703249995942
 20
-4.114237556579087
  0
LINE
  5
24F
330
1D1
100
AcDbEntity
  8
AM_4
100
AcDbLine
 10
-1.948958333333333
 20
-0.6527565202933949
 30
0.0
 11
-1.948958333333333
 21
-4.075854178504274
 31
0.0
  0
LWPOLYLINE
  5
250
330
1D1
100
AcDbEntity
  8
AM_4
100
AcDbPolyline
 90
        7
 70
     0
 43
0.0
 10
-2.011119532484675
 20
-0.5274437028649241
 10
-2.003327948887456
 20
-0.549604881820077
 10
-1.993138928316792
 20
-0.5724174896929528
 10
-1.976181188734787
 20
-0.6052288540866926
 10
-1.957621181609775
 20
-0.6379817296686133
 10
-1.949237975236814
 20
-0.6522825381224691
 10
-1.948958333333333
 20
-0.6527565202933954
  0
LINE
  5
251
330
1D1
100
AcDbEntity
  8
AM_4
100
AcDbLine
 10
-1.948958333333333
 20
-0.6527565202933949
 30
0.0
 11
-0.9999999999999997
 21
-0.6527565202933949
 31
0.0
  0
LINE
  5
252
330
1D1
100
AcDbEntity
  8
AM_4
100
AcDbLine
 10
-2.011119532484675
 20
-0.5274437028649241
 30
0.0
 11
-0.9999999999999997
 21
-0.5274437028649241
 31
0.0
  0
LINE
  5
253
330
1D1
100
AcDbEntity
  8
AM_4
100
AcDbLine
 10
-2.011119532484675
 20
4.114021704962054
 30
0.0
 11
-2.015625
 21
4.112924993792878
 31
0.0
  0
LWPOLYLINE
  5
254
330
1D1
100
AcDbEntity
  8
AM_4
100
AcDbPolyline
 90
        3
 70
     0
 43
0.0
 10
-2.015625
 20
0.4936233996781665
 10
-2.015500693142588
 20
0.4995456529667966
 10
-2.011119528873206
 20
0.527443715397438
  0
LWPOLYLINE
  5
255
330
1D1
100
AcDbEntity
  8
AM_4
100
AcDbPolyline
 90
        7
 70
     0
 43
0.0
 10
-1.948958333333333
 20
0.6527565202933877
 10
-1.949237975237126
 20
0.6522825381226418
 10
-1.966006657339634
 20
0.6234214865163328
 10
-1.982353771665409
 20
0.5937289910667937
 10
-1.995387752169713
 20
0.5676806947637025
 10
-2.006483269902429
 20
0.5414518960820744
 10
-2.011119528873206
 20
0.527443715397438
  0
LINE
  5
256
330
1D1
100
AcDbEntity
  8
AM_4
100
AcDbLine
 10
-1.948958333333333
 20
4.07585417850427
 30
0.0
 11
-1.948958333333333
 21
0.6527565202933877
 31
0.0
  0
LINE
  5
257
330
1D1
100
AcDbEntity
  8
AM_4
100
AcDbLine
 10
-0.7999999999999997
 20
-1.329320377227149
 30
0.0
 11
-0.9999999999999997
 21
-1.329320377227149
 31
0.0
  0
LINE
  5
258
330
1D1
100
AcDbEntity
  8
AM_4
100
AcDbLine
 10
-0.7999999999999997
 20
1.329320377227141
 30
0.0
 11
-0.9999999999999997
 21
1.329320377227143
 31
0.0
  0
LINE
  5
259
330
1D1
100
AcDbEntity
  8
AM_4
100
AcDbLine
 10
0.0
 20
-5.125
 30
0.0
 11
1.453125
 21
-5.125
 31
0.0
  0
LINE
  5
25A
330
1D1
100
AcDbEntity
  8
AM_4
100
AcDbLine
 10
1.453125
 20
5.125
 30
0.0
 11
0.0
 21
5.125
 31
0.0
  0
LINE
  5
25B
330
1D1
100
AcDbEntity
  8
AM_4
100
AcDbLine
 10
1.453125
 20
5.125
 30
0.0
 11
1.453125
 21
-5.125
 31
0.0
  0
LINE
  5
25C
330
1D1
100
AcDbEntity
  8
AM_4
100
AcDbLine
 10
-0.7999999999999997
 20
-1.18423474378479
 30
0.0
 11
-0.9999999999999997
 21
-1.18423474378479
 31
0.0
  0
LINE
  5
25D
330
1D1
100
AcDbEntity
  8
AM_4
100
AcDbLine
 10
-0.7999999999999997
 20
1.184234743784783
 30
0.0
 11
-0.9999999999999997
 21
1.184234743784783
 31
0.0
  0
LINE
  5
25E
330
1D1
100
AcDbEntity
  8
AM_4
100
AcDbLine
 10
-0.7999999999999995
 20
0.948691131015781
 30
0.0
 11
-0.9999999999999996
 21
0.948691131015781
 31
0.0
  0
LINE
  5
25F
330
1D1
100
AcDbEntity
  8
AM_4
100
AcDbLine
 10
-0.9999999999999997
 20
-1.329320377227149
 30
0.0
 11
-0.9999999999999997
 21
1.329320377227143
 31
0.0
  0
LINE
  5
260
330
1D1
100
AcDbEntity
  8
AM_4
100
AcDbLine
 10
-0.7999999999999995
 20
-0.948691131015793
 30
0.0
 11
-0.9999999999999996
 21
-0.948691131015793
 31
0.0
  0
LINE
  5
261
330
1D1
100
AcDbEntity
  8
AM_4
100
AcDbLine
 10
-0.7999999999999997
 20
5.42808648984122
 30
0.0
 11
-0.9999999999999997
 21
5.42808648984122
 31
0.0
  0
LINE
  5
262
330
1D1
100
AcDbEntity
  8
AM_4
100
AcDbLine
 10
-0.7999999999999995
 20
0.7606916793725517
 30
0.0
 11
-0.7999999999999997
 21
5.42808648984122
 31
0.0
  0
LINE
  5
263
330
1D1
100
AcDbEntity
  8
AM_4
100
AcDbLine
 10
-0.9999999999999996
 20
0.7606916793725517
 30
0.0
 11
-0.7999999999999995
 21
0.7606916793725517
 31
0.0
  0
LINE
  5
264
330
1D1
100
AcDbEntity
  8
AM_4
100
AcDbLine
 10
-0.7999999999999995
 20
-0.7606916793725296
 30
0.0
 11
-0.9999999999999996
 21
-0.7606916793725296
 31
0.0
  0
LINE
  5
265
330
1D1
100
AcDbEntity
  8
AM_4
100
AcDbLine
 10
-0.7999999999999997
 20
-5.428086489841201
 30
0.0
 11
-0.7999999999999995
 21
-0.7606916793725296
 31
0.0
  0
LINE
  5
266
330
1D1
100
AcDbEntity
  8
AM_4
100
AcDbLine
 10
-0.9999999999999997
 20
-5.428086489841201
 30
0.0
 11
-0.7999999999999997
 21
-5.428086489841201
 31
0.0
  0
LINE
  5
267
330
1D1
100
AcDbEntity
  8
AM_4
100
AcDbLine
 10
-0.9999999999999997
 20
-3.621818465365299
 30
0.0
 11
-0.9999999999999999
 21
-6.188778169213744
 31
0.0
  0
LINE
  5
268
330
1D1
100
AcDbEntity
  8
AM_4
100
AcDbLine
 10
-0.7999999999999998
 20
-6.188778169213744
 30
0.0
 11
-0.9999999999999999
 21
-6.188778169213744
 31
0.0
  0
LINE
  5
269
330
1D1
100
AcDbEntity
  8
AM_4
100
AcDbLine
 10
-0.7999999999999998
 20
6.188778169213744
 30
0.0
 11
-0.7999999999999999
 21
6.75
 31
0.0
  0
LINE
  5
26A
330
1D1
100
AcDbEntity
  8
AM_4
100
AcDbLine
 10
-0.9999999999999999
 20
6.188778169213744
 30
0.0
 11
-0.7999999999999998
 21
6.188778169213744
 31
0.0
  0
LINE
  5
26B
330
1D1
100
AcDbEntity
  8
AM_4
100
AcDbLine
 10
-0.9999999999999999
 20
6.188778169213744
 30
0.0
 11
-0.9999999999999997
 21
3.621818465365299
 31
0.0
  0
LINE
  5
26C
330
1D1
100
AcDbEntity
  8
AM_4
100
AcDbLine
 10
-0.7999999999999999
 20
-6.75
 30
0.0
 11
0.0
 21
-6.75
 31
0.0
  0
LINE
  5
26D
330
1D1
100
AcDbEntity
  8
AM_4
100
AcDbLine
 10
0.0
 20
6.75
 30
0.0
 11
-0.7999999999999999
 21
6.75
 31
0.0
  0
LINE
  5
26E
330
1D1
100
AcDbEntity
  8
AM_4
100
AcDbLine
 10
0.0
 20
6.75
 30
0.0
 11
0.0
 21
-6.75
 31
0.0
  0
LINE
  5
26F
330
1D1
100
AcDbEntity
  8
AM_4
100
AcDbLine
 10
-0.7999999999999999
 20
-6.75
 30
0.0
 11
-0.7999999999999998
 21
-6.188778169213744
 31
0.0
  0
ENDBLK
  5
1D4
330
1D1
100
AcDbEntity
  8
0
100
AcDbBlockEnd
  0
ENDSEC
  0
SECTION
  2
ENTITIES
  0
INSERT
  5
6F
330
1F
100
AcDbEntity
  8
0
100
AcDbBlockReference
  2
1_069833_2
 10
0.0
 20
0.0
 30
0.0
  0
POINT
  5
271
330
1F
100
AcDbEntity
  8
ConnectionPoints
100
AcDbPoint
 10
-3.24
 20
-2.842013888888889
 30
0.0000000000000002
  0
POINT
  5
272
330
1F
100
AcDbEntity
  8
ConnectionPoints
100
AcDbPoint
 10
-3.24
 20
2.842013888888889
 30
0.0000000000000002
  0
POINT
  5
273
330
1F
100
AcDbEntity
  8
ConnectionPoints
100
AcDbPoint
 10
-3.17
 20
0.0
 30
0.0000000000000002
  0
POINT
  5
274
330
1F
100
AcDbEntity
  8
ConnectionPoints
100
AcDbPoint
 10
-3.5625
 20
0.0
 30
0.0000000000000002
  0
POINT
  5
275
330
1F
100
AcDbEntity
  8
ConnectionPoints
100
AcDbPoint
 10
-3.369
 20
0.0
 30
0.0000000000000002
  0
POINT
  5
276
330
1F
100
AcDbEntity
  8
ConnectionPoints
100
AcDbPoint
 10
-3.17
 20
2.842013888888889
 30
0.0000000000000002
  0
POINT
  5
277
330
1F
100
AcDbEntity
  8
ConnectionPoints
100
AcDbPoint
 10
-3.4305
 20
2.842013888888889
 30
0.0000000000000002
  0
POINT
  5
278
330
1F
100
AcDbEntity
  8
ConnectionPoints
100
AcDbPoint
 10
-3.17
 20
-2.842013888888889
 30
0.0000000000000002
  0
POINT
  5
279
330
1F
100
AcDbEntity
  8
ConnectionPoints
100
AcDbPoint
 10
-3.4305
 20
-2.842013888888889
 30
0.0000000000000002
  0
POINT
  5
27A
330
1F
100
AcDbEntity
  8
ConnectionPoints
100
AcDbPoint
 10
-3.17
 20
0.0
 30
0.0000000000000002
  0
POINT
  5
27B
330
1F
100
AcDbEntity
  8
ConnectionPoints
100
AcDbPoint
 10
-1.4073125
 20
6.176896106071673
 30
0.0000000000000001
  0
POINT
  5
27C
330
1F
100
AcDbEntity
  8
ConnectionPoints
100
AcDbPoint
 10
-1.638316342403191
 20
5.776785714285714
 30
0.0000000000000001
  0
POINT
  5
27D
330
1F
100
AcDbEntity
  8
ConnectionPoints
100
AcDbPoint
 10
-3.1875
 20
0.0
 30
0.0000000000000002
  0
POINT
  5
27E
330
1F
100
AcDbEntity
  8
ConnectionPoints
100
AcDbPoint
 10
-3.5625
 20
0.0
 30
0.0000000000000002
  0
ENDSEC
  0
SECTION
  2
OBJECTS
  0
DICTIONARY
  5
C
330
0
100
AcDbDictionary
281
     1
  3
ACAD_DETAILVIEWSTYLE
350
286
  3
ACAD_GROUP
350
D
  3
ACAD_LAYOUT
350
1A
  3
ACAD_MATERIAL
350
43
  3
ACAD_MLEADERSTYLE
350
6B
  3
ACAD_MLINESTYLE
350
17
  3
ACAD_PLOTSETTINGS
350
19
  3
ACAD_PLOTSTYLENAME
350
E
  3
ACAD_SCALELIST
350
47
  3
ACAD_SECTIONVIEWSTYLE
350
287
  3
ACAD_TABLESTYLE
350
69
  3
ACAD_VISUALSTYLE
350
2A
  3
ACDB_RECOMPOSE_DATA
350
283
  3
AcDbVariableDictionary
350
27F
  0
SUN
  5
6D
330
29
100
AcDbSun
 90
        1
290
     0
 63
     7
421
 16777215
 40
1.0
291
     1
 91
  2455826
 92
 54000000
292
     0
 70
     2
 71
   256
280
     1
  0
DICTIONARY
  5
286
102
{ACAD_REACTORS
330
C
102
}
330
C
100
AcDbDictionary
281
     1
  0
DICTIONARY
  5
D
102
{ACAD_REACTORS
330
C
102
}
330
C
100
AcDbDictionary
281
     1
  0
DICTIONARY
  5
1A
102
{ACAD_REACTORS
330
C
102
}
330
C
100
AcDbDictionary
281
     1
  3
Layout1
350
1E
  3
Layout2
350
26
  3
Model
350
22
  0
DICTIONARY
  5
43
102
{ACAD_REACTORS
330
C
102
}
330
C
100
AcDbDictionary
281
     1
  3
ByBlock
350
45
  3
ByLayer
350
44
  3
Global
350
46
  0
DICTIONARY
  5
6B
102
{ACAD_REACTORS
330
C
102
}
330
C
100
AcDbDictionary
281
     1
  3
Standard
350
6C
  0
DICTIONARY
  5
17
102
{ACAD_REACTORS
330
C
102
}
330
C
100
AcDbDictionary
281
     1
  3
Standard
350
18
  0
DICTIONARY
  5
19
102
{ACAD_REACTORS
330
C
102
}
330
C
100
AcDbDictionary
281
     1
  0
ACDBDICTIONARYWDFLT
  5
E
102
{ACAD_REACTORS
330
C
102
}
330
C
100
AcDbDictionary
281
     1
  3
Normal
350
F
100
AcDbDictionaryWithDefault
340
F
  0
DICTIONARY
  5
47
102
{ACAD_REACTORS
330
C
102
}
330
C
100
AcDbDictionary
281
     1
  3
A0
350
48
  3
A1
350
49
  3
A2
350
4A
  3
A3
350
4B
  3
A4
350
4C
  3
A5
350
4D
  3
A6
350
4E
  3
A7
350
4F
  3
A8
350
50
  3
A9
350
51
  3
B0
350
52
  3
B1
350
53
  3
B2
350
54
  3
B3
350
55
  3
B4
350
56
  3
B5
350
57
  3
B6
350
58
  3
B7
350
59
  3
B8
350
5A
  3
B9
350
5B
  3
C0
350
5C
  3
C1
350
5D
  3
C2
350
5E
  3
C3
350
5F
  3
C4
350
60
  3
C5
350
61
  3
C6
350
62
  3
C7
350
63
  3
C8
350
64
  3
C9
350
65
  3
D0
350
66
  3
D1
350
67
  3
D2
350
68
  0
DICTIONARY
  5
287
102
{ACAD_REACTORS
330
C
102
}
330
C
100
AcDbDictionary
281
     1
  0
DICTIONARY
  5
69
102
{ACAD_REACTORS
330
C
102
}
330
C
100
AcDbDictionary
281
     1
  3
Standard
350
6A
  0
DICTIONARY
  5
2A
102
{ACAD_REACTORS
330
C
102
}
330
C
100
AcDbDictionary
281
     1
  3
2dWireframe
350
2F
  3
Basic
350
32
  3
Brighten
350
36
  3
ColorChange
350
3A
  3
Conceptual
350
34
  3
Dim
350
35
  3
EdgeColorOff
350
3D
  3
Facepattern
350
39
  3
Flat
350
2B
  3
FlatWithEdges
350
2C
  3
Gouraud
350
2D
  3
GouraudWithEdges
350
2E
  3
Hidden
350
31
  3
JitterOff
350
3B
  3
Linepattern
350
38
  3
OverhangOff
350
3C
  3
Realistic
350
33
  3
Shaded
350
42
  3
Shaded with edges
350
41
  3
Shades of Gray
350
3E
  3
Sketchy
350
3F
  3
Thicken
350
37
  3
Wireframe
350
30
  3
X-Ray
350
40
  0
XRECORD
  5
283
102
{ACAD_REACTORS
330
C
102
}
330
C
100
AcDbXrecord
280
     1
 90
        1
330
6A
  0
DICTIONARY
  5
27F
102
{ACAD_REACTORS
330
C
102
}
330
C
100
AcDbDictionary
281
     1
  3
CANNOSCALE
350
280
  3
CMLEADERSTYLE
350
285
  3
CTABLESTYLE
350
284
  0
LAYOUT
  5
1E
102
{ACAD_REACTORS
330
1A
102
}
330
1A
100
AcDbPlotSettings
  1

  2
none_device
  4

  6

 40
0.0
 41
0.0
 42
0.0
 43
0.0
 44
0.0
 45
0.0
 46
0.0
 47
0.0
 48
0.0
 49
0.0
140
0.0
141
0.0
142
1.0
143
1.0
 70
   688
 72
     0
 73
     0
 74
     5
  7

 75
    16
 76
     0
 77
     2
 78
   300
147
1.0
148
0.0
149
0.0
100
AcDbLayout
  1
Layout1
 70
     1
 71
     1
 10
0.0
 20
0.0
 11
12.0
 21
9.0
 12
0.0
 22
0.0
 32
0.0
 14
1.000000000000000E+20
 24
1.000000000000000E+20
 34
1.000000000000000E+20
 15
-1.000000000000000E+20
 25
-1.000000000000000E+20
 35
-1.000000000000000E+20
146
0.0
 13
0.0
 23
0.0
 33
0.0
 16
1.0
 26
0.0
 36
0.0
 17
0.0
 27
1.0
 37
0.0
 76
     0
330
1B
  0
LAYOUT
  5
26
102
{ACAD_REACTORS
330
1A
102
}
330
1A
100
AcDbPlotSettings
  1

  2
none_device
  4

  6

 40
0.0
 41
0.0
 42
0.0
 43
0.0
 44
0.0
 45
0.0
 46
0.0
 47
0.0
 48
0.0
 49
0.0
140
0.0
141
0.0
142
1.0
143
1.0
 70
   688
 72
     0
 73
     0
 74
     5
  7

 75
    16
 76
     0
 77
     2
 78
   300
147
1.0
148
0.0
149
0.0
100
AcDbLayout
  1
Layout2
 70
     1
 71
     2
 10
0.0
 20
0.0
 11
0.0
 21
0.0
 12
0.0
 22
0.0
 32
0.0
 14
0.0
 24
0.0
 34
0.0
 15
0.0
 25
0.0
 35
0.0
146
0.0
 13
0.0
 23
0.0
 33
0.0
 16
1.0
 26
0.0
 36
0.0
 17
0.0
 27
1.0
 37
0.0
 76
     0
330
23
  0
LAYOUT
  5
22
102
{ACAD_REACTORS
330
1A
102
}
330
1A
100
AcDbPlotSettings
  1

  2
none_device
  4
Letter_(8.50_x_11.00_Inches)
  6

 40
6.35
 41
6.35
 42
6.35000508
 43
6.35000508
 44
215.9
 45
279.4
 46
0.0
 47
0.0
 48
0.0
 49
0.0
140
0.0
141
0.0
142
1.0
143
1.0
 70
  1712
 72
     0
 73
     0
 74
     0
  7

 75
     0
 76
     0
 77
     2
 78
   300
147
1.0
148
0.0
149
0.0
100
AcDbLayout
  1
Model
 70
     1
 71
     0
 10
0.0
 20
0.0
 11
12.0
 21
9.0
 12
0.0
 22
0.0
 32
0.0
 14
1.000000000000000E+20
 24
1.000000000000000E+20
 34
1.000000000000000E+20
 15
-1.000000000000000E+20
 25
-1.000000000000000E+20
 35
-1.000000000000000E+20
146
0.0
 13
0.0
 23
0.0
 33
0.0
 16
1.0
 26
0.0
 36
0.0
 17
0.0
 27
1.0
 37
0.0
 76
     0
330
1F
331
29
  0
MATERIAL
  5
45
102
{ACAD_REACTORS
330
43
102
}
330
43
100
AcDbMaterial
  1
ByBlock
 72
     1
 94
      127
  0
MATERIAL
  5
44
102
{ACAD_REACTORS
330
43
102
}
330
43
100
AcDbMaterial
  1
ByLayer
 72
     1
 94
      127
  0
MATERIAL
  5
46
102
{ACAD_REACTORS
330
43
102
}
330
43
100
AcDbMaterial
  1
Global
 72
     1
 94
      127
  0
MLEADERSTYLE
  5
6C
102
{ACAD_REACTORS
330
6B
102
}
330
6B
100
AcDbMLeaderStyle
179
     2
170
     2
171
     1
172
     0
 90
        2
 40
0.0
 41
0.0
173
     1
 91
-1056964608
340
14
 92
       -2
290
     1
 42
0.09
291
     1
 43
0.36
  3
Standard
341
0
 44
0.18
300

342
11
174
     1
178
     6
175
     1
176
     0
 93
-1056964608
 45
0.18
292
     0
297
     0
 46
0.18
343
0
 94
-1056964608
 47
1.0
 49
1.0
140
1.0
293
     1
141
0.0
294
     1
177
     0
142
1.0
295
     0
296
     0
143
0.125
271
     0
272
     9
273
     9
298
     0
  0
MLINESTYLE
  5
18
102
{ACAD_REACTORS
330
17
102
}
330
17
100
AcDbMlineStyle
  2
Standard
 70
     0
  3

 62
   256
 51
90.0
 52
90.0
 71
     2
 49
0.5
 62
   256
  6
BYLAYER
 49
-0.5
 62
   256
  6
BYLAYER
  0
ACDBPLACEHOLDER
  5
F
102
{ACAD_REACTORS
330
E
102
}
330
E
  0
SCALE
  5
48
102
{ACAD_REACTORS
330
47
102
}
330
47
100
AcDbScale
 70
     0
300
1:1
140
1.0
141
1.0
290
     1
  0
SCALE
  5
49
102
{ACAD_REACTORS
330
47
102
}
330
47
100
AcDbScale
 70
     0
300
1:2
140
1.0
141
2.0
290
     0
  0
SCALE
  5
4A
102
{ACAD_REACTORS
330
47
102
}
330
47
100
AcDbScale
 70
     0
300
1:4
140
1.0
141
4.0
290
     0
  0
SCALE
  5
4B
102
{ACAD_REACTORS
330
47
102
}
330
47
100
AcDbScale
 70
     0
300
1:5
140
1.0
141
5.0
290
     0
  0
SCALE
  5
4C
102
{ACAD_REACTORS
330
47
102
}
330
47
100
AcDbScale
 70
     0
300
1:8
140
1.0
141
8.0
290
     0
  0
SCALE
  5
4D
102
{ACAD_REACTORS
330
47
102
}
330
47
100
AcDbScale
 70
     0
300
1:10
140
1.0
141
10.0
290
     0
  0
SCALE
  5
4E
102
{ACAD_REACTORS
330
47
102
}
330
47
100
AcDbScale
 70
     0
300
1:16
140
1.0
141
16.0
290
     0
  0
SCALE
  5
4F
102
{ACAD_REACTORS
330
47
102
}
330
47
100
AcDbScale
 70
     0
300
1:20
140
1.0
141
20.0
290
     0
  0
SCALE
  5
50
102
{ACAD_REACTORS
330
47
102
}
330
47
100
AcDbScale
 70
     0
300
1:30
140
1.0
141
30.0
290
     0
  0
SCALE
  5
51
102
{ACAD_REACTORS
330
47
102
}
330
47
100
AcDbScale
 70
     0
300
1:40
140
1.0
141
40.0
290
     0
  0
SCALE
  5
52
102
{ACAD_REACTORS
330
47
102
}
330
47
100
AcDbScale
 70
     0
300
1:50
140
1.0
141
50.0
290
     0
  0
SCALE
  5
53
102
{ACAD_REACTORS
330
47
102
}
330
47
100
AcDbScale
 70
     0
300
1:100
140
1.0
141
100.0
290
     0
  0
SCALE
  5
54
102
{ACAD_REACTORS
330
47
102
}
330
47
100
AcDbScale
 70
     0
300
2:1
140
2.0
141
1.0
290
     0
  0
SCALE
  5
55
102
{ACAD_REACTORS
330
47
102
}
330
47
100
AcDbScale
 70
     0
300
4:1
140
4.0
141
1.0
290
     0
  0
SCALE
  5
56
102
{ACAD_REACTORS
330
47
102
}
330
47
100
AcDbScale
 70
     0
300
8:1
140
8.0
141
1.0
290
     0
  0
SCALE
  5
57
102
{ACAD_REACTORS
330
47
102
}
330
47
100
AcDbScale
 70
     0
300
10:1
140
10.0
141
1.0
290
     0
  0
SCALE
  5
58
102
{ACAD_REACTORS
330
47
102
}
330
47
100
AcDbScale
 70
     0
300
100:1
140
100.0
141
1.0
290
     0
  0
SCALE
  5
59
102
{ACAD_REACTORS
330
47
102
}
330
47
100
AcDbScale
 70
     0
300
1/128" = 1'-0"
140
0.0078125
141
12.0
290
     0
  0
SCALE
  5
5A
102
{ACAD_REACTORS
330
47
102
}
330
47
100
AcDbScale
 70
     0
300
1/64" = 1'-0"
140
0.015625
141
12.0
290
     0
  0
SCALE
  5
5B
102
{ACAD_REACTORS
330
47
102
}
330
47
100
AcDbScale
 70
     0
300
1/32" = 1'-0"
140
0.03125
141
12.0
290
     0
  0
SCALE
  5
5C
102
{ACAD_REACTORS
330
47
102
}
330
47
100
AcDbScale
 70
     0
300
1/16" = 1'-0"
140
0.0625
141
12.0
290
     0
  0
SCALE
  5
5D
102
{ACAD_REACTORS
330
47
102
}
330
47
100
AcDbScale
 70
     0
300
3/32" = 1'-0"
140
0.09375
141
12.0
290
     0
  0
SCALE
  5
5E
102
{ACAD_REACTORS
330
47
102
}
330
47
100
AcDbScale
 70
     0
300
1/8" = 1'-0"
140
0.125
141
12.0
290
     0
  0
SCALE
  5
5F
102
{ACAD_REACTORS
330
47
102
}
330
47
100
AcDbScale
 70
     0
300
3/16" = 1'-0"
140
0.1875
141
12.0
290
     0
  0
SCALE
  5
60
102
{ACAD_REACTORS
330
47
102
}
330
47
100
AcDbScale
 70
     0
300
1/4" = 1'-0"
140
0.25
141
12.0
290
     0
  0
SCALE
  5
61
102
{ACAD_REACTORS
330
47
102
}
330
47
100
AcDbScale
 70
     0
300
3/8" = 1'-0"
140
0.375
141
12.0
290
     0
  0
SCALE
  5
62
102
{ACAD_REACTORS
330
47
102
}
330
47
100
AcDbScale
 70
     0
300
1/2" = 1'-0"
140
0.5
141
12.0
290
     0
  0
SCALE
  5
63
102
{ACAD_REACTORS
330
47
102
}
330
47
100
AcDbScale
 70
     0
300
3/4" = 1'-0"
140
0.75
141
12.0
290
     0
  0
SCALE
  5
64
102
{ACAD_REACTORS
330
47
102
}
330
47
100
AcDbScale
 70
     0
300
1" = 1'-0"
140
1.0
141
12.0
290
     0
  0
SCALE
  5
65
102
{ACAD_REACTORS
330
47
102
}
330
47
100
AcDbScale
 70
     0
300
1-1/2" = 1'-0"
140
1.5
141
12.0
290
     0
  0
SCALE
  5
66
102
{ACAD_REACTORS
330
47
102
}
330
47
100
AcDbScale
 70
     0
300
3" = 1'-0"
140
3.0
141
12.0
290
     0
  0
SCALE
  5
67
102
{ACAD_REACTORS
330
47
102
}
330
47
100
AcDbScale
 70
     0
300
6" = 1'-0"
140
6.0
141
12.0
290
     0
  0
SCALE
  5
68
102
{ACAD_REACTORS
330
47
102
}
330
47
100
AcDbScale
 70
     0
300
1'-0" = 1'-0"
140
12.0
141
12.0
290
     0
  0
TABLESTYLE
  5
6A
102
{ACAD_REACTORS
330
69
102
}
102
{ACAD_XDICTIONARY
360
281
102
}
330
69
100
AcDbTableStyle
  3
Standard
 70
     0
 71
     0
 40
0.06
 41
0.06
280
     0
281
     0
  7
Standard
140
0.18
170
     2
 62
     0
 63
   257
283
     0
 90
        4
 91
        0
  1

274
    -2
284
     1
 64
     0
275
    -2
285
     1
 65
     0
276
    -2
286
     1
 66
     0
277
    -2
287
     1
 67
     0
278
    -2
288
     1
 68
     0
279
    -2
289
     1
 69
     0
  7
Standard
140
0.25
170
     5
 62
     0
 63
   257
283
     0
 90
        4
 91
        0
  1

274
    -2
284
     1
 64
     0
275
    -2
285
     1
 65
     0
276
    -2
286
     1
 66
     0
277
    -2
287
     1
 67
     0
278
    -2
288
     1
 68
     0
279
    -2
289
     1
 69
     0
  7
Standard
140
0.18
170
     5
 62
     0
 63
   257
283
     0
 90
        4
 91
        0
  1

274
    -2
284
     1
 64
     0
275
    -2
285
     1
 65
     0
276
    -2
286
     1
 66
     0
277
    -2
287
     1
 67
     0
278
    -2
288
     1
 68
     0
279
    -2
289
     1
 69
     0
  0
VISUALSTYLE
  5
2F
102
{ACAD_REACTORS
330
2A
102
}
330
2A
100
AcDbVisualStyle
  2
2dWireframe
 70
     4
177
     3
291
     0
 70
    58
 90
        0
176
     1
 90
        2
176
     1
 90
        0
176
     1
 90
        0
176
     1
 40
0.6
176
     1
 40
30.0
176
     1
 62
     7
420
 16777215
176
     1
 90
        1
176
     1
 90
        4
176
     1
 62
     7
176
     1
 62
   257
176
     1
 90
        1
176
     1
 90
        1
176
     1
 40
1.0
176
     1
 90
        0
176
     1
 62
   257
176
     1
 40
1.0
176
     1
 90
        1
176
     1
 90
        6
176
     1
 90
        2
176
     1
 62
     7
176
     1
 90
        5
176
     1
 90
        0
176
     1
 90
        0
176
     1
290
     0
176
     1
 90
        1
176
     1
 40
0.0
176
     1
 90
        0
176
     1
290
     1
176
     1
290
     1
176
     1
290
     0
176
     1
290
     0
176
     1
290
     0
176
     1
290
     0
176
     1
290
     0
176
     1
290
     0
176
     1
290
     0
176
     1
 90
       50
176
     1
 40
0.0
176
     1
 40
1.0
176
     1
 90
        0
176
     1
 62
    18
420
        0
176
     1
 90
       50
176
     1
 90
        3
176
     1
 62
     5
420
      255
176
     1
290
     0
176
     1
 90
       50
176
     1
 90
       50
176
     1
 90
       50
176
     1
290
     0
176
     1
 90
       50
176
     1
 62
   256
176
     0
 40
1.0
176
     0
 90
        2
176
     1
  1
strokes_ogs.tif
176
     1
290
     0
176
     1
 40
1.0
176
     1
 40
1.0
176
     1
  0
VISUALSTYLE
  5
32
102
{ACAD_REACTORS
330
2A
102
}
330
2A
100
AcDbVisualStyle
  2
Basic
 70
     7
177
     3
291
     1
 70
    58
 90
        1
176
     1
 90
        0
176
     1
 90
        1
176
     1
 90
        0
176
     1
 40
0.6
176
     1
 40
30.0
176
     1
 62
     7
420
 16777215
176
     1
 90
        0
176
     1
 90
        4
176
     1
 62
     7
176
     1
 62
   257
176
     1
 90
        1
176
     1
 90
        1
176
     1
 40
1.0
176
     1
 90
        8
176
     1
 62
     7
176
     1
 40
1.0
176
     1
 90
        1
176
     1
 90
        6
176
     1
 90
        2
176
     1
 62
     7
176
     1
 90
        5
176
     1
 90
        0
176
     1
 90
        0
176
     1
290
     0
176
     1
 90
        1
176
     1
 40
0.0
176
     1
 90
        0
176
     1
290
     0
176
     1
290
     1
176
     1
290
     1
176
     1
290
     0
176
     1
290
     0
176
     1
290
     0
176
     1
290
     0
176
     1
290
     0
176
     1
290
     0
176
     1
 90
       50
176
     1
 40
0.0
176
     1
 40
1.0
176
     1
 90
        0
176
     1
 62
    18
420
        0
176
     1
 90
       50
176
     1
 90
        3
176
     1
 62
     5
420
      255
176
     1
290
     0
176
     1
 90
       50
176
     1
 90
       50
176
     1
 90
       50
176
     1
290
     0
176
     1
 90
       50
176
     1
 62
   256
176
     0
 40
1.0
176
     0
 90
        2
176
     1
  1
strokes_ogs.tif
176
     1
290
     0
176
     1
 40
1.0
176
     1
 40
1.0
176
     1
  0
VISUALSTYLE
  5
36
102
{ACAD_REACTORS
330
2A
102
}
330
2A
100
AcDbVisualStyle
  2
Brighten
 70
    12
177
     3
291
     1
 70
    58
 90
        2
176
     1
 90
        2
176
     1
 90
        0
176
     1
 90
        0
176
     1
 40
0.6
176
     1
 40
30.0
176
     1
 62
     7
420
 16777215
176
     1
 90
        1
176
     1
 90
        4
176
     1
 62
     7
176
     1
 62
   257
176
     1
 90
        1
176
     1
 90
        1
176
     1
 40
1.0
176
     1
 90
        8
176
     1
 62
     7
176
     1
 40
1.0
176
     1
 90
        1
176
     1
 90
        6
176
     1
 90
        2
176
     1
 62
     7
176
     1
 90
        5
176
     1
 90
        0
176
     1
 90
        0
176
     1
290
     0
176
     1
 90
        1
176
     1
 40
50.0
176
     1
 90
        0
176
     1
290
     0
176
     1
290
     1
176
     1
290
     1
176
     1
290
     0
176
     1
290
     0
176
     1
290
     0
176
     1
290
     0
176
     1
290
     0
176
     1
290
     0
176
     1
 90
       50
176
     1
 40
0.0
176
     1
 40
1.0
176
     1
 90
        0
176
     1
 62
    18
420
        0
176
     1
 90
       50
176
     1
 90
        3
176
     1
 62
     5
420
      255
176
     1
290
     0
176
     1
 90
       50
176
     1
 90
       50
176
     1
 90
       50
176
     1
290
     0
176
     1
 90
       50
176
     1
 62
   256
176
     0
 40
1.0
176
     0
 90
        2
176
     1
  1
strokes_ogs.tif
176
     1
290
     0
176
     1
 40
1.0
176
     1
 40
1.0
176
     1
  0
VISUALSTYLE
  5
3A
102
{ACAD_REACTORS
330
2A
102
}
330
2A
100
AcDbVisualStyle
  2
ColorChange
 70
    16
177
     3
291
     1
 70
    58
 90
        2
176
     1
 90
        2
176
     1
 90
        3
176
     1
 90
        0
176
     1
 40
0.6
176
     1
 40
30.0
176
     1
 62
     8
420
  8421504
176
     1
 90
        1
176
     1
 90
        4
176
     1
 62
     7
176
     1
 62
   257
176
     1
 90
        1
176
     1
 90
        1
176
     1
 40
1.0
176
     1
 90
        8
176
     1
 62
     8
420
  8421504
176
     1
 40
1.0
176
     1
 90
        1
176
     1
 90
        6
176
     1
 90
        2
176
     1
 62
     7
176
     1
 90
        5
176
     1
 90
        0
176
     1
 90
        0
176
     1
290
     0
176
     1
 90
        1
176
     1
 40
0.0
176
     1
 90
        0
176
     1
290
     0
176
     1
290
     1
176
     1
290
     1
176
     1
290
     0
176
     1
290
     0
176
     1
290
     0
176
     1
290
     0
176
     1
290
     0
176
     1
290
     0
176
     1
 90
       50
176
     1
 40
0.0
176
     1
 40
1.0
176
     1
 90
        0
176
     1
 62
    18
420
        0
176
     1
 90
       50
176
     1
 90
        3
176
     1
 62
     5
420
      255
176
     1
290
     0
176
     1
 90
       50
176
     1
 90
       50
176
     1
 90
       50
176
     1
290
     0
176
     1
 90
       50
176
     1
 62
   256
176
     0
 40
1.0
176
     0
 90
        2
176
     1
  1
strokes_ogs.tif
176
     1
290
     0
176
     1
 40
1.0
176
     1
 40
1.0
176
     1
  0
VISUALSTYLE
  5
34
102
{ACAD_REACTORS
330
2A
102
}
330
2A
100
AcDbVisualStyle
  2
Conceptual
 70
     9
177
     3
291
     0
 70
    58
 90
        3
176
     1
 90
        2
176
     1
 90
        0
176
     1
 90
        0
176
     1
 40
0.6
176
     1
 40
30.0
176
     1
 62
     7
420
 16777215
176
     1
 90
        2
176
     1
 90
        2
176
     1
 62
     7
176
     1
 62
   257
176
     1
 90
        1
176
     1
 90
        1
176
     1
 40
179.0
176
     1
 90
        8
176
     1
 62
     7
176
     1
 40
1.0
176
     1
 90
        1
176
     1
 90
        6
176
     1
 90
        2
176
     1
 62
     7
176
     1
 90
        3
176
     1
 90
        0
176
     1
 90
        0
176
     1
290
     0
176
     1
 90
        1
176
     1
 40
0.0
176
     1
 90
        0
176
     1
290
     0
176
     1
290
     1
176
     1
290
     1
176
     1
290
     0
176
     1
290
     0
176
     1
290
     0
176
     1
290
     0
176
     1
290
     0
176
     1
290
     0
176
     1
 90
       50
176
     1
 40
0.0
176
     1
 40
1.0
176
     1
 90
        0
176
     1
 62
    18
420
        0
176
     1
 90
       50
176
     1
 90
        3
176
     1
 62
     5
420
      255
176
     1
290
     0
176
     1
 90
       50
176
     1
 90
       50
176
     1
 90
       50
176
     1
290
     0
176
     1
 90
       50
176
     1
 62
   256
176
     0
 40
1.0
176
     0
 90
        2
176
     1
  1
strokes_ogs.tif
176
     1
290
     0
176
     1
 40
1.0
176
     1
 40
1.0
176
     1
  0
VISUALSTYLE
  5
35
102
{ACAD_REACTORS
330
2A
102
}
330
2A
100
AcDbVisualStyle
  2
Dim
 70
    11
177
     3
291
     1
 70
    58
 90
        2
176
     1
 90
        2
176
     1
 90
        0
176
     1
 90
        0
176
     1
 40
0.6
176
     1
 40
30.0
176
     1
 62
     7
420
 16777215
176
     1
 90
        1
176
     1
 90
        4
176
     1
 62
     7
176
     1
 62
   257
176
     1
 90
        1
176
     1
 90
        1
176
     1
 40
1.0
176
     1
 90
        8
176
     1
 62
     7
176
     1
 40
1.0
176
     1
 90
        1
176
     1
 90
        6
176
     1
 90
        2
176
     1
 62
     7
176
     1
 90
        5
176
     1
 90
        0
176
     1
 90
        0
176
     1
290
     0
176
     1
 90
        1
176
     1
 40
-50.0
176
     1
 90
        0
176
     1
290
     0
176
     1
290
     1
176
     1
290
     1
176
     1
290
     0
176
     1
290
     0
176
     1
290
     0
176
     1
290
     0
176
     1
290
     0
176
     1
290
     0
176
     1
 90
       50
176
     1
 40
0.0
176
     1
 40
1.0
176
     1
 90
        0
176
     1
 62
    18
420
        0
176
     1
 90
       50
176
     1
 90
        3
176
     1
 62
     5
420
      255
176
     1
290
     0
176
     1
 90
       50
176
     1
 90
       50
176
     1
 90
       50
176
     1
290
     0
176
     1
 90
       50
176
     1
 62
   256
176
     0
 40
1.0
176
     0
 90
        2
176
     1
  1
strokes_ogs.tif
176
     1
290
     0
176
     1
 40
1.0
176
     1
 40
1.0
176
     1
  0
VISUALSTYLE
  5
3D
102
{ACAD_REACTORS
330
2A
102
}
330
2A
100
AcDbVisualStyle
  2
EdgeColorOff
 70
    22
177
     3
291
     1
 70
    58
 90
        2
176
     0
 90
        2
176
     0
 90
        0
176
     0
 90
        0
176
     0
 40
0.6
176
     0
 40
30.0
176
     0
 62
     7
420
 16777215
176
     0
 90
        1
176
     0
 90
        4
176
     0
 62
     7
176
     0
 62
   257
176
     0
 90
        1
176
     0
 90
        1
176
     0
 40
1.0
176
     0
 90
        8
176
     2
 62
     7
176
     0
 40
1.0
176
     0
 90
        1
176
     0
 90
        6
176
     0
 90
        2
176
     0
 62
     7
176
     0
 90
        5
176
     0
 90
        0
176
     0
 90
        0
176
     0
290
     0
176
     0
 90
        1
176
     0
 40
0.0
176
     0
 90
        0
176
     0
290
     0
176
     0
290
     1
176
     0
290
     1
176
     0
290
     0
176
     0
290
     0
176
     0
290
     0
176
     0
290
     0
176
     0
290
     0
176
     0
290
     0
176
     0
 90
       50
176
     0
 40
0.0
176
     0
 40
1.0
176
     0
 90
        0
176
     0
 62
    18
420
        0
176
     0
 90
       50
176
     0
 90
        3
176
     0
 62
     5
420
      255
176
     0
290
     0
176
     0
 90
       50
176
     0
 90
       50
176
     0
 90
       50
176
     0
290
     0
176
     0
 90
       50
176
     0
 62
   256
176
     0
 40
1.0
176
     0
 90
        2
176
     0
  1
strokes_ogs.tif
176
     0
290
     0
176
     0
 40
1.0
176
     0
 40
1.0
176
     0
  0
VISUALSTYLE
  5
39
102
{ACAD_REACTORS
330
2A
102
}
330
2A
100
AcDbVisualStyle
  2
Facepattern
 70
    15
177
     3
291
     1
 70
    58
 90
        2
176
     1
 90
        2
176
     1
 90
        0
176
     1
 90
        0
176
     1
 40
0.6
176
     1
 40
30.0
176
     1
 62
     7
420
 16777215
176
     1
 90
        1
176
     1
 90
        4
176
     1
 62
     7
176
     1
 62
   257
176
     1
 90
        1
176
     1
 90
        1
176
     1
 40
1.0
176
     1
 90
        8
176
     1
 62
     7
176
     1
 40
1.0
176
     1
 90
        1
176
     1
 90
        6
176
     1
 90
        2
176
     1
 62
     7
176
     1
 90
        5
176
     1
 90
        0
176
     1
 90
        0
176
     1
290
     0
176
     1
 90
        1
176
     1
 40
0.0
176
     1
 90
        0
176
     1
290
     0
176
     1
290
     1
176
     1
290
     1
176
     1
290
     0
176
     1
290
     0
176
     1
290
     0
176
     1
290
     0
176
     1
290
     0
176
     1
290
     0
176
     1
 90
       50
176
     1
 40
0.0
176
     1
 40
1.0
176
     1
 90
        0
176
     1
 62
    18
420
        0
176
     1
 90
       50
176
     1
 90
        3
176
     1
 62
     5
420
      255
176
     1
290
     0
176
     1
 90
       50
176
     1
 90
       50
176
     1
 90
       50
176
     1
290
     0
176
     1
 90
       50
176
     1
 62
   256
176
     0
 40
1.0
176
     0
 90
        2
176
     1
  1
strokes_ogs.tif
176
     1
290
     0
176
     1
 40
1.0
176
     1
 40
1.0
176
     1
  0
VISUALSTYLE
  5
2B
102
{ACAD_REACTORS
330
2A
102
}
330
2A
100
AcDbVisualStyle
  2
Flat
 70
     0
177
     3
291
     1
 70
    58
 90
        2
176
     1
 90
        1
176
     1
 90
        1
176
     1
 90
        2
176
     1
 40
0.6
176
     1
 40
30.0
176
     1
 62
     7
420
 16777215
176
     1
 90
        0
176
     1
 90
        0
176
     1
 62
     7
176
     1
 62
   257
176
     1
 90
        1
176
     1
 90
        1
176
     1
 40
1.0
176
     1
 90
        8
176
     1
 62
     7
176
     1
 40
1.0
176
     1
 90
        1
176
     1
 90
        6
176
     1
 90
        2
176
     1
 62
     7
176
     1
 90
        5
176
     1
 90
        0
176
     1
 90
        0
176
     1
290
     0
176
     1
 90
       13
176
     1
 40
0.0
176
     1
 90
        0
176
     1
290
     0
176
     1
290
     1
176
     1
290
     1
176
     1
290
     0
176
     1
290
     0
176
     1
290
     0
176
     1
290
     0
176
     1
290
     0
176
     1
290
     0
176
     1
 90
       50
176
     1
 40
0.0
176
     1
 40
1.0
176
     1
 90
        0
176
     1
 62
    18
420
        0
176
     1
 90
       50
176
     1
 90
        3
176
     1
 62
     5
420
      255
176
     1
290
     0
176
     1
 90
       50
176
     1
 90
       50
176
     1
 90
       50
176
     1
290
     0
176
     1
 90
       50
176
     1
 62
   256
176
     0
 40
1.0
176
     0
 90
        2
176
     1
  1
strokes_ogs.tif
176
     1
290
     0
176
     1
 40
1.0
176
     1
 40
1.0
176
     1
  0
VISUALSTYLE
  5
2C
102
{ACAD_REACTORS
330
2A
102
}
330
2A
100
AcDbVisualStyle
  2
FlatWithEdges
 70
     1
177
     3
291
     1
 70
    58
 90
        2
176
     1
 90
        1
176
     1
 90
        1
176
     1
 90
        2
176
     1
 40
0.6
176
     1
 40
30.0
176
     1
 62
     7
420
 16777215
176
     1
 90
        1
176
     1
 90
        0
176
     1
 62
     7
176
     1
 62
   257
176
     1
 90
        1
176
     1
 90
        1
176
     1
 40
1.0
176
     1
 90
        0
176
     1
 62
   257
176
     1
 40
1.0
176
     1
 90
        1
176
     1
 90
        6
176
     1
 90
        2
176
     1
 62
     7
176
     1
 90
        5
176
     1
 90
        0
176
     1
 90
        0
176
     1
290
     0
176
     1
 90
       13
176
     1
 40
0.0
176
     1
 90
        0
176
     1
290
     0
176
     1
290
     1
176
     1
290
     1
176
     1
290
     0
176
     1
290
     0
176
     1
290
     0
176
     1
290
     0
176
     1
290
     0
176
     1
290
     0
176
     1
 90
       50
176
     1
 40
0.0
176
     1
 40
1.0
176
     1
 90
        0
176
     1
 62
    18
420
        0
176
     1
 90
       50
176
     1
 90
        3
176
     1
 62
     5
420
      255
176
     1
290
     0
176
     1
 90
       50
176
     1
 90
       50
176
     1
 90
       50
176
     1
290
     0
176
     1
 90
       50
176
     1
 62
   256
176
     0
 40
1.0
176
     0
 90
        2
176
     1
  1
strokes_ogs.tif
176
     1
290
     0
176
     1
 40
1.0
176
     1
 40
1.0
176
     1
  0
VISUALSTYLE
  5
2D
102
{ACAD_REACTORS
330
2A
102
}
330
2A
100
AcDbVisualStyle
  2
Gouraud
 70
     2
177
     3
291
     1
 70
    58
 90
        2
176
     1
 90
        2
176
     1
 90
        1
176
     1
 90
        2
176
     1
 40
0.6
176
     1
 40
30.0
176
     1
 62
     7
420
 16777215
176
     1
 90
        0
176
     1
 90
        0
176
     1
 62
     7
176
     1
 62
   257
176
     1
 90
        1
176
     1
 90
        1
176
     1
 40
1.0
176
     1
 90
        0
176
     1
 62
     7
176
     1
 40
1.0
176
     1
 90
        1
176
     1
 90
        6
176
     1
 90
        2
176
     1
 62
     7
176
     1
 90
        5
176
     1
 90
        0
176
     1
 90
        0
176
     1
290
     0
176
     1
 90
       13
176
     1
 40
0.0
176
     1
 90
        0
176
     1
290
     0
176
     1
290
     1
176
     1
290
     1
176
     1
290
     0
176
     1
290
     0
176
     1
290
     0
176
     1
290
     0
176
     1
290
     0
176
     1
290
     0
176
     1
 90
       50
176
     1
 40
0.0
176
     1
 40
1.0
176
     1
 90
        0
176
     1
 62
    18
420
        0
176
     1
 90
       50
176
     1
 90
        3
176
     1
 62
     5
420
      255
176
     1
290
     0
176
     1
 90
       50
176
     1
 90
       50
176
     1
 90
       50
176
     1
290
     0
176
     1
 90
       50
176
     1
 62
   256
176
     0
 40
1.0
176
     0
 90
        2
176
     1
  1
strokes_ogs.tif
176
     1
290
     0
176
     1
 40
1.0
176
     1
 40
1.0
176
     1
  0
VISUALSTYLE
  5
2E
102
{ACAD_REACTORS
330
2A
102
}
330
2A
100
AcDbVisualStyle
  2
GouraudWithEdges
 70
     3
177
     3
291
     1
 70
    58
 90
        2
176
     1
 90
        2
176
     1
 90
        1
176
     1
 90
        2
176
     1
 40
0.6
176
     1
 40
30.0
176
     1
 62
     7
420
 16777215
176
     1
 90
        1
176
     1
 90
        0
176
     1
 62
     7
176
     1
 62
   257
176
     1
 90
        1
176
     1
 90
        1
176
     1
 40
1.0
176
     1
 90
        0
176
     1
 62
   257
176
     1
 40
1.0
176
     1
 90
        1
176
     1
 90
        6
176
     1
 90
        2
176
     1
 62
     7
176
     1
 90
        5
176
     1
 90
        0
176
     1
 90
        0
176
     1
290
     0
176
     1
 90
       13
176
     1
 40
0.0
176
     1
 90
        0
176
     1
290
     0
176
     1
290
     1
176
     1
290
     1
176
     1
290
     0
176
     1
290
     0
176
     1
290
     0
176
     1
290
     0
176
     1
290
     0
176
     1
290
     0
176
     1
 90
       50
176
     1
 40
0.0
176
     1
 40
1.0
176
     1
 90
        0
176
     1
 62
    18
420
        0
176
     1
 90
       50
176
     1
 90
        3
176
     1
 62
     5
420
      255
176
     1
290
     0
176
     1
 90
       50
176
     1
 90
       50
176
     1
 90
       50
176
     1
290
     0
176
     1
 90
       50
176
     1
 62
   256
176
     0
 40
1.0
176
     0
 90
        2
176
     1
  1
strokes_ogs.tif
176
     1
290
     0
176
     1
 40
1.0
176
     1
 40
1.0
176
     1
  0
VISUALSTYLE
  5
31
102
{ACAD_REACTORS
330
2A
102
}
330
2A
100
AcDbVisualStyle
  2
Hidden
 70
     6
177
     3
291
     0
 70
    58
 90
        1
176
     1
 90
        2
176
     1
 90
        2
176
     1
 90
        0
176
     1
 40
0.6
176
     1
 40
30.0
176
     1
 62
     7
420
 16777215
176
     1
 90
        2
176
     1
 90
        2
176
     1
 62
     7
176
     1
 62
   257
176
     1
 90
        2
176
     1
 90
        1
176
     1
 40
40.0
176
     1
 90
        0
176
     1
 62
   257
176
     1
 40
1.0
176
     1
 90
        1
176
     1
 90
        6
176
     1
 90
        2
176
     1
 62
     7
176
     1
 90
        3
176
     1
 90
        0
176
     1
 90
        0
176
     1
290
     0
176
     1
 90
        1
176
     1
 40
0.0
176
     1
 90
        0
176
     1
290
     0
176
     1
290
     1
176
     1
290
     1
176
     1
290
     0
176
     1
290
     0
176
     1
290
     0
176
     1
290
     0
176
     1
290
     0
176
     1
290
     0
176
     1
 90
       50
176
     1
 40
0.0
176
     1
 40
1.0
176
     1
 90
        0
176
     1
 62
    18
420
        0
176
     1
 90
       50
176
     1
 90
        3
176
     1
 62
     5
420
      255
176
     1
290
     0
176
     1
 90
       50
176
     1
 90
       50
176
     1
 90
       50
176
     1
290
     0
176
     1
 90
       50
176
     1
 62
   256
176
     0
 40
1.0
176
     0
 90
        2
176
     1
  1
strokes_ogs.tif
176
     1
290
     0
176
     1
 40
1.0
176
     1
 40
1.0
176
     1
  0
VISUALSTYLE
  5
3B
102
{ACAD_REACTORS
330
2A
102
}
330
2A
100
AcDbVisualStyle
  2
JitterOff
 70
    20
177
     3
291
     1
 70
    58
 90
        2
176
     0
 90
        2
176
     0
 90
        0
176
     0
 90
        0
176
     0
 40
0.6
176
     0
 40
30.0
176
     0
 62
     7
420
 16777215
176
     0
 90
        1
176
     0
 90
        4
176
     0
 62
     7
176
     0
 62
   257
176
     0
 90
        1
176
     0
 90
        1
176
     0
 40
1.0
176
     0
 90
       10
176
     2
 62
     7
176
     0
 40
1.0
176
     0
 90
        1
176
     0
 90
        6
176
     0
 90
        2
176
     0
 62
     7
176
     0
 90
        5
176
     0
 90
        0
176
     0
 90
        0
176
     0
290
     0
176
     0
 90
        1
176
     0
 40
0.0
176
     0
 90
        0
176
     0
290
     0
176
     0
290
     1
176
     0
290
     1
176
     0
290
     0
176
     0
290
     0
176
     0
290
     0
176
     0
290
     0
176
     0
290
     0
176
     0
290
     0
176
     0
 90
       50
176
     0
 40
0.0
176
     0
 40
1.0
176
     0
 90
        0
176
     0
 62
    18
420
        0
176
     0
 90
       50
176
     0
 90
        3
176
     0
 62
     5
420
      255
176
     0
290
     0
176
     0
 90
       50
176
     0
 90
       50
176
     0
 90
       50
176
     0
290
     0
176
     0
 90
       50
176
     0
 62
   256
176
     0
 40
1.0
176
     0
 90
        2
176
     0
  1
strokes_ogs.tif
176
     0
290
     0
176
     0
 40
1.0
176
     0
 40
1.0
176
     0
  0
VISUALSTYLE
  5
38
102
{ACAD_REACTORS
330
2A
102
}
330
2A
100
AcDbVisualStyle
  2
Linepattern
 70
    14
177
     3
291
     1
 70
    58
 90
        2
176
     1
 90
        2
176
     1
 90
        0
176
     1
 90
        0
176
     1
 40
0.6
176
     1
 40
30.0
176
     1
 62
     7
420
 16777215
176
     1
 90
        1
176
     1
 90
        4
176
     1
 62
     7
176
     1
 62
   257
176
     1
 90
        7
176
     1
 90
        7
176
     1
 40
1.0
176
     1
 90
        8
176
     1
 62
     7
176
     1
 40
1.0
176
     1
 90
        1
176
     1
 90
        6
176
     1
 90
        2
176
     1
 62
     7
176
     1
 90
        5
176
     1
 90
        0
176
     1
 90
        0
176
     1
290
     0
176
     1
 90
        1
176
     1
 40
0.0
176
     1
 90
        0
176
     1
290
     0
176
     1
290
     1
176
     1
290
     1
176
     1
290
     0
176
     1
290
     0
176
     1
290
     0
176
     1
290
     0
176
     1
290
     0
176
     1
290
     0
176
     1
 90
       50
176
     1
 40
0.0
176
     1
 40
1.0
176
     1
 90
        0
176
     1
 62
    18
420
        0
176
     1
 90
       50
176
     1
 90
        3
176
     1
 62
     5
420
      255
176
     1
290
     0
176
     1
 90
       50
176
     1
 90
       50
176
     1
 90
       50
176
     1
290
     0
176
     1
 90
       50
176
     1
 62
   256
176
     0
 40
1.0
176
     0
 90
        2
176
     1
  1
strokes_ogs.tif
176
     1
290
     0
176
     1
 40
1.0
176
     1
 40
1.0
176
     1
  0
VISUALSTYLE
  5
3C
102
{ACAD_REACTORS
330
2A
102
}
330
2A
100
AcDbVisualStyle
  2
OverhangOff
 70
    21
177
     3
291
     1
 70
    58
 90
        2
176
     0
 90
        2
176
     0
 90
        0
176
     0
 90
        0
176
     0
 40
0.6
176
     0
 40
30.0
176
     0
 62
     7
420
 16777215
176
     0
 90
        1
176
     0
 90
        4
176
     0
 62
     7
176
     0
 62
   257
176
     0
 90
        1
176
     0
 90
        1
176
     0
 40
1.0
176
     0
 90
        9
176
     2
 62
     7
176
     0
 40
1.0
176
     0
 90
        1
176
     0
 90
        6
176
     0
 90
        2
176
     0
 62
     7
176
     0
 90
        5
176
     0
 90
        0
176
     0
 90
        0
176
     0
290
     0
176
     0
 90
        1
176
     0
 40
0.0
176
     0
 90
        0
176
     0
290
     0
176
     0
290
     1
176
     0
290
     1
176
     0
290
     0
176
     0
290
     0
176
     0
290
     0
176
     0
290
     0
176
     0
290
     0
176
     0
290
     0
176
     0
 90
       50
176
     0
 40
0.0
176
     0
 40
1.0
176
     0
 90
        0
176
     0
 62
    18
420
        0
176
     0
 90
       50
176
     0
 90
        3
176
     0
 62
     5
420
      255
176
     0
290
     0
176
     0
 90
       50
176
     0
 90
       50
176
     0
 90
       50
176
     0
290
     0
176
     0
 90
       50
176
     0
 62
   256
176
     0
 40
1.0
176
     0
 90
        2
176
     0
  1
strokes_ogs.tif
176
     0
290
     0
176
     0
 40
1.0
176
     0
 40
1.0
176
     0
  0
VISUALSTYLE
  5
33
102
{ACAD_REACTORS
330
2A
102
}
330
2A
100
AcDbVisualStyle
  2
Realistic
 70
     8
177
     3
291
     0
 70
    58
 90
        2
176
     1
 90
        3
176
     1
 90
        0
176
     1
 90
        2
176
     1
 40
0.6
176
     1
 40
30.0
176
     1
 62
     7
420
 16777215
176
     1
 90
        0
176
     1
 90
        0
176
     1
 62
     7
176
     1
 62
   257
176
     1
 90
        1
176
     1
 90
        1
176
     1
 40
1.0
176
     1
 90
        8
176
     1
 62
   257
176
     1
 40
1.0
176
     1
 90
        1
176
     1
 90
        6
176
     1
 90
        2
176
     1
 62
     7
176
     1
 90
        3
176
     1
 90
        0
176
     1
 90
        0
176
     1
290
     0
176
     1
 90
       13
176
     1
 40
0.0
176
     1
 90
        0
176
     1
290
     0
176
     1
290
     1
176
     1
290
     1
176
     1
290
     0
176
     1
290
     0
176
     1
290
     0
176
     1
290
     0
176
     1
290
     0
176
     1
290
     0
176
     1
 90
       50
176
     1
 40
0.0
176
     1
 40
1.0
176
     1
 90
        0
176
     1
 62
    18
420
        0
176
     1
 90
       50
176
     1
 90
        3
176
     1
 62
     5
420
      255
176
     1
290
     0
176
     1
 90
       50
176
     1
 90
       50
176
     1
 90
       50
176
     1
290
     0
176
     1
 90
       50
176
     1
 62
   256
176
     0
 40
1.0
176
     0
 90
        2
176
     1
  1
strokes_ogs.tif
176
     1
290
     0
176
     1
 40
1.0
176
     1
 40
1.0
176
     1
  0
VISUALSTYLE
  5
42
102
{ACAD_REACTORS
330
2A
102
}
330
2A
100
AcDbVisualStyle
  2
Shaded
 70
    27
177
     3
291
     0
 70
    58
 90
        2
176
     1
 90
        2
176
     1
 90
        1
176
     1
 90
        2
176
     1
 40
0.6
176
     1
 40
30.0
176
     1
 62
     7
420
 16777215
176
     1
 90
        0
176
     1
 90
        4
176
     1
 62
     7
176
     1
 62
   257
176
     1
 90
        1
176
     1
 90
        1
176
     1
 40
1.0
176
     1
 90
        8
176
     1
 62
   257
176
     1
 40
1.0
176
     1
 90
        1
176
     1
 90
        6
176
     1
 90
        2
176
     1
 62
     8
420
  7895160
176
     1
 90
        3
176
     1
 90
        0
176
     1
 90
        0
176
     1
290
     0
176
     1
 90
        5
176
     1
 40
0.0
176
     1
 90
        0
176
     1
290
     0
176
     1
290
     1
176
     1
290
     1
176
     1
290
     0
176
     1
290
     0
176
     1
290
     0
176
     1
290
     0
176
     1
290
     0
176
     1
290
     0
176
     1
 90
       50
176
     1
 40
0.0
176
     1
 40
1.0
176
     1
 90
        0
176
     1
 62
    18
420
        0
176
     1
 90
       50
176
     1
 90
        3
176
     1
 62
     5
420
      255
176
     1
290
     0
176
     1
 90
       50
176
     1
 90
       50
176
     1
 90
       50
176
     1
290
     0
176
     1
 90
       50
176
     1
 62
   256
176
     0
 40
1.0
176
     0
 90
        2
176
     1
  1
strokes_ogs.tif
176
     1
290
     0
176
     1
 40
1.0
176
     1
 40
1.0
176
     1
  0
VISUALSTYLE
  5
41
102
{ACAD_REACTORS
330
2A
102
}
330
2A
100
AcDbVisualStyle
  2
Shaded with edges
 70
    26
177
     3
291
     0
 70
    58
 90
        2
176
     1
 90
        2
176
     1
 90
        1
176
     1
 90
        2
176
     1
 40
0.6
176
     1
 40
30.0
176
     1
 62
     7
420
 16777215
176
     1
 90
        1
176
     1
 90
       10
176
     1
 62
     7
176
     1
 62
   257
176
     1
 90
        2
176
     1
 90
        1
176
     1
 40
1.0
176
     1
 90
        8
176
     1
 62
   257
176
     1
 40
1.0
176
     1
 90
        1
176
     1
 90
        6
176
     1
 90
        2
176
     1
 62
     7
176
     1
 90
        3
176
     1
 90
        0
176
     1
 90
        0
176
     1
290
     0
176
     1
 90
        5
176
     1
 40
0.0
176
     1
 90
        0
176
     1
290
     0
176
     1
290
     1
176
     1
290
     1
176
     1
290
     0
176
     1
290
     0
176
     1
290
     0
176
     1
290
     0
176
     1
290
     0
176
     1
290
     0
176
     1
 90
       50
176
     1
 40
0.0
176
     1
 40
1.0
176
     1
 90
        0
176
     1
 62
    18
420
        0
176
     1
 90
       50
176
     1
 90
        3
176
     1
 62
     5
420
      255
176
     1
290
     0
176
     1
 90
       50
176
     1
 90
       50
176
     1
 90
       50
176
     1
290
     0
176
     1
 90
       50
176
     1
 62
   256
176
     0
 40
1.0
176
     0
 90
        2
176
     1
  1
strokes_ogs.tif
176
     1
290
     0
176
     1
 40
1.0
176
     1
 40
1.0
176
     1
  0
VISUALSTYLE
  5
3E
102
{ACAD_REACTORS
330
2A
102
}
330
2A
100
AcDbVisualStyle
  2
Shades of Gray
 70
    23
177
     3
291
     0
 70
    58
 90
        2
176
     1
 90
        2
176
     1
 90
        3
176
     1
 90
        0
176
     1
 40
0.6
176
     1
 40
30.0
176
     1
 62
     7
420
 16777215
176
     1
 90
        2
176
     1
 90
        2
176
     1
 62
     7
176
     1
 62
     7
176
     1
 90
        1
176
     1
 90
        1
176
     1
 40
40.0
176
     1
 90
        8
176
     1
 62
     7
176
     1
 40
1.0
176
     1
 90
        1
176
     1
 90
        6
176
     1
 90
        2
176
     1
 62
     7
176
     1
 90
        3
176
     1
 90
        0
176
     1
 90
        0
176
     1
290
     0
176
     1
 90
        1
176
     1
 40
0.0
176
     1
 90
        0
176
     1
290
     0
176
     1
290
     1
176
     1
290
     1
176
     1
290
     0
176
     1
290
     0
176
     1
290
     0
176
     1
290
     0
176
     1
290
     0
176
     1
290
     0
176
     1
 90
       50
176
     1
 40
0.0
176
     1
 40
1.0
176
     1
 90
        0
176
     1
 62
    18
420
        0
176
     1
 90
       50
176
     1
 90
        3
176
     1
 62
     5
420
      255
176
     1
290
     0
176
     1
 90
       50
176
     1
 90
       50
176
     1
 90
       50
176
     1
290
     0
176
     1
 90
       50
176
     1
 62
   256
176
     0
 40
1.0
176
     0
 90
        2
176
     1
  1
strokes_ogs.tif
176
     1
290
     0
176
     1
 40
1.0
176
     1
 40
1.0
176
     1
  0
VISUALSTYLE
  5
3F
102
{ACAD_REACTORS
330
2A
102
}
330
2A
100
AcDbVisualStyle
  2
Sketchy
 70
    24
177
     3
291
     0
 70
    58
 90
        1
176
     1
 90
        2
176
     1
 90
        2
176
     1
 90
        0
176
     1
 40
0.6
176
     1
 40
30.0
176
     1
 62
     7
420
 16777215
176
     1
 90
        2
176
     1
 90
        2
176
     1
 62
     7
176
     1
 62
     7
176
     1
 90
        1
176
     1
 90
        1
176
     1
 40
40.0
176
     1
 90
       11
176
     1
 62
     7
176
     1
 40
1.0
176
     1
 90
        1
176
     1
 90
        6
176
     1
 90
        2
176
     1
 62
     7
176
     1
 90
        6
176
     1
 90
        0
176
     1
 90
        0
176
     1
290
     0
176
     1
 90
        1
176
     1
 40
0.0
176
     1
 90
        0
176
     1
290
     0
176
     1
290
     1
176
     1
290
     1
176
     1
290
     0
176
     1
290
     0
176
     1
290
     0
176
     1
290
     0
176
     1
290
     0
176
     1
290
     0
176
     1
 90
       50
176
     1
 40
0.0
176
     1
 40
1.0
176
     1
 90
        0
176
     1
 62
    18
420
        0
176
     1
 90
       50
176
     1
 90
        3
176
     1
 62
     5
420
      255
176
     1
290
     0
176
     1
 90
       50
176
     1
 90
       50
176
     1
 90
       50
176
     1
290
     0
176
     1
 90
       50
176
     1
 62
   256
176
     0
 40
1.0
176
     0
 90
        2
176
     1
  1
strokes_ogs.tif
176
     1
290
     0
176
     1
 40
1.0
176
     1
 40
1.0
176
     1
  0
VISUALSTYLE
  5
37
102
{ACAD_REACTORS
330
2A
102
}
330
2A
100
AcDbVisualStyle
  2
Thicken
 70
    13
177
     3
291
     1
 70
    58
 90
        2
176
     1
 90
        2
176
     1
 90
        0
176
     1
 90
        0
176
     1
 40
0.6
176
     1
 40
30.0
176
     1
 62
     7
420
 16777215
176
     1
 90
        1
176
     1
 90
        4
176
     1
 62
     7
176
     1
 62
   257
176
     1
 90
        1
176
     1
 90
        1
176
     1
 40
1.0
176
     1
 90
       12
176
     1
 62
     7
176
     1
 40
1.0
176
     1
 90
        1
176
     1
 90
        6
176
     1
 90
        2
176
     1
 62
     7
176
     1
 90
        5
176
     1
 90
        0
176
     1
 90
        0
176
     1
290
     0
176
     1
 90
        1
176
     1
 40
0.0
176
     1
 90
        0
176
     1
290
     0
176
     1
290
     1
176
     1
290
     1
176
     1
290
     0
176
     1
290
     0
176
     1
290
     0
176
     1
290
     0
176
     1
290
     0
176
     1
290
     0
176
     1
 90
       50
176
     1
 40
0.0
176
     1
 40
1.0
176
     1
 90
        0
176
     1
 62
    18
420
        0
176
     1
 90
       50
176
     1
 90
        3
176
     1
 62
     5
420
      255
176
     1
290
     0
176
     1
 90
       50
176
     1
 90
       50
176
     1
 90
       50
176
     1
290
     0
176
     1
 90
       50
176
     1
 62
   256
176
     0
 40
1.0
176
     0
 90
        2
176
     1
  1
strokes_ogs.tif
176
     1
290
     0
176
     1
 40
1.0
176
     1
 40
1.0
176
     1
  0
VISUALSTYLE
  5
30
102
{ACAD_REACTORS
330
2A
102
}
330
2A
100
AcDbVisualStyle
  2
Wireframe
 70
     5
177
     3
291
     0
 70
    58
 90
        0
176
     1
 90
        2
176
     1
 90
        0
176
     1
 90
        0
176
     1
 40
0.6
176
     1
 40
30.0
176
     1
 62
     7
420
 16777215
176
     1
 90
        1
176
     1
 90
        4
176
     1
 62
     7
176
     1
 62
   257
176
     1
 90
        1
176
     1
 90
        1
176
     1
 40
1.0
176
     1
 90
        0
176
     1
 62
   257
176
     1
 40
1.0
176
     1
 90
        1
176
     1
 90
        6
176
     1
 90
        2
176
     1
 62
     7
176
     1
 90
        3
176
     1
 90
        0
176
     1
 90
        0
176
     1
290
     0
176
     1
 90
        1
176
     1
 40
0.0
176
     1
 90
        0
176
     1
290
     0
176
     1
290
     1
176
     1
290
     1
176
     1
290
     0
176
     1
290
     0
176
     1
290
     0
176
     1
290
     0
176
     1
290
     0
176
     1
290
     0
176
     1
 90
       50
176
     1
 40
0.0
176
     1
 40
1.0
176
     1
 90
        0
176
     1
 62
    18
420
        0
176
     1
 90
       50
176
     1
 90
        3
176
     1
 62
     5
420
      255
176
     1
290
     0
176
     1
 90
       50
176
     1
 90
       50
176
     1
 90
       50
176
     1
290
     0
176
     1
 90
       50
176
     1
 62
   256
176
     0
 40
1.0
176
     0
 90
        2
176
     1
  1
strokes_ogs.tif
176
     1
290
     0
176
     1
 40
1.0
176
     1
 40
1.0
176
     1
  0
VISUALSTYLE
  5
40
102
{ACAD_REACTORS
330
2A
102
}
330
2A
100
AcDbVisualStyle
  2
X-Ray
 70
    25
177
     3
291
     0
 70
    58
 90
        2
176
     1
 90
        2
176
     1
 90
        1
176
     1
 90
        1
176
     1
 40
0.5
176
     1
 40
30.0
176
     1
 62
     7
420
 16777215
176
     1
 90
        1
176
     1
 90
        0
176
     1
 62
     7
176
     1
 62
   257
176
     1
 90
        1
176
     1
 90
        1
176
     1
 40
1.0
176
     1
 90
        8
176
     1
 62
     7
176
     1
 40
1.0
176
     1
 90
        1
176
     1
 90
        6
176
     1
 90
        2
176
     1
 62
     7
176
     1
 90
        3
176
     1
 90
        0
176
     1
 90
        0
176
     1
290
     0
176
     1
 90
       13
176
     1
 40
0.0
176
     1
 90
        0
176
     1
290
     0
176
     1
290
     1
176
     1
290
     1
176
     1
290
     0
176
     1
290
     0
176
     1
290
     0
176
     1
290
     0
176
     1
290
     0
176
     1
290
     0
176
     1
 90
       50
176
     1
 40
0.0
176
     1
 40
1.0
176
     1
 90
        0
176
     1
 62
    18
420
        0
176
     1
 90
       50
176
     1
 90
        3
176
     1
 62
     5
420
      255
176
     1
290
     0
176
     1
 90
       50
176
     1
 90
       50
176
     1
 90
       50
176
     1
290
     0
176
     1
 90
       50
176
     1
 62
   256
176
     0
 40
1.0
176
     0
 90
        2
176
     1
  1
strokes_ogs.tif
176
     1
290
     0
176
     1
 40
1.0
176
     1
 40
1.0
176
     1
  0
DICTIONARYVAR
  5
280
102
{ACAD_REACTORS
330
27F
102
}
330
27F
100
DictionaryVariables
280
     0
  1
1:1
  0
DICTIONARYVAR
  5
285
102
{ACAD_REACTORS
330
27F
102
}
330
27F
100
DictionaryVariables
280
     0
  1
Standard
  0
DICTIONARYVAR
  5
284
102
{ACAD_REACTORS
330
27F
102
}
330
27F
100
DictionaryVariables
280
     0
  1
Standard
  0
DICTIONARY
  5
281
330
6A
100
AcDbDictionary
280
     1
281
     1
  3
ACAD_ROUNDTRIP_2008_TABLESTYLE_CELLSTYLEMAP
360
282
  0
CELLSTYLEMAP
  5
282
102
{ACAD_REACTORS
330
281
102
}
330
281
100
AcDbCellStyleMap
 90
        3
300
CELLSTYLE
  1
TABLEFORMAT_BEGIN
 90
        5
170
     1
 91
        0
 92
    32768
 62
   257
 93
        1
300
CONTENTFORMAT
  1
CONTENTFORMAT_BEGIN
 90
        0
 91
        0
 92
        4
 93
        0
300

 40
0.0
140
1.0
 94
        5
 62
     0
340
11
144
0.25
309
CONTENTFORMAT_END
171
     1
301
MARGIN
  1
CELLMARGIN_BEGIN
 40
0.06
 40
0.06
 40
0.06
 40
0.06
 40
0.06
 40
0.06
309
CELLMARGIN_END
 94
        6
 95
        1
302
GRIDFORMAT
  1
GRIDFORMAT_BEGIN
 90
        0
 91
        1
 62
     0
 92
       -2
340
14
 93
        0
 40
0.045
309
GRIDFORMAT_END
 95
        2
302
GRIDFORMAT
  1
GRIDFORMAT_BEGIN
 90
        0
 91
        1
 62
     0
 92
       -2
340
14
 93
        0
 40
0.045
309
GRIDFORMAT_END
 95
        4
302
GRIDFORMAT
  1
GRIDFORMAT_BEGIN
 90
        0
 91
        1
 62
     0
 92
       -2
340
14
 93
        0
 40
0.045
309
GRIDFORMAT_END
 95
        8
302
GRIDFORMAT
  1
GRIDFORMAT_BEGIN
 90
        0
 91
        1
 62
     0
 92
       -2
340
14
 93
        0
 40
0.045
309
GRIDFORMAT_END
 95
       16
302
GRIDFORMAT
  1
GRIDFORMAT_BEGIN
 90
        0
 91
        1
 62
     0
 92
       -2
340
14
 93
        0
 40
0.045
309
GRIDFORMAT_END
 95
       32
302
GRIDFORMAT
  1
GRIDFORMAT_BEGIN
 90
        0
 91
        1
 62
     0
 92
       -2
340
14
 93
        0
 40
0.045
309
GRIDFORMAT_END
309
TABLEFORMAT_END
  1
CELLSTYLE_BEGIN
 90
        1
 91
        1
300
_TITLE
309
CELLSTYLE_END
300
CELLSTYLE
  1
TABLEFORMAT_BEGIN
 90
        5
170
     1
 91
        0
 92
        0
 62
   257
 93
        1
300
CONTENTFORMAT
  1
CONTENTFORMAT_BEGIN
 90
        0
 91
        0
 92
        4
 93
        0
300

 40
0.0
140
1.0
 94
        5
 62
     0
340
11
144
0.18
309
CONTENTFORMAT_END
171
     1
301
MARGIN
  1
CELLMARGIN_BEGIN
 40
0.06
 40
0.06
 40
0.06
 40
0.06
 40
0.06
 40
0.06
309
CELLMARGIN_END
 94
        6
 95
        1
302
GRIDFORMAT
  1
GRIDFORMAT_BEGIN
 90
        0
 91
        1
 62
     0
 92
       -2
340
14
 93
        0
 40
0.045
309
GRIDFORMAT_END
 95
        2
302
GRIDFORMAT
  1
GRIDFORMAT_BEGIN
 90
        0
 91
        1
 62
     0
 92
       -2
340
14
 93
        0
 40
0.045
309
GRIDFORMAT_END
 95
        4
302
GRIDFORMAT
  1
GRIDFORMAT_BEGIN
 90
        0
 91
        1
 62
     0
 92
       -2
340
14
 93
        0
 40
0.045
309
GRIDFORMAT_END
 95
        8
302
GRIDFORMAT
  1
GRIDFORMAT_BEGIN
 90
        0
 91
        1
 62
     0
 92
       -2
340
14
 93
        0
 40
0.045
309
GRIDFORMAT_END
 95
       16
302
GRIDFORMAT
  1
GRIDFORMAT_BEGIN
 90
        0
 91
        1
 62
     0
 92
       -2
340
14
 93
        0
 40
0.045
309
GRIDFORMAT_END
 95
       32
302
GRIDFORMAT
  1
GRIDFORMAT_BEGIN
 90
        0
 91
        1
 62
     0
 92
       -2
340
14
 93
        0
 40
0.045
309
GRIDFORMAT_END
309
TABLEFORMAT_END
  1
CELLSTYLE_BEGIN
 90
        2
 91
        1
300
_HEADER
309
CELLSTYLE_END
300
CELLSTYLE
  1
TABLEFORMAT_BEGIN
 90
        5
170
     1
 91
        0
 92
        0
 62
   257
 93
        1
300
CONTENTFORMAT
  1
CONTENTFORMAT_BEGIN
 90
        0
 91
        0
 92
        4
 93
        0
300

 40
0.0
140
1.0
 94
        2
 62
     0
340
11
144
0.18
309
CONTENTFORMAT_END
171
     1
301
MARGIN
  1
CELLMARGIN_BEGIN
 40
0.06
 40
0.06
 40
0.06
 40
0.06
 40
0.06
 40
0.06
309
CELLMARGIN_END
 94
        6
 95
        1
302
GRIDFORMAT
  1
GRIDFORMAT_BEGIN
 90
        0
 91
        1
 62
     0
 92
       -2
340
14
 93
        0
 40
0.045
309
GRIDFORMAT_END
 95
        2
302
GRIDFORMAT
  1
GRIDFORMAT_BEGIN
 90
        0
 91
        1
 62
     0
 92
       -2
340
14
 93
        0
 40
0.045
309
GRIDFORMAT_END
 95
        4
302
GRIDFORMAT
  1
GRIDFORMAT_BEGIN
 90
        0
 91
        1
 62
     0
 92
       -2
340
14
 93
        0
 40
0.045
309
GRIDFORMAT_END
 95
        8
302
GRIDFORMAT
  1
GRIDFORMAT_BEGIN
 90
        0
 91
        1
 62
     0
 92
       -2
340
14
 93
        0
 40
0.045
309
GRIDFORMAT_END
 95
       16
302
GRIDFORMAT
  1
GRIDFORMAT_BEGIN
 90
        0
 91
        1
 62
     0
 92
       -2
340
14
 93
        0
 40
0.045
309
GRIDFORMAT_END
 95
       32
302
GRIDFORMAT
  1
GRIDFORMAT_BEGIN
 90
        0
 91
        1
 62
     0
 92
       -2
340
14
 93
        0
 40
0.045
309
GRIDFORMAT_END
309
TABLEFORMAT_END
  1
CELLSTYLE_BEGIN
 90
        3
 91
        2
300
_DATA
309
CELLSTYLE_END
  0
ENDSEC
  0
EOF