0
SECTION
  2
HEADER
  9
$ACADVER
  1
AC1027
  9
$ACADMAINTVER
 70
     8
  9
$DWGCODEPAGE
  3
ANSI_1252
  9
$REQUIREDVERSIONS
160
                 0
  9
$COMMENTS
  1
File was created by Cadenas
  9
$CUSTOMPROPERTYTAG
  1
NN
  9
$CUSTOMPROPERTY
  1
Imperial - IP Piloted Flange Contact Seal
  9
$CUSTOMPROPERTYTAG
  1
NT
  9
$CUSTOMPROPERTY
  1
Imperial Piloted Flange Bearings
  9
$CUSTOMPROPERTYTAG
  1
NB
  9
$CUSTOMPROPERTY
  1
069807
  9
$CUSTOMPROPERTYTAG
  1
NBSYN
  9
$CUSTOMPROPERTY
  1
$PN.
  9
$CUSTOMPROPERTYTAG
  1
LINA
  9
$CUSTOMPROPERTY
  1
069807
  9
$CUSTOMPROPERTYTAG
  1
SS
  9
$CUSTOMPROPERTY
  1
1-1/4
  9
$CUSTOMPROPERTYTAG
  1
PN
  9
$CUSTOMPROPERTY
  1
069807
  9
$CUSTOMPROPERTYTAG
  1
DESCRIPTION
  9
$CUSTOMPROPERTY
  1
FC-IP-104R
  9
$CUSTOMPROPERTYTAG
  1
EF
  9
$CUSTOMPROPERTY
  1
Non-Expansion Type
  9
$CUSTOMPROPERTYTAG
  1
ST
  9
$CUSTOMPROPERTY
  1
Contact  Seal
  9
$CUSTOMPROPERTYTAG
  1
A
  9
$CUSTOMPROPERTY
  1
2-5/8
  9
$CUSTOMPROPERTYTAG
  1
B
  9
$CUSTOMPROPERTY
  1
5-1/4
  9
$CUSTOMPROPERTYTAG
  1
C
  9
$CUSTOMPROPERTY
  1
1-27/32
  9
$CUSTOMPROPERTYTAG
  1
D
  9
$CUSTOMPROPERTY
  1
3-3/32
  9
$CUSTOMPROPERTYTAG
  1
DD
  9
$CUSTOMPROPERTY
  1
4-3/8
  9
$CUSTOMPROPERTYTAG
  1
E
  9
$CUSTOMPROPERTY
  1
3/4
  9
$CUSTOMPROPERTYTAG
  1
F
  9
$CUSTOMPROPERTY
  1
3/8
  9
$CUSTOMPROPERTYTAG
  1
G
  9
$CUSTOMPROPERTY
  1
1-25/64
  9
$CUSTOMPROPERTYTAG
  1
H
  9
$CUSTOMPROPERTY
  1
1/2
  9
$CUSTOMPROPERTYTAG
  1
K
  9
$CUSTOMPROPERTY
  1
3.625
  9
$CUSTOMPROPERTYTAG
  1
L
  9
$CUSTOMPROPERTY
  1
2-23/32
  9
$CUSTOMPROPERTYTAG
  1
M
  9
$CUSTOMPROPERTY
  1
3/8-16
  9
$CUSTOMPROPERTYTAG
  1
N
  9
$CUSTOMPROPERTY
  1
2-39/64
  9
$CUSTOMPROPERTYTAG
  1
P
  9
$CUSTOMPROPERTY
  1
1-15/64
  9
$CUSTOMPROPERTYTAG
  1
Q
  9
$CUSTOMPROPERTY
  1
1-7/32
  9
$CUSTOMPROPERTYTAG
  1
X
  9
$CUSTOMPROPERTY
  1
3/16
  9
$CUSTOMPROPERTYTAG
  1
Y
  9
$CUSTOMPROPERTY
  1
0.020
  9
$CUSTOMPROPERTYTAG
  1
Z
  9
$CUSTOMPROPERTY
  1
1-51/64
  9
$CUSTOMPROPERTYTAG
  1
COMPANY
  9
$CUSTOMPROPERTY
  1
baldor
  9
$INSBASE
 10
0.0
 20
0.0
 30
0.0
  9
$EXTMIN
 10
1.000000000000000E+20
 20
1.000000000000000E+20
 30
1.000000000000000E+20
  9
$EXTMAX
 10
-1.000000000000000E+20
 20
-1.000000000000000E+20
 30
-1.000000000000000E+20
  9
$LIMMIN
 10
0.0
 20
0.0
  9
$LIMMAX
 10
12.0
 20
9.0
  9
$ORTHOMODE
 70
     0
  9
$REGENMODE
 70
     1
  9
$FILLMODE
 70
     1
  9
$QTEXTMODE
 70
     0
  9
$MIRRTEXT
 70
     1
  9
$LTSCALE
 40
1.0
  9
$ATTMODE
 70
     1
  9
$TEXTSIZE
 40
0.2
  9
$TRACEWID
 40
0.05
  9
$TEXTSTYLE
  7
Standard
  9
$CLAYER
  8
0
  9
$CELTYPE
  6
ByLayer
  9
$CECOLOR
 62
   256
  9
$CELTSCALE
 40
1.0
  9
$DISPSILH
 70
     0
  9
$DIMSCALE
 40
1.0
  9
$DIMASZ
 40
0.18
  9
$DIMEXO
 40
0.0625
  9
$DIMDLI
 40
0.38
  9
$DIMRND
 40
0.0
  9
$DIMDLE
 40
0.0
  9
$DIMEXE
 40
0.18
  9
$DIMTP
 40
0.0
  9
$DIMTM
 40
0.0
  9
$DIMTXT
 40
0.18
  9
$DIMCEN
 40
0.09
  9
$DIMTSZ
 40
0.0
  9
$DIMTOL
 70
     0
  9
$DIMLIM
 70
     0
  9
$DIMTIH
 70
     1
  9
$DIMTOH
 70
     1
  9
$DIMSE1
 70
     0
  9
$DIMSE2
 70
     0
  9
$DIMTAD
 70
     0
  9
$DIMZIN
 70
     0
  9
$DIMBLK
  1

  9
$DIMASO
 70
     1
  9
$DIMSHO
 70
     1
  9
$DIMPOST
  1

  9
$DIMAPOST
  1

  9
$DIMALT
 70
     0
  9
$DIMALTD
 70
     2
  9
$DIMALTF
 40
25.4
  9
$DIMLFAC
 40
1.0
  9
$DIMTOFL
 70
     0
  9
$DIMTVP
 40
0.0
  9
$DIMTIX
 70
     0
  9
$DIMSOXD
 70
     0
  9
$DIMSAH
 70
     0
  9
$DIMBLK1
  1

  9
$DIMBLK2
  1

  9
$DIMSTYLE
  2
Standard
  9
$DIMCLRD
 70
     0
  9
$DIMCLRE
 70
     0
  9
$DIMCLRT
 70
     0
  9
$DIMTFAC
 40
1.0
  9
$DIMGAP
 40
0.09
  9
$DIMJUST
 70
     0
  9
$DIMSD1
 70
     0
  9
$DIMSD2
 70
     0
  9
$DIMTOLJ
 70
     1
  9
$DIMTZIN
 70
     0
  9
$DIMALTZ
 70
     0
  9
$DIMALTTZ
 70
     0
  9
$DIMUPT
 70
     0
  9
$DIMDEC
 70
     4
  9
$DIMTDEC
 70
     4
  9
$DIMALTU
 70
     2
  9
$DIMALTTD
 70
     2
  9
$DIMTXSTY
  7
Standard
  9
$DIMAUNIT
 70
     0
  9
$DIMADEC
 70
     0
  9
$DIMALTRND
 40
0.0
  9
$DIMAZIN
 70
     0
  9
$DIMDSEP
 70
    46
  9
$DIMATFIT
 70
     3
  9
$DIMFRAC
 70
     0
  9
$DIMLDRBLK
  1

  9
$DIMLUNIT
 70
     2
  9
$DIMLWD
 70
    -2
  9
$DIMLWE
 70
    -2
  9
$DIMTMOVE
 70
     0
  9
$DIMFXL
 40
1.0
  9
$DIMFXLON
 70
     0
  9
$DIMJOGANG
 40
0.7853981633974483
  9
$DIMTFILL
 70
     0
  9
$DIMTFILLCLR
 70
     0
  9
$DIMARCSYM
 70
     0
  9
$DIMLTYPE
  6

  9
$DIMLTEX1
  6

  9
$DIMLTEX2
  6

  9
$DIMTXTDIRECTION
 70
     0
  9
$LUNITS
 70
     2
  9
$LUPREC
 70
     4
  9
$SKETCHINC
 40
0.1
  9
$FILLETRAD
 40
0.5
  9
$AUNITS
 70
     0
  9
$AUPREC
 70
     0
  9
$MENU
  1
.
  9
$ELEVATION
 40
0.0
  9
$PELEVATION
 40
0.0
  9
$THICKNESS
 40
0.0
  9
$LIMCHECK
 70
     0
  9
$CHAMFERA
 40
0.0
  9
$CHAMFERB
 40
0.0
  9
$CHAMFERC
 40
0.0
  9
$CHAMFERD
 40
0.0
  9
$SKPOLY
 70
     0
  9
$TDCREATE
 40
2458168.987905764
  9
$TDUCREATE
 40
2458168.946239097
  9
$TDUPDATE
 40
2458168.987905949
  9
$TDUUPDATE
 40
2458168.946239282
  9
$TDINDWG
 40
0.0000000116
  9
$TDUSRTIMER
 40
0.0000000116
  9
$USRTIMER
 70
     1
  9
$ANGBASE
 50
0.0
  9
$ANGDIR
 70
     0
  9
$PDMODE
 70
     0
  9
$PDSIZE
 40
0.0
  9
$PLINEWID
 40
0.0
  9
$SPLFRAME
 70
     0
  9
$SPLINETYPE
 70
     6
  9
$SPLINESEGS
 70
     8
  9
$HANDSEED
  5
26A
  9
$SURFTAB1
 70
     6
  9
$SURFTAB2
 70
     6
  9
$SURFTYPE
 70
     6
  9
$SURFU
 70
     6
  9
$SURFV
 70
     6
  9
$UCSBASE
  2

  9
$UCSNAME
  2

  9
$UCSORG
 10
0.0
 20
0.0
 30
0.0
  9
$UCSXDIR
 10
1.0
 20
0.0
 30
0.0
  9
$UCSYDIR
 10
0.0
 20
1.0
 30
0.0
  9
$UCSORTHOREF
  2

  9
$UCSORTHOVIEW
 70
     0
  9
$UCSORGTOP
 10
0.0
 20
0.0
 30
0.0
  9
$UCSORGBOTTOM
 10
0.0
 20
0.0
 30
0.0
  9
$UCSORGLEFT
 10
0.0
 20
0.0
 30
0.0
  9
$UCSORGRIGHT
 10
0.0
 20
0.0
 30
0.0
  9
$UCSORGFRONT
 10
0.0
 20
0.0
 30
0.0
  9
$UCSORGBACK
 10
0.0
 20
0.0
 30
0.0
  9
$PUCSBASE
  2

  9
$PUCSNAME
  2

  9
$PUCSORG
 10
0.0
 20
0.0
 30
0.0
  9
$PUCSXDIR
 10
1.0
 20
0.0
 30
0.0
  9
$PUCSYDIR
 10
0.0
 20
1.0
 30
0.0
  9
$PUCSORTHOREF
  2

  9
$PUCSORTHOVIEW
 70
     0
  9
$PUCSORGTOP
 10
0.0
 20
0.0
 30
0.0
  9
$PUCSORGBOTTOM
 10
0.0
 20
0.0
 30
0.0
  9
$PUCSORGLEFT
 10
0.0
 20
0.0
 30
0.0
  9
$PUCSORGRIGHT
 10
0.0
 20
0.0
 30
0.0
  9
$PUCSORGFRONT
 10
0.0
 20
0.0
 30
0.0
  9
$PUCSORGBACK
 10
0.0
 20
0.0
 30
0.0
  9
$USERI1
 70
     0
  9
$USERI2
 70
     0
  9
$USERI3
 70
     0
  9
$USERI4
 70
     0
  9
$USERI5
 70
     0
  9
$USERR1
 40
0.0
  9
$USERR2
 40
0.0
  9
$USERR3
 40
0.0
  9
$USERR4
 40
0.0
  9
$USERR5
 40
0.0
  9
$WORLDVIEW
 70
     1
  9
$SHADEDGE
 70
     3
  9
$SHADEDIF
 70
    70
  9
$TILEMODE
 70
     1
  9
$MAXACTVP
 70
    64
  9
$PINSBASE
 10
0.0
 20
0.0
 30
0.0
  9
$PLIMCHECK
 70
     0
  9
$PEXTMIN
 10
1.000000000000000E+20
 20
1.000000000000000E+20
 30
1.000000000000000E+20
  9
$PEXTMAX
 10
-1.000000000000000E+20
 20
-1.000000000000000E+20
 30
-1.000000000000000E+20
  9
$PLIMMIN
 10
0.0
 20
0.0
  9
$PLIMMAX
 10
12.0
 20
9.0
  9
$UNITMODE
 70
     0
  9
$VISRETAIN
 70
     1
  9
$PLINEGEN
 70
     0
  9
$PSLTSCALE
 70
     1
  9
$TREEDEPTH
 70
  3020
  9
$CMLSTYLE
  2
Standard
  9
$CMLJUST
 70
     0
  9
$CMLSCALE
 40
1.0
  9
$PROXYGRAPHICS
 70
     1
  9
$MEASUREMENT
 70
     0
  9
$CELWEIGHT
370
    -1
  9
$ENDCAPS
280
     0
  9
$JOINSTYLE
280
     0
  9
$LWDISPLAY
290
     0
  9
$INSUNITS
 70
     1
  9
$HYPERLINKBASE
  1

  9
$STYLESHEET
  1

  9
$XEDIT
290
     1
  9
$CEPSNTYPE
380
     0
  9
$PSTYLEMODE
290
     1
  9
$FINGERPRINTGUID
  2
{1BFB4B2E-8866-48D6-829C-20832A0CF19B}
  9
$VERSIONGUID
  2
{FAEB1C32-E019-11D5-929B-00C0DF256EC4}
  9
$EXTNAMES
290
     1
  9
$PSVPSCALE
 40
0.0
  9
$OLESTARTUP
290
     0
  9
$SORTENTS
280
   127
  9
$INDEXCTL
280
     0
  9
$HIDETEXT
280
     1
  9
$XCLIPFRAME
280
     2
  9
$HALOGAP
280
     0
  9
$OBSCOLOR
 70
   257
  9
$OBSLTYPE
280
     0
  9
$INTERSECTIONDISPLAY
280
     0
  9
$INTERSECTIONCOLOR
 70
   257
  9
$DIMASSOC
280
     2
  9
$PROJECTNAME
  1

  9
$CAMERADISPLAY
290
     0
  9
$LENSLENGTH
 40
50.0
  9
$CAMERAHEIGHT
 40
0.0
  9
$STEPSPERSEC
 40
2.0
  9
$STEPSIZE
 40
6.0
  9
$3DDWFPREC
 40
2.0
  9
$PSOLWIDTH
 40
0.25
  9
$PSOLHEIGHT
 40
4.0
  9
$LOFTANG1
 40
1.570796326794897
  9
$LOFTANG2
 40
1.570796326794897
  9
$LOFTMAG1
 40
0.0
  9
$LOFTMAG2
 40
0.0
  9
$LOFTPARAM
 70
     7
  9
$LOFTNORMALS
280
     1
  9
$LATITUDE
 40
37.795
  9
$LONGITUDE
 40
-122.394
  9
$NORTHDIRECTION
 40
0.0
  9
$TIMEZONE
 70
 -8000
  9
$LIGHTGLYPHDISPLAY
280
     1
  9
$TILEMODELIGHTSYNCH
280
     1
  9
$CMATERIAL
347
44
  9
$SOLIDHIST
280
     0
  9
$SHOWHIST
280
     1
  9
$DWFFRAME
280
     2
  9
$DGNFRAME
280
     2
  9
$REALWORLDSCALE
290
     1
  9
$INTERFERECOLOR
 62
   256
  9
$CSHADOW
280
     0
  9
$SHADOWPLANELOCATION
 40
0.0
  0
ENDSEC
  0
SECTION
  2
CLASSES
  0
CLASS
  1
ACDBDICTIONARYWDFLT
  2
AcDbDictionaryWithDefault
  3
ObjectDBX Classes
 90
        0
 91
        4
280
     0
281
     0
  0
CLASS
  1
VISUALSTYLE
  2
AcDbVisualStyle
  3
ObjectDBX Classes
 90
     4095
 91
        4
280
     0
281
     0
  0
CLASS
  1
MATERIAL
  2
AcDbMaterial
  3
ObjectDBX Classes
 90
     1153
 91
        4
280
     0
281
     0
  0
CLASS
  1
SCALE
  2
AcDbScale
  3
ObjectDBX Classes
 90
     1153
 91
        4
280
     0
281
     0
  0
CLASS
  1
TABLESTYLE
  2
AcDbTableStyle
  3
ObjectDBX Classes
 90
     4095
 91
        4
280
     0
281
     0
  0
CLASS
  1
MLEADERSTYLE
  2
AcDbMLeaderStyle
  3
ACDB_MLEADERSTYLE_CLASS
 90
     4095
 91
        4
280
     0
281
     0
  0
CLASS
  1
SUN
  2
AcDbSun
  3
SCENEOE
 90
     1153
 91
        4
280
     0
281
     0
  0
CLASS
  1
DICTIONARYVAR
  2
AcDbDictionaryVar
  3
ObjectDBX Classes
 90
        0
 91
        4
280
     0
281
     0
  0
CLASS
  1
CELLSTYLEMAP
  2
AcDbCellStyleMap
  3
ObjectDBX Classes
 90
     1152
 91
        4
280
     0
281
     0
  0
ENDSEC
  0
SECTION
  2
TABLES
  0
TABLE
  2
VPORT
  5
8
330
0
100
AcDbSymbolTable
 70
     1
  0
VPORT
  5
29
330
8
100
AcDbSymbolTableRecord
100
AcDbViewportTableRecord
  2
*Active
 70
     0
 10
0.0
 20
0.0
 11
1.0
 21
1.0
 12
0.0
 22
0.0
 13
0.0
 23
0.0
 14
0.5
 24
0.5
 15
0.5
 25
0.5
 16
0.0
 26
0.0
 36
1.0
 17
0.0
 27
0.0
 37
0.0
 40
5.355
 41
0.6128571428571431
 42
50.0
 43
0.0
 44
0.0
 50
0.0
 51
0.0
 71
     0
 72
   100
 73
     1
 74
     3
 75
     0
 76
     0
 77
     0
 78
     0
281
     0
 65
     1
110
0.0
120
0.0
130
0.0
111
1.0
121
0.0
131
0.0
112
0.0
122
1.0
132
0.0
 79
     0
146
0.0
348
2F
 60
     3
 61
     5
292
     1
282
     1
141
0.0
142
0.0
 63
   250
361
6D
  0
ENDTAB
  0
TABLE
  2
LTYPE
  5
5
330
0
100
AcDbSymbolTable
 70
     3
  0
LTYPE
  5
14
330
5
100
AcDbSymbolTableRecord
100
AcDbLinetypeTableRecord
  2
ByBlock
 70
     0
  3

 72
    65
 73
     0
 40
0.0
  0
LTYPE
  5
15
330
5
100
AcDbSymbolTableRecord
100
AcDbLinetypeTableRecord
  2
ByLayer
 70
     0
  3

 72
    65
 73
     0
 40
0.0
  0
LTYPE
  5
16
330
5
100
AcDbSymbolTableRecord
100
AcDbLinetypeTableRecord
  2
Continuous
 70
     0
  3
Solid line
 72
    65
 73
     0
 40
0.0
  0
LTYPE
  5
9C
330
5
100
AcDbSymbolTableRecord
100
AcDbLinetypeTableRecord
  2
Dashed
 70
     0
  3

 72
    65
 73
     2
 40
2.0
 49
1.0
 74
     0
 49
-1.0
 74
     0
  0
LTYPE
  5
AC
330
5
100
AcDbSymbolTableRecord
100
AcDbLinetypeTableRecord
  2
Center
 70
     0
  3

 72
    65
 73
     4
 40
1.5
 49
0.45
 74
     0
 49
-0.5
 74
     0
 49
0.05
 74
     0
 49
-0.5
 74
     0
  0
ENDTAB
  0
TABLE
  2
LAYER
  5
2
330
0
100
AcDbSymbolTable
 70
     7
  0
LAYER
  5
10
330
2
100
AcDbSymbolTableRecord
100
AcDbLayerTableRecord
  2
0
 70
     0
 62
     7
  6
Continuous
370
    -3
390
F
347
46
348
0
  0
LAYER
  5
72
330
2
100
AcDbSymbolTableRecord
100
AcDbLayerTableRecord
  2
AM_6
 70
     0
 62
    -2
  6
Continuous
370
    35
390
F
347
46
348
0
  0
LAYER
  5
9D
330
2
100
AcDbSymbolTableRecord
100
AcDbLayerTableRecord
  2
AM_9
 70
     0
 62
     6
  6
Dashed
370
    25
390
F
347
46
348
0
  0
LAYER
  5
A6
330
2
100
AcDbSymbolTableRecord
100
AcDbLayerTableRecord
  2
AM_5
 70
     0
 62
     3
  6
Continuous
370
    25
390
F
347
46
348
0
  0
LAYER
  5
AD
330
2
100
AcDbSymbolTableRecord
100
AcDbLayerTableRecord
  2
AM_7
 70
     0
 62
     7
  6
Center
370
    25
390
F
347
46
348
0
  0
LAYER
  5
AF
330
2
100
AcDbSymbolTableRecord
100
AcDbLayerTableRecord
  2
AM_4
 70
     0
 62
     7
  6
Continuous
370
    50
390
F
347
46
348
0
  0
LAYER
  5
252
330
2
100
AcDbSymbolTableRecord
100
AcDbLayerTableRecord
  2
ConnectionPoints
 70
     0
 62
     7
  6
Continuous
370
    50
390
F
347
46
348
0
  0
ENDTAB
  0
TABLE
  2
STYLE
  5
3
330
0
100
AcDbSymbolTable
 70
     1
  0
STYLE
  5
11
330
3
100
AcDbSymbolTableRecord
100
AcDbTextStyleTableRecord
  2
Standard
 70
     0
 40
0.0
 41
1.0
 50
0.0
 71
     0
 42
0.2
  3
txt
  4

  0
ENDTAB
  0
TABLE
  2
VIEW
  5
6
330
0
100
AcDbSymbolTable
 70
     0
  0
ENDTAB
  0
TABLE
  2
UCS
  5
7
330
0
100
AcDbSymbolTable
 70
     0
  0
ENDTAB
  0
TABLE
  2
APPID
  5
9
330
0
100
AcDbSymbolTable
 70
     1
  0
APPID
  5
12
330
9
100
AcDbSymbolTableRecord
100
AcDbRegAppTableRecord
  2
ACAD
 70
     0
  0
ENDTAB
  0
TABLE
  2
DIMSTYLE
  5
A
330
0
100
AcDbSymbolTable
 70
     1
100
AcDbDimStyleTable
  0
DIMSTYLE
105
27
330
A
100
AcDbSymbolTableRecord
100
AcDbDimStyleTableRecord
  2
Standard
 70
     0
178
     0
340
11
  0
ENDTAB
  0
TABLE
  2
BLOCK_RECORD
  5
1
330
0
100
AcDbSymbolTable
 70
     8
  0
BLOCK_RECORD
  5
1F
330
1
100
AcDbSymbolTableRecord
100
AcDbBlockTableRecord
  2
*Model_Space
340
22
 70
     0
280
     1
281
     0
  0
BLOCK_RECORD
  5
1B
330
1
100
AcDbSymbolTableRecord
100
AcDbBlockTableRecord
  2
*Paper_Space
340
1E
 70
     0
280
     1
281
     0
  0
BLOCK_RECORD
  5
23
330
1
100
AcDbSymbolTableRecord
100
AcDbBlockTableRecord
  2
*Paper_Space0
340
26
 70
     0
280
     1
281
     0
  0
BLOCK_RECORD
  5
6E
330
1
100
AcDbSymbolTableRecord
100
AcDbBlockTableRecord
  2
1_069807_2
340
0
102
{BLKREFS
331
6F
102
}
 70
     0
280
     1
281
     0
  0
BLOCK_RECORD
  5
90
330
1
100
AcDbSymbolTableRecord
100
AcDbBlockTableRecord
  2
2_405015E_Inch_0_in_069807_2
340
0
102
{BLKREFS
331
91
102
}
 70
     0
280
     1
281
     0
  0
BLOCK_RECORD
  5
CE
330
1
100
AcDbSymbolTableRecord
100
AcDbBlockTableRecord
  2
3_ASME_B18_3_10_1_0_in_069807_2
340
0
102
{BLKREFS
331
CF
102
}
 70
     0
280
     1
281
     0
  0
BLOCK_RECORD
  5
F2
330
1
100
AcDbSymbolTableRecord
100
AcDbBlockTableRecord
  2
4_ASME_B18_3_10_2_0_in_069807_2
340
0
102
{BLKREFS
331
F3
102
}
 70
     0
280
     1
281
     0
  0
BLOCK_RECORD
  5
116
330
1
100
AcDbSymbolTableRecord
100
AcDbBlockTableRecord
  2
5_070882LW_0_in_069807_2
340
0
102
{BLKREFS
331
117
102
}
 70
     0
280
     1
281
     0
  0
BLOCK_RECORD
  5
14C
330
1
100
AcDbSymbolTableRecord
100
AcDbBlockTableRecord
  2
6_070882I_0_in_069807_2
340
0
102
{BLKREFS
331
14D
102
}
 70
     0
280
     1
281
     0
  0
BLOCK_RECORD
  5
1D5
330
1
100
AcDbSymbolTableRecord
100
AcDbBlockTableRecord
  2
7_069807H_0_in_069807_2
340
0
102
{BLKREFS
331
1D6
102
}
 70
     0
280
     1
281
     0
  0
ENDTAB
  0
ENDSEC
  0
SECTION
  2
BLOCKS
  0
BLOCK
  5
20
330
1F
100
AcDbEntity
  8
0
100
AcDbBlockBegin
  2
*Model_Space
 70
     0
 10
0.0
 20
0.0
 30
0.0
  3
*Model_Space
  1

  0
ENDBLK
  5
21
330
1F
100
AcDbEntity
  8
0
100
AcDbBlockEnd
  0
BLOCK
  5
1C
330
1B
100
AcDbEntity
 67
     1
  8
0
100
AcDbBlockBegin
  2
*Paper_Space
 70
     0
 10
0.0
 20
0.0
 30
0.0
  3
*Paper_Space
  1

  0
ENDBLK
  5
1D
330
1B
100
AcDbEntity
 67
     1
  8
0
100
AcDbBlockEnd
  0
BLOCK
  5
24
330
23
100
AcDbEntity
  8
0
100
AcDbBlockBegin
  2
*Paper_Space0
 70
     0
 10
0.0
 20
0.0
 30
0.0
  3
*Paper_Space0
  1

  0
ENDBLK
  5
25
330
23
100
AcDbEntity
  8
0
100
AcDbBlockEnd
  0
BLOCK
  5
70
330
6E
100
AcDbEntity
  8
0
100
AcDbBlockBegin
  2
1_069807_2
 70
     2
 10
0.0
 20
0.0
 30
0.0
  3
1_069807_2
  1

  0
ATTDEF
  5
73
330
6E
100
AcDbEntity
  8
AM_6
100
AcDbText
 10
6.60875
 20
2.625
 30
0.0
 40
0.5
  1
Imperial - IP Piloted Flange Contact Seal
100
AcDbAttributeDefinition
  3

  2
NN
 70
     8
280
     0
  0
ATTDEF
  5
74
330
6E
100
AcDbEntity
  8
AM_6
100
AcDbText
 10
6.60875
 20
2.125
 30
0.0
 40
0.5
  1
Imperial Piloted Flange Bearings
100
AcDbAttributeDefinition
  3

  2
NT
 70
     8
280
     0
  0
ATTDEF
  5
75
330
6E
100
AcDbEntity
  8
AM_6
100
AcDbText
 10
6.60875
 20
1.625
 30
0.0
 40
0.5
  1
069807
100
AcDbAttributeDefinition
  3

  2
NB
 70
     8
280
     0
  0
ATTDEF
  5
76
330
6E
100
AcDbEntity
  8
AM_6
100
AcDbText
 10
6.60875
 20
1.125
 30
0.0
 40
0.5
  1
$PN.
100
AcDbAttributeDefinition
  3

  2
NBSYN
 70
     8
280
     0
  0
ATTDEF
  5
77
330
6E
100
AcDbEntity
  8
AM_6
100
AcDbText
 10
6.60875
 20
0.625
 30
0.0
 40
0.5
  1
069807
100
AcDbAttributeDefinition
  3

  2
LINA
 70
     8
280
     0
  0
ATTDEF
  5
78
330
6E
100
AcDbEntity
  8
AM_6
100
AcDbText
 10
6.60875
 20
0.125
 30
0.0
 40
0.5
  1
1-1/4
100
AcDbAttributeDefinition
  3

  2
SS
 70
     8
280
     0
  0
ATTDEF
  5
79
330
6E
100
AcDbEntity
  8
AM_6
100
AcDbText
 10
6.60875
 20
-0.375
 30
0.0
 40
0.5
  1
069807
100
AcDbAttributeDefinition
  3

  2
PN
 70
     8
280
     0
  0
ATTDEF
  5
7A
330
6E
100
AcDbEntity
  8
AM_6
100
AcDbText
 10
6.60875
 20
-0.875
 30
0.0
 40
0.5
  1
FC-IP-104R
100
AcDbAttributeDefinition
  3

  2
DESCRIPTION
 70
     8
280
     0
  0
ATTDEF
  5
7B
330
6E
100
AcDbEntity
  8
AM_6
100
AcDbText
 10
6.60875
 20
-1.375
 30
0.0
 40
0.5
  1
Non-Expansion Type
100
AcDbAttributeDefinition
  3

  2
EF
 70
     8
280
     0
  0
ATTDEF
  5
7C
330
6E
100
AcDbEntity
  8
AM_6
100
AcDbText
 10
6.60875
 20
-1.875
 30
0.0
 40
0.5
  1
Contact  Seal
100
AcDbAttributeDefinition
  3

  2
ST
 70
     8
280
     0
  0
ATTDEF
  5
7D
330
6E
100
AcDbEntity
  8
AM_6
100
AcDbText
 10
6.60875
 20
-2.375
 30
0.0
 40
0.5
  1
2-5/8
100
AcDbAttributeDefinition
  3

  2
A
 70
     8
280
     0
  0
ATTDEF
  5
7E
330
6E
100
AcDbEntity
  8
AM_6
100
AcDbText
 10
6.60875
 20
-2.875
 30
0.0
 40
0.5
  1
5-1/4
100
AcDbAttributeDefinition
  3

  2
B
 70
     8
280
     0
  0
ATTDEF
  5
7F
330
6E
100
AcDbEntity
  8
AM_6
100
AcDbText
 10
6.60875
 20
-3.375
 30
0.0
 40
0.5
  1
1-27/32
100
AcDbAttributeDefinition
  3

  2
C
 70
     8
280
     0
  0
ATTDEF
  5
80
330
6E
100
AcDbEntity
  8
AM_6
100
AcDbText
 10
6.60875
 20
-3.875
 30
0.0
 40
0.5
  1
3-3/32
100
AcDbAttributeDefinition
  3

  2
D
 70
     8
280
     0
  0
ATTDEF
  5
81
330
6E
100
AcDbEntity
  8
AM_6
100
AcDbText
 10
6.60875
 20
-4.375
 30
0.0
 40
0.5
  1
4-3/8
100
AcDbAttributeDefinition
  3

  2
DD
 70
     8
280
     0
  0
ATTDEF
  5
82
330
6E
100
AcDbEntity
  8
AM_6
100
AcDbText
 10
6.60875
 20
-4.875
 30
0.0
 40
0.5
  1
3/4
100
AcDbAttributeDefinition
  3

  2
E
 70
     8
280
     0
  0
ATTDEF
  5
83
330
6E
100
AcDbEntity
  8
AM_6
100
AcDbText
 10
6.60875
 20
-5.375
 30
0.0
 40
0.5
  1
3/8
100
AcDbAttributeDefinition
  3

  2
F
 70
     8
280
     0
  0
ATTDEF
  5
84
330
6E
100
AcDbEntity
  8
AM_6
100
AcDbText
 10
6.60875
 20
-5.875
 30
0.0
 40
0.5
  1
1-25/64
100
AcDbAttributeDefinition
  3

  2
G
 70
     8
280
     0
  0
ATTDEF
  5
85
330
6E
100
AcDbEntity
  8
AM_6
100
AcDbText
 10
6.60875
 20
-6.375
 30
0.0
 40
0.5
  1
1/2
100
AcDbAttributeDefinition
  3

  2
H
 70
     8
280
     0
  0
ATTDEF
  5
86
330
6E
100
AcDbEntity
  8
AM_6
100
AcDbText
 10
6.60875
 20
-6.875
 30
0.0
 40
0.5
  1
3.625
100
AcDbAttributeDefinition
  3

  2
K
 70
     8
280
     0
  0
ATTDEF
  5
87
330
6E
100
AcDbEntity
  8
AM_6
100
AcDbText
 10
6.60875
 20
-7.375
 30
0.0
 40
0.5
  1
2-23/32
100
AcDbAttributeDefinition
  3

  2
L
 70
     8
280
     0
  0
ATTDEF
  5
88
330
6E
100
AcDbEntity
  8
AM_6
100
AcDbText
 10
6.60875
 20
-7.875
 30
0.0
 40
0.5
  1
3/8-16
100
AcDbAttributeDefinition
  3

  2
M
 70
     8
280
     0
  0
ATTDEF
  5
89
330
6E
100
AcDbEntity
  8
AM_6
100
AcDbText
 10
6.60875
 20
-8.375
 30
0.0
 40
0.5
  1
2-39/64
100
AcDbAttributeDefinition
  3

  2
N
 70
     8
280
     0
  0
ATTDEF
  5
8A
330
6E
100
AcDbEntity
  8
AM_6
100
AcDbText
 10
6.60875
 20
-8.875
 30
0.0
 40
0.5
  1
1-15/64
100
AcDbAttributeDefinition
  3

  2
P
 70
     8
280
     0
  0
ATTDEF
  5
8B
330
6E
100
AcDbEntity
  8
AM_6
100
AcDbText
 10
6.60875
 20
-9.375
 30
0.0
 40
0.5
  1
1-7/32
100
AcDbAttributeDefinition
  3

  2
Q
 70
     8
280
     0
  0
ATTDEF
  5
8C
330
6E
100
AcDbEntity
  8
AM_6
100
AcDbText
 10
6.60875
 20
-9.875
 30
0.0
 40
0.5
  1
3/16
100
AcDbAttributeDefinition
  3

  2
X
 70
     8
280
     0
  0
ATTDEF
  5
8D
330
6E
100
AcDbEntity
  8
AM_6
100
AcDbText
 10
6.60875
 20
-10.375
 30
0.0
 40
0.5
  1
0.020
100
AcDbAttributeDefinition
  3

  2
Y
 70
     8
280
     0
  0
ATTDEF
  5
8E
330
6E
100
AcDbEntity
  8
AM_6
100
AcDbText
 10
6.60875
 20
-10.875
 30
0.0
 40
0.5
  1
1-51/64
100
AcDbAttributeDefinition
  3

  2
Z
 70
     8
280
     0
  0
ATTDEF
  5
8F
330
6E
100
AcDbEntity
  8
AM_6
100
AcDbText
 10
6.60875
 20
-11.375
 30
0.0
 40
0.5
  1
baldor
100
AcDbAttributeDefinition
  3

  2
COMPANY
 70
     8
280
     0
  0
INSERT
  5
91
330
6E
100
AcDbEntity
  8
0
100
AcDbBlockReference
  2
2_405015E_Inch_0_in_069807_2
 10
0.0
 20
0.0
 30
0.0
  0
INSERT
  5
CF
330
6E
100
AcDbEntity
  8
0
100
AcDbBlockReference
  2
3_ASME_B18_3_10_1_0_in_069807_2
 10
0.0
 20
0.0
 30
0.0
  0
INSERT
  5
F3
330
6E
100
AcDbEntity
  8
0
100
AcDbBlockReference
  2
4_ASME_B18_3_10_2_0_in_069807_2
 10
0.0
 20
0.0
 30
0.0
  0
INSERT
  5
117
330
6E
100
AcDbEntity
  8
0
100
AcDbBlockReference
  2
5_070882LW_0_in_069807_2
 10
0.0
 20
0.0
 30
0.0
  0
INSERT
  5
14D
330
6E
100
AcDbEntity
  8
0
100
AcDbBlockReference
  2
6_070882I_0_in_069807_2
 10
0.0
 20
0.0
 30
0.0
  0
INSERT
  5
1D6
330
6E
100
AcDbEntity
  8
0
100
AcDbBlockReference
  2
7_069807H_0_in_069807_2
 10
0.0
 20
0.0
 30
0.0
  0
ENDBLK
  5
71
330
6E
100
AcDbEntity
  8
0
100
AcDbBlockEnd
  0
BLOCK
  5
92
330
90
100
AcDbEntity
  8
0
100
AcDbBlockBegin
  2
2_405015E_Inch_0_in_069807_2
 70
     2
 10
0.0
 20
0.0
 30
0.0
  3
2_405015E_Inch_0_in_069807_2
  1

  0
ATTDEF
  5
94
330
90
100
AcDbEntity
  8
AM_6
100
AcDbText
 10
4.798448168239011
 20
2.282911361929142
 30
0.0
 40
0.5
  1
405015E -Inch
100
AcDbAttributeDefinition
  3

  2
NN
 70
     8
280
     0
  0
ATTDEF
  5
95
330
90
100
AcDbEntity
  8
AM_6
100
AcDbText
 10
4.798448168239011
 20
1.782911361929142
 30
0.0
 40
0.5
  1
Grease Fitting
100
AcDbAttributeDefinition
  3

  2
NT
 70
     8
280
     0
  0
ATTDEF
  5
96
330
90
100
AcDbEntity
  8
AM_6
100
AcDbText
 10
4.798448168239011
 20
1.282911361929142
 30
0.0
 40
0.5
  1
405015E-Inch
100
AcDbAttributeDefinition
  3

  2
NB
 70
     8
280
     0
  0
ATTDEF
  5
97
330
90
100
AcDbEntity
  8
AM_6
100
AcDbText
 10
4.798448168239011
 20
0.7829113619291417
 30
0.0
 40
0.5
  1
$MN.-Inch
100
AcDbAttributeDefinition
  3

  2
NBSYN
 70
     8
280
     0
  0
ATTDEF
  5
98
330
90
100
AcDbEntity
  8
AM_6
100
AcDbText
 10
4.798448168239011
 20
0.2829113619291417
 30
0.0
 40
0.5
  1
405015E
100
AcDbAttributeDefinition
  3

  2
LINA
 70
     8
280
     0
  0
ATTDEF
  5
99
330
90
100
AcDbEntity
  8
AM_6
100
AcDbText
 10
4.798448168239011
 20
-0.2170886380708583
 30
0.0
 40
0.5
  1
405015E
100
AcDbAttributeDefinition
  3

  2
MN
 70
     8
280
     0
  0
ATTDEF
  5
9A
330
90
100
AcDbEntity
  8
AM_6
100
AcDbText
 10
4.798448168239011
 20
-0.7170886380708583
 30
0.0
 40
0.5
  1
1/8 x 27PTF
100
AcDbAttributeDefinition
  3

  2
T
 70
     8
280
     0
  0
ATTDEF
  5
9B
330
90
100
AcDbEntity
  8
AM_6
100
AcDbText
 10
4.798448168239011
 20
-1.217088638070858
 30
0.0
 40
0.5
  1
baldor
100
AcDbAttributeDefinition
  3

  2
COMPANY
 70
     8
280
     0
  0
LINE
  5
9E
330
90
100
AcDbEntity
  8
AM_9
100
AcDbLine
 10
-0.3634547042332583
 20
1.733777689941057
 30
0.0
 11
-0.2015518317609893
 21
2.014201690954371
 31
0.0
  0
LINE
  5
9F
330
90
100
AcDbEntity
  8
AM_9
100
AcDbLine
 10
-0.2015518317609893
 20
2.014201690954371
 30
0.0
 11
-0.2149903645317679
 21
2.064354978034096
 31
0.0
  0
LINE
  5
A0
330
90
100
AcDbEntity
  8
AM_9
100
AcDbLine
 10
-0.4136079913129833
 20
1.720339157170278
 30
0.0
 11
-0.3634547042332583
 21
1.733777689941057
 31
0.0
  0
LINE
  5
A1
330
90
100
AcDbEntity
  8
AM_9
100
AcDbLine
 10
-0.4136079913129833
 20
1.720339157170278
 30
0.0
 11
-0.2149903645317679
 21
2.064354978034096
 31
0.0
  0
LINE
  5
A2
330
90
100
AcDbEntity
  8
AM_9
100
AcDbLine
 10
-0.2149903645317679
 20
2.064354978034096
 30
0.0
 11
-0.4091240513884652
 21
2.184676060319737
 31
0.0
  0
LINE
  5
A3
330
90
100
AcDbEntity
  8
AM_9
100
AcDbLine
 10
-0.6148759486115348
 20
1.828303320575691
 30
0.0
 11
-0.4136079913129833
 21
1.720339157170278
 31
0.0
  0
LINE
  5
A4
330
90
100
AcDbEntity
  8
AM_9
100
AcDbLine
 10
-0.4446428896720562
 20
2.124281097983936
 30
0.0
 11
-0.4573125000000001
 21
2.101211218986637
 31
0.0
  0
LWPOLYLINE
  5
A5
330
90
100
AcDbEntity
  8
AM_9
100
AcDbPolyline
 90
        3
 70
     0
 43
0.0
 10
-0.4573125000000001
 20
2.101211218986637
 10
-0.4867289785607695
 20
2.055047145109693
 10
-0.4996275049748178
 20
2.037148535438995
  0
LINE
  5
A7
330
90
100
AcDbEntity
  8
AM_5
100
AcDbLine
 10
-0.5396704038700917
 20
1.828303320575691
 30
0.0
 11
-0.3644210997384603
 21
1.734296083845573
 31
0.0
  0
LINE
  5
A8
330
90
100
AcDbEntity
  8
AM_5
100
AcDbLine
 10
-0.6148759486115352
 20
1.828303320575691
 30
0.0
 11
-0.5396704038700916
 21
1.828303320575691
 31
0.0
  0
LINE
  5
A9
330
90
100
AcDbEntity
  8
AM_5
100
AcDbLine
 10
-0.3715212790177436
 20
2.1195461480682
 30
0.0
 11
-0.2015518317609895
 21
2.014201690954372
 31
0.0
  0
LINE
  5
AA
330
90
100
AcDbEntity
  8
AM_5
100
AcDbLine
 10
-0.4091240513884652
 20
2.184676060319737
 30
0.0
 11
-0.3715212790177436
 21
2.1195461480682
 31
0.0
  0
LINE
  5
AB
330
90
100
AcDbEntity
  8
AM_5
100
AcDbLine
 10
-0.557454084319696
 20
1.797501082491407
 30
0.0
 11
-0.3537375985681393
 21
2.150348386152484
 31
0.0
  0
LINE
  5
AE
330
90
100
AcDbEntity
  8
AM_7
100
AcDbLine
 10
-0.8644723393402665
 20
2.209989690447714
 30
0.0
 11
-0.2547904550760217
 21
1.857989690447714
 31
0.0
  0
LINE
  5
B0
330
90
100
AcDbEntity
  8
AM_4
100
AcDbLine
 10
-0.6370352077758098
 20
2.19992235784508
 30
0.0
 11
-0.6630159698893431
 21
2.21492235784508
 31
0.0
  0
LINE
  5
B1
330
90
100
AcDbEntity
  8
AM_4
100
AcDbLine
 10
-0.7680159698893432
 20
2.033057023050348
 30
0.0
 11
-0.74203520777581
 21
2.018057023050348
 31
0.0
  0
LINE
  5
B2
330
90
100
AcDbEntity
  8
AM_4
100
AcDbLine
 10
-0.74203520777581
 20
2.018057023050348
 30
0.0
 11
-0.6370352077758098
 21
2.19992235784508
 31
0.0
  0
LINE
  5
B3
330
90
100
AcDbEntity
  8
AM_4
100
AcDbLine
 10
-0.74203520777581
 20
2.018057023050348
 30
0.0
 11
-0.7210186372721953
 21
1.989965034200607
 31
0.0
  0
LINE
  5
B4
330
90
100
AcDbEntity
  8
AM_4
100
AcDbLine
 10
-0.6021985465372978
 20
2.195767468313394
 30
0.0
 11
-0.6370352077758098
 21
2.19992235784508
 31
0.0
  0
LINE
  5
B5
330
90
100
AcDbEntity
  8
AM_4
100
AcDbLine
 10
-0.7680159698893432
 20
2.033057023050348
 30
0.0
 11
-0.6630159698893431
 21
2.21492235784508
 31
0.0
  0
LINE
  5
B6
330
90
100
AcDbEntity
  8
AM_4
100
AcDbLine
 10
-0.6630159698893431
 20
2.21492235784508
 30
0.0
 11
-0.6999774941164094
 21
2.270903119958613
 31
0.0
  0
LINE
  5
B7
330
90
100
AcDbEntity
  8
AM_4
100
AcDbLine
 10
-0.8349774941164095
 20
2.037076260936815
 30
0.0
 11
-0.7680159698893432
 21
2.033057023050348
 31
0.0
  0
LINE
  5
B8
330
90
100
AcDbEntity
  8
AM_4
100
AcDbLine
 10
-0.8880984773857583
 20
2.105068018966286
 30
0.0
 11
-0.7854205754525707
 21
2.282911361929142
 31
0.0
  0
LINE
  5
B9
330
90
100
AcDbEntity
  8
AM_4
100
AcDbLine
 10
-0.8349774941164095
 20
2.037076260936815
 30
0.0
 11
-0.6999774941164094
 21
2.270903119958613
 31
0.0
  0
LINE
  5
BA
330
90
100
AcDbEntity
  8
AM_4
100
AcDbLine
 10
-0.8880984773857583
 20
2.105068018966286
 30
0.0
 11
-0.8349774941164095
 21
2.037076260936815
 31
0.0
  0
LINE
  5
BB
330
90
100
AcDbEntity
  8
AM_4
100
AcDbLine
 10
-0.6999774941164094
 20
2.270903119958613
 30
0.0
 11
-0.7854205754525707
 21
2.282911361929142
 31
0.0
  0
LINE
  5
BC
330
90
100
AcDbEntity
  8
AM_4
100
AcDbLine
 10
-0.7210186372721953
 20
1.989965034200607
 30
0.0
 11
-0.6021985465372977
 21
2.195767468313394
 31
0.0
  0
LINE
  5
BD
330
90
100
AcDbEntity
  8
AM_4
100
AcDbLine
 10
-0.7210186372721953
 20
1.989965034200607
 30
0.0
 11
-0.7007335923079225
 21
1.916229916557166
 31
0.0
  0
LINE
  5
BE
330
90
100
AcDbEntity
  8
AM_4
100
AcDbLine
 10
-0.528199539024907
 20
2.215067662879144
 30
0.0
 11
-0.6021985465372977
 21
2.195767468313394
 31
0.0
  0
LINE
  5
BF
330
90
100
AcDbEntity
  8
AM_4
100
AcDbLine
 10
-0.7079775403784438
 20
1.867046633369868
 30
0.0
 11
-0.621375
 21
1.817046633369868
 31
0.0
  0
LINE
  5
C0
330
90
100
AcDbEntity
  8
AM_4
100
AcDbLine
 10
-0.7079775403784438
 20
1.867046633369868
 30
0.0
 11
-0.4892275403784438
 21
2.24593274752556
 31
0.0
  0
LINE
  5
C1
330
90
100
AcDbEntity
  8
AM_4
100
AcDbLine
 10
-0.4026250000000001
 20
2.19593274752556
 30
0.0
 11
-0.4892275403784438
 21
2.24593274752556
 31
0.0
  0
LINE
  5
C2
330
90
100
AcDbEntity
  8
AM_4
100
AcDbLine
 10
-0.7007335923079225
 20
1.916229916557166
 30
0.0
 11
-0.528199539024907
 21
2.215067662879144
 31
0.0
  0
LINE
  5
C3
330
90
100
AcDbEntity
  8
AM_4
100
AcDbLine
 10
-0.7007335923079225
 20
1.916229916557166
 30
0.0
 11
-0.705477540378444
 21
1.87137676038879
 31
0.0
  0
LINE
  5
C4
330
90
100
AcDbEntity
  8
AM_4
100
AcDbLine
 10
-0.4917275403784438
 20
2.241602620506638
 30
0.0
 11
-0.528199539024907
 21
2.215067662879144
 31
0.0
  0
LWPOLYLINE
  5
C5
330
90
100
AcDbEntity
  8
AM_4
100
AcDbPolyline
 90
        3
 70
     0
 43
0.0
 10
-0.7001247686898278
 20
1.862512833521561
 10
-0.6786656952969269
 20
1.912987188415404
 10
-0.6532900403784438
 20
1.961768161908791
  0
LWPOLYLINE
  5
C6
330
90
100
AcDbEntity
  8
AM_4
100
AcDbPolyline
 90
        3
 70
     0
 43
0.0
 10
-0.5666875
 20
1.911768161908791
 10
-0.5961039785607696
 20
1.865604088031847
 10
-0.6292277716886162
 20
1.821580433218176
  0
LWPOLYLINE
  5
C7
330
90
100
AcDbEntity
  8
AM_4
100
AcDbPolyline
 90
        3
 70
     0
 43
0.0
 10
-0.5439150403784438
 20
2.151211218986637
 10
-0.5144985618176744
 20
2.197375292863581
 10
-0.4813747686898277
 20
2.241398947677253
  0
LINE
  5
C8
330
90
100
AcDbEntity
  8
AM_4
100
AcDbLine
 10
-0.5907497686898276
 20
2.051955890599407
 30
0.0
 11
-0.5198527716886162
 21
2.011023490296021
 31
0.0
  0
LWPOLYLINE
  5
C9
330
90
100
AcDbEntity
  8
AM_4
100
AcDbPolyline
 90
        3
 70
     0
 43
0.0
 10
-0.4104777716886162
 20
2.200466547373867
 10
-0.431936845081517
 20
2.149992192480025
 10
-0.4446428896720562
 20
2.124281097983936
  0
LINE
  5
CA
330
90
100
AcDbEntity
  8
AM_4
100
AcDbLine
 10
-0.4996275049748178
 20
2.037148535438995
 30
0.0
 11
-0.5198527716886162
 21
2.011023490296021
 31
0.0
  0
LWPOLYLINE
  5
CB
330
90
100
AcDbEntity
  8
AM_4
100
AcDbPolyline
 90
        3
 70
     0
 43
0.0
 10
-0.5198527716886162
 20
2.011023490296021
 10
-0.5413118450815171
 20
1.960549135402179
 10
-0.5666875
 20
1.911768161908791
  0
LWPOLYLINE
  5
CC
330
90
100
AcDbEntity
  8
AM_4
100
AcDbPolyline
 90
        3
 70
     0
 43
0.0
 10
-0.6532900403784438
 20
1.961768161908791
 10
-0.6238735618176743
 20
2.007932235785736
 10
-0.5907497686898276
 20
2.051955890599407
  0
LWPOLYLINE
  5
CD
330
90
100
AcDbEntity
  8
AM_4
100
AcDbPolyline
 90
        3
 70
     0
 43
0.0
 10
-0.5907497686898276
 20
2.051955890599407
 10
-0.5692906952969268
 20
2.10243024549325
 10
-0.5439150403784438
 20
2.151211218986637
  0
ENDBLK
  5
93
330
90
100
AcDbEntity
  8
0
100
AcDbBlockEnd
  0
BLOCK
  5
D0
330
CE
100
AcDbEntity
  8
0
100
AcDbBlockBegin
  2
3_ASME_B18_3_10_1_0_in_069807_2
 70
     2
 10
0.0
 20
0.0
 30
0.0
  3
3_ASME_B18_3_10_1_0_in_069807_2
  1

  0
ATTDEF
  5
D2
330
CE
100
AcDbEntity
  8
AM_6
100
AcDbText
 10
4.571041666666667
 20
-0.8464097222222224
 30
0.0
 40
0.5
  1
ANSI/ASME B18.3-1998
100
AcDbAttributeDefinition
  3

  2
NN
 70
     8
280
     0
  0
ATTDEF
  5
D3
330
CE
100
AcDbEntity
  8
AM_6
100
AcDbText
 10
4.571041666666667
 20
-1.346409722222222
 30
0.0
 40
0.5
  1
Socket Button Head Cap Screws
100
AcDbAttributeDefinition
  3

  2
NT
 70
     8
280
     0
  0
ATTDEF
  5
D4
330
CE
100
AcDbEntity
  8
AM_6
100
AcDbText
 10
4.571041666666667
 20
-1.846409722222222
 30
0.0
 40
0.5
  1
ASME B18.3-10
100
AcDbAttributeDefinition
  3

  2
NB
 70
     8
280
     0
  0
ATTDEF
  5
D5
330
CE
100
AcDbEntity
  8
AM_6
100
AcDbText
 10
4.571041666666667
 20
-2.346409722222222
 30
0.0
 40
0.5
  1
ASME B18.3-$NS.
100
AcDbAttributeDefinition
  3

  2
NBSYN
 70
     8
280
     0
  0
ATTDEF
  5
D6
330
CE
100
AcDbEntity
  8
AM_6
100
AcDbText
 10
4.571041666666667
 20
-2.846409722222222
 30
0.0
 40
0.5
  1
ASME B18.3-10
100
AcDbAttributeDefinition
  3

  2
LINA
 70
     8
280
     0
  0
ATTDEF
  5
D7
330
CE
100
AcDbEntity
  8
AM_6
100
AcDbText
 10
4.571041666666667
 20
-3.346409722222222
 30
0.0
 40
0.5
  1
10
100
AcDbAttributeDefinition
  3

  2
NS
 70
     8
280
     0
  0
ATTDEF
  5
D8
330
CE
100
AcDbEntity
  8
AM_6
100
AcDbText
 10
4.571041666666667
 20
-3.846409722222222
 30
0.0
 40
0.5
  1
0.361
100
AcDbAttributeDefinition
  3

  2
A
 70
     8
280
     0
  0
ATTDEF
  5
D9
330
CE
100
AcDbEntity
  8
AM_6
100
AcDbText
 10
4.571041666666667
 20
-4.346409722222223
 30
0.0
 40
0.5
  1
0.101
100
AcDbAttributeDefinition
  3

  2
H
 70
     8
280
     0
  0
ATTDEF
  5
DA
330
CE
100
AcDbEntity
  8
AM_6
100
AcDbText
 10
4.571041666666667
 20
-4.846409722222223
 30
0.0
 40
0.5
  1
0.800
100
AcDbAttributeDefinition
  3

  2
L
 70
     8
280
     0
  0
ATTDEF
  5
DB
330
CE
100
AcDbEntity
  8
AM_6
100
AcDbText
 10
4.571041666666667
 20
-5.346409722222223
 30
0.0
 40
0.5
  1
0.020
100
AcDbAttributeDefinition
  3

  2
S
 70
     8
280
     0
  0
ATTDEF
  5
DC
330
CE
100
AcDbEntity
  8
AM_6
100
AcDbText
 10
4.571041666666667
 20
-5.846409722222223
 30
0.0
 40
0.5
  1
0.125000
100
AcDbAttributeDefinition
  3

  2
J
 70
     8
280
     0
  0
ATTDEF
  5
DD
330
CE
100
AcDbEntity
  8
AM_6
100
AcDbText
 10
4.571041666666667
 20
-6.346409722222223
 30
0.0
 40
0.5
  1
baldor
100
AcDbAttributeDefinition
  3

  2
COMPANY
 70
     8
280
     0
  0
LINE
  5
DE
330
CE
100
AcDbEntity
  8
AM_9
100
AcDbLine
 10
-1.268958333333333
 20
-0.954740938573519
 30
0.0
 11
-1.329958333333333
 21
-0.954740938573519
 31
0.0
  0
LINE
  5
DF
330
CE
100
AcDbEntity
  8
AM_9
100
AcDbLine
 10
-1.268958333333333
 20
-1.099078505870926
 30
0.0
 11
-1.329958333333333
 21
-1.099078505870926
 31
0.0
  0
LINE
  5
E0
330
CE
100
AcDbEntity
  8
AM_9
100
AcDbLine
 10
-1.268958333333333
 20
-0.9908253303978707
 30
0.0
 11
-1.329958333333333
 21
-0.9908253303978707
 31
0.0
  0
LINE
  5
E1
330
CE
100
AcDbEntity
  8
AM_9
100
AcDbLine
 10
-1.268958333333333
 20
-0.954740938573519
 30
0.0
 11
-1.268958333333333
 21
-1.099078505870926
 31
0.0
  0
LINE
  5
E2
330
CE
100
AcDbEntity
  8
AM_9
100
AcDbLine
 10
-1.268958333333333
 20
-1.062994114046574
 30
0.0
 11
-1.329958333333333
 21
-1.062994114046574
 31
0.0
  0
LINE
  5
E3
330
CE
100
AcDbEntity
  8
AM_9
100
AcDbLine
 10
-0.4289583333333333
 20
-0.9505097222222223
 30
0.0
 11
-0.4289583333333333
 21
-1.103309722222222
 31
0.0
  0
LINE
  5
E4
330
CE
100
AcDbEntity
  8
AM_9
100
AcDbLine
 10
-0.4289583333333333
 20
-0.9505097222222223
 30
0.0
 11
-0.4475583333333333
 21
-0.9319097222222223
 31
0.0
  0
LINE
  5
E5
330
CE
100
AcDbEntity
  8
AM_9
100
AcDbLine
 10
-0.4475583333333333
 20
-1.121909722222222
 30
0.0
 11
-0.4289583333333333
 21
-1.103309722222222
 31
0.0
  0
LINE
  5
E6
330
CE
100
AcDbEntity
  8
AM_9
100
AcDbLine
 10
-0.4475583333333333
 20
-0.9319097222222223
 30
0.0
 11
-0.4475583333333333
 21
-1.121909722222222
 31
0.0
  0
LINE
  5
E7
330
CE
100
AcDbEntity
  8
AM_9
100
AcDbLine
 10
-1.228958333333333
 20
-1.121909722222222
 30
0.0
 11
-0.4475583333333333
 21
-1.121909722222222
 31
0.0
  0
LINE
  5
E8
330
CE
100
AcDbEntity
  8
AM_9
100
AcDbLine
 10
-0.4475583333333333
 20
-0.9319097222222223
 30
0.0
 11
-1.228958333333333
 21
-0.9319097222222223
 31
0.0
  0
LINE
  5
E9
330
CE
100
AcDbEntity
  8
AM_5
100
AcDbLine
 10
-1.148958333333333
 20
-1.103309722222222
 30
0.0
 11
-1.181174478354114
 21
-1.121909722222222
 31
0.0
  0
LINE
  5
EA
330
CE
100
AcDbEntity
  8
AM_5
100
AcDbLine
 10
-1.148958333333333
 20
-0.9319097222222227
 30
0.0
 11
-1.148958333333333
 21
-1.121909722222223
 31
0.0
  0
LINE
  5
EB
330
CE
100
AcDbEntity
  8
AM_5
100
AcDbLine
 10
-1.148958333333333
 20
-0.9505097222222223
 30
0.0
 11
-1.181174478354114
 21
-0.9319097222222223
 31
0.0
  0
LINE
  5
EC
330
CE
100
AcDbEntity
  8
AM_4
100
AcDbLine
 10
-1.329958333333333
 20
-0.9274097222222223
 30
0.0
 11
-1.329958333333333
 21
-1.126409722222222
 31
0.0
  0
ARC
  5
ED
330
CE
100
AcDbEntity
  8
AM_4
100
AcDbCircle
 10
-1.248958333333334
 20
-1.126409722222223
 30
0.0
 40
0.0809999999999993
100
AcDbArc
 50
180.0
 51
270.0
  0
ARC
  5
EE
330
CE
100
AcDbEntity
  8
AM_4
100
AcDbCircle
 10
-1.248958333333333
 20
-0.927409722222222
 30
0.0
 40
0.0809999999999995
100
AcDbArc
 50
90.0
 51
180.0
  0
LINE
  5
EF
330
CE
100
AcDbEntity
  8
AM_4
100
AcDbLine
 10
-1.248958333333333
 20
-0.8464097222222224
 30
0.0
 11
-1.248958333333333
 21
-1.207409722222222
 31
0.0
  0
LINE
  5
F0
330
CE
100
AcDbEntity
  8
AM_4
100
AcDbLine
 10
-1.248958333333333
 20
-1.207409722222222
 30
0.0
 11
-1.228958333333333
 21
-1.207409722222222
 31
0.0
  0
LINE
  5
F1
330
CE
100
AcDbEntity
  8
AM_4
100
AcDbLine
 10
-1.228958333333333
 20
-0.8464097222222224
 30
0.0
 11
-1.248958333333333
 21
-0.8464097222222224
 31
0.0
  0
ENDBLK
  5
D1
330
CE
100
AcDbEntity
  8
0
100
AcDbBlockEnd
  0
BLOCK
  5
F4
330
F2
100
AcDbEntity
  8
0
100
AcDbBlockBegin
  2
4_ASME_B18_3_10_2_0_in_069807_2
 70
     2
 10
0.0
 20
0.0
 30
0.0
  3
4_ASME_B18_3_10_2_0_in_069807_2
  1

  0
ATTDEF
  5
F6
330
F2
100
AcDbEntity
  8
AM_6
100
AcDbText
 10
4.571041666666667
 20
1.207409722222222
 30
0.0
 40
0.5
  1
ANSI/ASME B18.3-1998
100
AcDbAttributeDefinition
  3

  2
NN
 70
     8
280
     0
  0
ATTDEF
  5
F7
330
F2
100
AcDbEntity
  8
AM_6
100
AcDbText
 10
4.571041666666667
 20
0.7074097222222222
 30
0.0
 40
0.5
  1
Socket Button Head Cap Screws
100
AcDbAttributeDefinition
  3

  2
NT
 70
     8
280
     0
  0
ATTDEF
  5
F8
330
F2
100
AcDbEntity
  8
AM_6
100
AcDbText
 10
4.571041666666667
 20
0.2074097222222222
 30
0.0
 40
0.5
  1
ASME B18.3-10
100
AcDbAttributeDefinition
  3

  2
NB
 70
     8
280
     0
  0
ATTDEF
  5
F9
330
F2
100
AcDbEntity
  8
AM_6
100
AcDbText
 10
4.571041666666667
 20
-0.2925902777777778
 30
0.0
 40
0.5
  1
ASME B18.3-$NS.
100
AcDbAttributeDefinition
  3

  2
NBSYN
 70
     8
280
     0
  0
ATTDEF
  5
FA
330
F2
100
AcDbEntity
  8
AM_6
100
AcDbText
 10
4.571041666666667
 20
-0.7925902777777778
 30
0.0
 40
0.5
  1
ASME B18.3-10
100
AcDbAttributeDefinition
  3

  2
LINA
 70
     8
280
     0
  0
ATTDEF
  5
FB
330
F2
100
AcDbEntity
  8
AM_6
100
AcDbText
 10
4.571041666666667
 20
-1.292590277777778
 30
0.0
 40
0.5
  1
10
100
AcDbAttributeDefinition
  3

  2
NS
 70
     8
280
     0
  0
ATTDEF
  5
FC
330
F2
100
AcDbEntity
  8
AM_6
100
AcDbText
 10
4.571041666666667
 20
-1.792590277777778
 30
0.0
 40
0.5
  1
0.361
100
AcDbAttributeDefinition
  3

  2
A
 70
     8
280
     0
  0
ATTDEF
  5
FD
330
F2
100
AcDbEntity
  8
AM_6
100
AcDbText
 10
4.571041666666667
 20
-2.292590277777778
 30
0.0
 40
0.5
  1
0.101
100
AcDbAttributeDefinition
  3

  2
H
 70
     8
280
     0
  0
ATTDEF
  5
FE
330
F2
100
AcDbEntity
  8
AM_6
100
AcDbText
 10
4.571041666666667
 20
-2.792590277777778
 30
0.0
 40
0.5
  1
0.800
100
AcDbAttributeDefinition
  3

  2
L
 70
     8
280
     0
  0
ATTDEF
  5
FF
330
F2
100
AcDbEntity
  8
AM_6
100
AcDbText
 10
4.571041666666667
 20
-3.292590277777778
 30
0.0
 40
0.5
  1
0.020
100
AcDbAttributeDefinition
  3

  2
S
 70
     8
280
     0
  0
ATTDEF
  5
100
330
F2
100
AcDbEntity
  8
AM_6
100
AcDbText
 10
4.571041666666667
 20
-3.792590277777778
 30
0.0
 40
0.5
  1
0.125000
100
AcDbAttributeDefinition
  3

  2
J
 70
     8
280
     0
  0
ATTDEF
  5
101
330
F2
100
AcDbEntity
  8
AM_6
100
AcDbText
 10
4.571041666666667
 20
-4.292590277777778
 30
0.0
 40
0.5
  1
baldor
100
AcDbAttributeDefinition
  3

  2
COMPANY
 70
     8
280
     0
  0
LINE
  5
102
330
F2
100
AcDbEntity
  8
AM_9
100
AcDbLine
 10
-1.268958333333333
 20
1.099078505870926
 30
0.0
 11
-1.329958333333333
 21
1.099078505870926
 31
0.0
  0
LINE
  5
103
330
F2
100
AcDbEntity
  8
AM_9
100
AcDbLine
 10
-1.268958333333333
 20
0.954740938573519
 30
0.0
 11
-1.329958333333333
 21
0.954740938573519
 31
0.0
  0
LINE
  5
104
330
F2
100
AcDbEntity
  8
AM_9
100
AcDbLine
 10
-1.268958333333333
 20
1.099078505870926
 30
0.0
 11
-1.268958333333333
 21
0.954740938573519
 31
0.0
  0
LINE
  5
105
330
F2
100
AcDbEntity
  8
AM_9
100
AcDbLine
 10
-1.268958333333333
 20
1.062994114046574
 30
0.0
 11
-1.329958333333333
 21
1.062994114046574
 31
0.0
  0
LINE
  5
106
330
F2
100
AcDbEntity
  8
AM_9
100
AcDbLine
 10
-1.268958333333333
 20
0.9908253303978707
 30
0.0
 11
-1.329958333333333
 21
0.9908253303978707
 31
0.0
  0
LINE
  5
107
330
F2
100
AcDbEntity
  8
AM_9
100
AcDbLine
 10
-0.4289583333333333
 20
1.103309722222222
 30
0.0
 11
-0.4289583333333333
 21
0.9505097222222223
 31
0.0
  0
LINE
  5
108
330
F2
100
AcDbEntity
  8
AM_9
100
AcDbLine
 10
-0.4289583333333333
 20
1.103309722222222
 30
0.0
 11
-0.4475583333333333
 21
1.121909722222222
 31
0.0
  0
LINE
  5
109
330
F2
100
AcDbEntity
  8
AM_9
100
AcDbLine
 10
-0.4475583333333333
 20
0.9319097222222223
 30
0.0
 11
-0.4289583333333333
 21
0.9505097222222223
 31
0.0
  0
LINE
  5
10A
330
F2
100
AcDbEntity
  8
AM_9
100
AcDbLine
 10
-0.4475583333333333
 20
1.121909722222222
 30
0.0
 11
-0.4475583333333333
 21
0.9319097222222223
 31
0.0
  0
LINE
  5
10B
330
F2
100
AcDbEntity
  8
AM_9
100
AcDbLine
 10
-1.228958333333333
 20
0.9319097222222223
 30
0.0
 11
-0.4475583333333333
 21
0.9319097222222223
 31
0.0
  0
LINE
  5
10C
330
F2
100
AcDbEntity
  8
AM_9
100
AcDbLine
 10
-0.4475583333333333
 20
1.121909722222222
 30
0.0
 11
-1.228958333333333
 21
1.121909722222222
 31
0.0
  0
LINE
  5
10D
330
F2
100
AcDbEntity
  8
AM_5
100
AcDbLine
 10
-1.148958333333333
 20
0.9505097222222223
 30
0.0
 11
-1.181174478354114
 21
0.9319097222222223
 31
0.0
  0
LINE
  5
10E
330
F2
100
AcDbEntity
  8
AM_5
100
AcDbLine
 10
-1.148958333333333
 20
1.121909722222223
 30
0.0
 11
-1.148958333333333
 21
0.9319097222222222
 31
0.0
  0
LINE
  5
10F
330
F2
100
AcDbEntity
  8
AM_5
100
AcDbLine
 10
-1.148958333333333
 20
1.103309722222222
 30
0.0
 11
-1.181174478354114
 21
1.121909722222222
 31
0.0
  0
LINE
  5
110
330
F2
100
AcDbEntity
  8
AM_4
100
AcDbLine
 10
-1.329958333333333
 20
1.126409722222222
 30
0.0
 11
-1.329958333333333
 21
0.9274097222222223
 31
0.0
  0
ARC
  5
111
330
F2
100
AcDbEntity
  8
AM_4
100
AcDbCircle
 10
-1.248958333333333
 20
0.927409722222222
 30
0.0
 40
0.0809999999999997
100
AcDbArc
 50
180.0
 51
270.0
  0
ARC
  5
112
330
F2
100
AcDbEntity
  8
AM_4
100
AcDbCircle
 10
-1.248958333333334
 20
1.126409722222223
 30
0.0
 40
0.0809999999999991
100
AcDbArc
 50
90.0
 51
180.0
  0
LINE
  5
113
330
F2
100
AcDbEntity
  8
AM_4
100
AcDbLine
 10
-1.248958333333333
 20
1.207409722222222
 30
0.0
 11
-1.248958333333333
 21
0.8464097222222224
 31
0.0
  0
LINE
  5
114
330
F2
100
AcDbEntity
  8
AM_4
100
AcDbLine
 10
-1.248958333333333
 20
0.8464097222222224
 30
0.0
 11
-1.228958333333333
 21
0.8464097222222224
 31
0.0
  0
LINE
  5
115
330
F2
100
AcDbEntity
  8
AM_4
100
AcDbLine
 10
-1.228958333333333
 20
1.207409722222222
 30
0.0
 11
-1.248958333333333
 21
1.207409722222222
 31
0.0
  0
ENDBLK
  5
F5
330
F2
100
AcDbEntity
  8
0
100
AcDbBlockEnd
  0
BLOCK
  5
118
330
116
100
AcDbEntity
  8
0
100
AcDbBlockBegin
  2
5_070882LW_0_in_069807_2
 70
     2
 10
0.0
 20
0.0
 30
0.0
  3
5_070882LW_0_in_069807_2
  1

  0
ATTDEF
  5
11A
330
116
100
AcDbEntity
  8
AM_6
100
AcDbText
 10
4.211041666666667
 20
1.359375
 30
0.0
 40
0.5
  1
Imperial Insert Lockwasher -Inch
100
AcDbAttributeDefinition
  3

  2
NN
 70
     8
280
     0
  0
ATTDEF
  5
11B
330
116
100
AcDbEntity
  8
AM_6
100
AcDbText
 10
4.211041666666667
 20
0.859375
 30
0.0
 40
0.5
  1
Imperial Bearings
100
AcDbAttributeDefinition
  3

  2
NT
 70
     8
280
     0
  0
ATTDEF
  5
11C
330
116
100
AcDbEntity
  8
AM_6
100
AcDbText
 10
4.211041666666667
 20
0.359375
 30
0.0
 40
0.5
  1
070882LW
100
AcDbAttributeDefinition
  3

  2
NB
 70
     8
280
     0
  0
ATTDEF
  5
11D
330
116
100
AcDbEntity
  8
AM_6
100
AcDbText
 10
4.211041666666667
 20
-0.140625
 30
0.0
 40
0.5
  1
$PN.LW
100
AcDbAttributeDefinition
  3

  2
NBSYN
 70
     8
280
     0
  0
ATTDEF
  5
11E
330
116
100
AcDbEntity
  8
AM_6
100
AcDbText
 10
4.211041666666667
 20
-0.640625
 30
0.0
 40
0.5
  1
070882
100
AcDbAttributeDefinition
  3

  2
LINA
 70
     8
280
     0
  0
ATTDEF
  5
11F
330
116
100
AcDbEntity
  8
AM_6
100
AcDbText
 10
4.211041666666667
 20
-1.140625
 30
0.0
 40
0.5
  1
1-1/4
100
AcDbAttributeDefinition
  3

  2
SS
 70
     8
280
     0
  0
ATTDEF
  5
120
330
116
100
AcDbEntity
  8
AM_6
100
AcDbText
 10
4.211041666666667
 20
-1.640625
 30
0.0
 40
0.5
  1
1.250000
100
AcDbAttributeDefinition
  3

  2
SS1
 70
     8
280
     0
  0
ATTDEF
  5
121
330
116
100
AcDbEntity
  8
AM_6
100
AcDbText
 10
4.211041666666667
 20
-2.140625
 30
0.0
 40
0.5
  1
070882
100
AcDbAttributeDefinition
  3

  2
PN
 70
     8
280
     0
  0
ATTDEF
  5
122
330
116
100
AcDbEntity
  8
AM_6
100
AcDbText
 10
4.211041666666667
 20
-2.640625
 30
0.0
 40
0.5
  1
INS-IP-104R
100
AcDbAttributeDefinition
  3

  2
DESCRIPTION
 70
     8
280
     0
  0
ATTDEF
  5
123
330
116
100
AcDbEntity
  8
AM_6
100
AcDbText
 10
4.211041666666667
 20
-3.140625
 30
0.0
 40
0.5
  1
3.1496
100
AcDbAttributeDefinition
  3

  2
A
 70
     8
280
     0
  0
ATTDEF
  5
124
330
116
100
AcDbEntity
  8
AM_6
100
AcDbText
 10
4.211041666666667
 20
-3.640625
 30
0.0
 40
0.5
  1
61/64
100
AcDbAttributeDefinition
  3

  2
B
 70
     8
280
     0
  0
ATTDEF
  5
125
330
116
100
AcDbEntity
  8
AM_6
100
AcDbText
 10
4.211041666666667
 20
-4.140625
 30
0.0
 40
0.5
  1
2-5/8
100
AcDbAttributeDefinition
  3

  2
C
 70
     8
280
     0
  0
ATTDEF
  5
126
330
116
100
AcDbEntity
  8
AM_6
100
AcDbText
 10
4.211041666666667
 20
-4.640625
 30
0.0
 40
0.5
  1
0.970
100
AcDbAttributeDefinition
  3

  2
D
 70
     8
280
     0
  0
ATTDEF
  5
127
330
116
100
AcDbEntity
  8
AM_6
100
AcDbText
 10
4.211041666666667
 20
-5.140625
 30
0.0
 40
0.5
  1
2-23/32
100
AcDbAttributeDefinition
  3

  2
E
 70
     8
280
     0
  0
ATTDEF
  5
128
330
116
100
AcDbEntity
  8
AM_6
100
AcDbText
 10
4.211041666666667
 20
-5.640625
 30
0.0
 40
0.5
  1
0.1900
100
AcDbAttributeDefinition
  3

  2
NDM
 70
     8
280
     0
  0
ATTDEF
  5
129
330
116
100
AcDbEntity
  8
AM_6
100
AcDbText
 10
4.211041666666667
 20
-6.140625
 30
0.0
 40
0.5
  1
0.1450
100
AcDbAttributeDefinition
  3

  2
KDM
 70
     8
280
     0
  0
ATTDEF
  5
12A
330
116
100
AcDbEntity
  8
AM_6
100
AcDbText
 10
4.211041666666667
 20
-6.640625
 30
0.0
 40
0.5
  1
2.22
100
AcDbAttributeDefinition
  3

  2
AL
 70
     8
280
     0
  0
ATTDEF
  5
12B
330
116
100
AcDbEntity
  8
AM_6
100
AcDbText
 10
4.211041666666667
 20
-7.140625
 30
0.0
 40
0.5
  1
0.38
100
AcDbAttributeDefinition
  3

  2
BL
 70
     8
280
     0
  0
ATTDEF
  5
12C
330
116
100
AcDbEntity
  8
AM_6
100
AcDbText
 10
4.211041666666667
 20
-7.640625
 30
0.0
 40
0.5
  1
0.07
100
AcDbAttributeDefinition
  3

  2
CL
 70
     8
280
     0
  0
ATTDEF
  5
12D
330
116
100
AcDbEntity
  8
AM_6
100
AcDbText
 10
4.211041666666667
 20
-8.140625
 30
0.0
 40
0.5
  1
0.44
100
AcDbAttributeDefinition
  3

  2
DL
 70
     8
280
     0
  0
ATTDEF
  5
12E
330
116
100
AcDbEntity
  8
AM_6
100
AcDbText
 10
4.211041666666667
 20
-8.640625
 30
0.0
 40
0.5
  1
baldor
100
AcDbAttributeDefinition
  3

  2
COMPANY
 70
     8
280
     0
  0
LINE
  5
12F
330
116
100
AcDbEntity
  8
AM_9
100
AcDbLine
 10
-1.158958333333333
 20
0.5816870733270341
 30
0.0
 11
-1.228958333333333
 21
0.5816870733270341
 31
0.0
  0
LINE
  5
130
330
116
100
AcDbEntity
  8
AM_9
100
AcDbLine
 10
-0.7889583333333334
 20
0.5650902839867558
 30
0.0
 11
-1.158958333333333
 21
0.5650902839867556
 31
0.0
  0
LINE
  5
131
330
116
100
AcDbEntity
  8
AM_9
100
AcDbLine
 10
-0.7889583333333334
 20
0.5343603916191675
 30
0.0
 11
-1.228958333333333
 21
0.5343603916191675
 31
0.0
  0
LINE
  5
132
330
116
100
AcDbEntity
  8
AM_9
100
AcDbLine
 10
-1.158958333333333
 20
0.6378001361361229
 30
0.0
 11
-0.7889583333333334
 21
0.6378001361361227
 31
0.0
  0
LINE
  5
133
330
116
100
AcDbEntity
  8
AM_9
100
AcDbLine
 10
-0.7889583333333334
 20
0.6070702437685345
 30
0.0
 11
-1.228958333333333
 21
0.6070702437685345
 31
0.0
  0
LINE
  5
134
330
116
100
AcDbEntity
  8
AM_9
100
AcDbLine
 10
-0.7889583333333334
 20
0.5343603916191675
 30
0.0
 11
-0.7889583333333334
 21
0.6378001361361227
 31
0.0
  0
LINE
  5
135
330
116
100
AcDbEntity
  8
AM_9
100
AcDbLine
 10
-1.158958333333333
 20
0.654396925476401
 30
0.0
 11
-1.228958333333333
 21
0.654396925476401
 31
0.0
  0
LINE
  5
136
330
116
100
AcDbEntity
  8
AM_9
100
AcDbLine
 10
-1.158958333333333
 20
1.031313416298633
 30
0.0
 11
-1.228958333333333
 21
1.031313416298633
 31
0.0
  0
LINE
  5
137
330
116
100
AcDbEntity
  8
AM_9
100
AcDbLine
 10
-1.158958333333333
 20
1.122011733355104
 30
0.0
 11
-1.228958333333333
 21
1.122011733355104
 31
0.0
  0
LINE
  5
138
330
116
100
AcDbEntity
  8
AM_9
100
AcDbLine
 10
-1.158958333333333
 20
-1.031313416298633
 30
0.0
 11
-1.228958333333333
 21
-1.031313416298633
 31
0.0
  0
LINE
  5
139
330
116
100
AcDbEntity
  8
AM_9
100
AcDbLine
 10
-1.228958333333333
 20
-1.122011733355103
 30
0.0
 11
-1.158958333333333
 21
-1.122011733355103
 31
0.0
  0
LINE
  5
13A
330
116
100
AcDbEntity
  8
AM_9
100
AcDbLine
 10
-1.158958333333333
 20
0.6689638396055355
 30
0.0
 11
-1.228958333333333
 21
0.6689638396055355
 31
0.0
  0
LINE
  5
13B
330
116
100
AcDbEntity
  8
AM_9
100
AcDbLine
 10
-1.158958333333333
 20
-0.6689638396055354
 30
0.0
 11
-1.228958333333333
 21
-0.6689638396055354
 31
0.0
  0
LINE
  5
13C
330
116
100
AcDbEntity
  8
AM_9
100
AcDbLine
 10
-1.158958333333333
 20
0.5402040115663863
 30
0.0
 11
-1.228958333333333
 21
0.5402040115663864
 31
0.0
  0
LINE
  5
13D
330
116
100
AcDbEntity
  8
AM_9
100
AcDbLine
 10
-1.158958333333333
 20
-0.540204011566386
 30
0.0
 11
-1.228958333333333
 21
-0.5402040115663861
 31
0.0
  0
LINE
  5
13E
330
116
100
AcDbEntity
  8
AM_9
100
AcDbLine
 10
-1.158958333333333
 20
0.4058537231409421
 30
0.0
 11
-1.228958333333333
 21
0.4058537231409422
 31
0.0
  0
LINE
  5
13F
330
116
100
AcDbEntity
  8
AM_9
100
AcDbLine
 10
-1.158958333333333
 20
-0.4058537231409417
 30
0.0
 11
-1.228958333333333
 21
-0.4058537231409417
 31
0.0
  0
LINE
  5
140
330
116
100
AcDbEntity
  8
AM_9
100
AcDbLine
 10
-1.158958333333333
 20
0.7964238544061514
 30
0.0
 11
-1.228958333333333
 21
0.7964238544061514
 31
0.0
  0
LINE
  5
141
330
116
100
AcDbEntity
  8
AM_9
100
AcDbLine
 10
-1.158958333333333
 20
0.6620735659807057
 30
0.0
 11
-1.228958333333333
 21
0.6620735659807057
 31
0.0
  0
LINE
  5
142
330
116
100
AcDbEntity
  8
AM_9
100
AcDbLine
 10
-1.158958333333333
 20
0.8212368393826085
 30
0.0
 11
-1.228958333333333
 21
0.8212368393826085
 31
0.0
  0
LINE
  5
143
330
116
100
AcDbEntity
  8
AM_9
100
AcDbLine
 10
-1.158958333333333
 20
-0.6620735659807053
 30
0.0
 11
-1.228958333333333
 21
-0.6620735659807053
 31
0.0
  0
LINE
  5
144
330
116
100
AcDbEntity
  8
AM_9
100
AcDbLine
 10
-1.158958333333333
 20
-0.796423854406151
 30
0.0
 11
-1.228958333333333
 21
-0.796423854406151
 31
0.0
  0
LINE
  5
145
330
116
100
AcDbEntity
  8
AM_9
100
AcDbLine
 10
-1.228958333333333
 20
-0.821236839382608
 30
0.0
 11
-1.158958333333333
 21
-0.821236839382608
 31
0.0
  0
LINE
  5
146
330
116
100
AcDbEntity
  8
AM_9
100
AcDbLine
 10
-1.158958333333333
 20
0.0950000000000005
 30
0.0
 11
-1.228958333333333
 21
0.0950000000000005
 31
0.0
  0
LINE
  5
147
330
116
100
AcDbEntity
  8
AM_9
100
AcDbLine
 10
-1.158958333333333
 20
-0.095
 30
0.0
 11
-1.228958333333333
 21
-0.095
 31
0.0
  0
LINE
  5
148
330
116
100
AcDbEntity
  8
AM_4
100
AcDbLine
 10
-1.158958333333333
 20
1.359375
 30
0.0
 11
-1.228958333333333
 21
1.359375
 31
0.0
  0
LINE
  5
149
330
116
100
AcDbEntity
  8
AM_4
100
AcDbLine
 10
-1.228958333333333
 20
-1.359375
 30
0.0
 11
-1.158958333333333
 21
-1.359375
 31
0.0
  0
LINE
  5
14A
330
116
100
AcDbEntity
  8
AM_4
100
AcDbLine
 10
-1.228958333333333
 20
1.359375
 30
0.0
 11
-1.228958333333333
 21
-1.359375
 31
0.0
  0
LINE
  5
14B
330
116
100
AcDbEntity
  8
AM_4
100
AcDbLine
 10
-1.158958333333333
 20
1.359375
 30
0.0
 11
-1.158958333333333
 21
-1.359375
 31
0.0
  0
ENDBLK
  5
119
330
116
100
AcDbEntity
  8
0
100
AcDbBlockEnd
  0
BLOCK
  5
14E
330
14C
100
AcDbEntity
  8
0
100
AcDbBlockBegin
  2
6_070882I_0_in_069807_2
 70
     2
 10
0.0
 20
0.0
 30
0.0
  3
6_070882I_0_in_069807_2
  1

  0
ATTDEF
  5
150
330
14C
100
AcDbEntity
  8
AM_6
100
AcDbText
 10
6.254375
 20
1.5748
 30
0.0
 40
0.5
  1
Imperial Insert -Inch
100
AcDbAttributeDefinition
  3

  2
NN
 70
     8
280
     0
  0
ATTDEF
  5
151
330
14C
100
AcDbEntity
  8
AM_6
100
AcDbText
 10
6.254375
 20
1.0748
 30
0.0
 40
0.5
  1
Imperial Bearings
100
AcDbAttributeDefinition
  3

  2
NT
 70
     8
280
     0
  0
ATTDEF
  5
152
330
14C
100
AcDbEntity
  8
AM_6
100
AcDbText
 10
6.254375
 20
0.5747999999999998
 30
0.0
 40
0.5
  1
070882I
100
AcDbAttributeDefinition
  3

  2
NB
 70
     8
280
     0
  0
ATTDEF
  5
153
330
14C
100
AcDbEntity
  8
AM_6
100
AcDbText
 10
6.254375
 20
0.0747999999999998
 30
0.0
 40
0.5
  1
$PN.I
100
AcDbAttributeDefinition
  3

  2
NBSYN
 70
     8
280
     0
  0
ATTDEF
  5
154
330
14C
100
AcDbEntity
  8
AM_6
100
AcDbText
 10
6.254375
 20
-0.4252000000000002
 30
0.0
 40
0.5
  1
070882
100
AcDbAttributeDefinition
  3

  2
LINA
 70
     8
280
     0
  0
ATTDEF
  5
155
330
14C
100
AcDbEntity
  8
AM_6
100
AcDbText
 10
6.254375
 20
-0.9252000000000002
 30
0.0
 40
0.5
  1
1-1/4
100
AcDbAttributeDefinition
  3

  2
SS
 70
     8
280
     0
  0
ATTDEF
  5
156
330
14C
100
AcDbEntity
  8
AM_6
100
AcDbText
 10
6.254375
 20
-1.4252
 30
0.0
 40
0.5
  1
1.250000
100
AcDbAttributeDefinition
  3

  2
SS1
 70
     8
280
     0
  0
ATTDEF
  5
157
330
14C
100
AcDbEntity
  8
AM_6
100
AcDbText
 10
6.254375
 20
-1.9252
 30
0.0
 40
0.5
  1
070882
100
AcDbAttributeDefinition
  3

  2
PN
 70
     8
280
     0
  0
ATTDEF
  5
158
330
14C
100
AcDbEntity
  8
AM_6
100
AcDbText
 10
6.254375
 20
-2.4252
 30
0.0
 40
0.5
  1
INS-IP-104R
100
AcDbAttributeDefinition
  3

  2
DESCRIPTION
 70
     8
280
     0
  0
ATTDEF
  5
159
330
14C
100
AcDbEntity
  8
AM_6
100
AcDbText
 10
6.254375
 20
-2.9252
 30
0.0
 40
0.5
  1
Contact Seal
100
AcDbAttributeDefinition
  3

  2
ST
 70
     8
280
     0
  0
ATTDEF
  5
15A
330
14C
100
AcDbEntity
  8
AM_6
100
AcDbText
 10
6.254375
 20
-3.4252
 30
0.0
 40
0.5
  1
3.1496
100
AcDbAttributeDefinition
  3

  2
A
 70
     8
280
     0
  0
ATTDEF
  5
15B
330
14C
100
AcDbEntity
  8
AM_6
100
AcDbText
 10
6.254375
 20
-3.9252
 30
0.0
 40
0.5
  1
61/64
100
AcDbAttributeDefinition
  3

  2
B
 70
     8
280
     0
  0
ATTDEF
  5
15C
330
14C
100
AcDbEntity
  8
AM_6
100
AcDbText
 10
6.254375
 20
-4.4252
 30
0.0
 40
0.5
  1
2-5/8
100
AcDbAttributeDefinition
  3

  2
C
 70
     8
280
     0
  0
ATTDEF
  5
15D
330
14C
100
AcDbEntity
  8
AM_6
100
AcDbText
 10
6.254375
 20
-4.9252
 30
0.0
 40
0.5
  1
0.970
100
AcDbAttributeDefinition
  3

  2
D
 70
     8
280
     0
  0
ATTDEF
  5
15E
330
14C
100
AcDbEntity
  8
AM_6
100
AcDbText
 10
6.254375
 20
-5.4252
 30
0.0
 40
0.5
  1
2-23/32
100
AcDbAttributeDefinition
  3

  2
E
 70
     8
280
     0
  0
ATTDEF
  5
15F
330
14C
100
AcDbEntity
  8
AM_6
100
AcDbText
 10
6.254375
 20
-5.9252
 30
0.0
 40
0.5
  1
0.1900
100
AcDbAttributeDefinition
  3

  2
NDM
 70
     8
280
     0
  0
ATTDEF
  5
160
330
14C
100
AcDbEntity
  8
AM_6
100
AcDbText
 10
6.254375
 20
-6.4252
 30
0.0
 40
0.5
  1
0.101
100
AcDbAttributeDefinition
  3

  2
H
 70
     8
280
     0
  0
ATTDEF
  5
161
330
14C
100
AcDbEntity
  8
AM_6
100
AcDbText
 10
6.254375
 20
-6.9252
 30
0.0
 40
0.5
  1
0.1450
100
AcDbAttributeDefinition
  3

  2
KDM
 70
     8
280
     0
  0
ATTDEF
  5
162
330
14C
100
AcDbEntity
  8
AM_6
100
AcDbText
 10
6.254375
 20
-7.4252
 30
0.0
 40
0.5
  1
2.22
100
AcDbAttributeDefinition
  3

  2
AL
 70
     8
280
     0
  0
ATTDEF
  5
163
330
14C
100
AcDbEntity
  8
AM_6
100
AcDbText
 10
6.254375
 20
-7.9252
 30
0.0
 40
0.5
  1
0.38
100
AcDbAttributeDefinition
  3

  2
BL
 70
     8
280
     0
  0
ATTDEF
  5
164
330
14C
100
AcDbEntity
  8
AM_6
100
AcDbText
 10
6.254375
 20
-8.4252
 30
0.0
 40
0.5
  1
0.07
100
AcDbAttributeDefinition
  3

  2
CL
 70
     8
280
     0
  0
ATTDEF
  5
165
330
14C
100
AcDbEntity
  8
AM_6
100
AcDbText
 10
6.254375
 20
-8.9252
 30
0.0
 40
0.5
  1
0.44
100
AcDbAttributeDefinition
  3

  2
DL
 70
     8
280
     0
  0
ATTDEF
  5
166
330
14C
100
AcDbEntity
  8
AM_6
100
AcDbText
 10
6.254375
 20
-9.4252
 30
0.0
 40
0.5
  1
0.8000
100
AcDbAttributeDefinition
  3

  2
LL
 70
     8
280
     0
  0
ATTDEF
  5
167
330
14C
100
AcDbEntity
  8
AM_6
100
AcDbText
 10
6.254375
 20
-9.9252
 30
0.0
 40
0.5
  1
0.020
100
AcDbAttributeDefinition
  3

  2
Y
 70
     8
280
     0
  0
ATTDEF
  5
168
330
14C
100
AcDbEntity
  8
AM_6
100
AcDbText
 10
6.254375
 20
-10.4252
 30
0.0
 40
0.5
  1
0.020000
100
AcDbAttributeDefinition
  3

  2
Y1
 70
     8
280
     0
  0
ATTDEF
  5
169
330
14C
100
AcDbEntity
  8
AM_6
100
AcDbText
 10
6.254375
 20
-10.9252
 30
0.0
 40
0.5
  1
1-51/64
100
AcDbAttributeDefinition
  3

  2
Z
 70
     8
280
     0
  0
ATTDEF
  5
16A
330
14C
100
AcDbEntity
  8
AM_6
100
AcDbText
 10
6.254375
 20
-11.4252
 30
0.0
 40
0.5
  1
1.796875
100
AcDbAttributeDefinition
  3

  2
Z1
 70
     8
280
     0
  0
ATTDEF
  5
16B
330
14C
100
AcDbEntity
  8
AM_6
100
AcDbText
 10
6.254375
 20
-11.9252
 30
0.0
 40
0.5
  1
baldor
100
AcDbAttributeDefinition
  3

  2
COMPANY
 70
     8
280
     0
  0
LINE
  5
16C
330
14C
100
AcDbEntity
  8
AM_9
100
AcDbLine
 10
0.7409375000000005
 20
0.6394208116364379
 30
0.0
 11
-1.158958333333333
 21
0.6394208116364379
 31
0.0
  0
LINE
  5
16D
330
14C
100
AcDbEntity
  8
AM_9
100
AcDbLine
 10
0.7409375000000005
 20
0.5667109594870708
 30
0.0
 11
-1.158958333333333
 21
0.5667109594870708
 31
0.0
  0
LINE
  5
16E
330
14C
100
AcDbEntity
  8
AM_9
100
AcDbLine
 10
-0.3189583333333333
 20
1.026909722222222
 30
0.0
 11
-0.3527423231666628
 21
1.099359722222222
 31
0.0
  0
LINE
  5
16F
330
14C
100
AcDbEntity
  8
AM_9
100
AcDbLine
 10
-0.3527423231666628
 20
0.9544597222222224
 30
0.0
 11
-0.3189583333333333
 21
1.026909722222222
 31
0.0
  0
LINE
  5
170
330
14C
100
AcDbEntity
  8
AM_9
100
AcDbLine
 10
-0.3189583333333381
 20
-1.026909722222222
 30
0.0
 11
-0.3527423231666429
 21
-0.9544597222222224
 31
0.0
  0
LINE
  5
171
330
14C
100
AcDbEntity
  8
AM_9
100
AcDbLine
 10
-0.3527423231666429
 20
-1.099359722222222
 30
0.0
 11
-0.3189583333333381
 21
-1.026909722222222
 31
0.0
  0
LINE
  5
172
330
14C
100
AcDbEntity
  8
AM_9
100
AcDbLine
 10
-0.3527423231666628
 20
0.9544597222222224
 30
0.0
 11
-0.3527423231666628
 21
1.099359722222222
 31
0.0
  0
LINE
  5
173
330
14C
100
AcDbEntity
  8
AM_9
100
AcDbLine
 10
-0.3527423231666628
 20
1.099359722222222
 30
0.0
 11
-1.136408333333333
 21
1.099359722222222
 31
0.0
  0
LINE
  5
174
330
14C
100
AcDbEntity
  8
AM_9
100
AcDbLine
 10
-1.136408333333333
 20
0.9544597222222224
 30
0.0
 11
-0.3527423231666628
 21
0.9544597222222224
 31
0.0
  0
LINE
  5
175
330
14C
100
AcDbEntity
  8
AM_9
100
AcDbLine
 10
-1.13640833333334
 20
-1.099359722222222
 30
0.0
 11
-0.3527423231666429
 21
-1.099359722222222
 31
0.0
  0
LINE
  5
176
330
14C
100
AcDbEntity
  8
AM_9
100
AcDbLine
 10
-0.3527423231666429
 20
-0.9544597222222224
 30
0.0
 11
-1.13640833333334
 21
-0.9544597222222224
 31
0.0
  0
LINE
  5
177
330
14C
100
AcDbEntity
  8
AM_9
100
AcDbLine
 10
-0.3527423231666429
 20
-0.9544597222222224
 30
0.0
 11
-0.3527423231666429
 21
-1.099359722222222
 31
0.0
  0
LINE
  5
178
330
14C
100
AcDbEntity
  8
AM_9
100
AcDbLine
 10
-1.136408333333333
 20
0.9544597222222224
 30
0.0
 11
-1.136408333333333
 21
1.099359722222222
 31
0.0
  0
LINE
  5
179
330
14C
100
AcDbEntity
  8
AM_9
100
AcDbLine
 10
-1.136408333333333
 20
1.099359722222222
 30
0.0
 11
-1.158958333333333
 21
1.121909722222222
 31
0.0
  0
LINE
  5
17A
330
14C
100
AcDbEntity
  8
AM_9
100
AcDbLine
 10
-1.158958333333333
 20
0.9319097222222223
 30
0.0
 11
-1.136408333333333
 21
0.9544597222222224
 31
0.0
  0
LINE
  5
17B
330
14C
100
AcDbEntity
  8
AM_9
100
AcDbLine
 10
-1.13640833333334
 20
-0.9544597222222224
 30
0.0
 11
-1.15895833333333
 21
-0.9319097222222223
 31
0.0
  0
LINE
  5
17C
330
14C
100
AcDbEntity
  8
AM_9
100
AcDbLine
 10
-1.15895833333333
 20
-1.121909722222222
 30
0.0
 11
-1.13640833333334
 21
-1.099359722222222
 31
0.0
  0
LINE
  5
17D
330
14C
100
AcDbEntity
  8
AM_9
100
AcDbLine
 10
-1.13640833333334
 20
-0.9544597222222224
 30
0.0
 11
-1.13640833333334
 21
-1.099359722222222
 31
0.0
  0
LINE
  5
17E
330
14C
100
AcDbEntity
  8
AM_9
100
AcDbLine
 10
0.7409375000000005
 20
0.6070702437685347
 30
0.0
 11
-1.390625
 21
0.6070702437685344
 31
0.0
  0
LINE
  5
17F
330
14C
100
AcDbEntity
  8
AM_9
100
AcDbLine
 10
-1.390625
 20
0.5343603916191675
 30
0.0
 11
0.7409375000000005
 21
0.5343603916191676
 31
0.0
  0
LINE
  5
180
330
14C
100
AcDbEntity
  8
AM_9
100
AcDbLine
 10
0.7409374999999999
 20
0.6250000000000003
 30
0.0
 11
-1.390625
 21
0.6250000000000003
 31
0.0
  0
LINE
  5
181
330
14C
100
AcDbEntity
  8
AM_9
100
AcDbLine
 10
-1.390625
 20
-0.6250000000000003
 30
0.0
 11
0.7409374999999999
 21
-0.6250000000000003
 31
0.0
  0
LINE
  5
182
330
14C
100
AcDbEntity
  8
AM_9
100
AcDbLine
 10
1.234375
 20
0.6578947368421053
 30
0.0
 11
0.7409375000000002
 21
0.6578947368421053
 31
0.0
  0
LINE
  5
183
330
14C
100
AcDbEntity
  8
AM_9
100
AcDbLine
 10
0.7409375000000002
 20
-0.6578947368421053
 30
0.0
 11
1.234375
 21
-0.6578947368421053
 31
0.0
  0
LINE
  5
184
330
14C
100
AcDbEntity
  8
AM_9
100
AcDbLine
 10
-1.390625
 20
0.6378001361361227
 30
0.0
 11
-1.158958333333333
 21
0.6378001361361229
 31
0.0
  0
LINE
  5
185
330
14C
100
AcDbEntity
  8
AM_9
100
AcDbLine
 10
-1.158958333333333
 20
0.5650902839867558
 30
0.0
 11
-1.390625
 21
0.5650902839867556
 31
0.0
  0
LINE
  5
186
330
14C
100
AcDbEntity
  8
AM_9
100
AcDbLine
 10
-1.158958333333333
 20
0.6578947368421053
 30
0.0
 11
-1.228958333333333
 21
0.6578947368421053
 31
0.0
  0
LINE
  5
187
330
14C
100
AcDbEntity
  8
AM_9
100
AcDbLine
 10
-1.228958333333333
 20
-0.6578947368421053
 30
0.0
 11
-1.158958333333333
 21
-0.6578947368421053
 31
0.0
  0
LINE
  5
188
330
14C
100
AcDbEntity
  8
AM_9
100
AcDbLine
 10
1.234375
 20
-0.8984375
 30
0.0
 11
1.234375
 21
0.8984375
 31
0.0
  0
LINE
  5
189
330
14C
100
AcDbEntity
  8
AM_9
100
AcDbLine
 10
1.254375
 20
0.8984375
 30
0.0
 11
1.234375
 21
0.8984375
 31
0.0
  0
LINE
  5
18A
330
14C
100
AcDbEntity
  8
AM_9
100
AcDbLine
 10
1.234375
 20
-0.8984375
 30
0.0
 11
1.254375
 21
-0.8984375
 31
0.0
  0
LINE
  5
18B
330
14C
100
AcDbEntity
  8
AM_9
100
AcDbLine
 10
-0.7189583333333333
 20
-0.6505382386916239
 30
0.0
 11
-1.158958333333333
 21
-0.6505382386916239
 31
0.0
  0
LINE
  5
18C
330
14C
100
AcDbEntity
  8
AM_9
100
AcDbLine
 10
-0.7189583333333333
 20
0.6505382386916234
 30
0.0
 11
-1.158958333333333
 21
0.6505382386916234
 31
0.0
  0
LINE
  5
18D
330
14C
100
AcDbEntity
  8
AM_9
100
AcDbLine
 10
1.21875
 20
0.9982638888888888
 30
0.0
 11
0.9315624999999997
 21
0.9982638888888888
 31
0.0
  0
LINE
  5
18E
330
14C
100
AcDbEntity
  8
AM_9
100
AcDbLine
 10
0.9315624999999997
 20
-0.9982638888888888
 30
0.0
 11
1.21875
 21
-0.9982638888888888
 31
0.0
  0
LINE
  5
18F
330
14C
100
AcDbEntity
  8
AM_9
100
AcDbLine
 10
-0.7189583333333333
 20
-0.6505382386916239
 30
0.0
 11
-0.7189583333333333
 21
-0.8284088841127804
 31
0.0
  0
LINE
  5
190
330
14C
100
AcDbEntity
  8
AM_9
100
AcDbLine
 10
-0.7189583333333333
 20
0.8284088841127797
 30
0.0
 11
-0.7189583333333333
 21
0.6505382386916234
 31
0.0
  0
LINE
  5
191
330
14C
100
AcDbEntity
  8
AM_9
100
AcDbLine
 10
0.9315624999999997
 20
-1.207007578016766
 30
0.0
 11
0.9315624999999997
 21
1.207007578016766
 31
0.0
  0
ARC
  5
192
330
14C
100
AcDbEntity
  8
AM_9
100
AcDbCircle
 10
0.8315625000000016
 20
1.207007578016766
 30
0.0
 40
0.0999999999999981
100
AcDbArc
 50
0.0
 51
60.00000000000042
  0
ARC
  5
193
330
14C
100
AcDbEntity
  8
AM_9
100
AcDbCircle
 10
0.8315625000000016
 20
-1.207007578016766
 30
0.0
 40
0.099999999999998
100
AcDbArc
 50
299.9999999999995
 51
0.0
  0
LINE
  5
194
330
14C
100
AcDbEntity
  8
AM_9
100
AcDbLine
 10
0.8815625
 20
-1.293610118395209
 30
0.0
 11
0.8815625
 21
1.293610118395209
 31
0.0
  0
LINE
  5
195
330
14C
100
AcDbEntity
  8
AM_9
100
AcDbLine
 10
0.8815625
 20
1.293610118395209
 30
0.0
 11
0.7409374999999999
 21
1.3748
 31
0.0
  0
LINE
  5
196
330
14C
100
AcDbEntity
  8
AM_9
100
AcDbLine
 10
0.7409374999999999
 20
-1.3748
 30
0.0
 11
0.8815625
 21
-1.293610118395209
 31
0.0
  0
LINE
  5
197
330
14C
100
AcDbEntity
  8
AM_9
100
AcDbLine
 10
-0.6249999999999998
 20
-1.378021235876531
 30
0.0
 11
-0.2121874999999999
 21
-1.392436966032342
 31
0.0
  0
LINE
  5
198
330
14C
100
AcDbEntity
  8
AM_9
100
AcDbLine
 10
-0.2121874999999999
 20
1.392436966032342
 30
0.0
 11
-0.6249999999999998
 21
1.378021235876531
 31
0.0
  0
LINE
  5
199
330
14C
100
AcDbEntity
  8
AM_9
100
AcDbLine
 10
0.291889348766068
 20
1.52714375
 30
0.0
 11
0.2368606512339321
 21
1.52714375
 31
0.0
  0
LINE
  5
19A
330
14C
100
AcDbEntity
  8
AM_9
100
AcDbLine
 10
0.2368606512339321
 20
-1.52714375
 30
0.0
 11
0.291889348766068
 21
-1.52714375
 31
0.0
  0
LINE
  5
19B
330
14C
100
AcDbEntity
  8
AM_9
100
AcDbLine
 10
-0.2121874999999999
 20
-1.5248
 30
0.0
 11
-0.2121874999999999
 21
1.5248
 31
0.0
  0
ARC
  5
19C
330
14C
100
AcDbEntity
  8
AM_9
100
AcDbCircle
 10
-0.1621875
 20
1.524799999999999
 30
0.0
 40
0.05
100
AcDbArc
 50
90.0
 51
180.0
  0
ARC
  5
19D
330
14C
100
AcDbEntity
  8
AM_9
100
AcDbCircle
 10
-0.1621875000000003
 20
-1.5248
 30
0.0
 40
0.0499999999999997
100
AcDbArc
 50
180.0
 51
270.0
  0
LINE
  5
19E
330
14C
100
AcDbEntity
  8
AM_9
100
AcDbLine
 10
0.6909375000000002
 20
1.5748
 30
0.0
 11
0.3194036975321362
 21
1.5748
 31
0.0
  0
LINE
  5
19F
330
14C
100
AcDbEntity
  8
AM_9
100
AcDbLine
 10
0.3194036975321362
 20
-1.5748
 30
0.0
 11
0.6909375000000002
 21
-1.5748
 31
0.0
  0
LINE
  5
1A0
330
14C
100
AcDbEntity
  8
AM_9
100
AcDbLine
 10
0.7409374999999999
 20
-1.5248
 30
0.0
 11
0.7409374999999999
 21
1.5248
 31
0.0
  0
LINE
  5
1A1
330
14C
100
AcDbEntity
  8
AM_9
100
AcDbLine
 10
0.6909375000000002
 20
-1.5748
 30
0.0
 11
0.6909375000000002
 21
1.5748
 31
0.0
  0
ARC
  5
1A2
330
14C
100
AcDbEntity
  8
AM_9
100
AcDbCircle
 10
0.6909375000000003
 20
1.5248
 30
0.0
 40
0.0499999999999996
100
AcDbArc
 50
0.0
 51
90.0
  0
ARC
  5
1A3
330
14C
100
AcDbEntity
  8
AM_9
100
AcDbCircle
 10
0.6909375000000003
 20
-1.5248
 30
0.0
 40
0.0499999999999998
100
AcDbArc
 50
270.0
 51
0.0
  0
LINE
  5
1A4
330
14C
100
AcDbEntity
  8
AM_9
100
AcDbLine
 10
0.2368606512339321
 20
-1.52714375
 30
0.0
 11
0.2368606512339321
 21
1.52714375
 31
0.0
  0
LINE
  5
1A5
330
14C
100
AcDbEntity
  8
AM_9
100
AcDbLine
 10
0.2368606512339321
 20
1.52714375
 30
0.0
 11
0.2093463024678641
 21
1.5748
 31
0.0
  0
LINE
  5
1A6
330
14C
100
AcDbEntity
  8
AM_9
100
AcDbLine
 10
0.2093463024678641
 20
-1.5748
 30
0.0
 11
0.2368606512339321
 21
-1.52714375
 31
0.0
  0
LINE
  5
1A7
330
14C
100
AcDbEntity
  8
AM_9
100
AcDbLine
 10
0.2093463024678641
 20
-1.5748
 30
0.0
 11
0.2093463024678641
 21
1.5748
 31
0.0
  0
LINE
  5
1A8
330
14C
100
AcDbEntity
  8
AM_9
100
AcDbLine
 10
-0.1621875000000003
 20
-1.5748
 30
0.0
 11
-0.1621875000000003
 21
1.5748
 31
0.0
  0
LINE
  5
1A9
330
14C
100
AcDbEntity
  8
AM_9
100
AcDbLine
 10
0.2093463024678641
 20
1.5748
 30
0.0
 11
-0.1621875000000003
 21
1.5748
 31
0.0
  0
LINE
  5
1AA
330
14C
100
AcDbEntity
  8
AM_9
100
AcDbLine
 10
-0.1621875000000003
 20
-1.5748
 30
0.0
 11
0.2093463024678641
 21
-1.5748
 31
0.0
  0
LINE
  5
1AB
330
14C
100
AcDbEntity
  8
AM_9
100
AcDbLine
 10
0.3194036975321362
 20
-1.5748
 30
0.0
 11
0.3194036975321362
 21
1.5748
 31
0.0
  0
LINE
  5
1AC
330
14C
100
AcDbEntity
  8
AM_9
100
AcDbLine
 10
0.291889348766068
 20
-1.52714375
 30
0.0
 11
0.291889348766068
 21
1.52714375
 31
0.0
  0
LINE
  5
1AD
330
14C
100
AcDbEntity
  8
AM_9
100
AcDbLine
 10
0.291889348766068
 20
-1.52714375
 30
0.0
 11
0.3194036975321362
 21
-1.5748
 31
0.0
  0
LINE
  5
1AE
330
14C
100
AcDbEntity
  8
AM_9
100
AcDbLine
 10
0.3194036975321362
 20
1.5748
 30
0.0
 11
0.291889348766068
 21
1.52714375
 31
0.0
  0
LINE
  5
1AF
330
14C
100
AcDbEntity
  8
AM_5
100
AcDbLine
 10
-0.3989583333333332
 20
1.099359722222222
 30
0.0
 11
-0.3989583333333332
 21
1.121909722222222
 31
0.0
  0
LINE
  5
1B0
330
14C
100
AcDbEntity
  8
AM_5
100
AcDbLine
 10
-0.3989583333333332
 20
1.121909722222222
 30
0.0
 11
-0.3859390847631072
 21
1.099359722222222
 31
0.0
  0
LINE
  5
1B1
330
14C
100
AcDbEntity
  8
AM_5
100
AcDbLine
 10
-0.3989583333333332
 20
0.9544597222222224
 30
0.0
 11
-0.3989583333333332
 21
0.9319097222222223
 31
0.0
  0
LINE
  5
1B2
330
14C
100
AcDbEntity
  8
AM_5
100
AcDbLine
 10
-0.3989583333333332
 20
0.9319097222222223
 30
0.0
 11
-0.3859390847631075
 21
0.9544597222222224
 31
0.0
  0
LINE
  5
1B3
330
14C
100
AcDbEntity
  8
AM_5
100
AcDbLine
 10
-0.3989583333333346
 20
-1.099359722222222
 30
0.0
 11
-0.3989583333333346
 21
-1.121909722222222
 31
0.0
  0
LINE
  5
1B4
330
14C
100
AcDbEntity
  8
AM_5
100
AcDbLine
 10
-0.3989583333333346
 20
-1.121909722222222
 30
0.0
 11
-0.3859390847631272
 21
-1.099359722222222
 31
0.0
  0
LINE
  5
1B5
330
14C
100
AcDbEntity
  8
AM_5
100
AcDbLine
 10
-0.3989583333333346
 20
-0.9544597222222224
 30
0.0
 11
-0.3989583333333346
 21
-0.9319097222222223
 31
0.0
  0
LINE
  5
1B6
330
14C
100
AcDbEntity
  8
AM_5
100
AcDbLine
 10
-0.3989583333333346
 20
-0.9319097222222223
 30
0.0
 11
-0.3859390847631272
 21
-0.9544597222222224
 31
0.0
  0
LINE
  5
1B7
330
14C
100
AcDbEntity
  8
AM_7
100
AcDbLine
 10
-0.2769583333333332
 20
1.026909722222222
 30
0.0
 11
-1.375008333333333
 21
1.026909722222222
 31
0.0
  0
LINE
  5
1B8
330
14C
100
AcDbEntity
  8
AM_7
100
AcDbLine
 10
-0.2769583333333385
 20
-1.026909722222222
 30
0.0
 11
-1.375008333333333
 21
-1.026909722222222
 31
0.0
  0
LINE
  5
1B9
330
14C
100
AcDbEntity
  8
AM_4
100
AcDbLine
 10
-1.228958333333333
 20
0.6578947368421053
 30
0.0
 11
-1.390625
 21
0.6578947368421053
 31
0.0
  0
LINE
  5
1BA
330
14C
100
AcDbEntity
  8
AM_4
100
AcDbLine
 10
-1.390625
 20
-0.6578947368421053
 30
0.0
 11
-1.228958333333333
 21
-0.6578947368421053
 31
0.0
  0
LINE
  5
1BB
330
14C
100
AcDbEntity
  8
AM_4
100
AcDbLine
 10
-1.390625
 20
-0.6578947368421053
 30
0.0
 11
-1.390625
 21
0.6578947368421053
 31
0.0
  0
ARC
  5
1BC
330
14C
100
AcDbEntity
  8
AM_4
100
AcDbCircle
 10
-1.108958333333333
 20
-1.311090561259646
 30
0.0
 40
0.0500000000000005
100
AcDbArc
 50
180.0
 51
267.9999999999998
  0
ARC
  5
1BD
330
14C
100
AcDbEntity
  8
AM_4
100
AcDbCircle
 10
-1.108958333333333
 20
1.311090561259646
 30
0.0
 40
0.0500000000000003
100
AcDbArc
 50
92.00000000000023
 51
180.0
  0
LWPOLYLINE
  5
1BE
330
14C
100
AcDbEntity
  8
AM_4
100
AcDbPolyline
 90
        6
 70
     0
 43
0.0
 10
-1.110703308168458
 20
-1.087341527345923
 10
-1.127022767759576
 20
-1.084951493284856
 10
-1.141312212123401
 20
-1.078879906620323
 10
-1.152035152478868
 20
-1.06978237286775
 10
-1.158003046236281
 20
-1.058595723464173
 10
-1.158958333333333
 20
-1.051644804876985
  0
LWPOLYLINE
  5
1BF
330
14C
100
AcDbEntity
  8
AM_4
100
AcDbPolyline
 90
        6
 70
     0
 43
0.0
 10
-1.158958333333333
 20
1.051644804876985
 10
-1.15844615334545
 20
1.056745917779431
 10
-1.153200969166354
 20
1.068288439312639
 10
-1.142855922695886
 20
1.077904345034989
 10
-1.128684162505154
 20
1.084467122687451
 10
-1.110703308168458
 20
1.087341527345923
  0
LINE
  5
1C0
330
14C
100
AcDbEntity
  8
AM_4
100
AcDbLine
 10
-0.7189583333333333
 20
-0.9192388155425117
 30
0.0
 11
-1.158958333333333
 21
-0.9192388155425117
 31
0.0
  0
LINE
  5
1C1
330
14C
100
AcDbEntity
  8
AM_4
100
AcDbLine
 10
-0.7189583333333333
 20
0.9192388155425117
 30
0.0
 11
-1.158958333333333
 21
0.9192388155425117
 31
0.0
  0
LINE
  5
1C2
330
14C
100
AcDbEntity
  8
AM_4
100
AcDbLine
 10
1.254375
 20
-0.9752270299145298
 30
0.0
 11
1.254375
 21
0.9752270299145298
 31
0.0
  0
ARC
  5
1C3
330
14C
100
AcDbEntity
  8
AM_4
100
AcDbCircle
 10
1.231338141025641
 20
0.9752270299145299
 30
0.0
 40
0.023036858974359
100
AcDbArc
 50
0.0
 51
90.0
  0
ARC
  5
1C4
330
14C
100
AcDbEntity
  8
AM_4
100
AcDbCircle
 10
1.231338141025641
 20
-0.9752270299145299
 30
0.0
 40
0.0230368589743589
100
AcDbArc
 50
270.0
 51
0.0
  0
LINE
  5
1C5
330
14C
100
AcDbEntity
  8
AM_4
100
AcDbLine
 10
1.231338141025641
 20
-0.9982638888888888
 30
0.0
 11
1.231338141025641
 21
0.9982638888888888
 31
0.0
  0
LINE
  5
1C6
330
14C
100
AcDbEntity
  8
AM_4
100
AcDbLine
 10
1.231338141025641
 20
0.9982638888888888
 30
0.0
 11
1.21875
 21
0.9982638888888888
 31
0.0
  0
LINE
  5
1C7
330
14C
100
AcDbEntity
  8
AM_4
100
AcDbLine
 10
1.21875
 20
-0.9982638888888888
 30
0.0
 11
1.231338141025641
 21
-0.9982638888888888
 31
0.0
  0
LWPOLYLINE
  5
1C8
330
14C
100
AcDbEntity
  8
AM_4
100
AcDbPolyline
 90
        6
 70
     0
 43
0.0
 10
-1.110703308168458
 20
0.8186409504950346
 10
-1.127022767759576
 20
0.8162509164339673
 10
-1.141312212123401
 20
0.810179329769434
 10
-1.152035152478868
 20
0.8010817960168621
 10
-1.158003046236281
 20
0.7898951466132845
 10
-1.158958333333333
 20
0.7829442280260964
  0
LWPOLYLINE
  5
1C9
330
14C
100
AcDbEntity
  8
AM_4
100
AcDbPolyline
 90
        6
 70
     0
 43
0.0
 10
-1.158958333333333
 20
-0.7829442280260974
 10
-1.15844615334545
 20
-0.7880453409285433
 10
-1.153200969166354
 20
-0.7995878624617514
 10
-1.142855922695886
 20
-0.8092037681841014
 10
-1.128684162505154
 20
-0.8157665458365635
 10
-1.110703308168458
 20
-0.8186409504950352
  0
LINE
  5
1CA
330
14C
100
AcDbEntity
  8
AM_4
100
AcDbLine
 10
-1.110703308168458
 20
-0.8186409504950352
 30
0.0
 11
-1.110703308168458
 21
0.8186409504950346
 31
0.0
  0
LINE
  5
1CB
330
14C
100
AcDbEntity
  8
AM_4
100
AcDbLine
 10
-1.110703308168458
 20
-0.8186409504950352
 30
0.0
 11
-0.7189583333333333
 21
-0.8284088841127804
 31
0.0
  0
LINE
  5
1CC
330
14C
100
AcDbEntity
  8
AM_4
100
AcDbLine
 10
-0.7189583333333333
 20
-0.8284088841127804
 30
0.0
 11
-0.7189583333333333
 21
-1.097109460963668
 31
0.0
  0
LINE
  5
1CD
330
14C
100
AcDbEntity
  8
AM_4
100
AcDbLine
 10
-0.7189583333333333
 20
-1.097109460963668
 30
0.0
 11
-1.110703308168458
 21
-1.087341527345923
 31
0.0
  0
LINE
  5
1CE
330
14C
100
AcDbEntity
  8
AM_4
100
AcDbLine
 10
-1.110703308168458
 20
1.087341527345923
 30
0.0
 11
-1.110703308168458
 21
1.361060102610601
 31
0.0
  0
LINE
  5
1CF
330
14C
100
AcDbEntity
  8
AM_4
100
AcDbLine
 10
-1.110703308168458
 20
1.087341527345923
 30
0.0
 11
-0.7189583333333333
 21
1.097109460963668
 31
0.0
  0
LINE
  5
1D0
330
14C
100
AcDbEntity
  8
AM_4
100
AcDbLine
 10
-0.7189583333333333
 20
1.097109460963668
 30
0.0
 11
-0.7189583333333333
 21
0.8284088841127797
 31
0.0
  0
LINE
  5
1D1
330
14C
100
AcDbEntity
  8
AM_4
100
AcDbLine
 10
-0.7189583333333333
 20
0.8284088841127797
 30
0.0
 11
-1.110703308168458
 21
0.8186409504950346
 31
0.0
  0
LINE
  5
1D2
330
14C
100
AcDbEntity
  8
AM_4
100
AcDbLine
 10
-1.110703308168458
 20
-1.361060102610601
 30
0.0
 11
-0.6249999999999998
 21
-1.378021235876531
 31
0.0
  0
LINE
  5
1D3
330
14C
100
AcDbEntity
  8
AM_4
100
AcDbLine
 10
-0.6249999999999998
 20
1.378021235876531
 30
0.0
 11
-1.110703308168458
 21
1.361060102610601
 31
0.0
  0
LINE
  5
1D4
330
14C
100
AcDbEntity
  8
AM_4
100
AcDbLine
 10
-1.110703308168458
 20
-1.361060102610601
 30
0.0
 11
-1.110703308168458
 21
-1.087341527345923
 31
0.0
  0
ENDBLK
  5
14F
330
14C
100
AcDbEntity
  8
0
100
AcDbBlockEnd
  0
BLOCK
  5
1D7
330
1D5
100
AcDbEntity
  8
0
100
AcDbBlockBegin
  2
7_069807H_0_in_069807_2
 70
     2
 10
0.0
 20
0.0
 30
0.0
  3
7_069807H_0_in_069807_2
  1

  0
ATTDEF
  5
1D9
330
1D5
100
AcDbEntity
  8
AM_6
100
AcDbText
 10
6.60875
 20
2.625
 30
0.0
 40
0.5
  1
FC-IP -(Contact Seal)-Housing -Inch
100
AcDbAttributeDefinition
  3

  2
NN
 70
     8
280
     0
  0
ATTDEF
  5
1DA
330
1D5
100
AcDbEntity
  8
AM_6
100
AcDbText
 10
6.60875
 20
2.125
 30
0.0
 40
0.5
  1
Imperial Piloted Flange Bearings
100
AcDbAttributeDefinition
  3

  2
NT
 70
     8
280
     0
  0
ATTDEF
  5
1DB
330
1D5
100
AcDbEntity
  8
AM_6
100
AcDbText
 10
6.60875
 20
1.625
 30
0.0
 40
0.5
  1
069807H
100
AcDbAttributeDefinition
  3

  2
NB
 70
     8
280
     0
  0
ATTDEF
  5
1DC
330
1D5
100
AcDbEntity
  8
AM_6
100
AcDbText
 10
6.60875
 20
1.125
 30
0.0
 40
0.5
  1
$PN.H
100
AcDbAttributeDefinition
  3

  2
NBSYN
 70
     8
280
     0
  0
ATTDEF
  5
1DD
330
1D5
100
AcDbEntity
  8
AM_6
100
AcDbText
 10
6.60875
 20
0.625
 30
0.0
 40
0.5
  1
069807
100
AcDbAttributeDefinition
  3

  2
LINA
 70
     8
280
     0
  0
ATTDEF
  5
1DE
330
1D5
100
AcDbEntity
  8
AM_6
100
AcDbText
 10
6.60875
 20
0.125
 30
0.0
 40
0.5
  1
1-1/4
100
AcDbAttributeDefinition
  3

  2
SS
 70
     8
280
     0
  0
ATTDEF
  5
1DF
330
1D5
100
AcDbEntity
  8
AM_6
100
AcDbText
 10
6.60875
 20
-0.375
 30
0.0
 40
0.5
  1
069807
100
AcDbAttributeDefinition
  3

  2
PN
 70
     8
280
     0
  0
ATTDEF
  5
1E0
330
1D5
100
AcDbEntity
  8
AM_6
100
AcDbText
 10
6.60875
 20
-0.875
 30
0.0
 40
0.5
  1
FC-IP-104R
100
AcDbAttributeDefinition
  3

  2
DESCRIPTION
 70
     8
280
     0
  0
ATTDEF
  5
1E1
330
1D5
100
AcDbEntity
  8
AM_6
100
AcDbText
 10
6.60875
 20
-1.375
 30
0.0
 40
0.5
  1
Non-Expansion Type
100
AcDbAttributeDefinition
  3

  2
EF
 70
     8
280
     0
  0
ATTDEF
  5
1E2
330
1D5
100
AcDbEntity
  8
AM_6
100
AcDbText
 10
6.60875
 20
-1.875
 30
0.0
 40
0.5
  1
Contact  Seal
100
AcDbAttributeDefinition
  3

  2
ST
 70
     8
280
     0
  0
ATTDEF
  5
1E3
330
1D5
100
AcDbEntity
  8
AM_6
100
AcDbText
 10
6.60875
 20
-2.375
 30
0.0
 40
0.5
  1
2-5/8
100
AcDbAttributeDefinition
  3

  2
A
 70
     8
280
     0
  0
ATTDEF
  5
1E4
330
1D5
100
AcDbEntity
  8
AM_6
100
AcDbText
 10
6.60875
 20
-2.875
 30
0.0
 40
0.5
  1
5-1/4
100
AcDbAttributeDefinition
  3

  2
B
 70
     8
280
     0
  0
ATTDEF
  5
1E5
330
1D5
100
AcDbEntity
  8
AM_6
100
AcDbText
 10
6.60875
 20
-3.375
 30
0.0
 40
0.5
  1
1-27/32
100
AcDbAttributeDefinition
  3

  2
C
 70
     8
280
     0
  0
ATTDEF
  5
1E6
330
1D5
100
AcDbEntity
  8
AM_6
100
AcDbText
 10
6.60875
 20
-3.875
 30
0.0
 40
0.5
  1
3-3/32
100
AcDbAttributeDefinition
  3

  2
D
 70
     8
280
     0
  0
ATTDEF
  5
1E7
330
1D5
100
AcDbEntity
  8
AM_6
100
AcDbText
 10
6.60875
 20
-4.375
 30
0.0
 40
0.5
  1
4-3/8
100
AcDbAttributeDefinition
  3

  2
DD
 70
     8
280
     0
  0
ATTDEF
  5
1E8
330
1D5
100
AcDbEntity
  8
AM_6
100
AcDbText
 10
6.60875
 20
-4.875
 30
0.0
 40
0.5
  1
3/4
100
AcDbAttributeDefinition
  3

  2
E
 70
     8
280
     0
  0
ATTDEF
  5
1E9
330
1D5
100
AcDbEntity
  8
AM_6
100
AcDbText
 10
6.60875
 20
-5.375
 30
0.0
 40
0.5
  1
3/8
100
AcDbAttributeDefinition
  3

  2
F
 70
     8
280
     0
  0
ATTDEF
  5
1EA
330
1D5
100
AcDbEntity
  8
AM_6
100
AcDbText
 10
6.60875
 20
-5.875
 30
0.0
 40
0.5
  1
1-25/64
100
AcDbAttributeDefinition
  3

  2
G
 70
     8
280
     0
  0
ATTDEF
  5
1EB
330
1D5
100
AcDbEntity
  8
AM_6
100
AcDbText
 10
6.60875
 20
-6.375
 30
0.0
 40
0.5
  1
1/2
100
AcDbAttributeDefinition
  3

  2
H
 70
     8
280
     0
  0
ATTDEF
  5
1EC
330
1D5
100
AcDbEntity
  8
AM_6
100
AcDbText
 10
6.60875
 20
-6.875
 30
0.0
 40
0.5
  1
3.625
100
AcDbAttributeDefinition
  3

  2
K
 70
     8
280
     0
  0
ATTDEF
  5
1ED
330
1D5
100
AcDbEntity
  8
AM_6
100
AcDbText
 10
6.60875
 20
-7.375
 30
0.0
 40
0.5
  1
2-23/32
100
AcDbAttributeDefinition
  3

  2
L
 70
     8
280
     0
  0
ATTDEF
  5
1EE
330
1D5
100
AcDbEntity
  8
AM_6
100
AcDbText
 10
6.60875
 20
-7.875
 30
0.0
 40
0.5
  1
3/8-16
100
AcDbAttributeDefinition
  3

  2
M
 70
     8
280
     0
  0
ATTDEF
  5
1EF
330
1D5
100
AcDbEntity
  8
AM_6
100
AcDbText
 10
6.60875
 20
-8.375
 30
0.0
 40
0.5
  1
2-39/64
100
AcDbAttributeDefinition
  3

  2
N
 70
     8
280
     0
  0
ATTDEF
  5
1F0
330
1D5
100
AcDbEntity
  8
AM_6
100
AcDbText
 10
6.60875
 20
-8.875
 30
0.0
 40
0.5
  1
1-15/64
100
AcDbAttributeDefinition
  3

  2
P
 70
     8
280
     0
  0
ATTDEF
  5
1F1
330
1D5
100
AcDbEntity
  8
AM_6
100
AcDbText
 10
6.60875
 20
-9.375
 30
0.0
 40
0.5
  1
1-7/32
100
AcDbAttributeDefinition
  3

  2
Q
 70
     8
280
     0
  0
ATTDEF
  5
1F2
330
1D5
100
AcDbEntity
  8
AM_6
100
AcDbText
 10
6.60875
 20
-9.875
 30
0.0
 40
0.5
  1
3/16
100
AcDbAttributeDefinition
  3

  2
X
 70
     8
280
     0
  0
ATTDEF
  5
1F3
330
1D5
100
AcDbEntity
  8
AM_6
100
AcDbText
 10
6.60875
 20
-10.375
 30
0.0
 40
0.5
  1
0.020
100
AcDbAttributeDefinition
  3

  2
Y
 70
     8
280
     0
  0
ATTDEF
  5
1F4
330
1D5
100
AcDbEntity
  8
AM_6
100
AcDbText
 10
6.60875
 20
-10.875
 30
0.0
 40
0.5
  1
1-51/64
100
AcDbAttributeDefinition
  3

  2
Z
 70
     8
280
     0
  0
ATTDEF
  5
1F5
330
1D5
100
AcDbEntity
  8
AM_6
100
AcDbText
 10
6.60875
 20
-11.375
 30
0.0
 40
0.5
  1
baldor
100
AcDbAttributeDefinition
  3

  2
COMPANY
 70
     8
280
     0
  0
LINE
  5
1F6
330
1D5
100
AcDbEntity
  8
AM_9
100
AcDbLine
 10
-0.4438313736916574
 20
2.12456121469594
 30
0.0
 11
-0.5000000000000001
 21
2.02727430013854
 31
0.0
  0
LINE
  5
1F7
330
1D5
100
AcDbEntity
  8
AM_9
100
AcDbLine
 10
-0.3999999999999999
 20
-1.671143253016425
 30
0.0
 11
-0.4999999999999999
 21
-1.671143253016425
 31
0.0
  0
LINE
  5
1F8
330
1D5
100
AcDbEntity
  8
AM_9
100
AcDbLine
 10
-0.3999999999999999
 20
-1.653058457445324
 30
0.0
 11
-0.4999999999999999
 21
-1.653058457445324
 31
0.0
  0
LINE
  5
1F9
330
1D5
100
AcDbEntity
  8
AM_9
100
AcDbLine
 10
-0.3999999999999999
 20
1.671143253016425
 30
0.0
 11
-0.4999999999999999
 21
1.671143253016425
 31
0.0
  0
LINE
  5
1FA
330
1D5
100
AcDbEntity
  8
AM_9
100
AcDbLine
 10
-0.4999999999999999
 20
1.653058457445324
 30
0.0
 11
-0.3999999999999999
 21
1.653058457445324
 31
0.0
  0
LINE
  5
1FB
330
1D5
100
AcDbEntity
  8
AM_9
100
AcDbLine
 10
-0.4000000000000001
 20
1.742169983095795
 30
0.0
 11
-0.4999999999999998
 21
1.742169983095795
 31
0.0
  0
LINE
  5
1FC
330
1D5
100
AcDbEntity
  8
AM_9
100
AcDbLine
 10
-0.3999999999999999
 20
1.661395270127921
 30
0.0
 11
-0.4999999999999999
 21
1.661395270127921
 31
0.0
  0
LINE
  5
1FD
330
1D5
100
AcDbEntity
  8
AM_9
100
AcDbLine
 10
-0.3999999999999999
 20
-1.661395270127922
 30
0.0
 11
-0.4999999999999999
 21
-1.661395270127922
 31
0.0
  0
LINE
  5
1FE
330
1D5
100
AcDbEntity
  8
AM_9
100
AcDbLine
 10
-0.5000000000000001
 20
-1.8125
 30
0.0
 11
-0.4
 21
-1.8125
 31
0.0
  0
LINE
  5
1FF
330
1D5
100
AcDbEntity
  8
AM_9
100
AcDbLine
 10
-0.3999999999999999
 20
2.090652223000127
 30
0.0
 11
-0.4999999999999999
 21
2.090652223000127
 31
0.0
  0
LINE
  5
200
330
1D5
100
AcDbEntity
  8
AM_9
100
AcDbLine
 10
-0.3999999999999999
 20
2.124044722266499
 30
0.0
 11
-0.3999999999999999
 21
1.653058457445324
 31
0.0
  0
LINE
  5
201
330
1D5
100
AcDbEntity
  8
AM_9
100
AcDbLine
 10
-0.3999999999999999
 20
-1.653058457445324
 30
0.0
 11
-0.3999999999999999
 21
-2.124044722266496
 31
0.0
  0
LINE
  5
202
330
1D5
100
AcDbEntity
  8
AM_9
100
AcDbLine
 10
-0.3999999999999999
 20
-2.090652223000126
 30
0.0
 11
-0.4999999999999999
 21
-2.090652223000126
 31
0.0
  0
LINE
  5
203
330
1D5
100
AcDbEntity
  8
AM_9
100
AcDbLine
 10
-0.625
 20
-1.5748
 30
0.0
 11
1.21875
 21
-1.5748
 31
0.0
  0
LINE
  5
204
330
1D5
100
AcDbEntity
  8
AM_9
100
AcDbLine
 10
1.21875
 20
1.5748
 30
0.0
 11
-0.625
 21
1.5748
 31
0.0
  0
LINE
  5
205
330
1D5
100
AcDbEntity
  8
AM_9
100
AcDbLine
 10
-0.5000000000000001
 20
-1.734296083845573
 30
0.0
 11
0.0000000000000001
 21
-1.734296083845573
 31
0.0
  0
LINE
  5
206
330
1D5
100
AcDbEntity
  8
AM_9
100
AcDbLine
 10
0.0000000000000001
 20
-1.359296083845573
 30
0.0
 11
-0.5000000000000001
 21
-1.359296083845573
 31
0.0
  0
LINE
  5
207
330
1D5
100
AcDbEntity
  8
AM_9
100
AcDbLine
 10
-0.5000000000000001
 20
1.359296083845573
 30
0.0
 11
0.0000000000000001
 21
1.359296083845573
 31
0.0
  0
LINE
  5
208
330
1D5
100
AcDbEntity
  8
AM_9
100
AcDbLine
 10
0.0000000000000001
 20
1.734296083845573
 30
0.0
 11
-0.5000000000000001
 21
1.734296083845573
 31
0.0
  0
LINE
  5
209
330
1D5
100
AcDbEntity
  8
AM_9
100
AcDbLine
 10
-0.0169
 20
0.1705999999999998
 30
0.0
 11
-0.3830999999999997
 21
0.1705999999999998
 31
0.0
  0
LINE
  5
20A
330
1D5
100
AcDbEntity
  8
AM_9
100
AcDbLine
 10
-0.3830999999999997
 20
-0.1705999999999998
 30
0.0
 11
-0.0169
 21
-0.1705999999999998
 31
0.0
  0
LINE
  5
20B
330
1D5
100
AcDbEntity
  8
AM_9
100
AcDbLine
 10
-0.3830999999999997
 20
-0.1705999999999998
 30
0.0
 11
-0.3830999999999997
 21
0.1705999999999998
 31
0.0
  0
LINE
  5
20C
330
1D5
100
AcDbEntity
  8
AM_9
100
AcDbLine
 10
-0.3830999999999997
 20
0.1705999999999998
 30
0.0
 11
-0.3999999999999999
 21
0.1874999999999998
 31
0.0
  0
LINE
  5
20D
330
1D5
100
AcDbEntity
  8
AM_9
100
AcDbLine
 10
-0.3999999999999999
 20
-0.1874999999999998
 30
0.0
 11
-0.3830999999999997
 21
-0.1705999999999998
 31
0.0
  0
LINE
  5
20E
330
1D5
100
AcDbEntity
  8
AM_9
100
AcDbLine
 10
-0.0169
 20
-0.1705999999999998
 30
0.0
 11
-0.0169
 21
0.1705999999999998
 31
0.0
  0
LINE
  5
20F
330
1D5
100
AcDbEntity
  8
AM_9
100
AcDbLine
 10
-0.0169
 20
-0.1705999999999998
 30
0.0
 11
0.0000000000000001
 21
-0.1874999999999998
 31
0.0
  0
LINE
  5
210
330
1D5
100
AcDbEntity
  8
AM_9
100
AcDbLine
 10
0.0000000000000001
 20
0.1874999999999998
 30
0.0
 11
-0.0169
 21
0.1705999999999998
 31
0.0
  0
LINE
  5
211
330
1D5
100
AcDbEntity
  8
AM_5
100
AcDbLine
 10
-0.0000000000000001
 20
-0.1875000000000001
 30
0.0
 11
-0.4000000000000001
 21
-0.1875000000000001
 31
0.0
  0
LINE
  5
212
330
1D5
100
AcDbEntity
  8
AM_5
100
AcDbLine
 10
-0.0000000000000004
 20
0.1874999999999998
 30
0.0
 11
-0.3999999999999999
 21
0.1874999999999998
 31
0.0
  0
LINE
  5
213
330
1D5
100
AcDbEntity
  8
AM_7
100
AcDbLine
 10
0.0262499999999999
 20
1.546796083845573
 30
0.0
 11
-0.55125
 21
1.546796083845573
 31
0.0
  0
LINE
  5
214
330
1D5
100
AcDbEntity
  8
AM_7
100
AcDbLine
 10
0.0262499999999999
 20
-1.546796083845573
 30
0.0
 11
-0.55125
 21
-1.546796083845573
 31
0.0
  0
LINE
  5
215
330
1D5
100
AcDbEntity
  8
AM_7
100
AcDbLine
 10
1.60875
 20
0.0
 30
0.0
 11
-1.60875
 21
0.0
 31
0.0
  0
LINE
  5
216
330
1D5
100
AcDbEntity
  8
AM_4
100
AcDbLine
 10
-0.5000000000000001
 20
2.02727430013854
 30
0.0
 11
-0.624
 21
1.8125
 31
0.0
  0
LINE
  5
217
330
1D5
100
AcDbEntity
  8
AM_4
100
AcDbLine
 10
-0.3999999999999999
 20
2.200479380895429
 30
0.0
 11
-0.4438313736916574
 21
2.12456121469594
 31
0.0
  0
LINE
  5
218
330
1D5
100
AcDbEntity
  8
AM_4
100
AcDbLine
 10
-0.624
 20
1.8125
 30
0.0
 11
-0.624
 21
1.715906360674458
 31
0.0
  0
LINE
  5
219
330
1D5
100
AcDbEntity
  8
AM_4
100
AcDbLine
 10
-0.4999999999999998
 20
1.742169983095795
 30
0.0
 11
-0.5916666666666609
 21
1.742169983095845
 31
0.0
  0
LINE
  5
21A
330
1D5
100
AcDbEntity
  8
AM_4
100
AcDbLine
 10
-0.5916666666666663
 20
-1.8125
 30
0.0
 11
-0.5000000000000001
 21
-1.8125
 31
0.0
  0
LINE
  5
21B
330
1D5
100
AcDbEntity
  8
AM_4
100
AcDbLine
 10
-0.5916666666666662
 20
-1.487775200777971
 30
0.0
 11
-0.4999999999999999
 21
-1.487775200777971
 31
0.0
  0
LINE
  5
21C
330
1D5
100
AcDbEntity
  8
AM_4
100
AcDbLine
 10
-0.5916666666666662
 20
1.487775200777971
 30
0.0
 11
-0.4999999999999999
 21
1.487775200777971
 31
0.0
  0
LWPOLYLINE
  5
21D
330
1D5
100
AcDbEntity
  8
AM_4
100
AcDbPolyline
 90
        7
 70
     0
 43
0.0
 10
-0.6232258105896776
 20
-1.432752731477217
 10
-0.6197701996658374
 20
-1.444423284886067
 10
-0.6150039975823572
 20
-1.455452693485147
 10
-0.6071152167392819
 20
-1.469020881011896
 10
-0.5981346187236559
 20
-1.480846305722149
 10
-0.5918648007465434
 20
-1.487579799032972
 10
-0.5916666666666662
 20
-1.487775200777971
  0
LINE
  5
21E
330
1D5
100
AcDbEntity
  8
AM_4
100
AcDbLine
 10
-0.5916666666666662
 20
-1.487775200777971
 30
0.0
 11
-0.5916666666666663
 21
-1.812500000000001
 31
0.0
  0
ARC
  5
21F
330
1D5
100
AcDbEntity
  8
AM_4
100
AcDbCircle
 10
-0.5916666666666669
 20
-1.779166666666667
 30
0.0
 40
0.0333333333333331
100
AcDbArc
 50
180.0
 51
270.0
  0
LWPOLYLINE
  5
220
330
1D5
100
AcDbEntity
  8
AM_4
100
AcDbPolyline
 90
        7
 70
     0
 43
0.0
 10
-0.5916666666666662
 20
1.487775200777971
 10
-0.5918648007455266
 20
1.487579799032635
 10
-0.6001993462965662
 20
1.478378069736957
 10
-0.6083269822391999
 20
1.467176478082506
 10
-0.6147386845388729
 20
1.455982679197277
 10
-0.6202281404215253
 20
1.443149010846564
 10
-0.6232258118018686
 20
1.432752726044335
  0
LINE
  5
221
330
1D5
100
AcDbEntity
  8
AM_4
100
AcDbLine
 10
-0.5916666666666609
 20
1.742169983095845
 30
0.0
 11
-0.5916666666666662
 21
1.487775200777971
 31
0.0
  0
LWPOLYLINE
  5
222
330
1D5
100
AcDbEntity
  8
AM_4
100
AcDbPolyline
 90
        6
 70
     0
 43
0.0
 10
-0.624
 20
1.715906360674458
 10
-0.6236669231501865
 20
1.717186391841633
 10
-0.6184515772888538
 20
1.728129014209035
 10
-0.6100059974811571
 20
1.736448835399631
 10
-0.5996251850283143
 20
1.741167034854332
 10
-0.5916666666666609
 20
1.742169983095845
  0
LINE
  5
223
330
1D5
100
AcDbEntity
  8
AM_4
100
AcDbLine
 10
-0.625
 20
1.779166666666667
 30
0.0
 11
-0.625
 21
-1.779166666666667
 31
0.0
  0
ARC
  5
224
330
1D5
100
AcDbEntity
  8
AM_4
100
AcDbCircle
 10
-0.5916666666666704
 20
1.779166666666667
 30
0.0
 40
0.0333333333333296
100
AcDbArc
 50
165.9301322524264
 51
180.0
  0
LINE
  5
225
330
1D5
100
AcDbEntity
  8
AM_4
100
AcDbLine
 10
-0.6232258105896776
 20
-1.432752731477217
 30
0.0
 11
-0.625
 21
-1.416037078327962
 31
0.0
  0
LINE
  5
226
330
1D5
100
AcDbEntity
  8
AM_4
100
AcDbLine
 10
-0.6232258105896776
 20
-1.432752731477217
 30
0.0
 11
-0.4999999999999999
 21
-1.432752731477217
 31
0.0
  0
LINE
  5
227
330
1D5
100
AcDbEntity
  8
AM_4
100
AcDbLine
 10
-0.6232258118018686
 20
1.432752726044335
 30
0.0
 11
-0.4999999999999999
 21
1.432752726044335
 31
0.0
  0
LWPOLYLINE
  5
228
330
1D5
100
AcDbEntity
  8
AM_4
100
AcDbPolyline
 90
        3
 70
     0
 43
0.0
 10
-0.625
 20
1.416037078327963
 10
-0.6249252015049847
 20
1.41957704982405
 10
-0.6232258118018686
 20
1.432752726044335
  0
LINE
  5
229
330
1D5
100
AcDbEntity
  8
AM_4
100
AcDbLine
 10
-0.6232258098223683
 20
1.072823126215106
 30
0.0
 11
-0.4999999999999999
 21
1.072823126215106
 31
0.0
  0
LINE
  5
22A
330
1D5
100
AcDbEntity
  8
AM_4
100
AcDbLine
 10
-0.6232258101856128
 20
-1.072823126606825
 30
0.0
 11
-0.4999999999999999
 21
-1.072823126606825
 31
0.0
  0
LINE
  5
22B
330
1D5
100
AcDbEntity
  8
AM_4
100
AcDbLine
 10
-0.3999999999999999
 20
2.124561214695943
 30
0.0
 11
-0.4999999999999999
 21
2.124561214695943
 31
0.0
  0
LINE
  5
22C
330
1D5
100
AcDbEntity
  8
AM_4
100
AcDbLine
 10
-0.4999999999999999
 20
-2.124561214695941
 30
0.0
 11
-0.3999999999999999
 21
-2.124561214695941
 31
0.0
  0
LINE
  5
22D
330
1D5
100
AcDbEntity
  8
AM_4
100
AcDbLine
 10
1.21875
 20
1.661536926750866
 30
0.0
 11
1.21875
 21
-1.661536926750866
 31
0.0
  0
ARC
  5
22E
330
1D5
100
AcDbEntity
  8
AM_4
100
AcDbCircle
 10
1.16875
 20
-1.661536926750866
 30
0.0
 40
0.0499999999999994
100
AcDbArc
 50
271.9999999999995
 51
0.0
  0
ARC
  5
22F
330
1D5
100
AcDbEntity
  8
AM_4
100
AcDbCircle
 10
1.16875
 20
1.661536926750866
 30
0.0
 40
0.0499999999999994
100
AcDbArc
 50
0.0
 51
88.0000000000005
  0
LINE
  5
230
330
1D5
100
AcDbEntity
  8
AM_4
100
AcDbLine
 10
1.170494974835125
 20
1.71150646810182
 30
0.0
 11
0.7982550251648749
 21
1.724505373579875
 31
0.0
  0
LINE
  5
231
330
1D5
100
AcDbEntity
  8
AM_4
100
AcDbLine
 10
0.7982550251648749
 20
-1.724505373579875
 30
0.0
 11
1.170494974835125
 21
-1.71150646810182
 31
0.0
  0
LINE
  5
232
330
1D5
100
AcDbEntity
  8
AM_4
100
AcDbLine
 10
1.170494974835125
 20
1.71150646810182
 30
0.0
 11
1.170494974835125
 21
-1.71150646810182
 31
0.0
  0
ARC
  5
233
330
1D5
100
AcDbEntity
  8
AM_4
100
AcDbCircle
 10
0.8000000000000007
 20
-1.774474914930831
 30
0.0
 40
0.0500000000000008
100
AcDbArc
 50
92.00000000000085
 51
180.0
  0
ARC
  5
234
330
1D5
100
AcDbEntity
  8
AM_4
100
AcDbCircle
 10
0.8000000000000007
 20
1.774474914930831
 30
0.0
 40
0.0500000000000008
100
AcDbArc
 50
180.0
 51
267.9999999999991
  0
LINE
  5
235
330
1D5
100
AcDbEntity
  8
AM_4
100
AcDbLine
 10
0.7982550251648749
 20
1.724505373579875
 30
0.0
 11
0.7982550251648749
 21
-1.724505373579875
 31
0.0
  0
LINE
  5
236
330
1D5
100
AcDbEntity
  8
AM_4
100
AcDbLine
 10
-0.3999999999999999
 20
0.7245150146108575
 30
0.0
 11
-0.4999999999999999
 21
0.7245150146108575
 31
0.0
  0
LINE
  5
237
330
1D5
100
AcDbEntity
  8
AM_4
100
AcDbLine
 10
-0.5916666666666662
 20
1.035220363956423
 30
0.0
 11
-0.4999999999999999
 21
1.035220363956423
 31
0.0
  0
LINE
  5
238
330
1D5
100
AcDbEntity
  8
AM_4
100
AcDbLine
 10
-0.5916666666666662
 20
-1.035220358235666
 30
0.0
 11
-0.4999999999999999
 21
-1.035220358235666
 31
0.0
  0
LINE
  5
239
330
1D5
100
AcDbEntity
  8
AM_4
100
AcDbLine
 10
-0.3999999999999999
 20
-0.7245150146108583
 30
0.0
 11
-0.4999999999999999
 21
-0.7245150146108589
 31
0.0
  0
LWPOLYLINE
  5
23A
330
1D5
100
AcDbEntity
  8
AM_4
100
AcDbPolyline
 90
        7
 70
     0
 43
0.0
 10
-0.6232258098223683
 20
1.072823126215106
 10
-0.6197701982612976
 20
1.069195735334266
 10
-0.6150039955531952
 20
1.064119021029829
 10
-0.607115214009104
 20
1.055171912170063
 10
-0.5981346153938164
 20
1.044008760014326
 10
-0.591864800746534
 20
1.035500099896185
 10
-0.5916666666666662
 20
1.035220363956423
  0
LINE
  5
23B
330
1D5
100
AcDbEntity
  8
AM_4
100
AcDbLine
 10
-0.6232258098223683
 20
1.072823126215106
 30
0.0
 11
-0.6249999999999999
 21
1.077159700591416
 31
0.0
  0
LWPOLYLINE
  5
23C
330
1D5
100
AcDbEntity
  8
AM_4
100
AcDbPolyline
 90
        3
 70
     0
 43
0.0
 10
-0.6249999999999999
 20
-1.077159700591416
 10
-0.6249252015049844
 20
-1.07618842625527
 10
-0.6232258101856128
 20
-1.072823126606825
  0
LWPOLYLINE
  5
23D
330
1D5
100
AcDbEntity
  8
AM_4
100
AcDbPolyline
 90
        7
 70
     0
 43
0.0
 10
-0.5916666666666662
 20
-1.035220358235666
 10
-0.5918648007455367
 20
-1.035500099896652
 10
-0.6001993462965651
 20
-1.046675612745471
 10
-0.6083269822391948
 20
-1.05659549248143
 10
-0.6147386848681661
 20
-1.063829905214568
 10
-0.6202281409533452
 20
-1.069674383208176
 10
-0.6232258101856128
 20
-1.072823126606825
  0
LINE
  5
23E
330
1D5
100
AcDbEntity
  8
AM_4
100
AcDbLine
 10
-0.5916666666666662
 20
1.035220363956423
 30
0.0
 11
-0.5916666666666662
 21
-1.035220358235666
 31
0.0
  0
LINE
  5
23F
330
1D5
100
AcDbEntity
  8
AM_4
100
AcDbLine
 10
0.0
 20
-1.812500000000001
 30
0.0
 11
0.7499999999999999
 21
-1.812500000000001
 31
0.0
  0
LINE
  5
240
330
1D5
100
AcDbEntity
  8
AM_4
100
AcDbLine
 10
0.7499999999999999
 20
1.812500000000001
 30
0.0
 11
0.0
 21
1.812500000000001
 31
0.0
  0
LINE
  5
241
330
1D5
100
AcDbEntity
  8
AM_4
100
AcDbLine
 10
0.7499999999999999
 20
1.812500000000001
 30
0.0
 11
0.7499999999999999
 21
-1.812500000000001
 31
0.0
  0
LINE
  5
242
330
1D5
100
AcDbEntity
  8
AM_4
100
AcDbLine
 10
-0.3999999999999999
 20
0.821845900431389
 30
0.0
 11
-0.4999999999999999
 21
0.821845900431389
 31
0.0
  0
LINE
  5
243
330
1D5
100
AcDbEntity
  8
AM_4
100
AcDbLine
 10
-0.3999999999999999
 20
-0.8218459004313896
 30
0.0
 11
-0.4999999999999999
 21
-0.8218459004313896
 31
0.0
  0
LINE
  5
244
330
1D5
100
AcDbEntity
  8
AM_4
100
AcDbLine
 10
-0.3999999999999999
 20
-1.42096679972405
 30
0.0
 11
-0.4999999999999998
 21
-1.42096679972405
 31
0.0
  0
LINE
  5
245
330
1D5
100
AcDbEntity
  8
AM_4
100
AcDbLine
 10
-0.3999999999999999
 20
1.42096679972405
 30
0.0
 11
-0.4999999999999998
 21
1.42096679972405
 31
0.0
  0
LINE
  5
246
330
1D5
100
AcDbEntity
  8
AM_4
100
AcDbLine
 10
-0.3999999999999999
 20
-1.54241985782466
 30
0.0
 11
-0.3999999999999999
 21
1.54241985782466
 31
0.0
  0
LINE
  5
247
330
1D5
100
AcDbEntity
  8
AM_4
100
AcDbLine
 10
-0.3999999999999999
 20
2.124044722266499
 30
0.0
 11
-0.3999999999999999
 21
2.625
 31
0.0
  0
LINE
  5
248
330
1D5
100
AcDbEntity
  8
AM_4
100
AcDbLine
 10
-0.4999999999999999
 20
2.124044722266499
 30
0.0
 11
-0.3999999999999999
 21
2.124044722266499
 31
0.0
  0
LINE
  5
249
330
1D5
100
AcDbEntity
  8
AM_4
100
AcDbLine
 10
-0.4999999999999999
 20
2.124044722266499
 30
0.0
 11
-0.4999999999999999
 21
0.7245150146108575
 31
0.0
  0
LINE
  5
24A
330
1D5
100
AcDbEntity
  8
AM_4
100
AcDbLine
 10
-0.3999999999999999
 20
1.54241985782466
 30
0.0
 11
-0.4999999999999998
 21
1.54241985782466
 31
0.0
  0
LINE
  5
24B
330
1D5
100
AcDbEntity
  8
AM_4
100
AcDbLine
 10
-0.4999999999999998
 20
-1.54241985782466
 30
0.0
 11
-0.3999999999999999
 21
-1.54241985782466
 31
0.0
  0
LINE
  5
24C
330
1D5
100
AcDbEntity
  8
AM_4
100
AcDbLine
 10
-0.4999999999999999
 20
-0.7245150146108589
 30
0.0
 11
-0.4999999999999999
 21
-2.124044722266496
 31
0.0
  0
LINE
  5
24D
330
1D5
100
AcDbEntity
  8
AM_4
100
AcDbLine
 10
-0.3999999999999999
 20
-2.124044722266496
 30
0.0
 11
-0.4999999999999999
 21
-2.124044722266496
 31
0.0
  0
LINE
  5
24E
330
1D5
100
AcDbEntity
  8
AM_4
100
AcDbLine
 10
-0.3999999999999999
 20
-2.625
 30
0.0
 11
0.0
 21
-2.625
 31
0.0
  0
LINE
  5
24F
330
1D5
100
AcDbEntity
  8
AM_4
100
AcDbLine
 10
0.0
 20
2.625
 30
0.0
 11
-0.3999999999999999
 21
2.625
 31
0.0
  0
LINE
  5
250
330
1D5
100
AcDbEntity
  8
AM_4
100
AcDbLine
 10
0.0
 20
2.625
 30
0.0
 11
0.0
 21
-2.625
 31
0.0
  0
LINE
  5
251
330
1D5
100
AcDbEntity
  8
AM_4
100
AcDbLine
 10
-0.3999999999999999
 20
-2.625
 30
0.0
 11
-0.3999999999999999
 21
-2.124044722266496
 31
0.0
  0
ENDBLK
  5
1D8
330
1D5
100
AcDbEntity
  8
0
100
AcDbBlockEnd
  0
ENDSEC
  0
SECTION
  2
ENTITIES
  0
INSERT
  5
6F
330
1F
100
AcDbEntity
  8
0
100
AcDbBlockReference
  2
1_069807_2
 10
0.0
 20
0.0
 30
0.0
  0
POINT
  5
253
330
1F
100
AcDbEntity
  8
ConnectionPoints
100
AcDbPoint
 10
-1.228958333333333
 20
-1.026909722222222
 30
0.0000000000000001
  0
POINT
  5
254
330
1F
100
AcDbEntity
  8
ConnectionPoints
100
AcDbPoint
 10
-1.228958333333333
 20
1.026909722222222
 30
0.0000000000000001
  0
POINT
  5
255
330
1F
100
AcDbEntity
  8
ConnectionPoints
100
AcDbPoint
 10
-1.158958333333333
 20
0.0
 30
0.0000000000000001
  0
POINT
  5
256
330
1F
100
AcDbEntity
  8
ConnectionPoints
100
AcDbPoint
 10
-1.390625
 20
0.0
 30
0.0000000000000001
  0
POINT
  5
257
330
1F
100
AcDbEntity
  8
ConnectionPoints
100
AcDbPoint
 10
-1.357958333333333
 20
0.0
 30
0.0000000000000001
  0
POINT
  5
258
330
1F
100
AcDbEntity
  8
ConnectionPoints
100
AcDbPoint
 10
-1.158958333333333
 20
1.026909722222222
 30
0.0000000000000001
  0
POINT
  5
259
330
1F
100
AcDbEntity
  8
ConnectionPoints
100
AcDbPoint
 10
-1.289625
 20
1.026909722222222
 30
0.0000000000000001
  0
POINT
  5
25A
330
1F
100
AcDbEntity
  8
ConnectionPoints
100
AcDbPoint
 10
-1.158958333333333
 20
-1.026909722222222
 30
0.0000000000000001
  0
POINT
  5
25B
330
1F
100
AcDbEntity
  8
ConnectionPoints
100
AcDbPoint
 10
-1.289625
 20
-1.026909722222222
 30
0.0000000000000001
  0
POINT
  5
25C
330
1F
100
AcDbEntity
  8
ConnectionPoints
100
AcDbPoint
 10
-1.158958333333333
 20
0.0
 30
0.0000000000000001
  0
POINT
  5
25D
330
1F
100
AcDbEntity
  8
ConnectionPoints
100
AcDbPoint
 10
-0.512
 20
2.006489690447714
 30
0.0
  0
POINT
  5
25E
330
1F
100
AcDbEntity
  8
ConnectionPoints
100
AcDbPoint
 10
-0.4255358449660662
 20
2.15625
 30
0.0
  0
POINT
  5
25F
330
1F
100
AcDbEntity
  8
ConnectionPoints
100
AcDbPoint
 10
-1.203125
 20
0.0
 30
0.0000000000000001
  0
POINT
  5
260
330
1F
100
AcDbEntity
  8
ConnectionPoints
100
AcDbPoint
 10
-1.390625
 20
0.0
 30
0.0000000000000001
  0
ENDSEC
  0
SECTION
  2
OBJECTS
  0
DICTIONARY
  5
C
330
0
100
AcDbDictionary
281
     1
  3
ACAD_DETAILVIEWSTYLE
350
268
  3
ACAD_GROUP
350
D
  3
ACAD_LAYOUT
350
1A
  3
ACAD_MATERIAL
350
43
  3
ACAD_MLEADERSTYLE
350
6B
  3
ACAD_MLINESTYLE
350
17
  3
ACAD_PLOTSETTINGS
350
19
  3
ACAD_PLOTSTYLENAME
350
E
  3
ACAD_SCALELIST
350
47
  3
ACAD_SECTIONVIEWSTYLE
350
269
  3
ACAD_TABLESTYLE
350
69
  3
ACAD_VISUALSTYLE
350
2A
  3
ACDB_RECOMPOSE_DATA
350
265
  3
AcDbVariableDictionary
350
261
  0
SUN
  5
6D
330
29
100
AcDbSun
 90
        1
290
     0
 63
     7
421
 16777215
 40
1.0
291
     1
 91
  2455826
 92
 54000000
292
     0
 70
     2
 71
   256
280
     1
  0
DICTIONARY
  5
268
102
{ACAD_REACTORS
330
C
102
}
330
C
100
AcDbDictionary
281
     1
  0
DICTIONARY
  5
D
102
{ACAD_REACTORS
330
C
102
}
330
C
100
AcDbDictionary
281
     1
  0
DICTIONARY
  5
1A
102
{ACAD_REACTORS
330
C
102
}
330
C
100
AcDbDictionary
281
     1
  3
Layout1
350
1E
  3
Layout2
350
26
  3
Model
350
22
  0
DICTIONARY
  5
43
102
{ACAD_REACTORS
330
C
102
}
330
C
100
AcDbDictionary
281
     1
  3
ByBlock
350
45
  3
ByLayer
350
44
  3
Global
350
46
  0
DICTIONARY
  5
6B
102
{ACAD_REACTORS
330
C
102
}
330
C
100
AcDbDictionary
281
     1
  3
Standard
350
6C
  0
DICTIONARY
  5
17
102
{ACAD_REACTORS
330
C
102
}
330
C
100
AcDbDictionary
281
     1
  3
Standard
350
18
  0
DICTIONARY
  5
19
102
{ACAD_REACTORS
330
C
102
}
330
C
100
AcDbDictionary
281
     1
  0
ACDBDICTIONARYWDFLT
  5
E
102
{ACAD_REACTORS
330
C
102
}
330
C
100
AcDbDictionary
281
     1
  3
Normal
350
F
100
AcDbDictionaryWithDefault
340
F
  0
DICTIONARY
  5
47
102
{ACAD_REACTORS
330
C
102
}
330
C
100
AcDbDictionary
281
     1
  3
A0
350
48
  3
A1
350
49
  3
A2
350
4A
  3
A3
350
4B
  3
A4
350
4C
  3
A5
350
4D
  3
A6
350
4E
  3
A7
350
4F
  3
A8
350
50
  3
A9
350
51
  3
B0
350
52
  3
B1
350
53
  3
B2
350
54
  3
B3
350
55
  3
B4
350
56
  3
B5
350
57
  3
B6
350
58
  3
B7
350
59
  3
B8
350
5A
  3
B9
350
5B
  3
C0
350
5C
  3
C1
350
5D
  3
C2
350
5E
  3
C3
350
5F
  3
C4
350
60
  3
C5
350
61
  3
C6
350
62
  3
C7
350
63
  3
C8
350
64
  3
C9
350
65
  3
D0
350
66
  3
D1
350
67
  3
D2
350
68
  0
DICTIONARY
  5
269
102
{ACAD_REACTORS
330
C
102
}
330
C
100
AcDbDictionary
281
     1
  0
DICTIONARY
  5
69
102
{ACAD_REACTORS
330
C
102
}
330
C
100
AcDbDictionary
281
     1
  3
Standard
350
6A
  0
DICTIONARY
  5
2A
102
{ACAD_REACTORS
330
C
102
}
330
C
100
AcDbDictionary
281
     1
  3
2dWireframe
350
2F
  3
Basic
350
32
  3
Brighten
350
36
  3
ColorChange
350
3A
  3
Conceptual
350
34
  3
Dim
350
35
  3
EdgeColorOff
350
3D
  3
Facepattern
350
39
  3
Flat
350
2B
  3
FlatWithEdges
350
2C
  3
Gouraud
350
2D
  3
GouraudWithEdges
350
2E
  3
Hidden
350
31
  3
JitterOff
350
3B
  3
Linepattern
350
38
  3
OverhangOff
350
3C
  3
Realistic
350
33
  3
Shaded
350
42
  3
Shaded with edges
350
41
  3
Shades of Gray
350
3E
  3
Sketchy
350
3F
  3
Thicken
350
37
  3
Wireframe
350
30
  3
X-Ray
350
40
  0
XRECORD
  5
265
102
{ACAD_REACTORS
330
C
102
}
330
C
100
AcDbXrecord
280
     1
 90
        1
330
6A
  0
DICTIONARY
  5
261
102
{ACAD_REACTORS
330
C
102
}
330
C
100
AcDbDictionary
281
     1
  3
CANNOSCALE
350
262
  3
CMLEADERSTYLE
350
267
  3
CTABLESTYLE
350
266
  0
LAYOUT
  5
1E
102
{ACAD_REACTORS
330
1A
102
}
330
1A
100
AcDbPlotSettings
  1

  2
none_device
  4

  6

 40
0.0
 41
0.0
 42
0.0
 43
0.0
 44
0.0
 45
0.0
 46
0.0
 47
0.0
 48
0.0
 49
0.0
140
0.0
141
0.0
142
1.0
143
1.0
 70
   688
 72
     0
 73
     0
 74
     5
  7

 75
    16
 76
     0
 77
     2
 78
   300
147
1.0
148
0.0
149
0.0
100
AcDbLayout
  1
Layout1
 70
     1
 71
     1
 10
0.0
 20
0.0
 11
12.0
 21
9.0
 12
0.0
 22
0.0
 32
0.0
 14
1.000000000000000E+20
 24
1.000000000000000E+20
 34
1.000000000000000E+20
 15
-1.000000000000000E+20
 25
-1.000000000000000E+20
 35
-1.000000000000000E+20
146
0.0
 13
0.0
 23
0.0
 33
0.0
 16
1.0
 26
0.0
 36
0.0
 17
0.0
 27
1.0
 37
0.0
 76
     0
330
1B
  0
LAYOUT
  5
26
102
{ACAD_REACTORS
330
1A
102
}
330
1A
100
AcDbPlotSettings
  1

  2
none_device
  4

  6

 40
0.0
 41
0.0
 42
0.0
 43
0.0
 44
0.0
 45
0.0
 46
0.0
 47
0.0
 48
0.0
 49
0.0
140
0.0
141
0.0
142
1.0
143
1.0
 70
   688
 72
     0
 73
     0
 74
     5
  7

 75
    16
 76
     0
 77
     2
 78
   300
147
1.0
148
0.0
149
0.0
100
AcDbLayout
  1
Layout2
 70
     1
 71
     2
 10
0.0
 20
0.0
 11
0.0
 21
0.0
 12
0.0
 22
0.0
 32
0.0
 14
0.0
 24
0.0
 34
0.0
 15
0.0
 25
0.0
 35
0.0
146
0.0
 13
0.0
 23
0.0
 33
0.0
 16
1.0
 26
0.0
 36
0.0
 17
0.0
 27
1.0
 37
0.0
 76
     0
330
23
  0
LAYOUT
  5
22
102
{ACAD_REACTORS
330
1A
102
}
330
1A
100
AcDbPlotSettings
  1

  2
none_device
  4
Letter_(8.50_x_11.00_Inches)
  6

 40
6.35
 41
6.35
 42
6.35000508
 43
6.35000508
 44
215.9
 45
279.4
 46
0.0
 47
0.0
 48
0.0
 49
0.0
140
0.0
141
0.0
142
1.0
143
1.0
 70
  1712
 72
     0
 73
     0
 74
     0
  7

 75
     0
 76
     0
 77
     2
 78
   300
147
1.0
148
0.0
149
0.0
100
AcDbLayout
  1
Model
 70
     1
 71
     0
 10
0.0
 20
0.0
 11
12.0
 21
9.0
 12
0.0
 22
0.0
 32
0.0
 14
1.000000000000000E+20
 24
1.000000000000000E+20
 34
1.000000000000000E+20
 15
-1.000000000000000E+20
 25
-1.000000000000000E+20
 35
-1.000000000000000E+20
146
0.0
 13
0.0
 23
0.0
 33
0.0
 16
1.0
 26
0.0
 36
0.0
 17
0.0
 27
1.0
 37
0.0
 76
     0
330
1F
331
29
  0
MATERIAL
  5
45
102
{ACAD_REACTORS
330
43
102
}
330
43
100
AcDbMaterial
  1
ByBlock
 72
     1
 94
      127
  0
MATERIAL
  5
44
102
{ACAD_REACTORS
330
43
102
}
330
43
100
AcDbMaterial
  1
ByLayer
 72
     1
 94
      127
  0
MATERIAL
  5
46
102
{ACAD_REACTORS
330
43
102
}
330
43
100
AcDbMaterial
  1
Global
 72
     1
 94
      127
  0
MLEADERSTYLE
  5
6C
102
{ACAD_REACTORS
330
6B
102
}
330
6B
100
AcDbMLeaderStyle
179
     2
170
     2
171
     1
172
     0
 90
        2
 40
0.0
 41
0.0
173
     1
 91
-1056964608
340
14
 92
       -2
290
     1
 42
0.09
291
     1
 43
0.36
  3
Standard
341
0
 44
0.18
300

342
11
174
     1
178
     6
175
     1
176
     0
 93
-1056964608
 45
0.18
292
     0
297
     0
 46
0.18
343
0
 94
-1056964608
 47
1.0
 49
1.0
140
1.0
293
     1
141
0.0
294
     1
177
     0
142
1.0
295
     0
296
     0
143
0.125
271
     0
272
     9
273
     9
298
     0
  0
MLINESTYLE
  5
18
102
{ACAD_REACTORS
330
17
102
}
330
17
100
AcDbMlineStyle
  2
Standard
 70
     0
  3

 62
   256
 51
90.0
 52
90.0
 71
     2
 49
0.5
 62
   256
  6
BYLAYER
 49
-0.5
 62
   256
  6
BYLAYER
  0
ACDBPLACEHOLDER
  5
F
102
{ACAD_REACTORS
330
E
102
}
330
E
  0
SCALE
  5
48
102
{ACAD_REACTORS
330
47
102
}
330
47
100
AcDbScale
 70
     0
300
1:1
140
1.0
141
1.0
290
     1
  0
SCALE
  5
49
102
{ACAD_REACTORS
330
47
102
}
330
47
100
AcDbScale
 70
     0
300
1:2
140
1.0
141
2.0
290
     0
  0
SCALE
  5
4A
102
{ACAD_REACTORS
330
47
102
}
330
47
100
AcDbScale
 70
     0
300
1:4
140
1.0
141
4.0
290
     0
  0
SCALE
  5
4B
102
{ACAD_REACTORS
330
47
102
}
330
47
100
AcDbScale
 70
     0
300
1:5
140
1.0
141
5.0
290
     0
  0
SCALE
  5
4C
102
{ACAD_REACTORS
330
47
102
}
330
47
100
AcDbScale
 70
     0
300
1:8
140
1.0
141
8.0
290
     0
  0
SCALE
  5
4D
102
{ACAD_REACTORS
330
47
102
}
330
47
100
AcDbScale
 70
     0
300
1:10
140
1.0
141
10.0
290
     0
  0
SCALE
  5
4E
102
{ACAD_REACTORS
330
47
102
}
330
47
100
AcDbScale
 70
     0
300
1:16
140
1.0
141
16.0
290
     0
  0
SCALE
  5
4F
102
{ACAD_REACTORS
330
47
102
}
330
47
100
AcDbScale
 70
     0
300
1:20
140
1.0
141
20.0
290
     0
  0
SCALE
  5
50
102
{ACAD_REACTORS
330
47
102
}
330
47
100
AcDbScale
 70
     0
300
1:30
140
1.0
141
30.0
290
     0
  0
SCALE
  5
51
102
{ACAD_REACTORS
330
47
102
}
330
47
100
AcDbScale
 70
     0
300
1:40
140
1.0
141
40.0
290
     0
  0
SCALE
  5
52
102
{ACAD_REACTORS
330
47
102
}
330
47
100
AcDbScale
 70
     0
300
1:50
140
1.0
141
50.0
290
     0
  0
SCALE
  5
53
102
{ACAD_REACTORS
330
47
102
}
330
47
100
AcDbScale
 70
     0
300
1:100
140
1.0
141
100.0
290
     0
  0
SCALE
  5
54
102
{ACAD_REACTORS
330
47
102
}
330
47
100
AcDbScale
 70
     0
300
2:1
140
2.0
141
1.0
290
     0
  0
SCALE
  5
55
102
{ACAD_REACTORS
330
47
102
}
330
47
100
AcDbScale
 70
     0
300
4:1
140
4.0
141
1.0
290
     0
  0
SCALE
  5
56
102
{ACAD_REACTORS
330
47
102
}
330
47
100
AcDbScale
 70
     0
300
8:1
140
8.0
141
1.0
290
     0
  0
SCALE
  5
57
102
{ACAD_REACTORS
330
47
102
}
330
47
100
AcDbScale
 70
     0
300
10:1
140
10.0
141
1.0
290
     0
  0
SCALE
  5
58
102
{ACAD_REACTORS
330
47
102
}
330
47
100
AcDbScale
 70
     0
300
100:1
140
100.0
141
1.0
290
     0
  0
SCALE
  5
59
102
{ACAD_REACTORS
330
47
102
}
330
47
100
AcDbScale
 70
     0
300
1/128" = 1'-0"
140
0.0078125
141
12.0
290
     0
  0
SCALE
  5
5A
102
{ACAD_REACTORS
330
47
102
}
330
47
100
AcDbScale
 70
     0
300
1/64" = 1'-0"
140
0.015625
141
12.0
290
     0
  0
SCALE
  5
5B
102
{ACAD_REACTORS
330
47
102
}
330
47
100
AcDbScale
 70
     0
300
1/32" = 1'-0"
140
0.03125
141
12.0
290
     0
  0
SCALE
  5
5C
102
{ACAD_REACTORS
330
47
102
}
330
47
100
AcDbScale
 70
     0
300
1/16" = 1'-0"
140
0.0625
141
12.0
290
     0
  0
SCALE
  5
5D
102
{ACAD_REACTORS
330
47
102
}
330
47
100
AcDbScale
 70
     0
300
3/32" = 1'-0"
140
0.09375
141
12.0
290
     0
  0
SCALE
  5
5E
102
{ACAD_REACTORS
330
47
102
}
330
47
100
AcDbScale
 70
     0
300
1/8" = 1'-0"
140
0.125
141
12.0
290
     0
  0
SCALE
  5
5F
102
{ACAD_REACTORS
330
47
102
}
330
47
100
AcDbScale
 70
     0
300
3/16" = 1'-0"
140
0.1875
141
12.0
290
     0
  0
SCALE
  5
60
102
{ACAD_REACTORS
330
47
102
}
330
47
100
AcDbScale
 70
     0
300
1/4" = 1'-0"
140
0.25
141
12.0
290
     0
  0
SCALE
  5
61
102
{ACAD_REACTORS
330
47
102
}
330
47
100
AcDbScale
 70
     0
300
3/8" = 1'-0"
140
0.375
141
12.0
290
     0
  0
SCALE
  5
62
102
{ACAD_REACTORS
330
47
102
}
330
47
100
AcDbScale
 70
     0
300
1/2" = 1'-0"
140
0.5
141
12.0
290
     0
  0
SCALE
  5
63
102
{ACAD_REACTORS
330
47
102
}
330
47
100
AcDbScale
 70
     0
300
3/4" = 1'-0"
140
0.75
141
12.0
290
     0
  0
SCALE
  5
64
102
{ACAD_REACTORS
330
47
102
}
330
47
100
AcDbScale
 70
     0
300
1" = 1'-0"
140
1.0
141
12.0
290
     0
  0
SCALE
  5
65
102
{ACAD_REACTORS
330
47
102
}
330
47
100
AcDbScale
 70
     0
300
1-1/2" = 1'-0"
140
1.5
141
12.0
290
     0
  0
SCALE
  5
66
102
{ACAD_REACTORS
330
47
102
}
330
47
100
AcDbScale
 70
     0
300
3" = 1'-0"
140
3.0
141
12.0
290
     0
  0
SCALE
  5
67
102
{ACAD_REACTORS
330
47
102
}
330
47
100
AcDbScale
 70
     0
300
6" = 1'-0"
140
6.0
141
12.0
290
     0
  0
SCALE
  5
68
102
{ACAD_REACTORS
330
47
102
}
330
47
100
AcDbScale
 70
     0
300
1'-0" = 1'-0"
140
12.0
141
12.0
290
     0
  0
TABLESTYLE
  5
6A
102
{ACAD_REACTORS
330
69
102
}
102
{ACAD_XDICTIONARY
360
263
102
}
330
69
100
AcDbTableStyle
  3
Standard
 70
     0
 71
     0
 40
0.06
 41
0.06
280
     0
281
     0
  7
Standard
140
0.18
170
     2
 62
     0
 63
   257
283
     0
 90
        4
 91
        0
  1

274
    -2
284
     1
 64
     0
275
    -2
285
     1
 65
     0
276
    -2
286
     1
 66
     0
277
    -2
287
     1
 67
     0
278
    -2
288
     1
 68
     0
279
    -2
289
     1
 69
     0
  7
Standard
140
0.25
170
     5
 62
     0
 63
   257
283
     0
 90
        4
 91
        0
  1

274
    -2
284
     1
 64
     0
275
    -2
285
     1
 65
     0
276
    -2
286
     1
 66
     0
277
    -2
287
     1
 67
     0
278
    -2
288
     1
 68
     0
279
    -2
289
     1
 69
     0
  7
Standard
140
0.18
170
     5
 62
     0
 63
   257
283
     0
 90
        4
 91
        0
  1

274
    -2
284
     1
 64
     0
275
    -2
285
     1
 65
     0
276
    -2
286
     1
 66
     0
277
    -2
287
     1
 67
     0
278
    -2
288
     1
 68
     0
279
    -2
289
     1
 69
     0
  0
VISUALSTYLE
  5
2F
102
{ACAD_REACTORS
330
2A
102
}
330
2A
100
AcDbVisualStyle
  2
2dWireframe
 70
     4
177
     3
291
     0
 70
    58
 90
        0
176
     1
 90
        2
176
     1
 90
        0
176
     1
 90
        0
176
     1
 40
0.6
176
     1
 40
30.0
176
     1
 62
     7
420
 16777215
176
     1
 90
        1
176
     1
 90
        4
176
     1
 62
     7
176
     1
 62
   257
176
     1
 90
        1
176
     1
 90
        1
176
     1
 40
1.0
176
     1
 90
        0
176
     1
 62
   257
176
     1
 40
1.0
176
     1
 90
        1
176
     1
 90
        6
176
     1
 90
        2
176
     1
 62
     7
176
     1
 90
        5
176
     1
 90
        0
176
     1
 90
        0
176
     1
290
     0
176
     1
 90
        1
176
     1
 40
0.0
176
     1
 90
        0
176
     1
290
     1
176
     1
290
     1
176
     1
290
     0
176
     1
290
     0
176
     1
290
     0
176
     1
290
     0
176
     1
290
     0
176
     1
290
     0
176
     1
290
     0
176
     1
 90
       50
176
     1
 40
0.0
176
     1
 40
1.0
176
     1
 90
        0
176
     1
 62
    18
420
        0
176
     1
 90
       50
176
     1
 90
        3
176
     1
 62
     5
420
      255
176
     1
290
     0
176
     1
 90
       50
176
     1
 90
       50
176
     1
 90
       50
176
     1
290
     0
176
     1
 90
       50
176
     1
 62
   256
176
     0
 40
1.0
176
     0
 90
        2
176
     1
  1
strokes_ogs.tif
176
     1
290
     0
176
     1
 40
1.0
176
     1
 40
1.0
176
     1
  0
VISUALSTYLE
  5
32
102
{ACAD_REACTORS
330
2A
102
}
330
2A
100
AcDbVisualStyle
  2
Basic
 70
     7
177
     3
291
     1
 70
    58
 90
        1
176
     1
 90
        0
176
     1
 90
        1
176
     1
 90
        0
176
     1
 40
0.6
176
     1
 40
30.0
176
     1
 62
     7
420
 16777215
176
     1
 90
        0
176
     1
 90
        4
176
     1
 62
     7
176
     1
 62
   257
176
     1
 90
        1
176
     1
 90
        1
176
     1
 40
1.0
176
     1
 90
        8
176
     1
 62
     7
176
     1
 40
1.0
176
     1
 90
        1
176
     1
 90
        6
176
     1
 90
        2
176
     1
 62
     7
176
     1
 90
        5
176
     1
 90
        0
176
     1
 90
        0
176
     1
290
     0
176
     1
 90
        1
176
     1
 40
0.0
176
     1
 90
        0
176
     1
290
     0
176
     1
290
     1
176
     1
290
     1
176
     1
290
     0
176
     1
290
     0
176
     1
290
     0
176
     1
290
     0
176
     1
290
     0
176
     1
290
     0
176
     1
 90
       50
176
     1
 40
0.0
176
     1
 40
1.0
176
     1
 90
        0
176
     1
 62
    18
420
        0
176
     1
 90
       50
176
     1
 90
        3
176
     1
 62
     5
420
      255
176
     1
290
     0
176
     1
 90
       50
176
     1
 90
       50
176
     1
 90
       50
176
     1
290
     0
176
     1
 90
       50
176
     1
 62
   256
176
     0
 40
1.0
176
     0
 90
        2
176
     1
  1
strokes_ogs.tif
176
     1
290
     0
176
     1
 40
1.0
176
     1
 40
1.0
176
     1
  0
VISUALSTYLE
  5
36
102
{ACAD_REACTORS
330
2A
102
}
330
2A
100
AcDbVisualStyle
  2
Brighten
 70
    12
177
     3
291
     1
 70
    58
 90
        2
176
     1
 90
        2
176
     1
 90
        0
176
     1
 90
        0
176
     1
 40
0.6
176
     1
 40
30.0
176
     1
 62
     7
420
 16777215
176
     1
 90
        1
176
     1
 90
        4
176
     1
 62
     7
176
     1
 62
   257
176
     1
 90
        1
176
     1
 90
        1
176
     1
 40
1.0
176
     1
 90
        8
176
     1
 62
     7
176
     1
 40
1.0
176
     1
 90
        1
176
     1
 90
        6
176
     1
 90
        2
176
     1
 62
     7
176
     1
 90
        5
176
     1
 90
        0
176
     1
 90
        0
176
     1
290
     0
176
     1
 90
        1
176
     1
 40
50.0
176
     1
 90
        0
176
     1
290
     0
176
     1
290
     1
176
     1
290
     1
176
     1
290
     0
176
     1
290
     0
176
     1
290
     0
176
     1
290
     0
176
     1
290
     0
176
     1
290
     0
176
     1
 90
       50
176
     1
 40
0.0
176
     1
 40
1.0
176
     1
 90
        0
176
     1
 62
    18
420
        0
176
     1
 90
       50
176
     1
 90
        3
176
     1
 62
     5
420
      255
176
     1
290
     0
176
     1
 90
       50
176
     1
 90
       50
176
     1
 90
       50
176
     1
290
     0
176
     1
 90
       50
176
     1
 62
   256
176
     0
 40
1.0
176
     0
 90
        2
176
     1
  1
strokes_ogs.tif
176
     1
290
     0
176
     1
 40
1.0
176
     1
 40
1.0
176
     1
  0
VISUALSTYLE
  5
3A
102
{ACAD_REACTORS
330
2A
102
}
330
2A
100
AcDbVisualStyle
  2
ColorChange
 70
    16
177
     3
291
     1
 70
    58
 90
        2
176
     1
 90
        2
176
     1
 90
        3
176
     1
 90
        0
176
     1
 40
0.6
176
     1
 40
30.0
176
     1
 62
     8
420
  8421504
176
     1
 90
        1
176
     1
 90
        4
176
     1
 62
     7
176
     1
 62
   257
176
     1
 90
        1
176
     1
 90
        1
176
     1
 40
1.0
176
     1
 90
        8
176
     1
 62
     8
420
  8421504
176
     1
 40
1.0
176
     1
 90
        1
176
     1
 90
        6
176
     1
 90
        2
176
     1
 62
     7
176
     1
 90
        5
176
     1
 90
        0
176
     1
 90
        0
176
     1
290
     0
176
     1
 90
        1
176
     1
 40
0.0
176
     1
 90
        0
176
     1
290
     0
176
     1
290
     1
176
     1
290
     1
176
     1
290
     0
176
     1
290
     0
176
     1
290
     0
176
     1
290
     0
176
     1
290
     0
176
     1
290
     0
176
     1
 90
       50
176
     1
 40
0.0
176
     1
 40
1.0
176
     1
 90
        0
176
     1
 62
    18
420
        0
176
     1
 90
       50
176
     1
 90
        3
176
     1
 62
     5
420
      255
176
     1
290
     0
176
     1
 90
       50
176
     1
 90
       50
176
     1
 90
       50
176
     1
290
     0
176
     1
 90
       50
176
     1
 62
   256
176
     0
 40
1.0
176
     0
 90
        2
176
     1
  1
strokes_ogs.tif
176
     1
290
     0
176
     1
 40
1.0
176
     1
 40
1.0
176
     1
  0
VISUALSTYLE
  5
34
102
{ACAD_REACTORS
330
2A
102
}
330
2A
100
AcDbVisualStyle
  2
Conceptual
 70
     9
177
     3
291
     0
 70
    58
 90
        3
176
     1
 90
        2
176
     1
 90
        0
176
     1
 90
        0
176
     1
 40
0.6
176
     1
 40
30.0
176
     1
 62
     7
420
 16777215
176
     1
 90
        2
176
     1
 90
        2
176
     1
 62
     7
176
     1
 62
   257
176
     1
 90
        1
176
     1
 90
        1
176
     1
 40
179.0
176
     1
 90
        8
176
     1
 62
     7
176
     1
 40
1.0
176
     1
 90
        1
176
     1
 90
        6
176
     1
 90
        2
176
     1
 62
     7
176
     1
 90
        3
176
     1
 90
        0
176
     1
 90
        0
176
     1
290
     0
176
     1
 90
        1
176
     1
 40
0.0
176
     1
 90
        0
176
     1
290
     0
176
     1
290
     1
176
     1
290
     1
176
     1
290
     0
176
     1
290
     0
176
     1
290
     0
176
     1
290
     0
176
     1
290
     0
176
     1
290
     0
176
     1
 90
       50
176
     1
 40
0.0
176
     1
 40
1.0
176
     1
 90
        0
176
     1
 62
    18
420
        0
176
     1
 90
       50
176
     1
 90
        3
176
     1
 62
     5
420
      255
176
     1
290
     0
176
     1
 90
       50
176
     1
 90
       50
176
     1
 90
       50
176
     1
290
     0
176
     1
 90
       50
176
     1
 62
   256
176
     0
 40
1.0
176
     0
 90
        2
176
     1
  1
strokes_ogs.tif
176
     1
290
     0
176
     1
 40
1.0
176
     1
 40
1.0
176
     1
  0
VISUALSTYLE
  5
35
102
{ACAD_REACTORS
330
2A
102
}
330
2A
100
AcDbVisualStyle
  2
Dim
 70
    11
177
     3
291
     1
 70
    58
 90
        2
176
     1
 90
        2
176
     1
 90
        0
176
     1
 90
        0
176
     1
 40
0.6
176
     1
 40
30.0
176
     1
 62
     7
420
 16777215
176
     1
 90
        1
176
     1
 90
        4
176
     1
 62
     7
176
     1
 62
   257
176
     1
 90
        1
176
     1
 90
        1
176
     1
 40
1.0
176
     1
 90
        8
176
     1
 62
     7
176
     1
 40
1.0
176
     1
 90
        1
176
     1
 90
        6
176
     1
 90
        2
176
     1
 62
     7
176
     1
 90
        5
176
     1
 90
        0
176
     1
 90
        0
176
     1
290
     0
176
     1
 90
        1
176
     1
 40
-50.0
176
     1
 90
        0
176
     1
290
     0
176
     1
290
     1
176
     1
290
     1
176
     1
290
     0
176
     1
290
     0
176
     1
290
     0
176
     1
290
     0
176
     1
290
     0
176
     1
290
     0
176
     1
 90
       50
176
     1
 40
0.0
176
     1
 40
1.0
176
     1
 90
        0
176
     1
 62
    18
420
        0
176
     1
 90
       50
176
     1
 90
        3
176
     1
 62
     5
420
      255
176
     1
290
     0
176
     1
 90
       50
176
     1
 90
       50
176
     1
 90
       50
176
     1
290
     0
176
     1
 90
       50
176
     1
 62
   256
176
     0
 40
1.0
176
     0
 90
        2
176
     1
  1
strokes_ogs.tif
176
     1
290
     0
176
     1
 40
1.0
176
     1
 40
1.0
176
     1
  0
VISUALSTYLE
  5
3D
102
{ACAD_REACTORS
330
2A
102
}
330
2A
100
AcDbVisualStyle
  2
EdgeColorOff
 70
    22
177
     3
291
     1
 70
    58
 90
        2
176
     0
 90
        2
176
     0
 90
        0
176
     0
 90
        0
176
     0
 40
0.6
176
     0
 40
30.0
176
     0
 62
     7
420
 16777215
176
     0
 90
        1
176
     0
 90
        4
176
     0
 62
     7
176
     0
 62
   257
176
     0
 90
        1
176
     0
 90
        1
176
     0
 40
1.0
176
     0
 90
        8
176
     2
 62
     7
176
     0
 40
1.0
176
     0
 90
        1
176
     0
 90
        6
176
     0
 90
        2
176
     0
 62
     7
176
     0
 90
        5
176
     0
 90
        0
176
     0
 90
        0
176
     0
290
     0
176
     0
 90
        1
176
     0
 40
0.0
176
     0
 90
        0
176
     0
290
     0
176
     0
290
     1
176
     0
290
     1
176
     0
290
     0
176
     0
290
     0
176
     0
290
     0
176
     0
290
     0
176
     0
290
     0
176
     0
290
     0
176
     0
 90
       50
176
     0
 40
0.0
176
     0
 40
1.0
176
     0
 90
        0
176
     0
 62
    18
420
        0
176
     0
 90
       50
176
     0
 90
        3
176
     0
 62
     5
420
      255
176
     0
290
     0
176
     0
 90
       50
176
     0
 90
       50
176
     0
 90
       50
176
     0
290
     0
176
     0
 90
       50
176
     0
 62
   256
176
     0
 40
1.0
176
     0
 90
        2
176
     0
  1
strokes_ogs.tif
176
     0
290
     0
176
     0
 40
1.0
176
     0
 40
1.0
176
     0
  0
VISUALSTYLE
  5
39
102
{ACAD_REACTORS
330
2A
102
}
330
2A
100
AcDbVisualStyle
  2
Facepattern
 70
    15
177
     3
291
     1
 70
    58
 90
        2
176
     1
 90
        2
176
     1
 90
        0
176
     1
 90
        0
176
     1
 40
0.6
176
     1
 40
30.0
176
     1
 62
     7
420
 16777215
176
     1
 90
        1
176
     1
 90
        4
176
     1
 62
     7
176
     1
 62
   257
176
     1
 90
        1
176
     1
 90
        1
176
     1
 40
1.0
176
     1
 90
        8
176
     1
 62
     7
176
     1
 40
1.0
176
     1
 90
        1
176
     1
 90
        6
176
     1
 90
        2
176
     1
 62
     7
176
     1
 90
        5
176
     1
 90
        0
176
     1
 90
        0
176
     1
290
     0
176
     1
 90
        1
176
     1
 40
0.0
176
     1
 90
        0
176
     1
290
     0
176
     1
290
     1
176
     1
290
     1
176
     1
290
     0
176
     1
290
     0
176
     1
290
     0
176
     1
290
     0
176
     1
290
     0
176
     1
290
     0
176
     1
 90
       50
176
     1
 40
0.0
176
     1
 40
1.0
176
     1
 90
        0
176
     1
 62
    18
420
        0
176
     1
 90
       50
176
     1
 90
        3
176
     1
 62
     5
420
      255
176
     1
290
     0
176
     1
 90
       50
176
     1
 90
       50
176
     1
 90
       50
176
     1
290
     0
176
     1
 90
       50
176
     1
 62
   256
176
     0
 40
1.0
176
     0
 90
        2
176
     1
  1
strokes_ogs.tif
176
     1
290
     0
176
     1
 40
1.0
176
     1
 40
1.0
176
     1
  0
VISUALSTYLE
  5
2B
102
{ACAD_REACTORS
330
2A
102
}
330
2A
100
AcDbVisualStyle
  2
Flat
 70
     0
177
     3
291
     1
 70
    58
 90
        2
176
     1
 90
        1
176
     1
 90
        1
176
     1
 90
        2
176
     1
 40
0.6
176
     1
 40
30.0
176
     1
 62
     7
420
 16777215
176
     1
 90
        0
176
     1
 90
        0
176
     1
 62
     7
176
     1
 62
   257
176
     1
 90
        1
176
     1
 90
        1
176
     1
 40
1.0
176
     1
 90
        8
176
     1
 62
     7
176
     1
 40
1.0
176
     1
 90
        1
176
     1
 90
        6
176
     1
 90
        2
176
     1
 62
     7
176
     1
 90
        5
176
     1
 90
        0
176
     1
 90
        0
176
     1
290
     0
176
     1
 90
       13
176
     1
 40
0.0
176
     1
 90
        0
176
     1
290
     0
176
     1
290
     1
176
     1
290
     1
176
     1
290
     0
176
     1
290
     0
176
     1
290
     0
176
     1
290
     0
176
     1
290
     0
176
     1
290
     0
176
     1
 90
       50
176
     1
 40
0.0
176
     1
 40
1.0
176
     1
 90
        0
176
     1
 62
    18
420
        0
176
     1
 90
       50
176
     1
 90
        3
176
     1
 62
     5
420
      255
176
     1
290
     0
176
     1
 90
       50
176
     1
 90
       50
176
     1
 90
       50
176
     1
290
     0
176
     1
 90
       50
176
     1
 62
   256
176
     0
 40
1.0
176
     0
 90
        2
176
     1
  1
strokes_ogs.tif
176
     1
290
     0
176
     1
 40
1.0
176
     1
 40
1.0
176
     1
  0
VISUALSTYLE
  5
2C
102
{ACAD_REACTORS
330
2A
102
}
330
2A
100
AcDbVisualStyle
  2
FlatWithEdges
 70
     1
177
     3
291
     1
 70
    58
 90
        2
176
     1
 90
        1
176
     1
 90
        1
176
     1
 90
        2
176
     1
 40
0.6
176
     1
 40
30.0
176
     1
 62
     7
420
 16777215
176
     1
 90
        1
176
     1
 90
        0
176
     1
 62
     7
176
     1
 62
   257
176
     1
 90
        1
176
     1
 90
        1
176
     1
 40
1.0
176
     1
 90
        0
176
     1
 62
   257
176
     1
 40
1.0
176
     1
 90
        1
176
     1
 90
        6
176
     1
 90
        2
176
     1
 62
     7
176
     1
 90
        5
176
     1
 90
        0
176
     1
 90
        0
176
     1
290
     0
176
     1
 90
       13
176
     1
 40
0.0
176
     1
 90
        0
176
     1
290
     0
176
     1
290
     1
176
     1
290
     1
176
     1
290
     0
176
     1
290
     0
176
     1
290
     0
176
     1
290
     0
176
     1
290
     0
176
     1
290
     0
176
     1
 90
       50
176
     1
 40
0.0
176
     1
 40
1.0
176
     1
 90
        0
176
     1
 62
    18
420
        0
176
     1
 90
       50
176
     1
 90
        3
176
     1
 62
     5
420
      255
176
     1
290
     0
176
     1
 90
       50
176
     1
 90
       50
176
     1
 90
       50
176
     1
290
     0
176
     1
 90
       50
176
     1
 62
   256
176
     0
 40
1.0
176
     0
 90
        2
176
     1
  1
strokes_ogs.tif
176
     1
290
     0
176
     1
 40
1.0
176
     1
 40
1.0
176
     1
  0
VISUALSTYLE
  5
2D
102
{ACAD_REACTORS
330
2A
102
}
330
2A
100
AcDbVisualStyle
  2
Gouraud
 70
     2
177
     3
291
     1
 70
    58
 90
        2
176
     1
 90
        2
176
     1
 90
        1
176
     1
 90
        2
176
     1
 40
0.6
176
     1
 40
30.0
176
     1
 62
     7
420
 16777215
176
     1
 90
        0
176
     1
 90
        0
176
     1
 62
     7
176
     1
 62
   257
176
     1
 90
        1
176
     1
 90
        1
176
     1
 40
1.0
176
     1
 90
        0
176
     1
 62
     7
176
     1
 40
1.0
176
     1
 90
        1
176
     1
 90
        6
176
     1
 90
        2
176
     1
 62
     7
176
     1
 90
        5
176
     1
 90
        0
176
     1
 90
        0
176
     1
290
     0
176
     1
 90
       13
176
     1
 40
0.0
176
     1
 90
        0
176
     1
290
     0
176
     1
290
     1
176
     1
290
     1
176
     1
290
     0
176
     1
290
     0
176
     1
290
     0
176
     1
290
     0
176
     1
290
     0
176
     1
290
     0
176
     1
 90
       50
176
     1
 40
0.0
176
     1
 40
1.0
176
     1
 90
        0
176
     1
 62
    18
420
        0
176
     1
 90
       50
176
     1
 90
        3
176
     1
 62
     5
420
      255
176
     1
290
     0
176
     1
 90
       50
176
     1
 90
       50
176
     1
 90
       50
176
     1
290
     0
176
     1
 90
       50
176
     1
 62
   256
176
     0
 40
1.0
176
     0
 90
        2
176
     1
  1
strokes_ogs.tif
176
     1
290
     0
176
     1
 40
1.0
176
     1
 40
1.0
176
     1
  0
VISUALSTYLE
  5
2E
102
{ACAD_REACTORS
330
2A
102
}
330
2A
100
AcDbVisualStyle
  2
GouraudWithEdges
 70
     3
177
     3
291
     1
 70
    58
 90
        2
176
     1
 90
        2
176
     1
 90
        1
176
     1
 90
        2
176
     1
 40
0.6
176
     1
 40
30.0
176
     1
 62
     7
420
 16777215
176
     1
 90
        1
176
     1
 90
        0
176
     1
 62
     7
176
     1
 62
   257
176
     1
 90
        1
176
     1
 90
        1
176
     1
 40
1.0
176
     1
 90
        0
176
     1
 62
   257
176
     1
 40
1.0
176
     1
 90
        1
176
     1
 90
        6
176
     1
 90
        2
176
     1
 62
     7
176
     1
 90
        5
176
     1
 90
        0
176
     1
 90
        0
176
     1
290
     0
176
     1
 90
       13
176
     1
 40
0.0
176
     1
 90
        0
176
     1
290
     0
176
     1
290
     1
176
     1
290
     1
176
     1
290
     0
176
     1
290
     0
176
     1
290
     0
176
     1
290
     0
176
     1
290
     0
176
     1
290
     0
176
     1
 90
       50
176
     1
 40
0.0
176
     1
 40
1.0
176
     1
 90
        0
176
     1
 62
    18
420
        0
176
     1
 90
       50
176
     1
 90
        3
176
     1
 62
     5
420
      255
176
     1
290
     0
176
     1
 90
       50
176
     1
 90
       50
176
     1
 90
       50
176
     1
290
     0
176
     1
 90
       50
176
     1
 62
   256
176
     0
 40
1.0
176
     0
 90
        2
176
     1
  1
strokes_ogs.tif
176
     1
290
     0
176
     1
 40
1.0
176
     1
 40
1.0
176
     1
  0
VISUALSTYLE
  5
31
102
{ACAD_REACTORS
330
2A
102
}
330
2A
100
AcDbVisualStyle
  2
Hidden
 70
     6
177
     3
291
     0
 70
    58
 90
        1
176
     1
 90
        2
176
     1
 90
        2
176
     1
 90
        0
176
     1
 40
0.6
176
     1
 40
30.0
176
     1
 62
     7
420
 16777215
176
     1
 90
        2
176
     1
 90
        2
176
     1
 62
     7
176
     1
 62
   257
176
     1
 90
        2
176
     1
 90
        1
176
     1
 40
40.0
176
     1
 90
        0
176
     1
 62
   257
176
     1
 40
1.0
176
     1
 90
        1
176
     1
 90
        6
176
     1
 90
        2
176
     1
 62
     7
176
     1
 90
        3
176
     1
 90
        0
176
     1
 90
        0
176
     1
290
     0
176
     1
 90
        1
176
     1
 40
0.0
176
     1
 90
        0
176
     1
290
     0
176
     1
290
     1
176
     1
290
     1
176
     1
290
     0
176
     1
290
     0
176
     1
290
     0
176
     1
290
     0
176
     1
290
     0
176
     1
290
     0
176
     1
 90
       50
176
     1
 40
0.0
176
     1
 40
1.0
176
     1
 90
        0
176
     1
 62
    18
420
        0
176
     1
 90
       50
176
     1
 90
        3
176
     1
 62
     5
420
      255
176
     1
290
     0
176
     1
 90
       50
176
     1
 90
       50
176
     1
 90
       50
176
     1
290
     0
176
     1
 90
       50
176
     1
 62
   256
176
     0
 40
1.0
176
     0
 90
        2
176
     1
  1
strokes_ogs.tif
176
     1
290
     0
176
     1
 40
1.0
176
     1
 40
1.0
176
     1
  0
VISUALSTYLE
  5
3B
102
{ACAD_REACTORS
330
2A
102
}
330
2A
100
AcDbVisualStyle
  2
JitterOff
 70
    20
177
     3
291
     1
 70
    58
 90
        2
176
     0
 90
        2
176
     0
 90
        0
176
     0
 90
        0
176
     0
 40
0.6
176
     0
 40
30.0
176
     0
 62
     7
420
 16777215
176
     0
 90
        1
176
     0
 90
        4
176
     0
 62
     7
176
     0
 62
   257
176
     0
 90
        1
176
     0
 90
        1
176
     0
 40
1.0
176
     0
 90
       10
176
     2
 62
     7
176
     0
 40
1.0
176
     0
 90
        1
176
     0
 90
        6
176
     0
 90
        2
176
     0
 62
     7
176
     0
 90
        5
176
     0
 90
        0
176
     0
 90
        0
176
     0
290
     0
176
     0
 90
        1
176
     0
 40
0.0
176
     0
 90
        0
176
     0
290
     0
176
     0
290
     1
176
     0
290
     1
176
     0
290
     0
176
     0
290
     0
176
     0
290
     0
176
     0
290
     0
176
     0
290
     0
176
     0
290
     0
176
     0
 90
       50
176
     0
 40
0.0
176
     0
 40
1.0
176
     0
 90
        0
176
     0
 62
    18
420
        0
176
     0
 90
       50
176
     0
 90
        3
176
     0
 62
     5
420
      255
176
     0
290
     0
176
     0
 90
       50
176
     0
 90
       50
176
     0
 90
       50
176
     0
290
     0
176
     0
 90
       50
176
     0
 62
   256
176
     0
 40
1.0
176
     0
 90
        2
176
     0
  1
strokes_ogs.tif
176
     0
290
     0
176
     0
 40
1.0
176
     0
 40
1.0
176
     0
  0
VISUALSTYLE
  5
38
102
{ACAD_REACTORS
330
2A
102
}
330
2A
100
AcDbVisualStyle
  2
Linepattern
 70
    14
177
     3
291
     1
 70
    58
 90
        2
176
     1
 90
        2
176
     1
 90
        0
176
     1
 90
        0
176
     1
 40
0.6
176
     1
 40
30.0
176
     1
 62
     7
420
 16777215
176
     1
 90
        1
176
     1
 90
        4
176
     1
 62
     7
176
     1
 62
   257
176
     1
 90
        7
176
     1
 90
        7
176
     1
 40
1.0
176
     1
 90
        8
176
     1
 62
     7
176
     1
 40
1.0
176
     1
 90
        1
176
     1
 90
        6
176
     1
 90
        2
176
     1
 62
     7
176
     1
 90
        5
176
     1
 90
        0
176
     1
 90
        0
176
     1
290
     0
176
     1
 90
        1
176
     1
 40
0.0
176
     1
 90
        0
176
     1
290
     0
176
     1
290
     1
176
     1
290
     1
176
     1
290
     0
176
     1
290
     0
176
     1
290
     0
176
     1
290
     0
176
     1
290
     0
176
     1
290
     0
176
     1
 90
       50
176
     1
 40
0.0
176
     1
 40
1.0
176
     1
 90
        0
176
     1
 62
    18
420
        0
176
     1
 90
       50
176
     1
 90
        3
176
     1
 62
     5
420
      255
176
     1
290
     0
176
     1
 90
       50
176
     1
 90
       50
176
     1
 90
       50
176
     1
290
     0
176
     1
 90
       50
176
     1
 62
   256
176
     0
 40
1.0
176
     0
 90
        2
176
     1
  1
strokes_ogs.tif
176
     1
290
     0
176
     1
 40
1.0
176
     1
 40
1.0
176
     1
  0
VISUALSTYLE
  5
3C
102
{ACAD_REACTORS
330
2A
102
}
330
2A
100
AcDbVisualStyle
  2
OverhangOff
 70
    21
177
     3
291
     1
 70
    58
 90
        2
176
     0
 90
        2
176
     0
 90
        0
176
     0
 90
        0
176
     0
 40
0.6
176
     0
 40
30.0
176
     0
 62
     7
420
 16777215
176
     0
 90
        1
176
     0
 90
        4
176
     0
 62
     7
176
     0
 62
   257
176
     0
 90
        1
176
     0
 90
        1
176
     0
 40
1.0
176
     0
 90
        9
176
     2
 62
     7
176
     0
 40
1.0
176
     0
 90
        1
176
     0
 90
        6
176
     0
 90
        2
176
     0
 62
     7
176
     0
 90
        5
176
     0
 90
        0
176
     0
 90
        0
176
     0
290
     0
176
     0
 90
        1
176
     0
 40
0.0
176
     0
 90
        0
176
     0
290
     0
176
     0
290
     1
176
     0
290
     1
176
     0
290
     0
176
     0
290
     0
176
     0
290
     0
176
     0
290
     0
176
     0
290
     0
176
     0
290
     0
176
     0
 90
       50
176
     0
 40
0.0
176
     0
 40
1.0
176
     0
 90
        0
176
     0
 62
    18
420
        0
176
     0
 90
       50
176
     0
 90
        3
176
     0
 62
     5
420
      255
176
     0
290
     0
176
     0
 90
       50
176
     0
 90
       50
176
     0
 90
       50
176
     0
290
     0
176
     0
 90
       50
176
     0
 62
   256
176
     0
 40
1.0
176
     0
 90
        2
176
     0
  1
strokes_ogs.tif
176
     0
290
     0
176
     0
 40
1.0
176
     0
 40
1.0
176
     0
  0
VISUALSTYLE
  5
33
102
{ACAD_REACTORS
330
2A
102
}
330
2A
100
AcDbVisualStyle
  2
Realistic
 70
     8
177
     3
291
     0
 70
    58
 90
        2
176
     1
 90
        3
176
     1
 90
        0
176
     1
 90
        2
176
     1
 40
0.6
176
     1
 40
30.0
176
     1
 62
     7
420
 16777215
176
     1
 90
        0
176
     1
 90
        0
176
     1
 62
     7
176
     1
 62
   257
176
     1
 90
        1
176
     1
 90
        1
176
     1
 40
1.0
176
     1
 90
        8
176
     1
 62
   257
176
     1
 40
1.0
176
     1
 90
        1
176
     1
 90
        6
176
     1
 90
        2
176
     1
 62
     7
176
     1
 90
        3
176
     1
 90
        0
176
     1
 90
        0
176
     1
290
     0
176
     1
 90
       13
176
     1
 40
0.0
176
     1
 90
        0
176
     1
290
     0
176
     1
290
     1
176
     1
290
     1
176
     1
290
     0
176
     1
290
     0
176
     1
290
     0
176
     1
290
     0
176
     1
290
     0
176
     1
290
     0
176
     1
 90
       50
176
     1
 40
0.0
176
     1
 40
1.0
176
     1
 90
        0
176
     1
 62
    18
420
        0
176
     1
 90
       50
176
     1
 90
        3
176
     1
 62
     5
420
      255
176
     1
290
     0
176
     1
 90
       50
176
     1
 90
       50
176
     1
 90
       50
176
     1
290
     0
176
     1
 90
       50
176
     1
 62
   256
176
     0
 40
1.0
176
     0
 90
        2
176
     1
  1
strokes_ogs.tif
176
     1
290
     0
176
     1
 40
1.0
176
     1
 40
1.0
176
     1
  0
VISUALSTYLE
  5
42
102
{ACAD_REACTORS
330
2A
102
}
330
2A
100
AcDbVisualStyle
  2
Shaded
 70
    27
177
     3
291
     0
 70
    58
 90
        2
176
     1
 90
        2
176
     1
 90
        1
176
     1
 90
        2
176
     1
 40
0.6
176
     1
 40
30.0
176
     1
 62
     7
420
 16777215
176
     1
 90
        0
176
     1
 90
        4
176
     1
 62
     7
176
     1
 62
   257
176
     1
 90
        1
176
     1
 90
        1
176
     1
 40
1.0
176
     1
 90
        8
176
     1
 62
   257
176
     1
 40
1.0
176
     1
 90
        1
176
     1
 90
        6
176
     1
 90
        2
176
     1
 62
     8
420
  7895160
176
     1
 90
        3
176
     1
 90
        0
176
     1
 90
        0
176
     1
290
     0
176
     1
 90
        5
176
     1
 40
0.0
176
     1
 90
        0
176
     1
290
     0
176
     1
290
     1
176
     1
290
     1
176
     1
290
     0
176
     1
290
     0
176
     1
290
     0
176
     1
290
     0
176
     1
290
     0
176
     1
290
     0
176
     1
 90
       50
176
     1
 40
0.0
176
     1
 40
1.0
176
     1
 90
        0
176
     1
 62
    18
420
        0
176
     1
 90
       50
176
     1
 90
        3
176
     1
 62
     5
420
      255
176
     1
290
     0
176
     1
 90
       50
176
     1
 90
       50
176
     1
 90
       50
176
     1
290
     0
176
     1
 90
       50
176
     1
 62
   256
176
     0
 40
1.0
176
     0
 90
        2
176
     1
  1
strokes_ogs.tif
176
     1
290
     0
176
     1
 40
1.0
176
     1
 40
1.0
176
     1
  0
VISUALSTYLE
  5
41
102
{ACAD_REACTORS
330
2A
102
}
330
2A
100
AcDbVisualStyle
  2
Shaded with edges
 70
    26
177
     3
291
     0
 70
    58
 90
        2
176
     1
 90
        2
176
     1
 90
        1
176
     1
 90
        2
176
     1
 40
0.6
176
     1
 40
30.0
176
     1
 62
     7
420
 16777215
176
     1
 90
        1
176
     1
 90
       10
176
     1
 62
     7
176
     1
 62
   257
176
     1
 90
        2
176
     1
 90
        1
176
     1
 40
1.0
176
     1
 90
        8
176
     1
 62
   257
176
     1
 40
1.0
176
     1
 90
        1
176
     1
 90
        6
176
     1
 90
        2
176
     1
 62
     7
176
     1
 90
        3
176
     1
 90
        0
176
     1
 90
        0
176
     1
290
     0
176
     1
 90
        5
176
     1
 40
0.0
176
     1
 90
        0
176
     1
290
     0
176
     1
290
     1
176
     1
290
     1
176
     1
290
     0
176
     1
290
     0
176
     1
290
     0
176
     1
290
     0
176
     1
290
     0
176
     1
290
     0
176
     1
 90
       50
176
     1
 40
0.0
176
     1
 40
1.0
176
     1
 90
        0
176
     1
 62
    18
420
        0
176
     1
 90
       50
176
     1
 90
        3
176
     1
 62
     5
420
      255
176
     1
290
     0
176
     1
 90
       50
176
     1
 90
       50
176
     1
 90
       50
176
     1
290
     0
176
     1
 90
       50
176
     1
 62
   256
176
     0
 40
1.0
176
     0
 90
        2
176
     1
  1
strokes_ogs.tif
176
     1
290
     0
176
     1
 40
1.0
176
     1
 40
1.0
176
     1
  0
VISUALSTYLE
  5
3E
102
{ACAD_REACTORS
330
2A
102
}
330
2A
100
AcDbVisualStyle
  2
Shades of Gray
 70
    23
177
     3
291
     0
 70
    58
 90
        2
176
     1
 90
        2
176
     1
 90
        3
176
     1
 90
        0
176
     1
 40
0.6
176
     1
 40
30.0
176
     1
 62
     7
420
 16777215
176
     1
 90
        2
176
     1
 90
        2
176
     1
 62
     7
176
     1
 62
     7
176
     1
 90
        1
176
     1
 90
        1
176
     1
 40
40.0
176
     1
 90
        8
176
     1
 62
     7
176
     1
 40
1.0
176
     1
 90
        1
176
     1
 90
        6
176
     1
 90
        2
176
     1
 62
     7
176
     1
 90
        3
176
     1
 90
        0
176
     1
 90
        0
176
     1
290
     0
176
     1
 90
        1
176
     1
 40
0.0
176
     1
 90
        0
176
     1
290
     0
176
     1
290
     1
176
     1
290
     1
176
     1
290
     0
176
     1
290
     0
176
     1
290
     0
176
     1
290
     0
176
     1
290
     0
176
     1
290
     0
176
     1
 90
       50
176
     1
 40
0.0
176
     1
 40
1.0
176
     1
 90
        0
176
     1
 62
    18
420
        0
176
     1
 90
       50
176
     1
 90
        3
176
     1
 62
     5
420
      255
176
     1
290
     0
176
     1
 90
       50
176
     1
 90
       50
176
     1
 90
       50
176
     1
290
     0
176
     1
 90
       50
176
     1
 62
   256
176
     0
 40
1.0
176
     0
 90
        2
176
     1
  1
strokes_ogs.tif
176
     1
290
     0
176
     1
 40
1.0
176
     1
 40
1.0
176
     1
  0
VISUALSTYLE
  5
3F
102
{ACAD_REACTORS
330
2A
102
}
330
2A
100
AcDbVisualStyle
  2
Sketchy
 70
    24
177
     3
291
     0
 70
    58
 90
        1
176
     1
 90
        2
176
     1
 90
        2
176
     1
 90
        0
176
     1
 40
0.6
176
     1
 40
30.0
176
     1
 62
     7
420
 16777215
176
     1
 90
        2
176
     1
 90
        2
176
     1
 62
     7
176
     1
 62
     7
176
     1
 90
        1
176
     1
 90
        1
176
     1
 40
40.0
176
     1
 90
       11
176
     1
 62
     7
176
     1
 40
1.0
176
     1
 90
        1
176
     1
 90
        6
176
     1
 90
        2
176
     1
 62
     7
176
     1
 90
        6
176
     1
 90
        0
176
     1
 90
        0
176
     1
290
     0
176
     1
 90
        1
176
     1
 40
0.0
176
     1
 90
        0
176
     1
290
     0
176
     1
290
     1
176
     1
290
     1
176
     1
290
     0
176
     1
290
     0
176
     1
290
     0
176
     1
290
     0
176
     1
290
     0
176
     1
290
     0
176
     1
 90
       50
176
     1
 40
0.0
176
     1
 40
1.0
176
     1
 90
        0
176
     1
 62
    18
420
        0
176
     1
 90
       50
176
     1
 90
        3
176
     1
 62
     5
420
      255
176
     1
290
     0
176
     1
 90
       50
176
     1
 90
       50
176
     1
 90
       50
176
     1
290
     0
176
     1
 90
       50
176
     1
 62
   256
176
     0
 40
1.0
176
     0
 90
        2
176
     1
  1
strokes_ogs.tif
176
     1
290
     0
176
     1
 40
1.0
176
     1
 40
1.0
176
     1
  0
VISUALSTYLE
  5
37
102
{ACAD_REACTORS
330
2A
102
}
330
2A
100
AcDbVisualStyle
  2
Thicken
 70
    13
177
     3
291
     1
 70
    58
 90
        2
176
     1
 90
        2
176
     1
 90
        0
176
     1
 90
        0
176
     1
 40
0.6
176
     1
 40
30.0
176
     1
 62
     7
420
 16777215
176
     1
 90
        1
176
     1
 90
        4
176
     1
 62
     7
176
     1
 62
   257
176
     1
 90
        1
176
     1
 90
        1
176
     1
 40
1.0
176
     1
 90
       12
176
     1
 62
     7
176
     1
 40
1.0
176
     1
 90
        1
176
     1
 90
        6
176
     1
 90
        2
176
     1
 62
     7
176
     1
 90
        5
176
     1
 90
        0
176
     1
 90
        0
176
     1
290
     0
176
     1
 90
        1
176
     1
 40
0.0
176
     1
 90
        0
176
     1
290
     0
176
     1
290
     1
176
     1
290
     1
176
     1
290
     0
176
     1
290
     0
176
     1
290
     0
176
     1
290
     0
176
     1
290
     0
176
     1
290
     0
176
     1
 90
       50
176
     1
 40
0.0
176
     1
 40
1.0
176
     1
 90
        0
176
     1
 62
    18
420
        0
176
     1
 90
       50
176
     1
 90
        3
176
     1
 62
     5
420
      255
176
     1
290
     0
176
     1
 90
       50
176
     1
 90
       50
176
     1
 90
       50
176
     1
290
     0
176
     1
 90
       50
176
     1
 62
   256
176
     0
 40
1.0
176
     0
 90
        2
176
     1
  1
strokes_ogs.tif
176
     1
290
     0
176
     1
 40
1.0
176
     1
 40
1.0
176
     1
  0
VISUALSTYLE
  5
30
102
{ACAD_REACTORS
330
2A
102
}
330
2A
100
AcDbVisualStyle
  2
Wireframe
 70
     5
177
     3
291
     0
 70
    58
 90
        0
176
     1
 90
        2
176
     1
 90
        0
176
     1
 90
        0
176
     1
 40
0.6
176
     1
 40
30.0
176
     1
 62
     7
420
 16777215
176
     1
 90
        1
176
     1
 90
        4
176
     1
 62
     7
176
     1
 62
   257
176
     1
 90
        1
176
     1
 90
        1
176
     1
 40
1.0
176
     1
 90
        0
176
     1
 62
   257
176
     1
 40
1.0
176
     1
 90
        1
176
     1
 90
        6
176
     1
 90
        2
176
     1
 62
     7
176
     1
 90
        3
176
     1
 90
        0
176
     1
 90
        0
176
     1
290
     0
176
     1
 90
        1
176
     1
 40
0.0
176
     1
 90
        0
176
     1
290
     0
176
     1
290
     1
176
     1
290
     1
176
     1
290
     0
176
     1
290
     0
176
     1
290
     0
176
     1
290
     0
176
     1
290
     0
176
     1
290
     0
176
     1
 90
       50
176
     1
 40
0.0
176
     1
 40
1.0
176
     1
 90
        0
176
     1
 62
    18
420
        0
176
     1
 90
       50
176
     1
 90
        3
176
     1
 62
     5
420
      255
176
     1
290
     0
176
     1
 90
       50
176
     1
 90
       50
176
     1
 90
       50
176
     1
290
     0
176
     1
 90
       50
176
     1
 62
   256
176
     0
 40
1.0
176
     0
 90
        2
176
     1
  1
strokes_ogs.tif
176
     1
290
     0
176
     1
 40
1.0
176
     1
 40
1.0
176
     1
  0
VISUALSTYLE
  5
40
102
{ACAD_REACTORS
330
2A
102
}
330
2A
100
AcDbVisualStyle
  2
X-Ray
 70
    25
177
     3
291
     0
 70
    58
 90
        2
176
     1
 90
        2
176
     1
 90
        1
176
     1
 90
        1
176
     1
 40
0.5
176
     1
 40
30.0
176
     1
 62
     7
420
 16777215
176
     1
 90
        1
176
     1
 90
        0
176
     1
 62
     7
176
     1
 62
   257
176
     1
 90
        1
176
     1
 90
        1
176
     1
 40
1.0
176
     1
 90
        8
176
     1
 62
     7
176
     1
 40
1.0
176
     1
 90
        1
176
     1
 90
        6
176
     1
 90
        2
176
     1
 62
     7
176
     1
 90
        3
176
     1
 90
        0
176
     1
 90
        0
176
     1
290
     0
176
     1
 90
       13
176
     1
 40
0.0
176
     1
 90
        0
176
     1
290
     0
176
     1
290
     1
176
     1
290
     1
176
     1
290
     0
176
     1
290
     0
176
     1
290
     0
176
     1
290
     0
176
     1
290
     0
176
     1
290
     0
176
     1
 90
       50
176
     1
 40
0.0
176
     1
 40
1.0
176
     1
 90
        0
176
     1
 62
    18
420
        0
176
     1
 90
       50
176
     1
 90
        3
176
     1
 62
     5
420
      255
176
     1
290
     0
176
     1
 90
       50
176
     1
 90
       50
176
     1
 90
       50
176
     1
290
     0
176
     1
 90
       50
176
     1
 62
   256
176
     0
 40
1.0
176
     0
 90
        2
176
     1
  1
strokes_ogs.tif
176
     1
290
     0
176
     1
 40
1.0
176
     1
 40
1.0
176
     1
  0
DICTIONARYVAR
  5
262
102
{ACAD_REACTORS
330
261
102
}
330
261
100
DictionaryVariables
280
     0
  1
1:1
  0
DICTIONARYVAR
  5
267
102
{ACAD_REACTORS
330
261
102
}
330
261
100
DictionaryVariables
280
     0
  1
Standard
  0
DICTIONARYVAR
  5
266
102
{ACAD_REACTORS
330
261
102
}
330
261
100
DictionaryVariables
280
     0
  1
Standard
  0
DICTIONARY
  5
263
330
6A
100
AcDbDictionary
280
     1
281
     1
  3
ACAD_ROUNDTRIP_2008_TABLESTYLE_CELLSTYLEMAP
360
264
  0
CELLSTYLEMAP
  5
264
102
{ACAD_REACTORS
330
263
102
}
330
263
100
AcDbCellStyleMap
 90
        3
300
CELLSTYLE
  1
TABLEFORMAT_BEGIN
 90
        5
170
     1
 91
        0
 92
    32768
 62
   257
 93
        1
300
CONTENTFORMAT
  1
CONTENTFORMAT_BEGIN
 90
        0
 91
        0
 92
        4
 93
        0
300

 40
0.0
140
1.0
 94
        5
 62
     0
340
11
144
0.25
309
CONTENTFORMAT_END
171
     1
301
MARGIN
  1
CELLMARGIN_BEGIN
 40
0.06
 40
0.06
 40
0.06
 40
0.06
 40
0.06
 40
0.06
309
CELLMARGIN_END
 94
        6
 95
        1
302
GRIDFORMAT
  1
GRIDFORMAT_BEGIN
 90
        0
 91
        1
 62
     0
 92
       -2
340
14
 93
        0
 40
0.045
309
GRIDFORMAT_END
 95
        2
302
GRIDFORMAT
  1
GRIDFORMAT_BEGIN
 90
        0
 91
        1
 62
     0
 92
       -2
340
14
 93
        0
 40
0.045
309
GRIDFORMAT_END
 95
        4
302
GRIDFORMAT
  1
GRIDFORMAT_BEGIN
 90
        0
 91
        1
 62
     0
 92
       -2
340
14
 93
        0
 40
0.045
309
GRIDFORMAT_END
 95
        8
302
GRIDFORMAT
  1
GRIDFORMAT_BEGIN
 90
        0
 91
        1
 62
     0
 92
       -2
340
14
 93
        0
 40
0.045
309
GRIDFORMAT_END
 95
       16
302
GRIDFORMAT
  1
GRIDFORMAT_BEGIN
 90
        0
 91
        1
 62
     0
 92
       -2
340
14
 93
        0
 40
0.045
309
GRIDFORMAT_END
 95
       32
302
GRIDFORMAT
  1
GRIDFORMAT_BEGIN
 90
        0
 91
        1
 62
     0
 92
       -2
340
14
 93
        0
 40
0.045
309
GRIDFORMAT_END
309
TABLEFORMAT_END
  1
CELLSTYLE_BEGIN
 90
        1
 91
        1
300
_TITLE
309
CELLSTYLE_END
300
CELLSTYLE
  1
TABLEFORMAT_BEGIN
 90
        5
170
     1
 91
        0
 92
        0
 62
   257
 93
        1
300
CONTENTFORMAT
  1
CONTENTFORMAT_BEGIN
 90
        0
 91
        0
 92
        4
 93
        0
300

 40
0.0
140
1.0
 94
        5
 62
     0
340
11
144
0.18
309
CONTENTFORMAT_END
171
     1
301
MARGIN
  1
CELLMARGIN_BEGIN
 40
0.06
 40
0.06
 40
0.06
 40
0.06
 40
0.06
 40
0.06
309
CELLMARGIN_END
 94
        6
 95
        1
302
GRIDFORMAT
  1
GRIDFORMAT_BEGIN
 90
        0
 91
        1
 62
     0
 92
       -2
340
14
 93
        0
 40
0.045
309
GRIDFORMAT_END
 95
        2
302
GRIDFORMAT
  1
GRIDFORMAT_BEGIN
 90
        0
 91
        1
 62
     0
 92
       -2
340
14
 93
        0
 40
0.045
309
GRIDFORMAT_END
 95
        4
302
GRIDFORMAT
  1
GRIDFORMAT_BEGIN
 90
        0
 91
        1
 62
     0
 92
       -2
340
14
 93
        0
 40
0.045
309
GRIDFORMAT_END
 95
        8
302
GRIDFORMAT
  1
GRIDFORMAT_BEGIN
 90
        0
 91
        1
 62
     0
 92
       -2
340
14
 93
        0
 40
0.045
309
GRIDFORMAT_END
 95
       16
302
GRIDFORMAT
  1
GRIDFORMAT_BEGIN
 90
        0
 91
        1
 62
     0
 92
       -2
340
14
 93
        0
 40
0.045
309
GRIDFORMAT_END
 95
       32
302
GRIDFORMAT
  1
GRIDFORMAT_BEGIN
 90
        0
 91
        1
 62
     0
 92
       -2
340
14
 93
        0
 40
0.045
309
GRIDFORMAT_END
309
TABLEFORMAT_END
  1
CELLSTYLE_BEGIN
 90
        2
 91
        1
300
_HEADER
309
CELLSTYLE_END
300
CELLSTYLE
  1
TABLEFORMAT_BEGIN
 90
        5
170
     1
 91
        0
 92
        0
 62
   257
 93
        1
300
CONTENTFORMAT
  1
CONTENTFORMAT_BEGIN
 90
        0
 91
        0
 92
        4
 93
        0
300

 40
0.0
140
1.0
 94
        2
 62
     0
340
11
144
0.18
309
CONTENTFORMAT_END
171
     1
301
MARGIN
  1
CELLMARGIN_BEGIN
 40
0.06
 40
0.06
 40
0.06
 40
0.06
 40
0.06
 40
0.06
309
CELLMARGIN_END
 94
        6
 95
        1
302
GRIDFORMAT
  1
GRIDFORMAT_BEGIN
 90
        0
 91
        1
 62
     0
 92
       -2
340
14
 93
        0
 40
0.045
309
GRIDFORMAT_END
 95
        2
302
GRIDFORMAT
  1
GRIDFORMAT_BEGIN
 90
        0
 91
        1
 62
     0
 92
       -2
340
14
 93
        0
 40
0.045
309
GRIDFORMAT_END
 95
        4
302
GRIDFORMAT
  1
GRIDFORMAT_BEGIN
 90
        0
 91
        1
 62
     0
 92
       -2
340
14
 93
        0
 40
0.045
309
GRIDFORMAT_END
 95
        8
302
GRIDFORMAT
  1
GRIDFORMAT_BEGIN
 90
        0
 91
        1
 62
     0
 92
       -2
340
14
 93
        0
 40
0.045
309
GRIDFORMAT_END
 95
       16
302
GRIDFORMAT
  1
GRIDFORMAT_BEGIN
 90
        0
 91
        1
 62
     0
 92
       -2
340
14
 93
        0
 40
0.045
309
GRIDFORMAT_END
 95
       32
302
GRIDFORMAT
  1
GRIDFORMAT_BEGIN
 90
        0
 91
        1
 62
     0
 92
       -2
340
14
 93
        0
 40
0.045
309
GRIDFORMAT_END
309
TABLEFORMAT_END
  1
CELLSTYLE_BEGIN
 90
        3
 91
        2
300
_DATA
309
CELLSTYLE_END
  0
ENDSEC
  0
EOF