0
SECTION
  2
HEADER
  9
$ACADVER
  1
AC1027
  9
$ACADMAINTVER
 70
   105
  9
$DWGCODEPAGE
  3
ANSI_1252
  9
$REQUIREDVERSIONS
160
                 0
  9
$COMMENTS
  1
File was created by Cadenas
  9
$CUSTOMPROPERTYTAG
  1
NN
  9
$CUSTOMPROPERTY
  1
Imperial - IP Pillow Block 4-Bolt Labyrinth Seal
  9
$CUSTOMPROPERTYTAG
  1
NT
  9
$CUSTOMPROPERTY
  1
Imperial 4 Bolt Square Flange Bearings
  9
$CUSTOMPROPERTYTAG
  1
NB
  9
$CUSTOMPROPERTY
  1
069791
  9
$CUSTOMPROPERTYTAG
  1
NBSYN
  9
$CUSTOMPROPERTY
  1
$PN.
  9
$CUSTOMPROPERTYTAG
  1
LINA
  9
$CUSTOMPROPERTY
  1
069791
  9
$CUSTOMPROPERTYTAG
  1
SS
  9
$CUSTOMPROPERTY
  1
2-3/8
  9
$CUSTOMPROPERTYTAG
  1
PN
  9
$CUSTOMPROPERTY
  1
069791
  9
$CUSTOMPROPERTYTAG
  1
DESCRIPTION
  9
$CUSTOMPROPERTY
  1
F4S-IP-206LE
  9
$CUSTOMPROPERTYTAG
  1
EF
  9
$CUSTOMPROPERTY
  1
Expansion Type
  9
$CUSTOMPROPERTYTAG
  1
ST
  9
$CUSTOMPROPERTY
  1
Labyrinth Seal
  9
$CUSTOMPROPERTYTAG
  1
A
  9
$CUSTOMPROPERTY
  1
3-27/64
  9
$CUSTOMPROPERTYTAG
  1
B
  9
$CUSTOMPROPERTY
  1
6-1/8
  9
$CUSTOMPROPERTYTAG
  1
C
  9
$CUSTOMPROPERTY
  1
3-47/64
  9
$CUSTOMPROPERTYTAG
  1
D
  9
$CUSTOMPROPERTY
  1
4-25/32
  9
$CUSTOMPROPERTYTAG
  1
F
  9
$CUSTOMPROPERTY
  1
5/8
  9
$CUSTOMPROPERTYTAG
  1
G
  9
$CUSTOMPROPERTY
  1
1-23/64
  9
$CUSTOMPROPERTYTAG
  1
H
  9
$CUSTOMPROPERTY
  1
41/64
  9
$CUSTOMPROPERTYTAG
  1
J
  9
$CUSTOMPROPERTY
  1
5-5/8
  9
$CUSTOMPROPERTYTAG
  1
K
  9
$CUSTOMPROPERTY
  1
6-3/4
  9
$CUSTOMPROPERTYTAG
  1
L
  9
$CUSTOMPROPERTY
  1
3-7/8
  9
$CUSTOMPROPERTYTAG
  1
N
  9
$CUSTOMPROPERTY
  1
3-13/32
  9
$CUSTOMPROPERTYTAG
  1
P
  9
$CUSTOMPROPERTY
  1
5/16
  9
$CUSTOMPROPERTYTAG
  1
X
  9
$CUSTOMPROPERTY
  1
1/4
  9
$CUSTOMPROPERTYTAG
  1
Y
  9
$CUSTOMPROPERTY
  1
0.025
  9
$CUSTOMPROPERTYTAG
  1
Z
  9
$CUSTOMPROPERTY
  1
2-15/16
  9
$CUSTOMPROPERTYTAG
  1
COMPANY
  9
$CUSTOMPROPERTY
  1
baldor
  9
$INSBASE
 10
0.0
 20
0.0
 30
0.0
  9
$EXTMIN
 10
1.000000000000000E+20
 20
1.000000000000000E+20
 30
1.000000000000000E+20
  9
$EXTMAX
 10
-1.000000000000000E+20
 20
-1.000000000000000E+20
 30
-1.000000000000000E+20
  9
$LIMMIN
 10
0.0
 20
0.0
  9
$LIMMAX
 10
12.0
 20
9.0
  9
$ORTHOMODE
 70
     0
  9
$REGENMODE
 70
     1
  9
$FILLMODE
 70
     1
  9
$QTEXTMODE
 70
     0
  9
$MIRRTEXT
 70
     1
  9
$LTSCALE
 40
1.0
  9
$ATTMODE
 70
     1
  9
$TEXTSIZE
 40
0.2
  9
$TRACEWID
 40
0.05
  9
$TEXTSTYLE
  7
Standard
  9
$CLAYER
  8
0
  9
$CELTYPE
  6
ByLayer
  9
$CECOLOR
 62
   256
  9
$CELTSCALE
 40
1.0
  9
$DISPSILH
 70
     0
  9
$DIMSCALE
 40
1.0
  9
$DIMASZ
 40
0.18
  9
$DIMEXO
 40
0.0625
  9
$DIMDLI
 40
0.38
  9
$DIMRND
 40
0.0
  9
$DIMDLE
 40
0.0
  9
$DIMEXE
 40
0.18
  9
$DIMTP
 40
0.0
  9
$DIMTM
 40
0.0
  9
$DIMTXT
 40
0.18
  9
$DIMCEN
 40
0.09
  9
$DIMTSZ
 40
0.0
  9
$DIMTOL
 70
     0
  9
$DIMLIM
 70
     0
  9
$DIMTIH
 70
     1
  9
$DIMTOH
 70
     1
  9
$DIMSE1
 70
     0
  9
$DIMSE2
 70
     0
  9
$DIMTAD
 70
     0
  9
$DIMZIN
 70
     0
  9
$DIMBLK
  1

  9
$DIMASO
 70
     1
  9
$DIMSHO
 70
     1
  9
$DIMPOST
  1

  9
$DIMAPOST
  1

  9
$DIMALT
 70
     0
  9
$DIMALTD
 70
     2
  9
$DIMALTF
 40
25.4
  9
$DIMLFAC
 40
1.0
  9
$DIMTOFL
 70
     0
  9
$DIMTVP
 40
0.0
  9
$DIMTIX
 70
     0
  9
$DIMSOXD
 70
     0
  9
$DIMSAH
 70
     0
  9
$DIMBLK1
  1

  9
$DIMBLK2
  1

  9
$DIMSTYLE
  2
Standard
  9
$DIMCLRD
 70
     0
  9
$DIMCLRE
 70
     0
  9
$DIMCLRT
 70
     0
  9
$DIMTFAC
 40
1.0
  9
$DIMGAP
 40
0.09
  9
$DIMJUST
 70
     0
  9
$DIMSD1
 70
     0
  9
$DIMSD2
 70
     0
  9
$DIMTOLJ
 70
     1
  9
$DIMTZIN
 70
     0
  9
$DIMALTZ
 70
     0
  9
$DIMALTTZ
 70
     0
  9
$DIMUPT
 70
     0
  9
$DIMDEC
 70
     4
  9
$DIMTDEC
 70
     4
  9
$DIMALTU
 70
     2
  9
$DIMALTTD
 70
     2
  9
$DIMTXSTY
  7
Standard
  9
$DIMAUNIT
 70
     0
  9
$DIMADEC
 70
     0
  9
$DIMALTRND
 40
0.0
  9
$DIMAZIN
 70
     0
  9
$DIMDSEP
 70
    46
  9
$DIMATFIT
 70
     3
  9
$DIMFRAC
 70
     0
  9
$DIMLDRBLK
  1

  9
$DIMLUNIT
 70
     2
  9
$DIMLWD
 70
    -2
  9
$DIMLWE
 70
    -2
  9
$DIMTMOVE
 70
     0
  9
$DIMFXL
 40
1.0
  9
$DIMFXLON
 70
     0
  9
$DIMJOGANG
 40
0.7853981633974483
  9
$DIMTFILL
 70
     0
  9
$DIMTFILLCLR
 70
     0
  9
$DIMARCSYM
 70
     0
  9
$DIMLTYPE
  6

  9
$DIMLTEX1
  6

  9
$DIMLTEX2
  6

  9
$DIMTXTDIRECTION
 70
     0
  9
$LUNITS
 70
     2
  9
$LUPREC
 70
     4
  9
$SKETCHINC
 40
0.1
  9
$FILLETRAD
 40
0.5
  9
$AUNITS
 70
     0
  9
$AUPREC
 70
     0
  9
$MENU
  1
.
  9
$ELEVATION
 40
0.0
  9
$PELEVATION
 40
0.0
  9
$THICKNESS
 40
0.0
  9
$LIMCHECK
 70
     0
  9
$CHAMFERA
 40
0.0
  9
$CHAMFERB
 40
0.0
  9
$CHAMFERC
 40
0.0
  9
$CHAMFERD
 40
0.0
  9
$SKPOLY
 70
     0
  9
$TDCREATE
 40
2458168.990581864
  9
$TDUCREATE
 40
2458168.948915197
  9
$TDUPDATE
 40
2458168.990582037
  9
$TDUUPDATE
 40
2458168.94891537
  9
$TDINDWG
 40
0.0000000116
  9
$TDUSRTIMER
 40
0.0000000116
  9
$USRTIMER
 70
     1
  9
$ANGBASE
 50
0.0
  9
$ANGDIR
 70
     0
  9
$PDMODE
 70
     0
  9
$PDSIZE
 40
0.0
  9
$PLINEWID
 40
0.0
  9
$SPLFRAME
 70
     0
  9
$SPLINETYPE
 70
     6
  9
$SPLINESEGS
 70
     8
  9
$HANDSEED
  5
234
  9
$SURFTAB1
 70
     6
  9
$SURFTAB2
 70
     6
  9
$SURFTYPE
 70
     6
  9
$SURFU
 70
     6
  9
$SURFV
 70
     6
  9
$UCSBASE
  2

  9
$UCSNAME
  2

  9
$UCSORG
 10
0.0
 20
0.0
 30
0.0
  9
$UCSXDIR
 10
1.0
 20
0.0
 30
0.0
  9
$UCSYDIR
 10
0.0
 20
1.0
 30
0.0
  9
$UCSORTHOREF
  2

  9
$UCSORTHOVIEW
 70
     0
  9
$UCSORGTOP
 10
0.0
 20
0.0
 30
0.0
  9
$UCSORGBOTTOM
 10
0.0
 20
0.0
 30
0.0
  9
$UCSORGLEFT
 10
0.0
 20
0.0
 30
0.0
  9
$UCSORGRIGHT
 10
0.0
 20
0.0
 30
0.0
  9
$UCSORGFRONT
 10
0.0
 20
0.0
 30
0.0
  9
$UCSORGBACK
 10
0.0
 20
0.0
 30
0.0
  9
$PUCSBASE
  2

  9
$PUCSNAME
  2

  9
$PUCSORG
 10
0.0
 20
0.0
 30
0.0
  9
$PUCSXDIR
 10
1.0
 20
0.0
 30
0.0
  9
$PUCSYDIR
 10
0.0
 20
1.0
 30
0.0
  9
$PUCSORTHOREF
  2

  9
$PUCSORTHOVIEW
 70
     0
  9
$PUCSORGTOP
 10
0.0
 20
0.0
 30
0.0
  9
$PUCSORGBOTTOM
 10
0.0
 20
0.0
 30
0.0
  9
$PUCSORGLEFT
 10
0.0
 20
0.0
 30
0.0
  9
$PUCSORGRIGHT
 10
0.0
 20
0.0
 30
0.0
  9
$PUCSORGFRONT
 10
0.0
 20
0.0
 30
0.0
  9
$PUCSORGBACK
 10
0.0
 20
0.0
 30
0.0
  9
$USERI1
 70
     0
  9
$USERI2
 70
     0
  9
$USERI3
 70
     0
  9
$USERI4
 70
     0
  9
$USERI5
 70
     0
  9
$USERR1
 40
0.0
  9
$USERR2
 40
0.0
  9
$USERR3
 40
0.0
  9
$USERR4
 40
0.0
  9
$USERR5
 40
0.0
  9
$WORLDVIEW
 70
     1
  9
$SHADEDGE
 70
     3
  9
$SHADEDIF
 70
    70
  9
$TILEMODE
 70
     1
  9
$MAXACTVP
 70
    64
  9
$PINSBASE
 10
0.0
 20
0.0
 30
0.0
  9
$PLIMCHECK
 70
     0
  9
$PEXTMIN
 10
1.000000000000000E+20
 20
1.000000000000000E+20
 30
1.000000000000000E+20
  9
$PEXTMAX
 10
-1.000000000000000E+20
 20
-1.000000000000000E+20
 30
-1.000000000000000E+20
  9
$PLIMMIN
 10
0.0
 20
0.0
  9
$PLIMMAX
 10
12.0
 20
9.0
  9
$UNITMODE
 70
     0
  9
$VISRETAIN
 70
     1
  9
$PLINEGEN
 70
     0
  9
$PSLTSCALE
 70
     1
  9
$TREEDEPTH
 70
  3020
  9
$CMLSTYLE
  2
Standard
  9
$CMLJUST
 70
     0
  9
$CMLSCALE
 40
1.0
  9
$PROXYGRAPHICS
 70
     1
  9
$MEASUREMENT
 70
     0
  9
$CELWEIGHT
370
    -1
  9
$ENDCAPS
280
     0
  9
$JOINSTYLE
280
     0
  9
$LWDISPLAY
290
     0
  9
$INSUNITS
 70
     1
  9
$HYPERLINKBASE
  1

  9
$STYLESHEET
  1

  9
$XEDIT
290
     1
  9
$CEPSNTYPE
380
     0
  9
$PSTYLEMODE
290
     1
  9
$FINGERPRINTGUID
  2
{88E00535-A3A4-4053-90AC-87C304E8A70A}
  9
$VERSIONGUID
  2
{FAEB1C32-E019-11D5-929B-00C0DF256EC4}
  9
$EXTNAMES
290
     1
  9
$PSVPSCALE
 40
0.0
  9
$OLESTARTUP
290
     0
  9
$SORTENTS
280
   127
  9
$INDEXCTL
280
     0
  9
$HIDETEXT
280
     1
  9
$XCLIPFRAME
280
     2
  9
$HALOGAP
280
     0
  9
$OBSCOLOR
 70
   257
  9
$OBSLTYPE
280
     0
  9
$INTERSECTIONDISPLAY
280
     0
  9
$INTERSECTIONCOLOR
 70
   257
  9
$DIMASSOC
280
     2
  9
$PROJECTNAME
  1

  9
$CAMERADISPLAY
290
     0
  9
$LENSLENGTH
 40
50.0
  9
$CAMERAHEIGHT
 40
0.0
  9
$STEPSPERSEC
 40
2.0
  9
$STEPSIZE
 40
6.0
  9
$3DDWFPREC
 40
2.0
  9
$PSOLWIDTH
 40
0.25
  9
$PSOLHEIGHT
 40
4.0
  9
$LOFTANG1
 40
1.570796326794897
  9
$LOFTANG2
 40
1.570796326794897
  9
$LOFTMAG1
 40
0.0
  9
$LOFTMAG2
 40
0.0
  9
$LOFTPARAM
 70
     7
  9
$LOFTNORMALS
280
     1
  9
$LATITUDE
 40
37.795
  9
$LONGITUDE
 40
-122.394
  9
$NORTHDIRECTION
 40
0.0
  9
$TIMEZONE
 70
 -8000
  9
$LIGHTGLYPHDISPLAY
280
     1
  9
$TILEMODELIGHTSYNCH
280
     1
  9
$CMATERIAL
347
44
  9
$SOLIDHIST
280
     0
  9
$SHOWHIST
280
     1
  9
$DWFFRAME
280
     2
  9
$DGNFRAME
280
     2
  9
$REALWORLDSCALE
290
     1
  9
$INTERFERECOLOR
 62
   256
  9
$CSHADOW
280
     0
  9
$SHADOWPLANELOCATION
 40
0.0
  0
ENDSEC
  0
SECTION
  2
CLASSES
  0
CLASS
  1
ACDBDICTIONARYWDFLT
  2
AcDbDictionaryWithDefault
  3
ObjectDBX Classes
 90
        0
 91
        4
280
     0
281
     0
  0
CLASS
  1
VISUALSTYLE
  2
AcDbVisualStyle
  3
ObjectDBX Classes
 90
     4095
 91
        4
280
     0
281
     0
  0
CLASS
  1
MATERIAL
  2
AcDbMaterial
  3
ObjectDBX Classes
 90
     1153
 91
        4
280
     0
281
     0
  0
CLASS
  1
SCALE
  2
AcDbScale
  3
ObjectDBX Classes
 90
     1153
 91
        4
280
     0
281
     0
  0
CLASS
  1
TABLESTYLE
  2
AcDbTableStyle
  3
ObjectDBX Classes
 90
     4095
 91
        4
280
     0
281
     0
  0
CLASS
  1
MLEADERSTYLE
  2
AcDbMLeaderStyle
  3
ACDB_MLEADERSTYLE_CLASS
 90
     4095
 91
        4
280
     0
281
     0
  0
CLASS
  1
SUN
  2
AcDbSun
  3
SCENEOE
 90
     1153
 91
        4
280
     0
281
     0
  0
CLASS
  1
DICTIONARYVAR
  2
AcDbDictionaryVar
  3
ObjectDBX Classes
 90
        0
 91
        4
280
     0
281
     0
  0
CLASS
  1
CELLSTYLEMAP
  2
AcDbCellStyleMap
  3
ObjectDBX Classes
 90
     1152
 91
        4
280
     0
281
     0
  0
ENDSEC
  0
SECTION
  2
TABLES
  0
TABLE
  2
VPORT
  5
8
330
0
100
AcDbSymbolTable
 70
     1
  0
VPORT
  5
29
330
8
100
AcDbSymbolTableRecord
100
AcDbViewportTableRecord
  2
*Active
 70
     0
 10
0.0
 20
0.0
 11
1.0
 21
1.0
 12
3.022952008943568
 22
-2.6805
 13
0.0
 23
0.0
 14
0.5
 24
0.5
 15
0.5
 25
0.5
 16
0.0
 26
0.0
 36
1.0
 17
0.0
 27
0.0
 37
0.0
 40
13.26
 41
1.039588770606703
 42
50.0
 43
0.0
 44
0.0
 50
0.0
 51
0.0
 71
     0
 72
   100
 73
     1
 74
     3
 75
     0
 76
     0
 77
     0
 78
     0
281
     0
 65
     1
110
0.0
120
0.0
130
0.0
111
1.0
121
0.0
131
0.0
112
0.0
122
1.0
132
0.0
 79
     0
146
0.0
348
2F
 60
     3
 61
     5
292
     1
282
     1
141
0.0
142
0.0
 63
   250
361
6D
  0
ENDTAB
  0
TABLE
  2
LTYPE
  5
5
330
0
100
AcDbSymbolTable
 70
     3
  0
LTYPE
  5
14
330
5
100
AcDbSymbolTableRecord
100
AcDbLinetypeTableRecord
  2
ByBlock
 70
     0
  3

 72
    65
 73
     0
 40
0.0
  0
LTYPE
  5
15
330
5
100
AcDbSymbolTableRecord
100
AcDbLinetypeTableRecord
  2
ByLayer
 70
     0
  3

 72
    65
 73
     0
 40
0.0
  0
LTYPE
  5
16
330
5
100
AcDbSymbolTableRecord
100
AcDbLinetypeTableRecord
  2
Continuous
 70
     0
  3
Solid line
 72
    65
 73
     0
 40
0.0
  0
LTYPE
  5
99
330
5
100
AcDbSymbolTableRecord
100
AcDbLinetypeTableRecord
  2
Dashed
 70
     0
  3

 72
    65
 73
     2
 40
2.0
 49
1.0
 74
     0
 49
-1.0
 74
     0
  0
LTYPE
  5
17B
330
5
100
AcDbSymbolTableRecord
100
AcDbLinetypeTableRecord
  2
Center
 70
     0
  3

 72
    65
 73
     4
 40
1.5
 49
0.45
 74
     0
 49
-0.5
 74
     0
 49
0.05
 74
     0
 49
-0.5
 74
     0
  0
ENDTAB
  0
TABLE
  2
LAYER
  5
2
330
0
100
AcDbSymbolTable
 70
     8
  0
LAYER
  5
10
330
2
100
AcDbSymbolTableRecord
100
AcDbLayerTableRecord
  2
0
 70
     0
 62
     7
  6
Continuous
370
    -3
390
F
347
46
348
0
  0
LAYER
  5
6E
330
2
100
AcDbSymbolTableRecord
100
AcDbLayerTableRecord
  2
AM_6
 70
     0
 62
    -2
  6
Continuous
370
    35
390
F
347
46
348
0
  0
LAYER
  5
9A
330
2
100
AcDbSymbolTableRecord
100
AcDbLayerTableRecord
  2
AM_9
 70
     0
 62
     6
  6
Dashed
370
    25
390
F
347
46
348
0
  0
LAYER
  5
A6
330
2
100
AcDbSymbolTableRecord
100
AcDbLayerTableRecord
  2
AM_5
 70
     0
 62
     3
  6
Continuous
370
    25
390
F
347
46
348
0
  0
LAYER
  5
AA
330
2
100
AcDbSymbolTableRecord
100
AcDbLayerTableRecord
  2
AM_0
 70
     0
 62
     7
  6
Continuous
370
    50
390
F
347
46
348
0
  0
LAYER
  5
AE
330
2
100
AcDbSymbolTableRecord
100
AcDbLayerTableRecord
  2
AM_4
 70
     0
 62
     3
  6
Continuous
370
    25
390
F
347
46
348
0
  0
LAYER
  5
17C
330
2
100
AcDbSymbolTableRecord
100
AcDbLayerTableRecord
  2
AM_7
 70
     0
 62
     7
  6
Center
370
    25
390
F
347
46
348
0
  0
LAYER
  5
21D
330
2
100
AcDbSymbolTableRecord
100
AcDbLayerTableRecord
  2
ConnectionPoints
 70
     0
 62
     7
  6
Continuous
370
    50
390
F
347
46
348
0
  0
ENDTAB
  0
TABLE
  2
STYLE
  5
3
330
0
100
AcDbSymbolTable
 70
     1
  0
STYLE
  5
11
330
3
100
AcDbSymbolTableRecord
100
AcDbTextStyleTableRecord
  2
Standard
 70
     0
 40
0.0
 41
1.0
 50
0.0
 71
     0
 42
0.2
  3
txt
  4

  0
ENDTAB
  0
TABLE
  2
VIEW
  5
6
330
0
100
AcDbSymbolTable
 70
     0
  0
ENDTAB
  0
TABLE
  2
UCS
  5
7
330
0
100
AcDbSymbolTable
 70
     0
  0
ENDTAB
  0
TABLE
  2
APPID
  5
9
330
0
100
AcDbSymbolTable
 70
     1
  0
APPID
  5
12
330
9
100
AcDbSymbolTableRecord
100
AcDbRegAppTableRecord
  2
ACAD
 70
     0
  0
ENDTAB
  0
TABLE
  2
DIMSTYLE
  5
A
330
0
100
AcDbSymbolTable
 70
     1
100
AcDbDimStyleTable
  0
DIMSTYLE
105
27
330
A
100
AcDbSymbolTableRecord
100
AcDbDimStyleTableRecord
  2
Standard
 70
     0
178
     0
340
11
  0
ENDTAB
  0
TABLE
  2
BLOCK_RECORD
  5
1
330
0
100
AcDbSymbolTable
 70
     7
  0
BLOCK_RECORD
  5
1F
330
1
100
AcDbSymbolTableRecord
100
AcDbBlockTableRecord
  2
*Model_Space
340
22
 70
     0
280
     1
281
     0
  0
BLOCK_RECORD
  5
1B
330
1
100
AcDbSymbolTableRecord
100
AcDbBlockTableRecord
  2
*Paper_Space
340
1E
 70
     0
280
     1
281
     0
  0
BLOCK_RECORD
  5
23
330
1
100
AcDbSymbolTableRecord
100
AcDbBlockTableRecord
  2
*Paper_Space0
340
26
 70
     0
280
     1
281
     0
  0
BLOCK_RECORD
  5
89
330
1
100
AcDbSymbolTableRecord
100
AcDbBlockTableRecord
  2
1_ASME_B18_3_10_1_0_in_069791_2
340
0
102
{BLKREFS
331
8A
102
}
 70
     0
280
     1
281
     0
  0
BLOCK_RECORD
  5
B2
330
1
100
AcDbSymbolTableRecord
100
AcDbBlockTableRecord
  2
2_ASME_B18_3_10_2_0_in_069791_2
340
0
102
{BLKREFS
331
B3
102
}
 70
     0
280
     1
281
     0
  0
BLOCK_RECORD
  5
D6
330
1
100
AcDbSymbolTableRecord
100
AcDbBlockTableRecord
  2
3_070894LW_0_in_069791_2
340
0
102
{BLKREFS
331
D7
102
}
 70
     0
280
     1
281
     0
  0
BLOCK_RECORD
  5
10C
330
1
100
AcDbSymbolTableRecord
100
AcDbBlockTableRecord
  2
4_070926I_0_in_069791_2
340
0
102
{BLKREFS
331
10D
102
}
 70
     0
280
     1
281
     0
  0
BLOCK_RECORD
  5
195
330
1
100
AcDbSymbolTableRecord
100
AcDbBlockTableRecord
  2
5_405015E_Inch_0_in_069791_2
340
0
102
{BLKREFS
331
196
102
}
 70
     0
280
     1
281
     0
  0
BLOCK_RECORD
  5
1D4
330
1
100
AcDbSymbolTableRecord
100
AcDbBlockTableRecord
  2
6_069791H_0_in_069791_2
340
0
102
{BLKREFS
331
1D5
102
}
 70
     0
280
     1
281
     0
  0
ENDTAB
  0
ENDSEC
  0
SECTION
  2
BLOCKS
  0
BLOCK
  5
20
330
1F
100
AcDbEntity
  8
0
100
AcDbBlockBegin
  2
*Model_Space
 70
     0
 10
0.0
 20
0.0
 30
0.0
  3
*Model_Space
  1

  0
ENDBLK
  5
21
330
1F
100
AcDbEntity
  8
0
100
AcDbBlockEnd
  0
BLOCK
  5
1C
330
1B
100
AcDbEntity
 67
     1
  8
0
100
AcDbBlockBegin
  2
*Paper_Space
 70
     0
 10
0.0
 20
0.0
 30
0.0
  3
*Paper_Space
  1

  0
ENDBLK
  5
1D
330
1B
100
AcDbEntity
 67
     1
  8
0
100
AcDbBlockEnd
  0
BLOCK
  5
24
330
23
100
AcDbEntity
  8
0
100
AcDbBlockBegin
  2
*Paper_Space0
 70
     0
 10
0.0
 20
0.0
 30
0.0
  3
*Paper_Space0
  1

  0
ENDBLK
  5
25
330
23
100
AcDbEntity
  8
0
100
AcDbBlockEnd
  0
BLOCK
  5
8B
330
89
100
AcDbEntity
  8
0
100
AcDbBlockBegin
  2
1_ASME_B18_3_10_1_0_in_069791_2
 70
     2
 10
0.0
 20
0.0
 30
0.0
  3
1_ASME_B18_3_10_1_0_in_069791_2
  1

  0
ATTDEF
  5
8D
330
89
100
AcDbEntity
  8
AM_6
100
AcDbText
 10
2.516958333333334
 20
-1.447972222222222
 30
0.0
 40
0.5
  1
ANSI/ASME B18.3-1998
100
AcDbAttributeDefinition
  3

  2
NN
 70
     8
280
     0
  0
ATTDEF
  5
8E
330
89
100
AcDbEntity
  8
AM_6
100
AcDbText
 10
2.516958333333334
 20
-1.947972222222222
 30
0.0
 40
0.5
  1
Socket Button Head Cap Screws
100
AcDbAttributeDefinition
  3

  2
NT
 70
     8
280
     0
  0
ATTDEF
  5
8F
330
89
100
AcDbEntity
  8
AM_6
100
AcDbText
 10
2.516958333333334
 20
-2.447972222222222
 30
0.0
 40
0.5
  1
ASME B18.3-10
100
AcDbAttributeDefinition
  3

  2
NB
 70
     8
280
     0
  0
ATTDEF
  5
90
330
89
100
AcDbEntity
  8
AM_6
100
AcDbText
 10
2.516958333333334
 20
-2.947972222222222
 30
0.0
 40
0.5
  1
ASME B18.3-$NS.
100
AcDbAttributeDefinition
  3

  2
NBSYN
 70
     8
280
     0
  0
ATTDEF
  5
91
330
89
100
AcDbEntity
  8
AM_6
100
AcDbText
 10
2.516958333333334
 20
-3.447972222222222
 30
0.0
 40
0.5
  1
ASME B18.3-10
100
AcDbAttributeDefinition
  3

  2
LINA
 70
     8
280
     0
  0
ATTDEF
  5
92
330
89
100
AcDbEntity
  8
AM_6
100
AcDbText
 10
2.516958333333334
 20
-3.947972222222222
 30
0.0
 40
0.5
  1
10
100
AcDbAttributeDefinition
  3

  2
NS
 70
     8
280
     0
  0
ATTDEF
  5
93
330
89
100
AcDbEntity
  8
AM_6
100
AcDbText
 10
2.516958333333334
 20
-4.447972222222223
 30
0.0
 40
0.5
  1
0.361
100
AcDbAttributeDefinition
  3

  2
A
 70
     8
280
     0
  0
ATTDEF
  5
94
330
89
100
AcDbEntity
  8
AM_6
100
AcDbText
 10
2.516958333333334
 20
-4.947972222222223
 30
0.0
 40
0.5
  1
0.101
100
AcDbAttributeDefinition
  3

  2
H
 70
     8
280
     0
  0
ATTDEF
  5
95
330
89
100
AcDbEntity
  8
AM_6
100
AcDbText
 10
2.516958333333334
 20
-5.447972222222223
 30
0.0
 40
0.5
  1
0.800
100
AcDbAttributeDefinition
  3

  2
L
 70
     8
280
     0
  0
ATTDEF
  5
96
330
89
100
AcDbEntity
  8
AM_6
100
AcDbText
 10
2.516958333333334
 20
-5.947972222222223
 30
0.0
 40
0.5
  1
0.020
100
AcDbAttributeDefinition
  3

  2
S
 70
     8
280
     0
  0
ATTDEF
  5
97
330
89
100
AcDbEntity
  8
AM_6
100
AcDbText
 10
2.516958333333334
 20
-6.447972222222223
 30
0.0
 40
0.5
  1
0.125000
100
AcDbAttributeDefinition
  3

  2
J
 70
     8
280
     0
  0
ATTDEF
  5
98
330
89
100
AcDbEntity
  8
AM_6
100
AcDbText
 10
2.516958333333334
 20
-6.947972222222223
 30
0.0
 40
0.5
  1
baldor
100
AcDbAttributeDefinition
  3

  2
COMPANY
 70
     8
280
     0
  0
LINE
  5
9B
330
89
100
AcDbEntity
  8
AM_9
 48
0.0020166291450385
100
AcDbLine
 10
-3.323041666666666
 20
-1.556303438573519
 30
0.0
 11
-3.384041666666666
 21
-1.556303438573519
 31
0.0
  0
LINE
  5
9C
330
89
100
AcDbEntity
  8
AM_9
 48
0.0020166291450385
100
AcDbLine
 10
-3.323041666666666
 20
-1.700641005870926
 30
0.0
 11
-3.384041666666666
 21
-1.700641005870926
 31
0.0
  0
LINE
  5
9D
330
89
100
AcDbEntity
  8
AM_9
 48
0.0020166291450385
100
AcDbLine
 10
-3.323041666666666
 20
-1.556303438573519
 30
0.0
 11
-3.323041666666666
 21
-1.700641005870926
 31
0.0
  0
LINE
  5
9E
330
89
100
AcDbEntity
  8
AM_9
 48
0.0020166291450385
100
AcDbLine
 10
-3.323041666666666
 20
-1.592387830397871
 30
0.0
 11
-3.384041666666666
 21
-1.592387830397871
 31
0.0
  0
LINE
  5
9F
330
89
100
AcDbEntity
  8
AM_9
 48
0.0020166291450385
100
AcDbLine
 10
-3.323041666666666
 20
-1.664556614046574
 30
0.0
 11
-3.384041666666666
 21
-1.664556614046574
 31
0.0
  0
LINE
  5
A0
330
89
100
AcDbEntity
  8
AM_9
 48
0.0020166291450385
100
AcDbLine
 10
-2.483041666666666
 20
-1.552072222222222
 30
0.0
 11
-2.483041666666666
 21
-1.704872222222222
 31
0.0
  0
LINE
  5
A1
330
89
100
AcDbEntity
  8
AM_9
 48
0.0020166291450385
100
AcDbLine
 10
-2.483041666666666
 20
-1.552072222222222
 30
0.0
 11
-2.501641666666666
 21
-1.533472222222222
 31
0.0
  0
LINE
  5
A2
330
89
100
AcDbEntity
  8
AM_9
 48
0.0020166291450385
100
AcDbLine
 10
-2.501641666666666
 20
-1.723472222222222
 30
0.0
 11
-2.483041666666666
 21
-1.704872222222222
 31
0.0
  0
LINE
  5
A3
330
89
100
AcDbEntity
  8
AM_9
 48
0.0020166291450385
100
AcDbLine
 10
-2.501641666666666
 20
-1.533472222222222
 30
0.0
 11
-2.501641666666666
 21
-1.723472222222222
 31
0.0
  0
LINE
  5
A4
330
89
100
AcDbEntity
  8
AM_9
 48
0.0020166291450385
100
AcDbLine
 10
-3.283041666666666
 20
-1.723472222222222
 30
0.0
 11
-2.501641666666666
 21
-1.723472222222222
 31
0.0
  0
LINE
  5
A5
330
89
100
AcDbEntity
  8
AM_9
 48
0.0020166291450385
100
AcDbLine
 10
-2.501641666666666
 20
-1.533472222222222
 30
0.0
 11
-3.283041666666666
 21
-1.533472222222222
 31
0.0
  0
LINE
  5
A7
330
89
100
AcDbEntity
  8
AM_5
 48
0.0020166291450385
100
AcDbLine
 10
-3.203041666666666
 20
-1.704872222222222
 30
0.0
 11
-3.235257811687447
 21
-1.723472222222222
 31
0.0
  0
LINE
  5
A8
330
89
100
AcDbEntity
  8
AM_5
 48
0.0020166291450385
100
AcDbLine
 10
-3.203041666666666
 20
-1.533472222222222
 30
0.0
 11
-3.203041666666666
 21
-1.723472222222221
 31
0.0
  0
LINE
  5
A9
330
89
100
AcDbEntity
  8
AM_5
 48
0.0020166291450385
100
AcDbLine
 10
-3.203041666666666
 20
-1.552072222222222
 30
0.0
 11
-3.235257811687447
 21
-1.533472222222222
 31
0.0
  0
LINE
  5
AB
330
89
100
AcDbEntity
  8
AM_0
 48
0.0020166291450385
100
AcDbLine
 10
-3.384041666666666
 20
-1.528972222222222
 30
0.0
 11
-3.384041666666666
 21
-1.727972222222222
 31
0.0
  0
ARC
  5
AC
330
89
100
AcDbEntity
  8
AM_0
 48
0.0020166291450385
100
AcDbCircle
 10
-3.303041666666666
 20
-1.727972222222223
 30
0.0
 40
0.081
100
AcDbArc
 50
179.9999999999998
 51
270.0
  0
ARC
  5
AD
330
89
100
AcDbEntity
  8
AM_0
 48
0.0020166291450385
100
AcDbCircle
 10
-3.303041666666666
 20
-1.528972222222222
 30
0.0
 40
0.0809999999999995
100
AcDbArc
 50
90.0
 51
180.0000000000002
  0
LINE
  5
AF
330
89
100
AcDbEntity
  8
AM_4
 48
0.0020166291450385
100
AcDbLine
 10
-3.303041666666666
 20
-1.447972222222222
 30
0.0
 11
-3.303041666666666
 21
-1.808972222222222
 31
0.0
  0
LINE
  5
B0
330
89
100
AcDbEntity
  8
AM_0
 48
0.0020166291450385
100
AcDbLine
 10
-3.303041666666666
 20
-1.808972222222222
 30
0.0
 11
-3.283041666666666
 21
-1.808972222222222
 31
0.0
  0
LINE
  5
B1
330
89
100
AcDbEntity
  8
AM_0
 48
0.0020166291450385
100
AcDbLine
 10
-3.283041666666666
 20
-1.447972222222222
 30
0.0
 11
-3.303041666666666
 21
-1.447972222222222
 31
0.0
  0
ENDBLK
  5
8C
330
89
100
AcDbEntity
  8
0
100
AcDbBlockEnd
  0
BLOCK
  5
B4
330
B2
100
AcDbEntity
  8
0
100
AcDbBlockBegin
  2
2_ASME_B18_3_10_2_0_in_069791_2
 70
     2
 10
0.0
 20
0.0
 30
0.0
  3
2_ASME_B18_3_10_2_0_in_069791_2
  1

  0
ATTDEF
  5
B6
330
B2
100
AcDbEntity
  8
AM_6
100
AcDbText
 10
2.516958333333334
 20
1.808972222222222
 30
0.0
 40
0.5
  1
ANSI/ASME B18.3-1998
100
AcDbAttributeDefinition
  3

  2
NN
 70
     8
280
     0
  0
ATTDEF
  5
B7
330
B2
100
AcDbEntity
  8
AM_6
100
AcDbText
 10
2.516958333333334
 20
1.308972222222222
 30
0.0
 40
0.5
  1
Socket Button Head Cap Screws
100
AcDbAttributeDefinition
  3

  2
NT
 70
     8
280
     0
  0
ATTDEF
  5
B8
330
B2
100
AcDbEntity
  8
AM_6
100
AcDbText
 10
2.516958333333334
 20
0.8089722222222222
 30
0.0
 40
0.5
  1
ASME B18.3-10
100
AcDbAttributeDefinition
  3

  2
NB
 70
     8
280
     0
  0
ATTDEF
  5
B9
330
B2
100
AcDbEntity
  8
AM_6
100
AcDbText
 10
2.516958333333334
 20
0.3089722222222222
 30
0.0
 40
0.5
  1
ASME B18.3-$NS.
100
AcDbAttributeDefinition
  3

  2
NBSYN
 70
     8
280
     0
  0
ATTDEF
  5
BA
330
B2
100
AcDbEntity
  8
AM_6
100
AcDbText
 10
2.516958333333334
 20
-0.1910277777777778
 30
0.0
 40
0.5
  1
ASME B18.3-10
100
AcDbAttributeDefinition
  3

  2
LINA
 70
     8
280
     0
  0
ATTDEF
  5
BB
330
B2
100
AcDbEntity
  8
AM_6
100
AcDbText
 10
2.516958333333334
 20
-0.6910277777777778
 30
0.0
 40
0.5
  1
10
100
AcDbAttributeDefinition
  3

  2
NS
 70
     8
280
     0
  0
ATTDEF
  5
BC
330
B2
100
AcDbEntity
  8
AM_6
100
AcDbText
 10
2.516958333333334
 20
-1.191027777777778
 30
0.0
 40
0.5
  1
0.361
100
AcDbAttributeDefinition
  3

  2
A
 70
     8
280
     0
  0
ATTDEF
  5
BD
330
B2
100
AcDbEntity
  8
AM_6
100
AcDbText
 10
2.516958333333334
 20
-1.691027777777778
 30
0.0
 40
0.5
  1
0.101
100
AcDbAttributeDefinition
  3

  2
H
 70
     8
280
     0
  0
ATTDEF
  5
BE
330
B2
100
AcDbEntity
  8
AM_6
100
AcDbText
 10
2.516958333333334
 20
-2.191027777777778
 30
0.0
 40
0.5
  1
0.800
100
AcDbAttributeDefinition
  3

  2
L
 70
     8
280
     0
  0
ATTDEF
  5
BF
330
B2
100
AcDbEntity
  8
AM_6
100
AcDbText
 10
2.516958333333334
 20
-2.691027777777778
 30
0.0
 40
0.5
  1
0.020
100
AcDbAttributeDefinition
  3

  2
S
 70
     8
280
     0
  0
ATTDEF
  5
C0
330
B2
100
AcDbEntity
  8
AM_6
100
AcDbText
 10
2.516958333333334
 20
-3.191027777777778
 30
0.0
 40
0.5
  1
0.125000
100
AcDbAttributeDefinition
  3

  2
J
 70
     8
280
     0
  0
ATTDEF
  5
C1
330
B2
100
AcDbEntity
  8
AM_6
100
AcDbText
 10
2.516958333333334
 20
-3.691027777777778
 30
0.0
 40
0.5
  1
baldor
100
AcDbAttributeDefinition
  3

  2
COMPANY
 70
     8
280
     0
  0
LINE
  5
C2
330
B2
100
AcDbEntity
  8
AM_9
 48
0.0020166291450385
100
AcDbLine
 10
-3.323041666666666
 20
1.700641005870926
 30
0.0
 11
-3.384041666666666
 21
1.700641005870926
 31
0.0
  0
LINE
  5
C3
330
B2
100
AcDbEntity
  8
AM_9
 48
0.0020166291450385
100
AcDbLine
 10
-3.323041666666666
 20
1.556303438573519
 30
0.0
 11
-3.384041666666666
 21
1.556303438573519
 31
0.0
  0
LINE
  5
C4
330
B2
100
AcDbEntity
  8
AM_9
 48
0.0020166291450385
100
AcDbLine
 10
-3.323041666666666
 20
1.664556614046574
 30
0.0
 11
-3.384041666666666
 21
1.664556614046574
 31
0.0
  0
LINE
  5
C5
330
B2
100
AcDbEntity
  8
AM_9
 48
0.0020166291450385
100
AcDbLine
 10
-3.323041666666666
 20
1.700641005870926
 30
0.0
 11
-3.323041666666666
 21
1.556303438573519
 31
0.0
  0
LINE
  5
C6
330
B2
100
AcDbEntity
  8
AM_9
 48
0.0020166291450385
100
AcDbLine
 10
-3.323041666666666
 20
1.592387830397871
 30
0.0
 11
-3.384041666666666
 21
1.592387830397871
 31
0.0
  0
LINE
  5
C7
330
B2
100
AcDbEntity
  8
AM_9
 48
0.0020166291450385
100
AcDbLine
 10
-2.483041666666666
 20
1.704872222222222
 30
0.0
 11
-2.483041666666666
 21
1.552072222222222
 31
0.0
  0
LINE
  5
C8
330
B2
100
AcDbEntity
  8
AM_9
 48
0.0020166291450385
100
AcDbLine
 10
-2.483041666666666
 20
1.704872222222222
 30
0.0
 11
-2.501641666666666
 21
1.723472222222222
 31
0.0
  0
LINE
  5
C9
330
B2
100
AcDbEntity
  8
AM_9
 48
0.0020166291450385
100
AcDbLine
 10
-2.501641666666666
 20
1.533472222222222
 30
0.0
 11
-2.483041666666666
 21
1.552072222222222
 31
0.0
  0
LINE
  5
CA
330
B2
100
AcDbEntity
  8
AM_9
 48
0.0020166291450385
100
AcDbLine
 10
-2.501641666666666
 20
1.723472222222222
 30
0.0
 11
-2.501641666666666
 21
1.533472222222222
 31
0.0
  0
LINE
  5
CB
330
B2
100
AcDbEntity
  8
AM_9
 48
0.0020166291450385
100
AcDbLine
 10
-3.283041666666666
 20
1.533472222222222
 30
0.0
 11
-2.501641666666666
 21
1.533472222222222
 31
0.0
  0
LINE
  5
CC
330
B2
100
AcDbEntity
  8
AM_9
 48
0.0020166291450385
100
AcDbLine
 10
-2.501641666666666
 20
1.723472222222222
 30
0.0
 11
-3.283041666666666
 21
1.723472222222222
 31
0.0
  0
LINE
  5
CD
330
B2
100
AcDbEntity
  8
AM_5
 48
0.0020166291450385
100
AcDbLine
 10
-3.203041666666666
 20
1.552072222222222
 30
0.0
 11
-3.235257811687447
 21
1.533472222222222
 31
0.0
  0
LINE
  5
CE
330
B2
100
AcDbEntity
  8
AM_5
 48
0.0020166291450385
100
AcDbLine
 10
-3.203041666666666
 20
1.723472222222221
 30
0.0
 11
-3.203041666666666
 21
1.533472222222223
 31
0.0
  0
LINE
  5
CF
330
B2
100
AcDbEntity
  8
AM_5
 48
0.0020166291450385
100
AcDbLine
 10
-3.203041666666666
 20
1.704872222222222
 30
0.0
 11
-3.235257811687447
 21
1.723472222222222
 31
0.0
  0
LINE
  5
D0
330
B2
100
AcDbEntity
  8
AM_0
 48
0.0020166291450385
100
AcDbLine
 10
-3.384041666666666
 20
1.727972222222222
 30
0.0
 11
-3.384041666666666
 21
1.528972222222222
 31
0.0
  0
ARC
  5
D1
330
B2
100
AcDbEntity
  8
AM_0
 48
0.0020166291450385
100
AcDbCircle
 10
-3.303041666666666
 20
1.528972222222222
 30
0.0
 40
0.081
100
AcDbArc
 50
179.9999999999998
 51
270.0
  0
ARC
  5
D2
330
B2
100
AcDbEntity
  8
AM_0
 48
0.0020166291450385
100
AcDbCircle
 10
-3.303041666666666
 20
1.727972222222223
 30
0.0
 40
0.0809999999999995
100
AcDbArc
 50
90.0
 51
180.0000000000002
  0
LINE
  5
D3
330
B2
100
AcDbEntity
  8
AM_4
 48
0.0020166291450385
100
AcDbLine
 10
-3.303041666666666
 20
1.808972222222222
 30
0.0
 11
-3.303041666666666
 21
1.447972222222222
 31
0.0
  0
LINE
  5
D4
330
B2
100
AcDbEntity
  8
AM_0
 48
0.0020166291450385
100
AcDbLine
 10
-3.303041666666666
 20
1.447972222222222
 30
0.0
 11
-3.283041666666666
 21
1.447972222222222
 31
0.0
  0
LINE
  5
D5
330
B2
100
AcDbEntity
  8
AM_0
 48
0.0020166291450385
100
AcDbLine
 10
-3.283041666666666
 20
1.808972222222222
 30
0.0
 11
-3.303041666666666
 21
1.808972222222222
 31
0.0
  0
ENDBLK
  5
B5
330
B2
100
AcDbEntity
  8
0
100
AcDbBlockEnd
  0
BLOCK
  5
D8
330
D6
100
AcDbEntity
  8
0
100
AcDbBlockBegin
  2
3_070894LW_0_in_069791_2
 70
     2
 10
0.0
 20
0.0
 30
0.0
  3
3_070894LW_0_in_069791_2
  1

  0
ATTDEF
  5
DA
330
D6
100
AcDbEntity
  8
AM_6
100
AcDbText
 10
2.156958333333334
 20
1.9375
 30
0.0
 40
0.5
  1
Imperial Insert Lockwasher -Inch
100
AcDbAttributeDefinition
  3

  2
NN
 70
     8
280
     0
  0
ATTDEF
  5
DB
330
D6
100
AcDbEntity
  8
AM_6
100
AcDbText
 10
2.156958333333334
 20
1.4375
 30
0.0
 40
0.5
  1
Imperial Bearings
100
AcDbAttributeDefinition
  3

  2
NT
 70
     8
280
     0
  0
ATTDEF
  5
DC
330
D6
100
AcDbEntity
  8
AM_6
100
AcDbText
 10
2.156958333333334
 20
0.9375000000000002
 30
0.0
 40
0.5
  1
070894LW
100
AcDbAttributeDefinition
  3

  2
NB
 70
     8
280
     0
  0
ATTDEF
  5
DD
330
D6
100
AcDbEntity
  8
AM_6
100
AcDbText
 10
2.156958333333334
 20
0.4375000000000002
 30
0.0
 40
0.5
  1
$PN.LW
100
AcDbAttributeDefinition
  3

  2
NBSYN
 70
     8
280
     0
  0
ATTDEF
  5
DE
330
D6
100
AcDbEntity
  8
AM_6
100
AcDbText
 10
2.156958333333334
 20
-0.0624999999999998
 30
0.0
 40
0.5
  1
070894
100
AcDbAttributeDefinition
  3

  2
LINA
 70
     8
280
     0
  0
ATTDEF
  5
DF
330
D6
100
AcDbEntity
  8
AM_6
100
AcDbText
 10
2.156958333333334
 20
-0.5624999999999998
 30
0.0
 40
0.5
  1
2-3/8
100
AcDbAttributeDefinition
  3

  2
SS
 70
     8
280
     0
  0
ATTDEF
  5
E0
330
D6
100
AcDbEntity
  8
AM_6
100
AcDbText
 10
2.156958333333334
 20
-1.0625
 30
0.0
 40
0.5
  1
2.375000
100
AcDbAttributeDefinition
  3

  2
SS1
 70
     8
280
     0
  0
ATTDEF
  5
E1
330
D6
100
AcDbEntity
  8
AM_6
100
AcDbText
 10
2.156958333333334
 20
-1.5625
 30
0.0
 40
0.5
  1
070894
100
AcDbAttributeDefinition
  3

  2
PN
 70
     8
280
     0
  0
ATTDEF
  5
E2
330
D6
100
AcDbEntity
  8
AM_6
100
AcDbText
 10
2.156958333333334
 20
-2.0625
 30
0.0
 40
0.5
  1
INS-IP-206R
100
AcDbAttributeDefinition
  3

  2
DESCRIPTION
 70
     8
280
     0
  0
ATTDEF
  5
E3
330
D6
100
AcDbEntity
  8
AM_6
100
AcDbText
 10
2.156958333333334
 20
-2.5625
 30
0.0
 40
0.5
  1
4.7241
100
AcDbAttributeDefinition
  3

  2
A
 70
     8
280
     0
  0
ATTDEF
  5
E4
330
D6
100
AcDbEntity
  8
AM_6
100
AcDbText
 10
2.156958333333334
 20
-3.0625
 30
0.0
 40
0.5
  1
1-9/32
100
AcDbAttributeDefinition
  3

  2
B
 70
     8
280
     0
  0
ATTDEF
  5
E5
330
D6
100
AcDbEntity
  8
AM_6
100
AcDbText
 10
2.156958333333334
 20
-3.5625
 30
0.0
 40
0.5
  1
3-27/64
100
AcDbAttributeDefinition
  3

  2
C
 70
     8
280
     0
  0
ATTDEF
  5
E6
330
D6
100
AcDbEntity
  8
AM_6
100
AcDbText
 10
2.156958333333334
 20
-4.0625
 30
0.0
 40
0.5
  1
1.208
100
AcDbAttributeDefinition
  3

  2
D
 70
     8
280
     0
  0
ATTDEF
  5
E7
330
D6
100
AcDbEntity
  8
AM_6
100
AcDbText
 10
2.156958333333334
 20
-4.5625
 30
0.0
 40
0.5
  1
3-7/8
100
AcDbAttributeDefinition
  3

  2
E
 70
     8
280
     0
  0
ATTDEF
  5
E8
330
D6
100
AcDbEntity
  8
AM_6
100
AcDbText
 10
2.156958333333334
 20
-5.0625
 30
0.0
 40
0.5
  1
0.1900
100
AcDbAttributeDefinition
  3

  2
NDM
 70
     8
280
     0
  0
ATTDEF
  5
E9
330
D6
100
AcDbEntity
  8
AM_6
100
AcDbText
 10
2.156958333333334
 20
-5.5625
 30
0.0
 40
0.5
  1
0.1450
100
AcDbAttributeDefinition
  3

  2
KDM
 70
     8
280
     0
  0
ATTDEF
  5
EA
330
D6
100
AcDbEntity
  8
AM_6
100
AcDbText
 10
2.156958333333334
 20
-6.0625
 30
0.0
 40
0.5
  1
3.35
100
AcDbAttributeDefinition
  3

  2
AL
 70
     8
280
     0
  0
ATTDEF
  5
EB
330
D6
100
AcDbEntity
  8
AM_6
100
AcDbText
 10
2.156958333333334
 20
-6.5625
 30
0.0
 40
0.5
  1
0.50
100
AcDbAttributeDefinition
  3

  2
BL
 70
     8
280
     0
  0
ATTDEF
  5
EC
330
D6
100
AcDbEntity
  8
AM_6
100
AcDbText
 10
2.156958333333334
 20
-7.0625
 30
0.0
 40
0.5
  1
0.07
100
AcDbAttributeDefinition
  3

  2
CL
 70
     8
280
     0
  0
ATTDEF
  5
ED
330
D6
100
AcDbEntity
  8
AM_6
100
AcDbText
 10
2.156958333333334
 20
-7.5625
 30
0.0
 40
0.5
  1
0.44
100
AcDbAttributeDefinition
  3

  2
DL
 70
     8
280
     0
  0
ATTDEF
  5
EE
330
D6
100
AcDbEntity
  8
AM_6
100
AcDbText
 10
2.156958333333334
 20
-8.0625
 30
0.0
 40
0.5
  1
baldor
100
AcDbAttributeDefinition
  3

  2
COMPANY
 70
     8
280
     0
  0
LINE
  5
EF
330
D6
100
AcDbEntity
  8
AM_9
 48
0.0090165392795199
100
AcDbLine
 10
-3.213041666666666
 20
1.132590450518262
 30
0.0
 11
-3.283041666666666
 21
1.132590450518262
 31
0.0
  0
LINE
  5
F0
330
D6
100
AcDbEntity
  8
AM_9
 48
0.0090165392795199
100
AcDbLine
 10
-2.843041666666666
 20
1.101225231265198
 30
0.0
 11
-3.213041666666666
 21
1.101225231265198
 31
0.0
  0
LINE
  5
F1
330
D6
100
AcDbEntity
  8
AM_9
 48
0.0090165392795199
100
AcDbLine
 10
-2.843041666666666
 20
1.043176430067626
 30
0.0
 11
-3.283041666666666
 21
1.043176430067626
 31
0.0
  0
LINE
  5
F2
330
D6
100
AcDbEntity
  8
AM_9
 48
0.0090165392795199
100
AcDbLine
 10
-3.213041666666666
 20
1.19689608935647
 30
0.0
 11
-2.843041666666666
 21
1.19689608935647
 31
0.0
  0
LINE
  5
F3
330
D6
100
AcDbEntity
  8
AM_9
 48
0.0090165392795199
100
AcDbLine
 10
-2.843041666666666
 20
1.138847288158898
 30
0.0
 11
-3.283041666666666
 21
1.138847288158898
 31
0.0
  0
LINE
  5
F4
330
D6
100
AcDbEntity
  8
AM_9
 48
0.0090165392795199
100
AcDbLine
 10
-2.843041666666666
 20
1.043176430067626
 30
0.0
 11
-2.843041666666666
 21
1.19689608935647
 31
0.0
  0
LINE
  5
F5
330
D6
100
AcDbEntity
  8
AM_9
 48
0.0090165392795199
100
AcDbLine
 10
-3.213041666666666
 20
1.228261308609534
 30
0.0
 11
-3.283041666666666
 21
1.228261308609534
 31
0.0
  0
LINE
  5
F6
330
D6
100
AcDbEntity
  8
AM_9
 48
0.0090165392795199
100
AcDbLine
 10
-3.213041666666666
 20
1.628472222222222
 30
0.0
 11
-3.283041666666666
 21
1.628472222222222
 31
0.0
  0
LINE
  5
F7
330
D6
100
AcDbEntity
  8
AM_9
 48
0.0090165392795199
100
AcDbLine
 10
-3.213041666666666
 20
1.723512695423378
 30
0.0
 11
-3.283041666666666
 21
1.723512695423378
 31
0.0
  0
LINE
  5
F8
330
D6
100
AcDbEntity
  8
AM_9
 48
0.0090165392795199
100
AcDbLine
 10
-3.213041666666666
 20
-1.628472222222222
 30
0.0
 11
-3.283041666666666
 21
-1.628472222222222
 31
0.0
  0
LINE
  5
F9
330
D6
100
AcDbEntity
  8
AM_9
 48
0.0090165392795199
100
AcDbLine
 10
-3.283041666666666
 20
-1.723512695423378
 30
0.0
 11
-3.213041666666666
 21
-1.723512695423378
 31
0.0
  0
LINE
  5
FA
330
D6
100
AcDbEntity
  8
AM_9
 48
0.0090165392795199
100
AcDbLine
 10
-3.213041666666666
 20
1.280263958528166
 30
0.0
 11
-3.283041666666666
 21
1.280263958528166
 31
0.0
  0
LINE
  5
FB
330
D6
100
AcDbEntity
  8
AM_9
 48
0.0090165392795199
100
AcDbLine
 10
-3.213041666666666
 20
-1.280263958528165
 30
0.0
 11
-3.283041666666666
 21
-1.280263958528165
 31
0.0
  0
LINE
  5
FC
330
D6
100
AcDbEntity
  8
AM_9
 48
0.0090165392795199
100
AcDbLine
 10
-3.213041666666666
 20
0.9724584709967206
 30
0.0
 11
-3.283041666666666
 21
0.972458470996721
 31
0.0
  0
LINE
  5
FD
330
D6
100
AcDbEntity
  8
AM_9
 48
0.0090165392795199
100
AcDbLine
 10
-3.213041666666666
 20
-0.972458470996721
 30
0.0
 11
-3.283041666666666
 21
-0.972458470996721
 31
0.0
  0
LINE
  5
FE
330
D6
100
AcDbEntity
  8
AM_9
 48
0.0090165392795199
100
AcDbLine
 10
-3.213041666666666
 20
0.838108182571277
 30
0.0
 11
-3.283041666666666
 21
0.838108182571277
 31
0.0
  0
LINE
  5
FF
330
D6
100
AcDbEntity
  8
AM_9
 48
0.0090165392795199
100
AcDbLine
 10
-3.213041666666666
 20
-0.8381081825712762
 30
0.0
 11
-3.283041666666666
 21
-0.8381081825712765
 31
0.0
  0
LINE
  5
100
330
D6
100
AcDbEntity
  8
AM_9
 48
0.0090165392795199
100
AcDbLine
 10
-3.213041666666666
 20
1.218678895519982
 30
0.0
 11
-3.283041666666666
 21
1.218678895519982
 31
0.0
  0
LINE
  5
101
330
D6
100
AcDbEntity
  8
AM_9
 48
0.0090165392795199
100
AcDbLine
 10
-3.213041666666666
 20
1.084328607094538
 30
0.0
 11
-3.283041666666666
 21
1.084328607094538
 31
0.0
  0
LINE
  5
102
330
D6
100
AcDbEntity
  8
AM_9
 48
0.0090165392795199
100
AcDbLine
 10
-3.213041666666666
 20
1.246532372706349
 30
0.0
 11
-3.283041666666666
 21
1.246532372706349
 31
0.0
  0
LINE
  5
103
330
D6
100
AcDbEntity
  8
AM_9
 48
0.0090165392795199
100
AcDbLine
 10
-3.213041666666666
 20
-1.084328607094538
 30
0.0
 11
-3.283041666666666
 21
-1.084328607094538
 31
0.0
  0
LINE
  5
104
330
D6
100
AcDbEntity
  8
AM_9
 48
0.0090165392795199
100
AcDbLine
 10
-3.213041666666666
 20
-1.218678895519982
 30
0.0
 11
-3.283041666666666
 21
-1.218678895519982
 31
0.0
  0
LINE
  5
105
330
D6
100
AcDbEntity
  8
AM_9
 48
0.0090165392795199
100
AcDbLine
 10
-3.283041666666666
 20
-1.246532372706349
 30
0.0
 11
-3.213041666666666
 21
-1.246532372706349
 31
0.0
  0
LINE
  5
106
330
D6
100
AcDbEntity
  8
AM_9
 48
0.0090165392795199
100
AcDbLine
 10
-3.213041666666666
 20
0.0950000000000001
 30
0.0
 11
-3.283041666666666
 21
0.0950000000000001
 31
0.0
  0
LINE
  5
107
330
D6
100
AcDbEntity
  8
AM_9
 48
0.0090165392795199
100
AcDbLine
 10
-3.213041666666666
 20
-0.0949999999999999
 30
0.0
 11
-3.283041666666666
 21
-0.0949999999999999
 31
0.0
  0
LINE
  5
108
330
D6
100
AcDbEntity
  8
AM_0
 48
0.0090165392795199
100
AcDbLine
 10
-3.213041666666666
 20
1.9375
 30
0.0
 11
-3.283041666666666
 21
1.9375
 31
0.0
  0
LINE
  5
109
330
D6
100
AcDbEntity
  8
AM_0
 48
0.0090165392795199
100
AcDbLine
 10
-3.283041666666666
 20
-1.9375
 30
0.0
 11
-3.213041666666666
 21
-1.9375
 31
0.0
  0
LINE
  5
10A
330
D6
100
AcDbEntity
  8
AM_0
 48
0.0090165392795199
100
AcDbLine
 10
-3.283041666666666
 20
1.9375
 30
0.0
 11
-3.283041666666666
 21
-1.9375
 31
0.0
  0
LINE
  5
10B
330
D6
100
AcDbEntity
  8
AM_0
 48
0.0090165392795199
100
AcDbLine
 10
-3.213041666666666
 20
1.9375
 30
0.0
 11
-3.213041666666666
 21
-1.9375
 31
0.0
  0
ENDBLK
  5
D9
330
D6
100
AcDbEntity
  8
0
100
AcDbBlockEnd
  0
BLOCK
  5
10E
330
10C
100
AcDbEntity
  8
0
100
AcDbBlockBegin
  2
4_070926I_0_in_069791_2
 70
     2
 10
0.0
 20
0.0
 30
0.0
  3
4_070926I_0_in_069791_2
  1

  0
ATTDEF
  5
110
330
10C
100
AcDbEntity
  8
AM_6
100
AcDbText
 10
4.9625
 20
2.36205
 30
0.0
 40
0.5
  1
Imperial Insert -Inch
100
AcDbAttributeDefinition
  3

  2
NN
 70
     8
280
     0
  0
ATTDEF
  5
111
330
10C
100
AcDbEntity
  8
AM_6
100
AcDbText
 10
4.9625
 20
1.86205
 30
0.0
 40
0.5
  1
Imperial Bearings
100
AcDbAttributeDefinition
  3

  2
NT
 70
     8
280
     0
  0
ATTDEF
  5
112
330
10C
100
AcDbEntity
  8
AM_6
100
AcDbText
 10
4.9625
 20
1.36205
 30
0.0
 40
0.5
  1
070926I
100
AcDbAttributeDefinition
  3

  2
NB
 70
     8
280
     0
  0
ATTDEF
  5
113
330
10C
100
AcDbEntity
  8
AM_6
100
AcDbText
 10
4.9625
 20
0.8620500000000004
 30
0.0
 40
0.5
  1
$PN.I
100
AcDbAttributeDefinition
  3

  2
NBSYN
 70
     8
280
     0
  0
ATTDEF
  5
114
330
10C
100
AcDbEntity
  8
AM_6
100
AcDbText
 10
4.9625
 20
0.3620500000000004
 30
0.0
 40
0.5
  1
070926
100
AcDbAttributeDefinition
  3

  2
LINA
 70
     8
280
     0
  0
ATTDEF
  5
115
330
10C
100
AcDbEntity
  8
AM_6
100
AcDbText
 10
4.9625
 20
-0.1379499999999996
 30
0.0
 40
0.5
  1
2-3/8
100
AcDbAttributeDefinition
  3

  2
SS
 70
     8
280
     0
  0
ATTDEF
  5
116
330
10C
100
AcDbEntity
  8
AM_6
100
AcDbText
 10
4.9625
 20
-0.6379499999999996
 30
0.0
 40
0.5
  1
2.375000
100
AcDbAttributeDefinition
  3

  2
SS1
 70
     8
280
     0
  0
ATTDEF
  5
117
330
10C
100
AcDbEntity
  8
AM_6
100
AcDbText
 10
4.9625
 20
-1.13795
 30
0.0
 40
0.5
  1
070926
100
AcDbAttributeDefinition
  3

  2
PN
 70
     8
280
     0
  0
ATTDEF
  5
118
330
10C
100
AcDbEntity
  8
AM_6
100
AcDbText
 10
4.9625
 20
-1.63795
 30
0.0
 40
0.5
  1
INS-IP-206L
100
AcDbAttributeDefinition
  3

  2
DESCRIPTION
 70
     8
280
     0
  0
ATTDEF
  5
119
330
10C
100
AcDbEntity
  8
AM_6
100
AcDbText
 10
4.9625
 20
-2.13795
 30
0.0
 40
0.5
  1
Labyrinth Seal
100
AcDbAttributeDefinition
  3

  2
ST
 70
     8
280
     0
  0
ATTDEF
  5
11A
330
10C
100
AcDbEntity
  8
AM_6
100
AcDbText
 10
4.9625
 20
-2.63795
 30
0.0
 40
0.5
  1
4.7241
100
AcDbAttributeDefinition
  3

  2
A
 70
     8
280
     0
  0
ATTDEF
  5
11B
330
10C
100
AcDbEntity
  8
AM_6
100
AcDbText
 10
4.9625
 20
-3.13795
 30
0.0
 40
0.5
  1
1-9/32
100
AcDbAttributeDefinition
  3

  2
B
 70
     8
280
     0
  0
ATTDEF
  5
11C
330
10C
100
AcDbEntity
  8
AM_6
100
AcDbText
 10
4.9625
 20
-3.63795
 30
0.0
 40
0.5
  1
3-27/64
100
AcDbAttributeDefinition
  3

  2
C
 70
     8
280
     0
  0
ATTDEF
  5
11D
330
10C
100
AcDbEntity
  8
AM_6
100
AcDbText
 10
4.9625
 20
-4.13795
 30
0.0
 40
0.5
  1
1.208
100
AcDbAttributeDefinition
  3

  2
D
 70
     8
280
     0
  0
ATTDEF
  5
11E
330
10C
100
AcDbEntity
  8
AM_6
100
AcDbText
 10
4.9625
 20
-4.63795
 30
0.0
 40
0.5
  1
3-7/8
100
AcDbAttributeDefinition
  3

  2
E
 70
     8
280
     0
  0
ATTDEF
  5
11F
330
10C
100
AcDbEntity
  8
AM_6
100
AcDbText
 10
4.9625
 20
-5.13795
 30
0.0
 40
0.5
  1
0.1900
100
AcDbAttributeDefinition
  3

  2
NDM
 70
     8
280
     0
  0
ATTDEF
  5
120
330
10C
100
AcDbEntity
  8
AM_6
100
AcDbText
 10
4.9625
 20
-5.63795
 30
0.0
 40
0.5
  1
0.101
100
AcDbAttributeDefinition
  3

  2
H
 70
     8
280
     0
  0
ATTDEF
  5
121
330
10C
100
AcDbEntity
  8
AM_6
100
AcDbText
 10
4.9625
 20
-6.13795
 30
0.0
 40
0.5
  1
0.1450
100
AcDbAttributeDefinition
  3

  2
KDM
 70
     8
280
     0
  0
ATTDEF
  5
122
330
10C
100
AcDbEntity
  8
AM_6
100
AcDbText
 10
4.9625
 20
-6.63795
 30
0.0
 40
0.5
  1
3.35
100
AcDbAttributeDefinition
  3

  2
AL
 70
     8
280
     0
  0
ATTDEF
  5
123
330
10C
100
AcDbEntity
  8
AM_6
100
AcDbText
 10
4.9625
 20
-7.13795
 30
0.0
 40
0.5
  1
0.50
100
AcDbAttributeDefinition
  3

  2
BL
 70
     8
280
     0
  0
ATTDEF
  5
124
330
10C
100
AcDbEntity
  8
AM_6
100
AcDbText
 10
4.9625
 20
-7.63795
 30
0.0
 40
0.5
  1
0.07
100
AcDbAttributeDefinition
  3

  2
CL
 70
     8
280
     0
  0
ATTDEF
  5
125
330
10C
100
AcDbEntity
  8
AM_6
100
AcDbText
 10
4.9625
 20
-8.13795
 30
0.0
 40
0.5
  1
0.44
100
AcDbAttributeDefinition
  3

  2
DL
 70
     8
280
     0
  0
ATTDEF
  5
126
330
10C
100
AcDbEntity
  8
AM_6
100
AcDbText
 10
4.9625
 20
-8.63795
 30
0.0
 40
0.5
  1
0.8000
100
AcDbAttributeDefinition
  3

  2
LL
 70
     8
280
     0
  0
ATTDEF
  5
127
330
10C
100
AcDbEntity
  8
AM_6
100
AcDbText
 10
4.9625
 20
-9.13795
 30
0.0
 40
0.5
  1
0.025
100
AcDbAttributeDefinition
  3

  2
Y
 70
     8
280
     0
  0
ATTDEF
  5
128
330
10C
100
AcDbEntity
  8
AM_6
100
AcDbText
 10
4.9625
 20
-9.63795
 30
0.0
 40
0.5
  1
0.025000
100
AcDbAttributeDefinition
  3

  2
Y1
 70
     8
280
     0
  0
ATTDEF
  5
129
330
10C
100
AcDbEntity
  8
AM_6
100
AcDbText
 10
4.9625
 20
-10.13795
 30
0.0
 40
0.5
  1
2-15/16
100
AcDbAttributeDefinition
  3

  2
Z
 70
     8
280
     0
  0
ATTDEF
  5
12A
330
10C
100
AcDbEntity
  8
AM_6
100
AcDbText
 10
4.9625
 20
-10.63795
 30
0.0
 40
0.5
  1
2.937500
100
AcDbAttributeDefinition
  3

  2
Z1
 70
     8
280
     0
  0
ATTDEF
  5
12B
330
10C
100
AcDbEntity
  8
AM_6
100
AcDbText
 10
4.9625
 20
-11.13795
 30
0.0
 40
0.5
  1
baldor
100
AcDbAttributeDefinition
  3

  2
COMPANY
 70
     8
280
     0
  0
LINE
  5
12C
330
10C
100
AcDbEntity
  8
AM_9
 48
0.0144316683030575
100
AcDbLine
 10
-0.6298750000000003
 20
1.199958495445801
 30
0.0
 11
-3.213041666666667
 21
1.199958495445801
 31
0.0
  0
LINE
  5
12D
330
10C
100
AcDbEntity
  8
AM_9
 48
0.0144316683030575
100
AcDbLine
 10
-0.6298750000000003
 20
1.104287637354529
 30
0.0
 11
-3.213041666666667
 21
1.104287637354529
 31
0.0
  0
LINE
  5
12E
330
10C
100
AcDbEntity
  8
AM_9
 48
0.0144316683030575
100
AcDbLine
 10
-2.373041666666666
 20
1.628472222222222
 30
0.0
 11
-2.406825656499996
 21
1.700922222222222
 31
0.0
  0
LINE
  5
12F
330
10C
100
AcDbEntity
  8
AM_9
 48
0.0144316683030575
100
AcDbLine
 10
-2.406825656499996
 20
1.556022222222222
 30
0.0
 11
-2.373041666666666
 21
1.628472222222222
 31
0.0
  0
LINE
  5
130
330
10C
100
AcDbEntity
  8
AM_9
 48
0.0144316683030575
100
AcDbLine
 10
-2.373041666666668
 20
-1.628472222222222
 30
0.0
 11
-2.406825656500016
 21
-1.556022222222222
 31
0.0
  0
LINE
  5
131
330
10C
100
AcDbEntity
  8
AM_9
 48
0.0144316683030575
100
AcDbLine
 10
-2.406825656500016
 20
-1.700922222222222
 30
0.0
 11
-2.373041666666668
 21
-1.628472222222222
 31
0.0
  0
LINE
  5
132
330
10C
100
AcDbEntity
  8
AM_9
 48
0.0144316683030575
100
AcDbLine
 10
-2.406825656499996
 20
1.556022222222222
 30
0.0
 11
-2.406825656499996
 21
1.700922222222222
 31
0.0
  0
LINE
  5
133
330
10C
100
AcDbEntity
  8
AM_9
 48
0.0144316683030575
100
AcDbLine
 10
-2.406825656499996
 20
1.700922222222222
 30
0.0
 11
-3.190491666666667
 21
1.700922222222222
 31
0.0
  0
LINE
  5
134
330
10C
100
AcDbEntity
  8
AM_9
 48
0.0144316683030575
100
AcDbLine
 10
-3.190491666666667
 20
1.556022222222222
 30
0.0
 11
-2.406825656499996
 21
1.556022222222222
 31
0.0
  0
LINE
  5
135
330
10C
100
AcDbEntity
  8
AM_9
 48
0.0144316683030575
100
AcDbLine
 10
-3.190491666666656
 20
-1.700922222222222
 30
0.0
 11
-2.406825656500016
 21
-1.700922222222222
 31
0.0
  0
LINE
  5
136
330
10C
100
AcDbEntity
  8
AM_9
 48
0.0144316683030575
100
AcDbLine
 10
-2.406825656500016
 20
-1.556022222222222
 30
0.0
 11
-3.190491666666656
 21
-1.556022222222222
 31
0.0
  0
LINE
  5
137
330
10C
100
AcDbEntity
  8
AM_9
 48
0.0144316683030575
100
AcDbLine
 10
-2.406825656500016
 20
-1.556022222222222
 30
0.0
 11
-2.406825656500016
 21
-1.700922222222222
 31
0.0
  0
LINE
  5
138
330
10C
100
AcDbEntity
  8
AM_9
 48
0.0144316683030575
100
AcDbLine
 10
-3.190491666666667
 20
1.556022222222222
 30
0.0
 11
-3.190491666666667
 21
1.700922222222222
 31
0.0
  0
LINE
  5
139
330
10C
100
AcDbEntity
  8
AM_9
 48
0.0144316683030575
100
AcDbLine
 10
-3.190491666666667
 20
1.700922222222222
 30
0.0
 11
-3.213041666666666
 21
1.723472222222222
 31
0.0
  0
LINE
  5
13A
330
10C
100
AcDbEntity
  8
AM_9
 48
0.0144316683030575
100
AcDbLine
 10
-3.213041666666666
 20
1.533472222222222
 30
0.0
 11
-3.190491666666667
 21
1.556022222222222
 31
0.0
  0
LINE
  5
13B
330
10C
100
AcDbEntity
  8
AM_9
 48
0.0144316683030575
100
AcDbLine
 10
-3.190491666666656
 20
-1.556022222222222
 30
0.0
 11
-3.213041666666675
 21
-1.533472222222222
 31
0.0
  0
LINE
  5
13C
330
10C
100
AcDbEntity
  8
AM_9
 48
0.0144316683030575
100
AcDbLine
 10
-3.213041666666675
 20
-1.723472222222222
 30
0.0
 11
-3.190491666666656
 21
-1.700922222222222
 31
0.0
  0
LINE
  5
13D
330
10C
100
AcDbEntity
  8
AM_9
 48
0.0144316683030575
100
AcDbLine
 10
-3.190491666666656
 20
-1.556022222222222
 30
0.0
 11
-3.190491666666656
 21
-1.700922222222222
 31
0.0
  0
LINE
  5
13E
330
10C
100
AcDbEntity
  8
AM_9
 48
0.0144316683030575
100
AcDbLine
 10
-0.6298750000000003
 20
1.138847288158898
 30
0.0
 11
-3.484375
 21
1.138847288158898
 31
0.0
  0
LINE
  5
13F
330
10C
100
AcDbEntity
  8
AM_9
 48
0.0144316683030575
100
AcDbLine
 10
-3.484375
 20
1.043176430067626
 30
0.0
 11
-0.6298750000000003
 21
1.043176430067626
 31
0.0
  0
LINE
  5
140
330
10C
100
AcDbEntity
  8
AM_9
 48
0.0144316683030575
100
AcDbLine
 10
-0.6298750000000003
 20
1.1875
 30
0.0
 11
-3.484375
 21
1.1875
 31
0.0
  0
LINE
  5
141
330
10C
100
AcDbEntity
  8
AM_9
 48
0.0144316683030575
100
AcDbLine
 10
-3.484375
 20
-1.1875
 30
0.0
 11
-0.6298750000000003
 21
-1.1875
 31
0.0
  0
LINE
  5
142
330
10C
100
AcDbEntity
  8
AM_9
 48
0.0144316683030575
100
AcDbLine
 10
-0.0625000000000002
 20
1.25
 30
0.0
 11
-0.6298750000000003
 21
1.25
 31
0.0
  0
LINE
  5
143
330
10C
100
AcDbEntity
  8
AM_9
 48
0.0144316683030575
100
AcDbLine
 10
-0.6298750000000003
 20
-1.25
 30
0.0
 11
-0.0625000000000002
 21
-1.25
 31
0.0
  0
LINE
  5
144
330
10C
100
AcDbEntity
  8
AM_9
 48
0.0144316683030575
100
AcDbLine
 10
-3.484375
 20
1.19689608935647
 30
0.0
 11
-3.213041666666666
 21
1.19689608935647
 31
0.0
  0
LINE
  5
145
330
10C
100
AcDbEntity
  8
AM_9
 48
0.0144316683030575
100
AcDbLine
 10
-3.213041666666666
 20
1.101225231265198
 30
0.0
 11
-3.484375
 21
1.101225231265198
 31
0.0
  0
LINE
  5
146
330
10C
100
AcDbEntity
  8
AM_9
 48
0.0144316683030575
100
AcDbLine
 10
-3.213041666666666
 20
1.25
 30
0.0
 11
-3.283041666666666
 21
1.25
 31
0.0
  0
LINE
  5
147
330
10C
100
AcDbEntity
  8
AM_9
 48
0.0144316683030575
100
AcDbLine
 10
-3.283041666666666
 20
-1.25
 30
0.0
 11
-3.213041666666666
 21
-1.25
 31
0.0
  0
LINE
  5
148
330
10C
100
AcDbEntity
  8
AM_9
 48
0.0144316683030575
100
AcDbLine
 10
-2.773041666666667
 20
1.00762716319083
 30
0.0
 11
-3.213041666666666
 21
1.00762716319083
 31
0.0
  0
LINE
  5
149
330
10C
100
AcDbEntity
  8
AM_9
 48
0.0144316683030575
100
AcDbLine
 10
-2.773041666666667
 20
-1.00762716319083
 30
0.0
 11
-3.213041666666666
 21
-1.00762716319083
 31
0.0
  0
LINE
  5
14A
330
10C
100
AcDbEntity
  8
AM_9
 48
0.0144316683030575
100
AcDbLine
 10
-0.0625000000000002
 20
-1.46875
 30
0.0
 11
-0.0625000000000002
 21
1.46875
 31
0.0
  0
LINE
  5
14B
330
10C
100
AcDbEntity
  8
AM_9
 48
0.0144316683030575
100
AcDbLine
 10
-0.0374999999999998
 20
1.46875
 30
0.0
 11
-0.0625000000000002
 21
1.46875
 31
0.0
  0
LINE
  5
14C
330
10C
100
AcDbEntity
  8
AM_9
 48
0.0144316683030575
100
AcDbLine
 10
-0.0625000000000002
 20
-1.46875
 30
0.0
 11
-0.0374999999999998
 21
-1.46875
 31
0.0
  0
LINE
  5
14D
330
10C
100
AcDbEntity
  8
AM_9
 48
0.0144316683030575
100
AcDbLine
 10
-2.773041666666667
 20
-1.00762716319083
 30
0.0
 11
-2.773041666666667
 21
-1.192745529690402
 31
0.0
  0
LINE
  5
14E
330
10C
100
AcDbEntity
  8
AM_9
 48
0.0144316683030575
100
AcDbLine
 10
-2.773041666666667
 20
1.192745529690401
 30
0.0
 11
-2.773041666666667
 21
1.00762716319083
 31
0.0
  0
LINE
  5
14F
330
10C
100
AcDbEntity
  8
AM_9
 48
0.0144316683030575
100
AcDbLine
 10
-0.0751602564102573
 20
1.631944444444444
 30
0.0
 11
-0.373625
 21
1.631944444444444
 31
0.0
  0
LINE
  5
150
330
10C
100
AcDbEntity
  8
AM_9
 48
0.0144316683030575
100
AcDbLine
 10
-0.373625
 20
-1.631944444444444
 30
0.0
 11
-0.0751602564102573
 21
-1.631944444444444
 31
0.0
  0
LINE
  5
151
330
10C
100
AcDbEntity
  8
AM_9
 48
0.0144316683030575
100
AcDbLine
 10
-0.0375000000000004
 20
-1.594284188034188
 30
0.0
 11
-0.0375000000000004
 21
1.594284188034188
 31
0.0
  0
LINE
  5
152
330
10C
100
AcDbEntity
  8
AM_9
 48
0.0144316683030575
100
AcDbLine
 10
-0.0751602564102573
 20
-1.631944444444444
 30
0.0
 11
-0.0751602564102573
 21
1.631944444444444
 31
0.0
  0
ARC
  5
153
330
10C
100
AcDbEntity
  8
AM_9
 48
0.0144316683030575
100
AcDbCircle
 10
-0.075160256410257
 20
1.594284188034188
 30
0.0
 40
0.0376602564102564
100
AcDbArc
 50
0.0000000000003378
 51
90.00000000000048
  0
ARC
  5
154
330
10C
100
AcDbEntity
  8
AM_9
 48
0.0144316683030575
100
AcDbCircle
 10
-0.075160256410257
 20
-1.594284188034188
 30
0.0
 40
0.0376602564102564
100
AcDbArc
 50
269.9999999999995
 51
359.9999999999997
  0
LINE
  5
155
330
10C
100
AcDbEntity
  8
AM_9
 48
0.0144316683030575
100
AcDbLine
 10
-2.375
 20
-1.966765059866146
 30
0.0
 11
-1.911125
 21
-1.982963931814131
 31
0.0
  0
LINE
  5
156
330
10C
100
AcDbEntity
  8
AM_9
 48
0.0144316683030575
100
AcDbLine
 10
-1.911125
 20
1.982963931814131
 30
0.0
 11
-2.375
 21
1.966765059866146
 31
0.0
  0
LINE
  5
157
330
10C
100
AcDbEntity
  8
AM_9
 48
0.0144316683030575
100
AcDbLine
 10
-0.3736250000000006
 20
-1.956368966601196
 30
0.0
 11
-0.3736250000000006
 21
1.956368966601196
 31
0.0
  0
ARC
  5
158
330
10C
100
AcDbEntity
  8
AM_9
 48
0.0144316683030575
100
AcDbCircle
 10
-0.4736250000000018
 20
1.956368966601195
 30
0.0
 40
0.1000000000000014
100
AcDbArc
 50
0.0000000000006361
 51
59.99999999999952
  0
ARC
  5
159
330
10C
100
AcDbEntity
  8
AM_9
 48
0.0144316683030575
100
AcDbCircle
 10
-0.4736250000000019
 20
-1.956368966601195
 30
0.0
 40
0.1000000000000015
100
AcDbArc
 50
300.0000000000005
 51
359.9999999999993
  0
LINE
  5
15A
330
10C
100
AcDbEntity
  8
AM_9
 48
0.0144316683030575
100
AcDbLine
 10
-0.4236250000000003
 20
-2.042971506979639
 30
0.0
 11
-0.4236250000000003
 21
2.042971506979639
 31
0.0
  0
LINE
  5
15B
330
10C
100
AcDbEntity
  8
AM_9
 48
0.0144316683030575
100
AcDbLine
 10
-0.4236250000000003
 20
2.042971506979639
 30
0.0
 11
-0.6298750000000003
 21
2.16205
 31
0.0
  0
LINE
  5
15C
330
10C
100
AcDbEntity
  8
AM_9
 48
0.0144316683030575
100
AcDbLine
 10
-0.6298750000000003
 20
-2.16205
 30
0.0
 11
-0.4236250000000003
 21
-2.042971506979639
 31
0.0
  0
LINE
  5
15D
330
10C
100
AcDbEntity
  8
AM_9
 48
0.0144316683030575
100
AcDbLine
 10
-1.23351349838004
 20
2.2979875
 30
0.0
 11
-1.307486501619961
 21
2.2979875
 31
0.0
  0
LINE
  5
15E
330
10C
100
AcDbEntity
  8
AM_9
 48
0.0144316683030575
100
AcDbLine
 10
-1.307486501619961
 20
-2.2979875
 30
0.0
 11
-1.23351349838004
 21
-2.2979875
 31
0.0
  0
LINE
  5
15F
330
10C
100
AcDbEntity
  8
AM_9
 48
0.0144316683030575
100
AcDbLine
 10
-1.307486501619961
 20
-2.2979875
 30
0.0
 11
-1.307486501619961
 21
2.2979875
 31
0.0
  0
LINE
  5
160
330
10C
100
AcDbEntity
  8
AM_9
 48
0.0144316683030575
100
AcDbLine
 10
-1.307486501619961
 20
2.2979875
 30
0.0
 11
-1.344473003239921
 21
2.36205
 31
0.0
  0
LINE
  5
161
330
10C
100
AcDbEntity
  8
AM_9
 48
0.0144316683030575
100
AcDbLine
 10
-1.344473003239921
 20
-2.36205
 30
0.0
 11
-1.307486501619961
 21
-2.2979875
 31
0.0
  0
LINE
  5
162
330
10C
100
AcDbEntity
  8
AM_9
 48
0.0144316683030575
100
AcDbLine
 10
-0.6298750000000003
 20
-2.31205
 30
0.0
 11
-0.6298750000000003
 21
2.31205
 31
0.0
  0
ARC
  5
163
330
10C
100
AcDbEntity
  8
AM_9
 48
0.0144316683030575
100
AcDbCircle
 10
-0.6798750000000002
 20
2.31205
 30
0.0
 40
0.0499999999999999
100
AcDbArc
 50
0.0
 51
90.0000000000005
  0
ARC
  5
164
330
10C
100
AcDbEntity
  8
AM_9
 48
0.0144316683030575
100
AcDbCircle
 10
-0.679875
 20
-2.31205
 30
0.0
 40
0.0499999999999998
100
AcDbArc
 50
269.9999999999992
 51
0.0
  0
LINE
  5
165
330
10C
100
AcDbEntity
  8
AM_9
 48
0.0144316683030575
100
AcDbLine
 10
-0.6798750000000007
 20
-2.36205
 30
0.0
 11
-0.6798750000000007
 21
2.36205
 31
0.0
  0
LINE
  5
166
330
10C
100
AcDbEntity
  8
AM_9
 48
0.0144316683030575
100
AcDbLine
 10
-0.6798750000000007
 20
2.36205
 30
0.0
 11
-1.196526996760079
 21
2.36205
 31
0.0
  0
LINE
  5
167
330
10C
100
AcDbEntity
  8
AM_9
 48
0.0144316683030575
100
AcDbLine
 10
-1.196526996760079
 20
-2.36205
 30
0.0
 11
-0.6798750000000007
 21
-2.36205
 31
0.0
  0
LINE
  5
168
330
10C
100
AcDbEntity
  8
AM_9
 48
0.0144316683030575
100
AcDbLine
 10
-1.196526996760079
 20
-2.36205
 30
0.0
 11
-1.196526996760079
 21
2.36205
 31
0.0
  0
LINE
  5
169
330
10C
100
AcDbEntity
  8
AM_9
 48
0.0144316683030575
100
AcDbLine
 10
-1.23351349838004
 20
-2.2979875
 30
0.0
 11
-1.23351349838004
 21
2.2979875
 31
0.0
  0
LINE
  5
16A
330
10C
100
AcDbEntity
  8
AM_9
 48
0.0144316683030575
100
AcDbLine
 10
-1.23351349838004
 20
-2.2979875
 30
0.0
 11
-1.196526996760079
 21
-2.36205
 31
0.0
  0
LINE
  5
16B
330
10C
100
AcDbEntity
  8
AM_9
 48
0.0144316683030575
100
AcDbLine
 10
-1.196526996760079
 20
2.36205
 30
0.0
 11
-1.23351349838004
 21
2.2979875
 31
0.0
  0
LINE
  5
16C
330
10C
100
AcDbEntity
  8
AM_9
 48
0.0144316683030575
100
AcDbLine
 10
-1.344473003239921
 20
-2.36205
 30
0.0
 11
-1.344473003239921
 21
2.36205
 31
0.0
  0
LINE
  5
16D
330
10C
100
AcDbEntity
  8
AM_9
 48
0.0144316683030575
100
AcDbLine
 10
-1.344473003239921
 20
2.36205
 30
0.0
 11
-1.861125
 21
2.36205
 31
0.0
  0
LINE
  5
16E
330
10C
100
AcDbEntity
  8
AM_9
 48
0.0144316683030575
100
AcDbLine
 10
-1.861125
 20
-2.36205
 30
0.0
 11
-1.344473003239921
 21
-2.36205
 31
0.0
  0
LINE
  5
16F
330
10C
100
AcDbEntity
  8
AM_9
 48
0.0144316683030575
100
AcDbLine
 10
-1.861125
 20
-2.36205
 30
0.0
 11
-1.861125
 21
2.36205
 31
0.0
  0
LINE
  5
170
330
10C
100
AcDbEntity
  8
AM_9
 48
0.0144316683030575
100
AcDbLine
 10
-1.911125
 20
-2.31205
 30
0.0
 11
-1.911125
 21
2.31205
 31
0.0
  0
ARC
  5
171
330
10C
100
AcDbEntity
  8
AM_9
 48
0.0144316683030575
100
AcDbCircle
 10
-1.861125
 20
2.312050000000001
 30
0.0
 40
0.0499999999999998
100
AcDbArc
 50
89.99999999999974
 51
180.0000000000005
  0
ARC
  5
172
330
10C
100
AcDbEntity
  8
AM_9
 48
0.0144316683030575
100
AcDbCircle
 10
-1.861125000000001
 20
-2.312050000000001
 30
0.0
 40
0.0499999999999994
100
AcDbArc
 50
179.9999999999995
 51
270.0000000000007
  0
LINE
  5
173
330
10C
100
AcDbEntity
  8
AM_5
 48
0.0144316683030575
100
AcDbLine
 10
-2.453041666666667
 20
1.700922222222222
 30
0.0
 11
-2.453041666666667
 21
1.723472222222222
 31
0.0
  0
LINE
  5
174
330
10C
100
AcDbEntity
  8
AM_5
 48
0.0144316683030575
100
AcDbLine
 10
-2.453041666666667
 20
1.723472222222222
 30
0.0
 11
-2.44002241809644
 21
1.700922222222222
 31
0.0
  0
LINE
  5
175
330
10C
100
AcDbEntity
  8
AM_5
 48
0.0144316683030575
100
AcDbLine
 10
-2.453041666666667
 20
1.556022222222222
 30
0.0
 11
-2.453041666666667
 21
1.533472222222222
 31
0.0
  0
LINE
  5
176
330
10C
100
AcDbEntity
  8
AM_5
 48
0.0144316683030575
100
AcDbLine
 10
-2.453041666666667
 20
1.533472222222222
 30
0.0
 11
-2.44002241809644
 21
1.556022222222222
 31
0.0
  0
LINE
  5
177
330
10C
100
AcDbEntity
  8
AM_5
 48
0.0144316683030575
100
AcDbLine
 10
-2.453041666666665
 20
-1.700922222222222
 30
0.0
 11
-2.453041666666665
 21
-1.723472222222222
 31
0.0
  0
LINE
  5
178
330
10C
100
AcDbEntity
  8
AM_5
 48
0.0144316683030575
100
AcDbLine
 10
-2.453041666666665
 20
-1.723472222222222
 30
0.0
 11
-2.440022418096443
 21
-1.700922222222222
 31
0.0
  0
LINE
  5
179
330
10C
100
AcDbEntity
  8
AM_5
 48
0.0144316683030575
100
AcDbLine
 10
-2.453041666666665
 20
-1.556022222222222
 30
0.0
 11
-2.453041666666665
 21
-1.533472222222222
 31
0.0
  0
LINE
  5
17A
330
10C
100
AcDbEntity
  8
AM_5
 48
0.0144316683030575
100
AcDbLine
 10
-2.453041666666665
 20
-1.533472222222222
 30
0.0
 11
-2.440022418096443
 21
-1.556022222222222
 31
0.0
  0
LINE
  5
17D
330
10C
100
AcDbEntity
  8
AM_7
 48
0.0144316683030575
100
AcDbLine
 10
-2.331041666666667
 20
1.628472222222222
 30
0.0
 11
-3.429091666666666
 21
1.628472222222222
 31
0.0
  0
LINE
  5
17E
330
10C
100
AcDbEntity
  8
AM_7
 48
0.0144316683030575
100
AcDbLine
 10
-2.331041666666668
 20
-1.628472222222222
 30
0.0
 11
-3.429091666666666
 21
-1.628472222222222
 31
0.0
  0
ARC
  5
17F
330
10C
100
AcDbEntity
  8
AM_0
 48
0.0144316683030575
100
AcDbCircle
 10
-3.163041666666667
 20
-1.889215561259645
 30
0.0
 40
0.0499999999999998
100
AcDbArc
 50
179.9999999999995
 51
267.9999999999999
  0
ARC
  5
180
330
10C
100
AcDbEntity
  8
AM_0
 48
0.0144316683030575
100
AcDbCircle
 10
-3.163041666666667
 20
1.889215561259645
 30
0.0
 40
0.0499999999999996
100
AcDbArc
 50
92.0
 51
180.0000000000005
  0
LWPOLYLINE
  5
181
330
10C
100
AcDbEntity
  8
AM_0
 48
0.0144316683030575
100
AcDbPolyline
 90
        6
 70
     0
 43
0.0
 10
-3.164786641501792
 20
-1.536544848730685
 10
-3.181123431399264
 20
-1.534153533934661
 10
-3.195428446599458
 20
-1.528075939344721
 10
-3.206151718338504
 20
-1.518972330603809
 10
-3.212100489563237
 20
-1.507793588446511
 10
-3.213041666666666
 20
-1.500905736762308
  0
LWPOLYLINE
  5
182
330
10C
100
AcDbEntity
  8
AM_0
 48
0.0144316683030575
100
AcDbPolyline
 90
        6
 70
     0
 43
0.0
 10
-3.213041666666666
 20
1.500905736762308
 10
-3.21252019195521
 20
1.506043662286855
 10
-3.207270342911153
 20
1.517539989191865
 10
-3.196940153523579
 20
1.527121214513951
 10
-3.182782780662395
 20
1.533669989616411
 10
-3.164786641501792
 20
1.536544848730685
  0
LINE
  5
183
330
10C
100
AcDbEntity
  8
AM_0
 48
0.0144316683030575
100
AcDbLine
 10
-3.283041666666666
 20
1.25
 30
0.0
 11
-3.484375
 21
1.25
 31
0.0
  0
LINE
  5
184
330
10C
100
AcDbEntity
  8
AM_0
 48
0.0144316683030575
100
AcDbLine
 10
-3.484375
 20
-1.25
 30
0.0
 11
-3.283041666666666
 21
-1.25
 31
0.0
  0
LINE
  5
185
330
10C
100
AcDbEntity
  8
AM_0
 48
0.0144316683030575
100
AcDbLine
 10
-3.484375
 20
-1.25
 30
0.0
 11
-3.484375
 21
1.25
 31
0.0
  0
LINE
  5
186
330
10C
100
AcDbEntity
  8
AM_0
 48
0.0144316683030575
100
AcDbLine
 10
-2.773041666666667
 20
1.361180553784104
 30
0.0
 11
-3.213041666666666
 21
1.361180553784104
 31
0.0
  0
LINE
  5
187
330
10C
100
AcDbEntity
  8
AM_0
 48
0.0144316683030575
100
AcDbLine
 10
-2.773041666666667
 20
-1.361180553784104
 30
0.0
 11
-3.213041666666666
 21
-1.361180553784104
 31
0.0
  0
LWPOLYLINE
  5
188
330
10C
100
AcDbEntity
  8
AM_0
 48
0.0144316683030575
100
AcDbPolyline
 90
        6
 70
     0
 43
0.0
 10
-3.164786641501792
 20
1.182991458137411
 10
-3.18112343139927
 20
1.180600143341385
 10
-3.195428446599463
 20
1.174522548751444
 10
-3.206151718338507
 20
1.16541894001053
 10
-3.212100489563238
 20
1.154240197853232
 10
-3.213041666666666
 20
1.147352346169034
  0
LWPOLYLINE
  5
189
330
10C
100
AcDbEntity
  8
AM_0
 48
0.0144316683030575
100
AcDbPolyline
 90
        6
 70
     0
 43
0.0
 10
-3.213041666666666
 20
-1.147352346169034
 10
-3.21252019195521
 20
-1.152490271693581
 10
-3.207270342911153
 20
-1.163986598598591
 10
-3.196940153523579
 20
-1.173567823920677
 10
-3.182782780662395
 20
-1.180116599023137
 10
-3.164786641501792
 20
-1.182991458137411
  0
LINE
  5
18A
330
10C
100
AcDbEntity
  8
AM_4
 48
0.0144316683030575
100
AcDbLine
 10
-3.164786641501792
 20
-1.182991458137411
 30
0.0
 11
-3.164786641501792
 21
1.182991458137411
 31
0.0
  0
LINE
  5
18B
330
10C
100
AcDbEntity
  8
AM_0
 48
0.0144316683030575
100
AcDbLine
 10
-3.164786641501792
 20
-1.182991458137411
 30
0.0
 11
-2.773041666666667
 21
-1.192745529690402
 31
0.0
  0
LINE
  5
18C
330
10C
100
AcDbEntity
  8
AM_0
 48
0.0144316683030575
100
AcDbLine
 10
-2.773041666666667
 20
-1.192745529690402
 30
0.0
 11
-2.773041666666667
 21
-1.546298920283676
 31
0.0
  0
LINE
  5
18D
330
10C
100
AcDbEntity
  8
AM_0
 48
0.0144316683030575
100
AcDbLine
 10
-2.773041666666667
 20
-1.546298920283676
 30
0.0
 11
-3.164786641501792
 21
-1.536544848730685
 31
0.0
  0
LINE
  5
18E
330
10C
100
AcDbEntity
  8
AM_4
 48
0.0144316683030575
100
AcDbLine
 10
-3.164786641501792
 20
1.536544848730685
 30
0.0
 11
-3.164786641501792
 21
1.9391851026106
 31
0.0
  0
LINE
  5
18F
330
10C
100
AcDbEntity
  8
AM_0
 48
0.0144316683030575
100
AcDbLine
 10
-3.164786641501792
 20
1.536544848730685
 30
0.0
 11
-2.773041666666667
 21
1.546298920283676
 31
0.0
  0
LINE
  5
190
330
10C
100
AcDbEntity
  8
AM_0
 48
0.0144316683030575
100
AcDbLine
 10
-2.773041666666667
 20
1.546298920283676
 30
0.0
 11
-2.773041666666667
 21
1.192745529690401
 31
0.0
  0
LINE
  5
191
330
10C
100
AcDbEntity
  8
AM_0
 48
0.0144316683030575
100
AcDbLine
 10
-2.773041666666667
 20
1.192745529690401
 30
0.0
 11
-3.164786641501792
 21
1.182991458137411
 31
0.0
  0
LINE
  5
192
330
10C
100
AcDbEntity
  8
AM_0
 48
0.0144316683030575
100
AcDbLine
 10
-3.164786641501792
 20
-1.9391851026106
 30
0.0
 11
-2.375
 21
-1.966765059866146
 31
0.0
  0
LINE
  5
193
330
10C
100
AcDbEntity
  8
AM_0
 48
0.0144316683030575
100
AcDbLine
 10
-2.375
 20
1.966765059866146
 30
0.0
 11
-3.164786641501792
 21
1.9391851026106
 31
0.0
  0
LINE
  5
194
330
10C
100
AcDbEntity
  8
AM_4
 48
0.0144316683030575
100
AcDbLine
 10
-3.164786641501792
 20
-1.9391851026106
 30
0.0
 11
-3.164786641501792
 21
-1.536544848730685
 31
0.0
  0
ENDBLK
  5
10F
330
10C
100
AcDbEntity
  8
0
100
AcDbBlockEnd
  0
BLOCK
  5
197
330
195
100
AcDbEntity
  8
0
100
AcDbBlockBegin
  2
5_405015E_Inch_0_in_069791_2
 70
     2
 10
0.0
 20
0.0
 30
0.0
  3
5_405015E_Inch_0_in_069791_2
  1

  0
ATTDEF
  5
199
330
195
100
AcDbEntity
  8
AM_6
100
AcDbText
 10
3.744778242770461
 20
3.3195
 30
0.0
 40
0.5
  1
405015E -Inch
100
AcDbAttributeDefinition
  3

  2
NN
 70
     8
280
     0
  0
ATTDEF
  5
19A
330
195
100
AcDbEntity
  8
AM_6
100
AcDbText
 10
3.744778242770461
 20
2.8195
 30
0.0
 40
0.5
  1
Grease Fitting
100
AcDbAttributeDefinition
  3

  2
NT
 70
     8
280
     0
  0
ATTDEF
  5
19B
330
195
100
AcDbEntity
  8
AM_6
100
AcDbText
 10
3.744778242770461
 20
2.3195
 30
0.0
 40
0.5
  1
405015E-Inch
100
AcDbAttributeDefinition
  3

  2
NB
 70
     8
280
     0
  0
ATTDEF
  5
19C
330
195
100
AcDbEntity
  8
AM_6
100
AcDbText
 10
3.744778242770461
 20
1.8195
 30
0.0
 40
0.5
  1
$MN.-Inch
100
AcDbAttributeDefinition
  3

  2
NBSYN
 70
     8
280
     0
  0
ATTDEF
  5
19D
330
195
100
AcDbEntity
  8
AM_6
100
AcDbText
 10
3.744778242770461
 20
1.3195
 30
0.0
 40
0.5
  1
405015E
100
AcDbAttributeDefinition
  3

  2
LINA
 70
     8
280
     0
  0
ATTDEF
  5
19E
330
195
100
AcDbEntity
  8
AM_6
100
AcDbText
 10
3.744778242770461
 20
0.8194999999999997
 30
0.0
 40
0.5
  1
405015E
100
AcDbAttributeDefinition
  3

  2
MN
 70
     8
280
     0
  0
ATTDEF
  5
19F
330
195
100
AcDbEntity
  8
AM_6
100
AcDbText
 10
3.744778242770461
 20
0.3194999999999997
 30
0.0
 40
0.5
  1
1/8 x 27PTF
100
AcDbAttributeDefinition
  3

  2
T
 70
     8
280
     0
  0
ATTDEF
  5
1A0
330
195
100
AcDbEntity
  8
AM_6
100
AcDbText
 10
3.744778242770461
 20
-0.1805000000000003
 30
0.0
 40
0.5
  1
baldor
100
AcDbAttributeDefinition
  3

  2
COMPANY
 70
     8
280
     0
  0
LINE
  5
1A1
330
195
100
AcDbEntity
  8
AM_9
 48
0.0017930683509735
100
AcDbLine
 10
-1.669715372472269
 20
2.6475
 30
0.0
 11
-1.345909627527731
 21
2.6475
 31
0.0
  0
LINE
  5
1A2
330
195
100
AcDbEntity
  8
AM_9
 48
0.0017930683509735
100
AcDbLine
 10
-1.345909627527731
 20
2.6475
 30
0.0
 11
-1.309194873218785
 21
2.684214754308947
 31
0.0
  0
LINE
  5
1A3
330
195
100
AcDbEntity
  8
AM_9
 48
0.0017930683509735
100
AcDbLine
 10
-1.706430126781215
 20
2.684214754308947
 30
0.0
 11
-1.669715372472269
 21
2.6475
 31
0.0
  0
LINE
  5
1A4
330
195
100
AcDbEntity
  8
AM_9
 48
0.0017930683509735
100
AcDbLine
 10
-1.706430126781215
 20
2.684214754308947
 30
0.0
 11
-1.309194873218785
 21
2.684214754308947
 31
0.0
  0
LINE
  5
1A5
330
195
100
AcDbEntity
  8
AM_9
 48
0.0017930683509735
100
AcDbLine
 10
-1.309194873218785
 20
2.684214754308947
 30
0.0
 11
-1.30206060277693
 21
2.9125
 31
0.0
  0
LINE
  5
1A6
330
195
100
AcDbEntity
  8
AM_9
 48
0.0017930683509735
100
AcDbLine
 10
-1.71356439722307
 20
2.9125
 30
0.0
 11
-1.706430126781215
 21
2.684214754308947
 31
0.0
  0
LINE
  5
1A7
330
195
100
AcDbEntity
  8
AM_5
 48
0.0017930683509735
100
AcDbLine
 10
-1.339663375147652
 20
2.847370087748463
 30
0.0
 11
-1.345909627527731
 21
2.6475
 31
0.0
  0
LINE
  5
1A8
330
195
100
AcDbEntity
  8
AM_5
 48
0.0017930683509735
100
AcDbLine
 10
-1.30206060277693
 20
2.9125
 30
0.0
 11
-1.339663375147652
 21
2.847370087748463
 31
0.0
  0
LINE
  5
1A9
330
195
100
AcDbEntity
  8
AM_5
 48
0.0017930683509735
100
AcDbLine
 10
-1.711528985751557
 20
2.847370087748463
 30
0.0
 11
-1.304096014248443
 21
2.847370087748463
 31
0.0
  0
LINE
  5
1AA
330
195
100
AcDbEntity
  8
AM_5
 48
0.0017930683509735
100
AcDbLine
 10
-1.675961624852348
 20
2.847370087748463
 30
0.0
 11
-1.669715372472269
 21
2.6475
 31
0.0
  0
LINE
  5
1AB
330
195
100
AcDbEntity
  8
AM_5
 48
0.0017930683509735
100
AcDbLine
 10
-1.71356439722307
 20
2.9125
 30
0.0
 11
-1.675961624852348
 21
2.847370087748463
 31
0.0
  0
LINE
  5
1AC
330
195
100
AcDbEntity
  8
AM_7
 48
0.0017930683509735
100
AcDbLine
 10
-1.5078125
 20
3.3195
 30
0.0
 11
-1.5078125
 21
2.6155
 31
0.0
  0
LINE
  5
1AD
330
195
100
AcDbEntity
  8
AM_0
 48
0.0017930683509735
100
AcDbLine
 10
-1.4028125
 20
3.1175
 30
0.0
 11
-1.4028125
 21
3.1475
 31
0.0
  0
LINE
  5
1AE
330
195
100
AcDbEntity
  8
AM_0
 48
0.0017930683509735
100
AcDbLine
 10
-1.6128125
 20
3.1475
 30
0.0
 11
-1.6128125
 21
3.1175
 31
0.0
  0
LINE
  5
1AF
330
195
100
AcDbEntity
  8
AM_0
 48
0.0017930683509735
100
AcDbLine
 10
-1.7265625
 20
3.0125
 30
0.0
 11
-1.2890625
 21
3.0125
 31
0.0
  0
LINE
  5
1B0
330
195
100
AcDbEntity
  8
AM_0
 48
0.0017930683509735
100
AcDbLine
 10
-1.255221757229539
 20
3.003432400303386
 30
0.0
 11
-1.2890625
 21
3.0125
 31
0.0
  0
LINE
  5
1B1
330
195
100
AcDbEntity
  8
AM_0
 48
0.0017930683509735
100
AcDbLine
 10
-1.7265625
 20
3.0125
 30
0.0
 11
-1.760403242770461
 21
3.003432400303386
 31
0.0
  0
LINE
  5
1B2
330
195
100
AcDbEntity
  8
AM_0
 48
0.0017930683509735
100
AcDbLine
 10
-1.2890625
 20
2.9125
 30
0.0
 11
-1.255221757229539
 21
2.921567599696615
 31
0.0
  0
LINE
  5
1B3
330
195
100
AcDbEntity
  8
AM_0
 48
0.0017930683509735
100
AcDbLine
 10
-1.760403242770461
 20
2.921567599696615
 30
0.0
 11
-1.7265625
 21
2.9125
 31
0.0
  0
LINE
  5
1B4
330
195
100
AcDbEntity
  8
AM_0
 48
0.0017930683509735
100
AcDbLine
 10
-1.6128125
 20
3.1175
 30
0.0
 11
-1.4028125
 21
3.1175
 31
0.0
  0
LINE
  5
1B5
330
195
100
AcDbEntity
  8
AM_0
 48
0.0017930683509735
100
AcDbLine
 10
-1.6128125
 20
3.1175
 30
0.0
 11
-1.626632590734897
 21
3.085253121618573
 31
0.0
  0
LINE
  5
1B6
330
195
100
AcDbEntity
  8
AM_0
 48
0.0017930683509735
100
AcDbLine
 10
-1.388992409265102
 20
3.085253121618573
 30
0.0
 11
-1.4028125
 21
3.1175
 31
0.0
  0
LINE
  5
1B7
330
195
100
AcDbEntity
  8
AM_0
 48
0.0017930683509735
100
AcDbLine
 10
-1.6128125
 20
3.1475
 30
0.0
 11
-1.4028125
 21
3.1475
 31
0.0
  0
LINE
  5
1B8
330
195
100
AcDbEntity
  8
AM_0
 48
0.0017930683509735
100
AcDbLine
 10
-1.4028125
 20
3.1475
 30
0.0
 11
-1.3728125
 21
3.2075
 31
0.0
  0
LINE
  5
1B9
330
195
100
AcDbEntity
  8
AM_0
 48
0.0017930683509735
100
AcDbLine
 10
-1.6428125
 20
3.2075
 30
0.0
 11
-1.6128125
 21
3.1475
 31
0.0
  0
LINE
  5
1BA
330
195
100
AcDbEntity
  8
AM_0
 48
0.0017930683509735
100
AcDbLine
 10
-1.610490401933187
 20
3.287500000000001
 30
0.0
 11
-1.405134598066813
 21
3.287500000000001
 31
0.0
  0
LINE
  5
1BB
330
195
100
AcDbEntity
  8
AM_0
 48
0.0017930683509735
100
AcDbLine
 10
-1.6428125
 20
3.2075
 30
0.0
 11
-1.3728125
 21
3.2075
 31
0.0
  0
LINE
  5
1BC
330
195
100
AcDbEntity
  8
AM_0
 48
0.0017930683509735
100
AcDbLine
 10
-1.610490401933187
 20
3.287500000000001
 30
0.0
 11
-1.6428125
 21
3.2075
 31
0.0
  0
LINE
  5
1BD
330
195
100
AcDbEntity
  8
AM_0
 48
0.0017930683509735
100
AcDbLine
 10
-1.3728125
 20
3.2075
 30
0.0
 11
-1.405134598066813
 21
3.287500000000001
 31
0.0
  0
LINE
  5
1BE
330
195
100
AcDbEntity
  8
AM_0
 48
0.0017930683509735
100
AcDbLine
 10
-1.626632590734897
 20
3.085253121618573
 30
0.0
 11
-1.388992409265102
 21
3.085253121618573
 31
0.0
  0
LINE
  5
1BF
330
195
100
AcDbEntity
  8
AM_0
 48
0.0017930683509735
100
AcDbLine
 10
-1.626632590734898
 20
3.085253121618573
 30
0.0
 11
-1.680346553283015
 21
3.030818198540882
 31
0.0
  0
LINE
  5
1C0
330
195
100
AcDbEntity
  8
AM_0
 48
0.0017930683509735
100
AcDbLine
 10
-1.335278446716984
 20
3.030818198540882
 30
0.0
 11
-1.388992409265102
 21
3.085253121618573
 31
0.0
  0
LINE
  5
1C1
330
195
100
AcDbEntity
  8
AM_0
 48
0.0017930683509735
100
AcDbLine
 10
-1.680346553283015
 20
3.030818198540882
 30
0.0
 11
-1.335278446716984
 21
3.030818198540882
 31
0.0
  0
LINE
  5
1C2
330
195
100
AcDbEntity
  8
AM_0
 48
0.0017930683509735
100
AcDbLine
 10
-1.680346553283015
 20
3.030818198540882
 30
0.0
 11
-1.7215625
 21
3.0125
 31
0.0
  0
LINE
  5
1C3
330
195
100
AcDbEntity
  8
AM_0
 48
0.0017930683509735
100
AcDbLine
 10
-1.2940625
 20
3.0125
 30
0.0
 11
-1.335278446716984
 21
3.030818198540882
 31
0.0
  0
LINE
  5
1C4
330
195
100
AcDbEntity
  8
AM_0
 48
0.0017930683509735
100
AcDbLine
 10
-1.255221757229539
 20
3.003432400303386
 30
0.0
 11
-1.255221757229539
 21
2.921567599696615
 31
0.0
  0
LWPOLYLINE
  5
1C5
330
195
100
AcDbEntity
  8
AM_0
 48
0.0017930683509735
100
AcDbPolyline
 90
        3
 70
     0
 43
0.0
 10
-1.318369442922154
 20
3.0125
 10
-1.286795600075846
 20
3.010106619214965
 10
-1.255221757229539
 20
3.003432400303386
  0
LWPOLYLINE
  5
1C6
330
195
100
AcDbEntity
  8
AM_0
 48
0.0017930683509735
100
AcDbPolyline
 90
        3
 70
     0
 43
0.0
 10
-1.381517128614769
 20
3.003432400303386
 10
-1.350085250267872
 20
3.01008547505038
 10
-1.318369442922154
 20
3.0125
  0
LWPOLYLINE
  5
1C7
330
195
100
AcDbEntity
  8
AM_0
 48
0.0017930683509735
100
AcDbPolyline
 90
        3
 70
     0
 43
0.0
 10
-1.318369442922154
 20
2.9125
 10
-1.349943285768462
 20
2.914893380785035
 10
-1.381517128614769
 20
2.921567599696615
  0
LWPOLYLINE
  5
1C8
330
195
100
AcDbEntity
  8
AM_0
 48
0.0017930683509735
100
AcDbPolyline
 90
        3
 70
     0
 43
0.0
 10
-1.255221757229539
 20
2.921567599696615
 10
-1.286653635576436
 20
2.91491452494962
 10
-1.318369442922154
 20
2.9125
  0
LINE
  5
1C9
330
195
100
AcDbEntity
  8
AM_0
 48
0.0017930683509735
100
AcDbLine
 10
-1.381517128614769
 20
3.003432400303386
 30
0.0
 11
-1.381517128614769
 21
2.921567599696615
 31
0.0
  0
LWPOLYLINE
  5
1CA
330
195
100
AcDbEntity
  8
AM_0
 48
0.0017930683509735
100
AcDbPolyline
 90
        4
 70
     0
 43
0.0
 10
-1.5078125
 20
3.0125
 10
-1.459412683944101
 20
3.011082439282863
 10
-1.411012867888202
 20
3.007017587482156
 10
-1.381517128614769
 20
3.003432400303386
  0
LWPOLYLINE
  5
1CB
330
195
100
AcDbEntity
  8
AM_0
 48
0.0017930683509735
100
AcDbPolyline
 90
        3
 70
     0
 43
0.0
 10
-1.63410787138523
 20
3.003432400303386
 10
-1.571244114691437
 20
3.01008547505038
 10
-1.5078125
 20
3.0125
  0
LWPOLYLINE
  5
1CC
330
195
100
AcDbEntity
  8
AM_0
 48
0.0017930683509735
100
AcDbPolyline
 90
        4
 70
     0
 43
0.0
 10
-1.381517128614769
 20
2.921567599696615
 10
-1.411012867888202
 20
2.917982412517844
 10
-1.459270058752246
 20
2.913925828243072
 10
-1.5078125
 20
2.9125
  0
LINE
  5
1CD
330
195
100
AcDbEntity
  8
AM_0
 48
0.0017930683509735
100
AcDbLine
 10
-1.63410787138523
 20
3.003432400303386
 30
0.0
 11
-1.63410787138523
 21
2.921567599696615
 31
0.0
  0
LWPOLYLINE
  5
1CE
330
195
100
AcDbEntity
  8
AM_0
 48
0.0017930683509735
100
AcDbPolyline
 90
        3
 70
     0
 43
0.0
 10
-1.697255557077846
 20
3.0125
 10
-1.665681714231538
 20
3.010106619214965
 10
-1.63410787138523
 20
3.003432400303386
  0
LWPOLYLINE
  5
1CF
330
195
100
AcDbEntity
  8
AM_0
 48
0.0017930683509735
100
AcDbPolyline
 90
        3
 70
     0
 43
0.0
 10
-1.760403242770461
 20
3.003432400303386
 10
-1.728971364423564
 20
3.01008547505038
 10
-1.697255557077846
 20
3.0125
  0
LINE
  5
1D0
330
195
100
AcDbEntity
  8
AM_0
 48
0.0017930683509735
100
AcDbLine
 10
-1.760403242770461
 20
3.003432400303386
 30
0.0
 11
-1.760403242770461
 21
2.921567599696615
 31
0.0
  0
LWPOLYLINE
  5
1D1
330
195
100
AcDbEntity
  8
AM_0
 48
0.0017930683509735
100
AcDbPolyline
 90
        3
 70
     0
 43
0.0
 10
-1.697255557077846
 20
2.9125
 10
-1.728829399924154
 20
2.914893380785035
 10
-1.760403242770461
 20
2.921567599696615
  0
LWPOLYLINE
  5
1D2
330
195
100
AcDbEntity
  8
AM_0
 48
0.0017930683509735
100
AcDbPolyline
 90
        3
 70
     0
 43
0.0
 10
-1.5078125
 20
2.9125
 10
-1.570960185692615
 20
2.914893380785035
 10
-1.63410787138523
 20
2.921567599696615
  0
LWPOLYLINE
  5
1D3
330
195
100
AcDbEntity
  8
AM_0
 48
0.0017930683509735
100
AcDbPolyline
 90
        3
 70
     0
 43
0.0
 10
-1.63410787138523
 20
2.921567599696615
 10
-1.665539749732128
 20
2.91491452494962
 10
-1.697255557077846
 20
2.9125
  0
ENDBLK
  5
198
330
195
100
AcDbEntity
  8
0
100
AcDbBlockEnd
  0
BLOCK
  5
1D6
330
1D4
100
AcDbEntity
  8
0
100
AcDbBlockBegin
  2
6_069791H_0_in_069791_2
 70
     2
 10
0.0
 20
0.0
 30
0.0
  3
6_069791H_0_in_069791_2
  1

  0
ATTDEF
  5
1D8
330
1D4
100
AcDbEntity
  8
AM_6
100
AcDbText
 10
5.137421875029992
 20
3.0625
 30
0.0
 40
0.5
  1
F4S-L -(Labyrinth Seal)-Housing -Inch
100
AcDbAttributeDefinition
  3

  2
NN
 70
     8
280
     0
  0
ATTDEF
  5
1D9
330
1D4
100
AcDbEntity
  8
AM_6
100
AcDbText
 10
5.137421875029992
 20
2.5625
 30
0.0
 40
0.5
  1
Imperial 4 Bolt Square Flange Bearings
100
AcDbAttributeDefinition
  3

  2
NT
 70
     8
280
     0
  0
ATTDEF
  5
1DA
330
1D4
100
AcDbEntity
  8
AM_6
100
AcDbText
 10
5.137421875029992
 20
2.0625
 30
0.0
 40
0.5
  1
069791H
100
AcDbAttributeDefinition
  3

  2
NB
 70
     8
280
     0
  0
ATTDEF
  5
1DB
330
1D4
100
AcDbEntity
  8
AM_6
100
AcDbText
 10
5.137421875029992
 20
1.5625
 30
0.0
 40
0.5
  1
$PN.H
100
AcDbAttributeDefinition
  3

  2
NBSYN
 70
     8
280
     0
  0
ATTDEF
  5
1DC
330
1D4
100
AcDbEntity
  8
AM_6
100
AcDbText
 10
5.137421875029992
 20
1.0625
 30
0.0
 40
0.5
  1
069791
100
AcDbAttributeDefinition
  3

  2
LINA
 70
     8
280
     0
  0
ATTDEF
  5
1DD
330
1D4
100
AcDbEntity
  8
AM_6
100
AcDbText
 10
5.137421875029992
 20
0.5625
 30
0.0
 40
0.5
  1
2-3/8
100
AcDbAttributeDefinition
  3

  2
SS
 70
     8
280
     0
  0
ATTDEF
  5
1DE
330
1D4
100
AcDbEntity
  8
AM_6
100
AcDbText
 10
5.137421875029992
 20
0.0625
 30
0.0
 40
0.5
  1
069791
100
AcDbAttributeDefinition
  3

  2
PN
 70
     8
280
     0
  0
ATTDEF
  5
1DF
330
1D4
100
AcDbEntity
  8
AM_6
100
AcDbText
 10
5.137421875029992
 20
-0.4375
 30
0.0
 40
0.5
  1
F4S-IP-206LE
100
AcDbAttributeDefinition
  3

  2
DESCRIPTION
 70
     8
280
     0
  0
ATTDEF
  5
1E0
330
1D4
100
AcDbEntity
  8
AM_6
100
AcDbText
 10
5.137421875029992
 20
-0.9375
 30
0.0
 40
0.5
  1
Expansion Type
100
AcDbAttributeDefinition
  3

  2
EF
 70
     8
280
     0
  0
ATTDEF
  5
1E1
330
1D4
100
AcDbEntity
  8
AM_6
100
AcDbText
 10
5.137421875029992
 20
-1.4375
 30
0.0
 40
0.5
  1
Labyrinth Seal
100
AcDbAttributeDefinition
  3

  2
ST
 70
     8
280
     0
  0
ATTDEF
  5
1E2
330
1D4
100
AcDbEntity
  8
AM_6
100
AcDbText
 10
5.137421875029992
 20
-1.9375
 30
0.0
 40
0.5
  1
3-27/64
100
AcDbAttributeDefinition
  3

  2
A
 70
     8
280
     0
  0
ATTDEF
  5
1E3
330
1D4
100
AcDbEntity
  8
AM_6
100
AcDbText
 10
5.137421875029992
 20
-2.4375
 30
0.0
 40
0.5
  1
6-1/8
100
AcDbAttributeDefinition
  3

  2
B
 70
     8
280
     0
  0
ATTDEF
  5
1E4
330
1D4
100
AcDbEntity
  8
AM_6
100
AcDbText
 10
5.137421875029992
 20
-2.9375
 30
0.0
 40
0.5
  1
3-47/64
100
AcDbAttributeDefinition
  3

  2
C
 70
     8
280
     0
  0
ATTDEF
  5
1E5
330
1D4
100
AcDbEntity
  8
AM_6
100
AcDbText
 10
5.137421875029992
 20
-3.4375
 30
0.0
 40
0.5
  1
4-25/32
100
AcDbAttributeDefinition
  3

  2
D
 70
     8
280
     0
  0
ATTDEF
  5
1E6
330
1D4
100
AcDbEntity
  8
AM_6
100
AcDbText
 10
5.137421875029992
 20
-3.9375
 30
0.0
 40
0.5
  1
5/8
100
AcDbAttributeDefinition
  3

  2
F
 70
     8
280
     0
  0
ATTDEF
  5
1E7
330
1D4
100
AcDbEntity
  8
AM_6
100
AcDbText
 10
5.137421875029992
 20
-4.4375
 30
0.0
 40
0.5
  1
1-23/64
100
AcDbAttributeDefinition
  3

  2
G
 70
     8
280
     0
  0
ATTDEF
  5
1E8
330
1D4
100
AcDbEntity
  8
AM_6
100
AcDbText
 10
5.137421875029992
 20
-4.9375
 30
0.0
 40
0.5
  1
41/64
100
AcDbAttributeDefinition
  3

  2
H
 70
     8
280
     0
  0
ATTDEF
  5
1E9
330
1D4
100
AcDbEntity
  8
AM_6
100
AcDbText
 10
5.137421875029992
 20
-5.4375
 30
0.0
 40
0.5
  1
5-5/8
100
AcDbAttributeDefinition
  3

  2
J
 70
     8
280
     0
  0
ATTDEF
  5
1EA
330
1D4
100
AcDbEntity
  8
AM_6
100
AcDbText
 10
5.137421875029992
 20
-5.9375
 30
0.0
 40
0.5
  1
6-3/4
100
AcDbAttributeDefinition
  3

  2
K
 70
     8
280
     0
  0
ATTDEF
  5
1EB
330
1D4
100
AcDbEntity
  8
AM_6
100
AcDbText
 10
5.137421875029992
 20
-6.4375
 30
0.0
 40
0.5
  1
3-7/8
100
AcDbAttributeDefinition
  3

  2
L
 70
     8
280
     0
  0
ATTDEF
  5
1EC
330
1D4
100
AcDbEntity
  8
AM_6
100
AcDbText
 10
5.137421875029992
 20
-6.9375
 30
0.0
 40
0.5
  1
3-13/32
100
AcDbAttributeDefinition
  3

  2
N
 70
     8
280
     0
  0
ATTDEF
  5
1ED
330
1D4
100
AcDbEntity
  8
AM_6
100
AcDbText
 10
5.137421875029992
 20
-7.4375
 30
0.0
 40
0.5
  1
5/16
100
AcDbAttributeDefinition
  3

  2
P
 70
     8
280
     0
  0
ATTDEF
  5
1EE
330
1D4
100
AcDbEntity
  8
AM_6
100
AcDbText
 10
5.137421875029992
 20
-7.9375
 30
0.0
 40
0.5
  1
1/4
100
AcDbAttributeDefinition
  3

  2
X
 70
     8
280
     0
  0
ATTDEF
  5
1EF
330
1D4
100
AcDbEntity
  8
AM_6
100
AcDbText
 10
5.137421875029992
 20
-8.4375
 30
0.0
 40
0.5
  1
0.025
100
AcDbAttributeDefinition
  3

  2
Y
 70
     8
280
     0
  0
ATTDEF
  5
1F0
330
1D4
100
AcDbEntity
  8
AM_6
100
AcDbText
 10
5.137421875029992
 20
-8.9375
 30
0.0
 40
0.5
  1
2-15/16
100
AcDbAttributeDefinition
  3

  2
Z
 70
     8
280
     0
  0
ATTDEF
  5
1F1
330
1D4
100
AcDbEntity
  8
AM_6
100
AcDbText
 10
5.137421875029992
 20
-9.4375
 30
0.0
 40
0.5
  1
baldor
100
AcDbAttributeDefinition
  3

  2
COMPANY
 70
     8
280
     0
  0
LINE
  5
1F2
330
1D4
100
AcDbEntity
  8
AM_9
 48
0.0185627657606362
100
AcDbLine
 10
-0.5765624999999998
 20
2.999907358516055
 30
0.0
 11
-0.6406249999999998
 21
2.999907358516055
 31
0.0
  0
LINE
  5
1F3
330
1D4
100
AcDbEntity
  8
AM_9
 48
0.0185627657606362
100
AcDbLine
 10
-0.5765624999999998
 20
3.0625
 30
0.0
 11
-0.5765625000000001
 21
2.46857766754205
 31
0.0
  0
LINE
  5
1F4
330
1D4
100
AcDbEntity
  8
AM_9
 48
0.0185627657606362
100
AcDbLine
 10
-0.5765624999999998
 20
-2.999907358516055
 30
0.0
 11
-0.6406249999999998
 21
-2.999907358516055
 31
0.0
  0
LINE
  5
1F5
330
1D4
100
AcDbEntity
  8
AM_9
 48
0.0185627657606362
100
AcDbLine
 10
0.0
 20
2.36205
 30
0.0
 11
-2.375
 21
2.36205
 31
0.0
  0
LINE
  5
1F6
330
1D4
100
AcDbEntity
  8
AM_9
 48
0.0185627657606362
100
AcDbLine
 10
-2.375
 20
-2.36205
 30
0.0
 11
0.0
 21
-2.36205
 31
0.0
  0
LINE
  5
1F7
330
1D4
100
AcDbEntity
  8
AM_9
 48
0.0185627657606362
100
AcDbLine
 10
-0.5765625000000001
 20
-2.468577667542049
 30
0.0
 11
-0.5765624999999998
 21
-3.0625
 31
0.0
  0
LINE
  5
1F8
330
1D4
100
AcDbEntity
  8
AM_9
 48
0.0185627657606362
100
AcDbLine
 10
-0.6406249999999998
 20
2.078125
 30
0.0
 11
0.0000000000000001
 21
2.078125
 31
0.0
  0
LINE
  5
1F9
330
1D4
100
AcDbEntity
  8
AM_9
 48
0.0185627657606362
100
AcDbLine
 10
0.0000000000000001
 20
2.703125
 30
0.0
 11
-0.6406249999999998
 21
2.703125
 31
0.0
  0
LINE
  5
1FA
330
1D4
100
AcDbEntity
  8
AM_9
 48
0.0185627657606362
100
AcDbLine
 10
-0.6406249999999998
 20
-2.703125
 30
0.0
 11
0.0000000000000001
 21
-2.703125
 31
0.0
  0
LINE
  5
1FB
330
1D4
100
AcDbEntity
  8
AM_9
 48
0.0185627657606362
100
AcDbLine
 10
0.0000000000000001
 20
-2.078125
 30
0.0
 11
-0.6406249999999998
 21
-2.078125
 31
0.0
  0
LINE
  5
1FC
330
1D4
100
AcDbEntity
  8
AM_9
 48
0.0185627657606362
100
AcDbLine
 10
-0.6406249999999998
 20
2.46857766754205
 30
0.0
 11
-0.5765625000000001
 21
2.46857766754205
 31
0.0
  0
LINE
  5
1FD
330
1D4
100
AcDbEntity
  8
AM_9
 48
0.0185627657606362
100
AcDbLine
 10
-0.5765625000000001
 20
-2.468577667542049
 30
0.0
 11
-0.6406249999999998
 21
-2.468577667542049
 31
0.0
  0
LINE
  5
1FE
330
1D4
100
AcDbEntity
  8
AM_9
 48
0.0185627657606362
100
AcDbLine
 10
-0.5765625000000001
 20
2.8125
 30
0.0
 11
-0.6406249999999997
 21
2.8125
 31
0.0
  0
LINE
  5
1FF
330
1D4
100
AcDbEntity
  8
AM_9
 48
0.0185627657606362
100
AcDbLine
 10
-0.6406249999999997
 20
-2.8125
 30
0.0
 11
-0.5765625000000001
 21
-2.8125
 31
0.0
  0
LINE
  5
200
330
1D4
100
AcDbEntity
  8
AM_7
 48
0.0185627657606362
100
AcDbLine
 10
0.1374218750299924
 20
0.0
 30
0.0
 11
-3.65671875
 21
0.0
 31
0.0
  0
LINE
  5
201
330
1D4
100
AcDbEntity
  8
AM_7
 48
0.0185627657606362
100
AcDbLine
 10
0.0384374999999999
 20
2.390625
 30
0.0
 11
-0.8071875000000001
 21
2.390625
 31
0.0
  0
LINE
  5
202
330
1D4
100
AcDbEntity
  8
AM_7
 48
0.0185627657606362
100
AcDbLine
 10
0.0384374999999999
 20
-2.390625
 30
0.0
 11
-0.8071875000000001
 21
-2.390625
 31
0.0
  0
LINE
  5
203
330
1D4
100
AcDbEntity
  8
AM_0
 48
0.0185627657606362
100
AcDbLine
 10
-1.1078125
 20
2.9125
 30
0.0
 11
-1.907812499725799
 21
2.9125
 31
0.0
  0
ARC
  5
204
330
1D4
100
AcDbEntity
  8
AM_0
 48
0.0185627657606362
100
AcDbCircle
 10
-1.907812499999999
 20
2.8125
 30
0.0
 40
0.1000000000000005
100
AcDbArc
 50
90.00000000000011
 51
179.9999999999997
  0
ARC
  5
205
330
1D4
100
AcDbEntity
  8
AM_0
 48
0.0185627657606362
100
AcDbCircle
 10
-1.107812500000001
 20
2.8125
 30
0.0
 40
0.1000000000000008
100
AcDbArc
 50
0.0000000000002544
 51
89.99999999999962
  0
LINE
  5
206
330
1D4
100
AcDbEntity
  8
AM_4
 48
0.0185627657606362
100
AcDbLine
 10
-1.0078125
 20
2.8125
 30
0.0
 11
-2.0078125
 21
2.8125
 31
0.0
  0
LWPOLYLINE
  5
207
330
1D4
100
AcDbEntity
  8
AM_0
 48
0.0185627657606362
100
AcDbPolyline
 90
       38
 70
     0
 43
0.0
 10
-1.0078125
 20
2.8125
 10
-1.009512032487195
 20
2.812197874669
 10
-1.014585572691604
 20
2.811303799275717
 10
-1.02330382481556
 20
2.809786889937686
 10
-1.035487180661385
 20
2.807712139320611
 10
-1.050562056376361
 20
2.805215284146212
 10
-1.068710221132325
 20
2.802314589996417
 10
-1.090458539343782
 20
2.798989140213131
 10
-1.115166242124517
 20
2.795411836174344
 10
-1.142137967502389
 20
2.791751258055592
 10
-1.171612017362707
 20
2.78804358189135
 10
-1.204343262923469
 20
2.784286715601271
 10
-1.239286143247543
 20
2.780694635207316
 10
-1.275392664598436
 20
2.777441119472353
 10
-1.313138690603548
 20
2.774536743686218
 10
-1.353451062562423
 20
2.772001012912441
 10
-1.394931161088526
 20
2.769999719616311
 10
-1.4356065181406
 20
2.76864151819701
 10
-1.476790717294636
 20
2.767872576727877
 10
-1.519428114849566
 20
2.767724351642832
 10
-1.561978506024023
 20
2.768228712770784
 10
-1.602450185580678
 20
2.769317246184563
 10
-1.642271146841618
 20
2.770962897209285
 10
-1.682270564046672
 20
2.773192555784948
 10
-1.721012678785123
 20
2.775898154874203
 10
-1.757406434257994
 20
2.778930866323978
 10
-1.792100571589838
 20
2.782260943486119
 10
-1.825758088606027
 20
2.785901628729952
 10
-1.857149115443504
 20
2.789658101074309
 10
-1.885663125607706
 20
2.793372161240989
 10
-1.911572744197569
 20
2.796994562882538
 10
-1.935319398680666
 20
2.800520967493768
 10
-1.95594771339438
 20
2.803744178680363
 10
-1.972858185655831
 20
2.806496389671549
 10
-1.986550136447087
 20
2.808797959012172
 10
-1.997166981024149
 20
2.81062647449908
 10
-2.004177307443249
 20
2.811856019085645
 10
-2.0078125
 20
2.8125
  0
LINE
  5
208
330
1D4
100
AcDbEntity
  8
AM_0
 48
0.0185627657606362
100
AcDbLine
 10
-0.6406249999999997
 20
2.8125
 30
0.0
 11
-1.0078125
 21
2.8125
 31
0.0
  0
LINE
  5
209
330
1D4
100
AcDbEntity
  8
AM_0
 48
0.0185627657606362
100
AcDbLine
 10
-2.0078125
 20
2.8125
 30
0.0
 11
-2.2390625
 21
2.8125
 31
0.0
  0
LINE
  5
20A
330
1D4
100
AcDbEntity
  8
AM_0
 48
0.0185627657606362
100
AcDbLine
 10
-2.2390625
 20
-2.8125
 30
0.0
 11
-0.6406249999999997
 21
-2.8125
 31
0.0
  0
LINE
  5
20B
330
1D4
100
AcDbEntity
  8
AM_4
 48
0.0185627657606362
100
AcDbLine
 10
-2.2390625
 20
-2.8125
 30
0.0
 11
-2.2390625
 21
2.8125
 31
0.0
  0
LINE
  5
20C
330
1D4
100
AcDbEntity
  8
AM_0
 48
0.0185627657606362
100
AcDbLine
 10
-2.375
 20
-2.6765625
 30
0.0
 11
-2.375
 21
2.6765625
 31
0.0
  0
ARC
  5
20D
330
1D4
100
AcDbEntity
  8
AM_0
 48
0.0185627657606362
100
AcDbCircle
 10
-2.239062500000001
 20
2.6765625
 30
0.0
 40
0.1359374999999994
100
AcDbArc
 50
89.99999999999962
 51
180.0
  0
ARC
  5
20E
330
1D4
100
AcDbEntity
  8
AM_0
 48
0.0185627657606362
100
AcDbCircle
 10
-2.239062500000001
 20
-2.6765625
 30
0.0
 40
0.1359374999999989
100
AcDbArc
 50
180.0
 51
270.0000000000004
  0
LINE
  5
20F
330
1D4
100
AcDbEntity
  8
AM_0
 48
0.0185627657606362
100
AcDbLine
 10
-0.6406249999999998
 20
-3.0625
 30
0.0
 11
-0.6406249999999998
 21
-1.347694531157802
 31
0.0
  0
LINE
  5
210
330
1D4
100
AcDbEntity
  8
AM_0
 48
0.0185627657606362
100
AcDbLine
 10
-0.6406249999999998
 20
-1.347694531157802
 30
0.0
 11
-0.5765625
 21
-1.347694531157802
 31
0.0
  0
LINE
  5
211
330
1D4
100
AcDbEntity
  8
AM_0
 48
0.0185627657606362
100
AcDbLine
 10
-0.5765625
 20
1.347694531157802
 30
0.0
 11
-0.6406249999999998
 21
1.347694531157802
 31
0.0
  0
LINE
  5
212
330
1D4
100
AcDbEntity
  8
AM_0
 48
0.0185627657606362
100
AcDbLine
 10
-0.6406249999999998
 20
-3.0625
 30
0.0
 11
0.0000000000000001
 21
-3.0625
 31
0.0
  0
LINE
  5
213
330
1D4
100
AcDbEntity
  8
AM_0
 48
0.0185627657606362
100
AcDbLine
 10
-0.5765624999999998
 20
-2.367620860148215
 30
0.0
 11
-0.5765624999999998
 21
2.367620860148222
 31
0.0
  0
LINE
  5
214
330
1D4
100
AcDbEntity
  8
AM_4
 48
0.0185627657606362
100
AcDbLine
 10
-0.6406249999999998
 20
-2.390625
 30
0.0
 11
0.0000000000000002
 21
-2.390625
 31
0.0
  0
LINE
  5
215
330
1D4
100
AcDbEntity
  8
AM_0
 48
0.0185627657606362
100
AcDbLine
 10
-0.6406249999999998
 20
1.347694531157802
 30
0.0
 11
-0.6406249999999998
 21
3.0625
 31
0.0
  0
LINE
  5
216
330
1D4
100
AcDbEntity
  8
AM_0
 48
0.0185627657606362
100
AcDbLine
 10
0.0000000000000001
 20
-3.0625
 30
0.0
 11
0.0000000000000001
 21
3.0625
 31
0.0
  0
LINE
  5
217
330
1D4
100
AcDbEntity
  8
AM_0
 48
0.0185627657606362
100
AcDbLine
 10
-0.6406249999999998
 20
3.0625
 30
0.0
 11
0.0000000000000001
 21
3.0625
 31
0.0
  0
LINE
  5
218
330
1D4
100
AcDbEntity
  8
AM_4
 48
0.0185627657606362
100
AcDbLine
 10
-0.6406249999999998
 20
2.390625
 30
0.0
 11
0.0000000000000002
 21
2.390625
 31
0.0
  0
LINE
  5
219
330
1D4
100
AcDbEntity
  8
AM_0
 48
0.0185627657606362
100
AcDbLine
 10
-0.5765624999999998
 20
2.367620860148222
 30
0.0
 11
-0.6406249999999998
 21
2.367620860148222
 31
0.0
  0
LINE
  5
21A
330
1D4
100
AcDbEntity
  8
AM_0
 48
0.0185627657606362
100
AcDbLine
 10
-0.5765624999999998
 20
2.106511970245232
 30
0.0
 11
-0.6406249999999998
 21
2.106511970245232
 31
0.0
  0
LINE
  5
21B
330
1D4
100
AcDbEntity
  8
AM_0
 48
0.0185627657606362
100
AcDbLine
 10
-0.6406249999999998
 20
-2.367620860148215
 30
0.0
 11
-0.5765624999999998
 21
-2.367620860148215
 31
0.0
  0
LINE
  5
21C
330
1D4
100
AcDbEntity
  8
AM_0
 48
0.0185627657606362
100
AcDbLine
 10
-0.5765624999999998
 20
-2.106511970245231
 30
0.0
 11
-0.6406249999999998
 21
-2.106511970245231
 31
0.0
  0
ENDBLK
  5
1D7
330
1D4
100
AcDbEntity
  8
0
100
AcDbBlockEnd
  0
ENDSEC
  0
SECTION
  2
ENTITIES
  0
ATTDEF
  5
6F
330
1F
100
AcDbEntity
  8
AM_6
100
AcDbText
 10
5.137421875029992
 20
3.3195
 30
0.0
 40
0.5
  1
Imperial - IP Pillow Block 4-Bolt Labyrinth Seal
100
AcDbAttributeDefinition
  3

  2
NN
 70
     8
280
     0
  0
ATTDEF
  5
70
330
1F
100
AcDbEntity
  8
AM_6
100
AcDbText
 10
5.137421875029992
 20
2.8195
 30
0.0
 40
0.5
  1
Imperial 4 Bolt Square Flange Bearings
100
AcDbAttributeDefinition
  3

  2
NT
 70
     8
280
     0
  0
ATTDEF
  5
71
330
1F
100
AcDbEntity
  8
AM_6
100
AcDbText
 10
5.137421875029992
 20
2.3195
 30
0.0
 40
0.5
  1
069791
100
AcDbAttributeDefinition
  3

  2
NB
 70
     8
280
     0
  0
ATTDEF
  5
72
330
1F
100
AcDbEntity
  8
AM_6
100
AcDbText
 10
5.137421875029992
 20
1.8195
 30
0.0
 40
0.5
  1
$PN.
100
AcDbAttributeDefinition
  3

  2
NBSYN
 70
     8
280
     0
  0
ATTDEF
  5
73
330
1F
100
AcDbEntity
  8
AM_6
100
AcDbText
 10
5.137421875029992
 20
1.3195
 30
0.0
 40
0.5
  1
069791
100
AcDbAttributeDefinition
  3

  2
LINA
 70
     8
280
     0
  0
ATTDEF
  5
74
330
1F
100
AcDbEntity
  8
AM_6
100
AcDbText
 10
5.137421875029992
 20
0.8194999999999997
 30
0.0
 40
0.5
  1
2-3/8
100
AcDbAttributeDefinition
  3

  2
SS
 70
     8
280
     0
  0
ATTDEF
  5
75
330
1F
100
AcDbEntity
  8
AM_6
100
AcDbText
 10
5.137421875029992
 20
0.3194999999999997
 30
0.0
 40
0.5
  1
069791
100
AcDbAttributeDefinition
  3

  2
PN
 70
     8
280
     0
  0
ATTDEF
  5
76
330
1F
100
AcDbEntity
  8
AM_6
100
AcDbText
 10
5.137421875029992
 20
-0.1805000000000003
 30
0.0
 40
0.5
  1
F4S-IP-206LE
100
AcDbAttributeDefinition
  3

  2
DESCRIPTION
 70
     8
280
     0
  0
ATTDEF
  5
77
330
1F
100
AcDbEntity
  8
AM_6
100
AcDbText
 10
5.137421875029992
 20
-0.6805000000000003
 30
0.0
 40
0.5
  1
Expansion Type
100
AcDbAttributeDefinition
  3

  2
EF
 70
     8
280
     0
  0
ATTDEF
  5
78
330
1F
100
AcDbEntity
  8
AM_6
100
AcDbText
 10
5.137421875029992
 20
-1.1805
 30
0.0
 40
0.5
  1
Labyrinth Seal
100
AcDbAttributeDefinition
  3

  2
ST
 70
     8
280
     0
  0
ATTDEF
  5
79
330
1F
100
AcDbEntity
  8
AM_6
100
AcDbText
 10
5.137421875029992
 20
-1.6805
 30
0.0
 40
0.5
  1
3-27/64
100
AcDbAttributeDefinition
  3

  2
A
 70
     8
280
     0
  0
ATTDEF
  5
7A
330
1F
100
AcDbEntity
  8
AM_6
100
AcDbText
 10
5.137421875029992
 20
-2.1805
 30
0.0
 40
0.5
  1
6-1/8
100
AcDbAttributeDefinition
  3

  2
B
 70
     8
280
     0
  0
ATTDEF
  5
7B
330
1F
100
AcDbEntity
  8
AM_6
100
AcDbText
 10
5.137421875029992
 20
-2.6805
 30
0.0
 40
0.5
  1
3-47/64
100
AcDbAttributeDefinition
  3

  2
C
 70
     8
280
     0
  0
ATTDEF
  5
7C
330
1F
100
AcDbEntity
  8
AM_6
100
AcDbText
 10
5.137421875029992
 20
-3.1805
 30
0.0
 40
0.5
  1
4-25/32
100
AcDbAttributeDefinition
  3

  2
D
 70
     8
280
     0
  0
ATTDEF
  5
7D
330
1F
100
AcDbEntity
  8
AM_6
100
AcDbText
 10
5.137421875029992
 20
-3.6805
 30
0.0
 40
0.5
  1
5/8
100
AcDbAttributeDefinition
  3

  2
F
 70
     8
280
     0
  0
ATTDEF
  5
7E
330
1F
100
AcDbEntity
  8
AM_6
100
AcDbText
 10
5.137421875029992
 20
-4.1805
 30
0.0
 40
0.5
  1
1-23/64
100
AcDbAttributeDefinition
  3

  2
G
 70
     8
280
     0
  0
ATTDEF
  5
7F
330
1F
100
AcDbEntity
  8
AM_6
100
AcDbText
 10
5.137421875029992
 20
-4.6805
 30
0.0
 40
0.5
  1
41/64
100
AcDbAttributeDefinition
  3

  2
H
 70
     8
280
     0
  0
ATTDEF
  5
80
330
1F
100
AcDbEntity
  8
AM_6
100
AcDbText
 10
5.137421875029992
 20
-5.1805
 30
0.0
 40
0.5
  1
5-5/8
100
AcDbAttributeDefinition
  3

  2
J
 70
     8
280
     0
  0
ATTDEF
  5
81
330
1F
100
AcDbEntity
  8
AM_6
100
AcDbText
 10
5.137421875029992
 20
-5.6805
 30
0.0
 40
0.5
  1
6-3/4
100
AcDbAttributeDefinition
  3

  2
K
 70
     8
280
     0
  0
ATTDEF
  5
82
330
1F
100
AcDbEntity
  8
AM_6
100
AcDbText
 10
5.137421875029992
 20
-6.1805
 30
0.0
 40
0.5
  1
3-7/8
100
AcDbAttributeDefinition
  3

  2
L
 70
     8
280
     0
  0
ATTDEF
  5
83
330
1F
100
AcDbEntity
  8
AM_6
100
AcDbText
 10
5.137421875029992
 20
-6.6805
 30
0.0
 40
0.5
  1
3-13/32
100
AcDbAttributeDefinition
  3

  2
N
 70
     8
280
     0
  0
ATTDEF
  5
84
330
1F
100
AcDbEntity
  8
AM_6
100
AcDbText
 10
5.137421875029992
 20
-7.1805
 30
0.0
 40
0.5
  1
5/16
100
AcDbAttributeDefinition
  3

  2
P
 70
     8
280
     0
  0
ATTDEF
  5
85
330
1F
100
AcDbEntity
  8
AM_6
100
AcDbText
 10
5.137421875029992
 20
-7.6805
 30
0.0
 40
0.5
  1
1/4
100
AcDbAttributeDefinition
  3

  2
X
 70
     8
280
     0
  0
ATTDEF
  5
86
330
1F
100
AcDbEntity
  8
AM_6
100
AcDbText
 10
5.137421875029992
 20
-8.1805
 30
0.0
 40
0.5
  1
0.025
100
AcDbAttributeDefinition
  3

  2
Y
 70
     8
280
     0
  0
ATTDEF
  5
87
330
1F
100
AcDbEntity
  8
AM_6
100
AcDbText
 10
5.137421875029992
 20
-8.6805
 30
0.0
 40
0.5
  1
2-15/16
100
AcDbAttributeDefinition
  3

  2
Z
 70
     8
280
     0
  0
ATTDEF
  5
88
330
1F
100
AcDbEntity
  8
AM_6
100
AcDbText
 10
5.137421875029992
 20
-9.1805
 30
0.0
 40
0.5
  1
baldor
100
AcDbAttributeDefinition
  3

  2
COMPANY
 70
     8
280
     0
  0
INSERT
  5
8A
330
1F
100
AcDbEntity
  8
0
100
AcDbBlockReference
  2
1_ASME_B18_3_10_1_0_in_069791_2
 10
0.0
 20
0.0
 30
0.0
  0
INSERT
  5
B3
330
1F
100
AcDbEntity
  8
0
100
AcDbBlockReference
  2
2_ASME_B18_3_10_2_0_in_069791_2
 10
0.0
 20
0.0
 30
0.0
  0
INSERT
  5
D7
330
1F
100
AcDbEntity
  8
0
100
AcDbBlockReference
  2
3_070894LW_0_in_069791_2
 10
0.0
 20
0.0
 30
0.0
  0
INSERT
  5
10D
330
1F
100
AcDbEntity
  8
0
100
AcDbBlockReference
  2
4_070926I_0_in_069791_2
 10
0.0
 20
0.0
 30
0.0
  0
INSERT
  5
196
330
1F
100
AcDbEntity
  8
0
100
AcDbBlockReference
  2
5_405015E_Inch_0_in_069791_2
 10
0.0
 20
0.0
 30
0.0
  0
INSERT
  5
1D5
330
1F
100
AcDbEntity
  8
0
100
AcDbBlockReference
  2
6_069791H_0_in_069791_2
 10
0.0
 20
0.0
 30
0.0
  0
POINT
  5
21E
330
1F
100
AcDbEntity
  8
ConnectionPoints
100
AcDbPoint
 10
-3.283041666666666
 20
1.628472222222222
 30
0.0000000000000002
  0
POINT
  5
21F
330
1F
100
AcDbEntity
  8
ConnectionPoints
100
AcDbPoint
 10
-3.213041666666666
 20
0.0
 30
0.0000000000000002
  0
POINT
  5
220
330
1F
100
AcDbEntity
  8
ConnectionPoints
100
AcDbPoint
 10
-3.484375
 20
0.0
 30
0.0000000000000002
  0
POINT
  5
221
330
1F
100
AcDbEntity
  8
ConnectionPoints
100
AcDbPoint
 10
-3.412041666666667
 20
0.0
 30
0.0000000000000002
  0
POINT
  5
222
330
1F
100
AcDbEntity
  8
ConnectionPoints
100
AcDbPoint
 10
-3.213041666666666
 20
1.628472222222222
 30
0.0000000000000002
  0
POINT
  5
223
330
1F
100
AcDbEntity
  8
ConnectionPoints
100
AcDbPoint
 10
-3.383375
 20
1.628472222222222
 30
0.0000000000000002
  0
POINT
  5
224
330
1F
100
AcDbEntity
  8
ConnectionPoints
100
AcDbPoint
 10
-3.213041666666666
 20
-1.628472222222222
 30
0.0000000000000002
  0
POINT
  5
225
330
1F
100
AcDbEntity
  8
ConnectionPoints
100
AcDbPoint
 10
-3.383375
 20
-1.628472222222222
 30
0.0000000000000002
  0
POINT
  5
226
330
1F
100
AcDbEntity
  8
ConnectionPoints
100
AcDbPoint
 10
-3.213041666666666
 20
0.0
 30
0.0000000000000002
  0
POINT
  5
227
330
1F
100
AcDbEntity
  8
ConnectionPoints
100
AcDbPoint
 10
-1.5078125
 20
2.9125
 30
0.0000000000000001
  0
POINT
  5
228
330
1F
100
AcDbEntity
  8
ConnectionPoints
100
AcDbPoint
 10
-1.5078125
 20
2.9125
 30
0.0000000000000001
  0
POINT
  5
229
330
1F
100
AcDbEntity
  8
ConnectionPoints
100
AcDbPoint
 10
-3.484375
 20
0.0
 30
0.0000000000000002
  0
POINT
  5
22A
330
1F
100
AcDbEntity
  8
ConnectionPoints
100
AcDbPoint
 10
-3.734375
 20
0.0
 30
0.0000000000000002
  0
ENDSEC
  0
SECTION
  2
OBJECTS
  0
DICTIONARY
  5
C
330
0
100
AcDbDictionary
281
     1
  3
ACAD_DETAILVIEWSTYLE
350
232
  3
ACAD_GROUP
350
D
  3
ACAD_LAYOUT
350
1A
  3
ACAD_MATERIAL
350
43
  3
ACAD_MLEADERSTYLE
350
6B
  3
ACAD_MLINESTYLE
350
17
  3
ACAD_PLOTSETTINGS
350
19
  3
ACAD_PLOTSTYLENAME
350
E
  3
ACAD_SCALELIST
350
47
  3
ACAD_SECTIONVIEWSTYLE
350
233
  3
ACAD_TABLESTYLE
350
69
  3
ACAD_VISUALSTYLE
350
2A
  3
ACDB_RECOMPOSE_DATA
350
22F
  3
AcDbVariableDictionary
350
22B
  0
SUN
  5
6D
330
29
100
AcDbSun
 90
        1
290
     0
 63
     7
421
 16777215
 40
1.0
291
     1
 91
  2455826
 92
 54000000
292
     0
 70
     2
 71
   256
280
     1
  0
DICTIONARY
  5
232
102
{ACAD_REACTORS
330
C
102
}
330
C
100
AcDbDictionary
281
     1
  0
DICTIONARY
  5
D
102
{ACAD_REACTORS
330
C
102
}
330
C
100
AcDbDictionary
281
     1
  0
DICTIONARY
  5
1A
102
{ACAD_REACTORS
330
C
102
}
330
C
100
AcDbDictionary
281
     1
  3
Layout1
350
1E
  3
Layout2
350
26
  3
Model
350
22
  0
DICTIONARY
  5
43
102
{ACAD_REACTORS
330
C
102
}
330
C
100
AcDbDictionary
281
     1
  3
ByBlock
350
45
  3
ByLayer
350
44
  3
Global
350
46
  0
DICTIONARY
  5
6B
102
{ACAD_REACTORS
330
C
102
}
330
C
100
AcDbDictionary
281
     1
  3
Standard
350
6C
  0
DICTIONARY
  5
17
102
{ACAD_REACTORS
330
C
102
}
330
C
100
AcDbDictionary
281
     1
  3
Standard
350
18
  0
DICTIONARY
  5
19
102
{ACAD_REACTORS
330
C
102
}
330
C
100
AcDbDictionary
281
     1
  0
ACDBDICTIONARYWDFLT
  5
E
102
{ACAD_REACTORS
330
C
102
}
330
C
100
AcDbDictionary
281
     1
  3
Normal
350
F
100
AcDbDictionaryWithDefault
340
F
  0
DICTIONARY
  5
47
102
{ACAD_REACTORS
330
C
102
}
330
C
100
AcDbDictionary
281
     1
  3
A0
350
48
  3
A1
350
49
  3
A2
350
4A
  3
A3
350
4B
  3
A4
350
4C
  3
A5
350
4D
  3
A6
350
4E
  3
A7
350
4F
  3
A8
350
50
  3
A9
350
51
  3
B0
350
52
  3
B1
350
53
  3
B2
350
54
  3
B3
350
55
  3
B4
350
56
  3
B5
350
57
  3
B6
350
58
  3
B7
350
59
  3
B8
350
5A
  3
B9
350
5B
  3
C0
350
5C
  3
C1
350
5D
  3
C2
350
5E
  3
C3
350
5F
  3
C4
350
60
  3
C5
350
61
  3
C6
350
62
  3
C7
350
63
  3
C8
350
64
  3
C9
350
65
  3
D0
350
66
  3
D1
350
67
  3
D2
350
68
  0
DICTIONARY
  5
233
102
{ACAD_REACTORS
330
C
102
}
330
C
100
AcDbDictionary
281
     1
  0
DICTIONARY
  5
69
102
{ACAD_REACTORS
330
C
102
}
330
C
100
AcDbDictionary
281
     1
  3
Standard
350
6A
  0
DICTIONARY
  5
2A
102
{ACAD_REACTORS
330
C
102
}
330
C
100
AcDbDictionary
281
     1
  3
2dWireframe
350
2F
  3
Basic
350
32
  3
Brighten
350
36
  3
ColorChange
350
3A
  3
Conceptual
350
34
  3
Dim
350
35
  3
EdgeColorOff
350
3D
  3
Facepattern
350
39
  3
Flat
350
2B
  3
FlatWithEdges
350
2C
  3
Gouraud
350
2D
  3
GouraudWithEdges
350
2E
  3
Hidden
350
31
  3
JitterOff
350
3B
  3
Linepattern
350
38
  3
OverhangOff
350
3C
  3
Realistic
350
33
  3
Shaded
350
42
  3
Shaded with edges
350
41
  3
Shades of Gray
350
3E
  3
Sketchy
350
3F
  3
Thicken
350
37
  3
Wireframe
350
30
  3
X-Ray
350
40
  0
XRECORD
  5
22F
102
{ACAD_REACTORS
330
C
102
}
330
C
100
AcDbXrecord
280
     1
 90
        1
330
6A
  0
DICTIONARY
  5
22B
102
{ACAD_REACTORS
330
C
102
}
330
C
100
AcDbDictionary
281
     1
  3
CANNOSCALE
350
22C
  3
CMLEADERSTYLE
350
231
  3
CTABLESTYLE
350
230
  0
LAYOUT
  5
1E
102
{ACAD_REACTORS
330
1A
102
}
330
1A
100
AcDbPlotSettings
  1

  2
none_device
  4

  6

 40
0.0
 41
0.0
 42
0.0
 43
0.0
 44
0.0
 45
0.0
 46
0.0
 47
0.0
 48
0.0
 49
0.0
140
0.0
141
0.0
142
1.0
143
1.0
 70
   688
 72
     0
 73
     0
 74
     5
  7

 75
    16
 76
     0
 77
     2
 78
   300
147
1.0
148
0.0
149
0.0
100
AcDbLayout
  1
Layout1
 70
     1
 71
     1
 10
0.0
 20
0.0
 11
12.0
 21
9.0
 12
0.0
 22
0.0
 32
0.0
 14
1.000000000000000E+20
 24
1.000000000000000E+20
 34
1.000000000000000E+20
 15
-1.000000000000000E+20
 25
-1.000000000000000E+20
 35
-1.000000000000000E+20
146
0.0
 13
0.0
 23
0.0
 33
0.0
 16
1.0
 26
0.0
 36
0.0
 17
0.0
 27
1.0
 37
0.0
 76
     0
330
1B
  0
LAYOUT
  5
26
102
{ACAD_REACTORS
330
1A
102
}
330
1A
100
AcDbPlotSettings
  1

  2
none_device
  4

  6

 40
0.0
 41
0.0
 42
0.0
 43
0.0
 44
0.0
 45
0.0
 46
0.0
 47
0.0
 48
0.0
 49
0.0
140
0.0
141
0.0
142
1.0
143
1.0
 70
   688
 72
     0
 73
     0
 74
     5
  7

 75
    16
 76
     0
 77
     2
 78
   300
147
1.0
148
0.0
149
0.0
100
AcDbLayout
  1
Layout2
 70
     1
 71
     2
 10
0.0
 20
0.0
 11
0.0
 21
0.0
 12
0.0
 22
0.0
 32
0.0
 14
0.0
 24
0.0
 34
0.0
 15
0.0
 25
0.0
 35
0.0
146
0.0
 13
0.0
 23
0.0
 33
0.0
 16
1.0
 26
0.0
 36
0.0
 17
0.0
 27
1.0
 37
0.0
 76
     0
330
23
  0
LAYOUT
  5
22
102
{ACAD_REACTORS
330
1A
102
}
330
1A
100
AcDbPlotSettings
  1

  2
none_device
  4
Letter_(8.50_x_11.00_Inches)
  6

 40
6.35
 41
6.35
 42
6.35000508
 43
6.35000508
 44
215.9
 45
279.4
 46
0.0
 47
0.0
 48
0.0
 49
0.0
140
0.0
141
0.0
142
1.0
143
1.0
 70
  1712
 72
     0
 73
     0
 74
     0
  7

 75
     0
 76
     0
 77
     2
 78
   300
147
1.0
148
0.0
149
0.0
100
AcDbLayout
  1
Model
 70
     1
 71
     0
 10
0.0
 20
0.0
 11
12.0
 21
9.0
 12
0.0
 22
0.0
 32
0.0
 14
1.000000000000000E+20
 24
1.000000000000000E+20
 34
1.000000000000000E+20
 15
-1.000000000000000E+20
 25
-1.000000000000000E+20
 35
-1.000000000000000E+20
146
0.0
 13
0.0
 23
0.0
 33
0.0
 16
1.0
 26
0.0
 36
0.0
 17
0.0
 27
1.0
 37
0.0
 76
     0
330
1F
331
29
  0
MATERIAL
  5
45
102
{ACAD_REACTORS
330
43
102
}
330
43
100
AcDbMaterial
  1
ByBlock
 72
     1
 94
      127
  0
MATERIAL
  5
44
102
{ACAD_REACTORS
330
43
102
}
330
43
100
AcDbMaterial
  1
ByLayer
 72
     1
 94
      127
  0
MATERIAL
  5
46
102
{ACAD_REACTORS
330
43
102
}
330
43
100
AcDbMaterial
  1
Global
 72
     1
 94
      127
  0
MLEADERSTYLE
  5
6C
102
{ACAD_REACTORS
330
6B
102
}
330
6B
100
AcDbMLeaderStyle
179
     2
170
     2
171
     1
172
     0
 90
        2
 40
0.0
 41
0.0
173
     1
 91
-1056964608
340
14
 92
       -2
290
     1
 42
0.09
291
     1
 43
0.36
  3
Standard
341
0
 44
0.18
300

342
11
174
     1
178
     6
175
     1
176
     0
 93
-1056964608
 45
0.18
292
     0
297
     0
 46
0.18
343
0
 94
-1056964608
 47
1.0
 49
1.0
140
1.0
293
     1
141
0.0
294
     1
177
     0
142
1.0
295
     0
296
     0
143
0.125
271
     0
272
     9
273
     9
298
     0
  0
MLINESTYLE
  5
18
102
{ACAD_REACTORS
330
17
102
}
330
17
100
AcDbMlineStyle
  2
Standard
 70
     0
  3

 62
   256
 51
90.0
 52
90.0
 71
     2
 49
0.5
 62
   256
  6
BYLAYER
 49
-0.5
 62
   256
  6
BYLAYER
  0
ACDBPLACEHOLDER
  5
F
102
{ACAD_REACTORS
330
E
102
}
330
E
  0
SCALE
  5
48
102
{ACAD_REACTORS
330
47
102
}
330
47
100
AcDbScale
 70
     0
300
1:1
140
1.0
141
1.0
290
     1
  0
SCALE
  5
49
102
{ACAD_REACTORS
330
47
102
}
330
47
100
AcDbScale
 70
     0
300
1:2
140
1.0
141
2.0
290
     0
  0
SCALE
  5
4A
102
{ACAD_REACTORS
330
47
102
}
330
47
100
AcDbScale
 70
     0
300
1:4
140
1.0
141
4.0
290
     0
  0
SCALE
  5
4B
102
{ACAD_REACTORS
330
47
102
}
330
47
100
AcDbScale
 70
     0
300
1:5
140
1.0
141
5.0
290
     0
  0
SCALE
  5
4C
102
{ACAD_REACTORS
330
47
102
}
330
47
100
AcDbScale
 70
     0
300
1:8
140
1.0
141
8.0
290
     0
  0
SCALE
  5
4D
102
{ACAD_REACTORS
330
47
102
}
330
47
100
AcDbScale
 70
     0
300
1:10
140
1.0
141
10.0
290
     0
  0
SCALE
  5
4E
102
{ACAD_REACTORS
330
47
102
}
330
47
100
AcDbScale
 70
     0
300
1:16
140
1.0
141
16.0
290
     0
  0
SCALE
  5
4F
102
{ACAD_REACTORS
330
47
102
}
330
47
100
AcDbScale
 70
     0
300
1:20
140
1.0
141
20.0
290
     0
  0
SCALE
  5
50
102
{ACAD_REACTORS
330
47
102
}
330
47
100
AcDbScale
 70
     0
300
1:30
140
1.0
141
30.0
290
     0
  0
SCALE
  5
51
102
{ACAD_REACTORS
330
47
102
}
330
47
100
AcDbScale
 70
     0
300
1:40
140
1.0
141
40.0
290
     0
  0
SCALE
  5
52
102
{ACAD_REACTORS
330
47
102
}
330
47
100
AcDbScale
 70
     0
300
1:50
140
1.0
141
50.0
290
     0
  0
SCALE
  5
53
102
{ACAD_REACTORS
330
47
102
}
330
47
100
AcDbScale
 70
     0
300
1:100
140
1.0
141
100.0
290
     0
  0
SCALE
  5
54
102
{ACAD_REACTORS
330
47
102
}
330
47
100
AcDbScale
 70
     0
300
2:1
140
2.0
141
1.0
290
     0
  0
SCALE
  5
55
102
{ACAD_REACTORS
330
47
102
}
330
47
100
AcDbScale
 70
     0
300
4:1
140
4.0
141
1.0
290
     0
  0
SCALE
  5
56
102
{ACAD_REACTORS
330
47
102
}
330
47
100
AcDbScale
 70
     0
300
8:1
140
8.0
141
1.0
290
     0
  0
SCALE
  5
57
102
{ACAD_REACTORS
330
47
102
}
330
47
100
AcDbScale
 70
     0
300
10:1
140
10.0
141
1.0
290
     0
  0
SCALE
  5
58
102
{ACAD_REACTORS
330
47
102
}
330
47
100
AcDbScale
 70
     0
300
100:1
140
100.0
141
1.0
290
     0
  0
SCALE
  5
59
102
{ACAD_REACTORS
330
47
102
}
330
47
100
AcDbScale
 70
     0
300
1/128" = 1'-0"
140
0.0078125
141
12.0
290
     0
  0
SCALE
  5
5A
102
{ACAD_REACTORS
330
47
102
}
330
47
100
AcDbScale
 70
     0
300
1/64" = 1'-0"
140
0.015625
141
12.0
290
     0
  0
SCALE
  5
5B
102
{ACAD_REACTORS
330
47
102
}
330
47
100
AcDbScale
 70
     0
300
1/32" = 1'-0"
140
0.03125
141
12.0
290
     0
  0
SCALE
  5
5C
102
{ACAD_REACTORS
330
47
102
}
330
47
100
AcDbScale
 70
     0
300
1/16" = 1'-0"
140
0.0625
141
12.0
290
     0
  0
SCALE
  5
5D
102
{ACAD_REACTORS
330
47
102
}
330
47
100
AcDbScale
 70
     0
300
3/32" = 1'-0"
140
0.09375
141
12.0
290
     0
  0
SCALE
  5
5E
102
{ACAD_REACTORS
330
47
102
}
330
47
100
AcDbScale
 70
     0
300
1/8" = 1'-0"
140
0.125
141
12.0
290
     0
  0
SCALE
  5
5F
102
{ACAD_REACTORS
330
47
102
}
330
47
100
AcDbScale
 70
     0
300
3/16" = 1'-0"
140
0.1875
141
12.0
290
     0
  0
SCALE
  5
60
102
{ACAD_REACTORS
330
47
102
}
330
47
100
AcDbScale
 70
     0
300
1/4" = 1'-0"
140
0.25
141
12.0
290
     0
  0
SCALE
  5
61
102
{ACAD_REACTORS
330
47
102
}
330
47
100
AcDbScale
 70
     0
300
3/8" = 1'-0"
140
0.375
141
12.0
290
     0
  0
SCALE
  5
62
102
{ACAD_REACTORS
330
47
102
}
330
47
100
AcDbScale
 70
     0
300
1/2" = 1'-0"
140
0.5
141
12.0
290
     0
  0
SCALE
  5
63
102
{ACAD_REACTORS
330
47
102
}
330
47
100
AcDbScale
 70
     0
300
3/4" = 1'-0"
140
0.75
141
12.0
290
     0
  0
SCALE
  5
64
102
{ACAD_REACTORS
330
47
102
}
330
47
100
AcDbScale
 70
     0
300
1" = 1'-0"
140
1.0
141
12.0
290
     0
  0
SCALE
  5
65
102
{ACAD_REACTORS
330
47
102
}
330
47
100
AcDbScale
 70
     0
300
1-1/2" = 1'-0"
140
1.5
141
12.0
290
     0
  0
SCALE
  5
66
102
{ACAD_REACTORS
330
47
102
}
330
47
100
AcDbScale
 70
     0
300
3" = 1'-0"
140
3.0
141
12.0
290
     0
  0
SCALE
  5
67
102
{ACAD_REACTORS
330
47
102
}
330
47
100
AcDbScale
 70
     0
300
6" = 1'-0"
140
6.0
141
12.0
290
     0
  0
SCALE
  5
68
102
{ACAD_REACTORS
330
47
102
}
330
47
100
AcDbScale
 70
     0
300
1'-0" = 1'-0"
140
12.0
141
12.0
290
     0
  0
TABLESTYLE
  5
6A
102
{ACAD_REACTORS
330
69
102
}
102
{ACAD_XDICTIONARY
360
22D
102
}
330
69
100
AcDbTableStyle
  3
Standard
 70
     0
 71
     0
 40
0.06
 41
0.06
280
     0
281
     0
  7
Standard
140
0.18
170
     2
 62
     0
 63
   257
283
     0
 90
        4
 91
        0
  1

274
    -2
284
     1
 64
     0
275
    -2
285
     1
 65
     0
276
    -2
286
     1
 66
     0
277
    -2
287
     1
 67
     0
278
    -2
288
     1
 68
     0
279
    -2
289
     1
 69
     0
  7
Standard
140
0.25
170
     5
 62
     0
 63
   257
283
     0
 90
        4
 91
        0
  1

274
    -2
284
     1
 64
     0
275
    -2
285
     1
 65
     0
276
    -2
286
     1
 66
     0
277
    -2
287
     1
 67
     0
278
    -2
288
     1
 68
     0
279
    -2
289
     1
 69
     0
  7
Standard
140
0.18
170
     5
 62
     0
 63
   257
283
     0
 90
        4
 91
        0
  1

274
    -2
284
     1
 64
     0
275
    -2
285
     1
 65
     0
276
    -2
286
     1
 66
     0
277
    -2
287
     1
 67
     0
278
    -2
288
     1
 68
     0
279
    -2
289
     1
 69
     0
  0
VISUALSTYLE
  5
2F
102
{ACAD_REACTORS
330
2A
102
}
330
2A
100
AcDbVisualStyle
  2
2dWireframe
 70
     4
177
     3
291
     0
 70
    58
 90
        0
176
     1
 90
        2
176
     1
 90
        0
176
     1
 90
        0
176
     1
 40
0.6
176
     1
 40
30.0
176
     1
 62
     7
420
 16777215
176
     1
 90
        1
176
     1
 90
        4
176
     1
 62
     7
176
     1
 62
   257
176
     1
 90
        1
176
     1
 90
        1
176
     1
 40
1.0
176
     1
 90
        0
176
     1
 62
   257
176
     1
 40
1.0
176
     1
 90
        1
176
     1
 90
        6
176
     1
 90
        2
176
     1
 62
     7
176
     1
 90
        5
176
     1
 90
        0
176
     1
 90
        0
176
     1
290
     0
176
     1
 90
        1
176
     1
 40
0.0
176
     1
 90
        0
176
     1
290
     1
176
     1
290
     1
176
     1
290
     0
176
     1
290
     0
176
     1
290
     0
176
     1
290
     0
176
     1
290
     0
176
     1
290
     0
176
     1
290
     0
176
     1
 90
       50
176
     1
 40
0.0
176
     1
 40
1.0
176
     1
 90
        0
176
     1
 62
    18
420
        0
176
     1
 90
       50
176
     1
 90
        3
176
     1
 62
     5
420
      255
176
     1
290
     0
176
     1
 90
       50
176
     1
 90
       50
176
     1
 90
       50
176
     1
290
     0
176
     1
 90
       50
176
     1
 62
   256
176
     0
 40
1.0
176
     0
 90
        2
176
     1
  1
strokes_ogs.tif
176
     1
290
     0
176
     1
 40
1.0
176
     1
 40
1.0
176
     1
  0
VISUALSTYLE
  5
32
102
{ACAD_REACTORS
330
2A
102
}
330
2A
100
AcDbVisualStyle
  2
Basic
 70
     7
177
     3
291
     1
 70
    58
 90
        1
176
     1
 90
        0
176
     1
 90
        1
176
     1
 90
        0
176
     1
 40
0.6
176
     1
 40
30.0
176
     1
 62
     7
420
 16777215
176
     1
 90
        0
176
     1
 90
        4
176
     1
 62
     7
176
     1
 62
   257
176
     1
 90
        1
176
     1
 90
        1
176
     1
 40
1.0
176
     1
 90
        8
176
     1
 62
     7
176
     1
 40
1.0
176
     1
 90
        1
176
     1
 90
        6
176
     1
 90
        2
176
     1
 62
     7
176
     1
 90
        5
176
     1
 90
        0
176
     1
 90
        0
176
     1
290
     0
176
     1
 90
        1
176
     1
 40
0.0
176
     1
 90
        0
176
     1
290
     0
176
     1
290
     1
176
     1
290
     1
176
     1
290
     0
176
     1
290
     0
176
     1
290
     0
176
     1
290
     0
176
     1
290
     0
176
     1
290
     0
176
     1
 90
       50
176
     1
 40
0.0
176
     1
 40
1.0
176
     1
 90
        0
176
     1
 62
    18
420
        0
176
     1
 90
       50
176
     1
 90
        3
176
     1
 62
     5
420
      255
176
     1
290
     0
176
     1
 90
       50
176
     1
 90
       50
176
     1
 90
       50
176
     1
290
     0
176
     1
 90
       50
176
     1
 62
   256
176
     0
 40
1.0
176
     0
 90
        2
176
     1
  1
strokes_ogs.tif
176
     1
290
     0
176
     1
 40
1.0
176
     1
 40
1.0
176
     1
  0
VISUALSTYLE
  5
36
102
{ACAD_REACTORS
330
2A
102
}
330
2A
100
AcDbVisualStyle
  2
Brighten
 70
    12
177
     3
291
     1
 70
    58
 90
        2
176
     1
 90
        2
176
     1
 90
        0
176
     1
 90
        0
176
     1
 40
0.6
176
     1
 40
30.0
176
     1
 62
     7
420
 16777215
176
     1
 90
        1
176
     1
 90
        4
176
     1
 62
     7
176
     1
 62
   257
176
     1
 90
        1
176
     1
 90
        1
176
     1
 40
1.0
176
     1
 90
        8
176
     1
 62
     7
176
     1
 40
1.0
176
     1
 90
        1
176
     1
 90
        6
176
     1
 90
        2
176
     1
 62
     7
176
     1
 90
        5
176
     1
 90
        0
176
     1
 90
        0
176
     1
290
     0
176
     1
 90
        1
176
     1
 40
50.0
176
     1
 90
        0
176
     1
290
     0
176
     1
290
     1
176
     1
290
     1
176
     1
290
     0
176
     1
290
     0
176
     1
290
     0
176
     1
290
     0
176
     1
290
     0
176
     1
290
     0
176
     1
 90
       50
176
     1
 40
0.0
176
     1
 40
1.0
176
     1
 90
        0
176
     1
 62
    18
420
        0
176
     1
 90
       50
176
     1
 90
        3
176
     1
 62
     5
420
      255
176
     1
290
     0
176
     1
 90
       50
176
     1
 90
       50
176
     1
 90
       50
176
     1
290
     0
176
     1
 90
       50
176
     1
 62
   256
176
     0
 40
1.0
176
     0
 90
        2
176
     1
  1
strokes_ogs.tif
176
     1
290
     0
176
     1
 40
1.0
176
     1
 40
1.0
176
     1
  0
VISUALSTYLE
  5
3A
102
{ACAD_REACTORS
330
2A
102
}
330
2A
100
AcDbVisualStyle
  2
ColorChange
 70
    16
177
     3
291
     1
 70
    58
 90
        2
176
     1
 90
        2
176
     1
 90
        3
176
     1
 90
        0
176
     1
 40
0.6
176
     1
 40
30.0
176
     1
 62
     8
420
  8421504
176
     1
 90
        1
176
     1
 90
        4
176
     1
 62
     7
176
     1
 62
   257
176
     1
 90
        1
176
     1
 90
        1
176
     1
 40
1.0
176
     1
 90
        8
176
     1
 62
     8
420
  8421504
176
     1
 40
1.0
176
     1
 90
        1
176
     1
 90
        6
176
     1
 90
        2
176
     1
 62
     7
176
     1
 90
        5
176
     1
 90
        0
176
     1
 90
        0
176
     1
290
     0
176
     1
 90
        1
176
     1
 40
0.0
176
     1
 90
        0
176
     1
290
     0
176
     1
290
     1
176
     1
290
     1
176
     1
290
     0
176
     1
290
     0
176
     1
290
     0
176
     1
290
     0
176
     1
290
     0
176
     1
290
     0
176
     1
 90
       50
176
     1
 40
0.0
176
     1
 40
1.0
176
     1
 90
        0
176
     1
 62
    18
420
        0
176
     1
 90
       50
176
     1
 90
        3
176
     1
 62
     5
420
      255
176
     1
290
     0
176
     1
 90
       50
176
     1
 90
       50
176
     1
 90
       50
176
     1
290
     0
176
     1
 90
       50
176
     1
 62
   256
176
     0
 40
1.0
176
     0
 90
        2
176
     1
  1
strokes_ogs.tif
176
     1
290
     0
176
     1
 40
1.0
176
     1
 40
1.0
176
     1
  0
VISUALSTYLE
  5
34
102
{ACAD_REACTORS
330
2A
102
}
330
2A
100
AcDbVisualStyle
  2
Conceptual
 70
     9
177
     3
291
     0
 70
    58
 90
        3
176
     1
 90
        2
176
     1
 90
        0
176
     1
 90
        0
176
     1
 40
0.6
176
     1
 40
30.0
176
     1
 62
     7
420
 16777215
176
     1
 90
        2
176
     1
 90
        2
176
     1
 62
     7
176
     1
 62
   257
176
     1
 90
        1
176
     1
 90
        1
176
     1
 40
179.0
176
     1
 90
        8
176
     1
 62
     7
176
     1
 40
1.0
176
     1
 90
        1
176
     1
 90
        6
176
     1
 90
        2
176
     1
 62
     7
176
     1
 90
        3
176
     1
 90
        0
176
     1
 90
        0
176
     1
290
     0
176
     1
 90
        1
176
     1
 40
0.0
176
     1
 90
        0
176
     1
290
     0
176
     1
290
     1
176
     1
290
     1
176
     1
290
     0
176
     1
290
     0
176
     1
290
     0
176
     1
290
     0
176
     1
290
     0
176
     1
290
     0
176
     1
 90
       50
176
     1
 40
0.0
176
     1
 40
1.0
176
     1
 90
        0
176
     1
 62
    18
420
        0
176
     1
 90
       50
176
     1
 90
        3
176
     1
 62
     5
420
      255
176
     1
290
     0
176
     1
 90
       50
176
     1
 90
       50
176
     1
 90
       50
176
     1
290
     0
176
     1
 90
       50
176
     1
 62
   256
176
     0
 40
1.0
176
     0
 90
        2
176
     1
  1
strokes_ogs.tif
176
     1
290
     0
176
     1
 40
1.0
176
     1
 40
1.0
176
     1
  0
VISUALSTYLE
  5
35
102
{ACAD_REACTORS
330
2A
102
}
330
2A
100
AcDbVisualStyle
  2
Dim
 70
    11
177
     3
291
     1
 70
    58
 90
        2
176
     1
 90
        2
176
     1
 90
        0
176
     1
 90
        0
176
     1
 40
0.6
176
     1
 40
30.0
176
     1
 62
     7
420
 16777215
176
     1
 90
        1
176
     1
 90
        4
176
     1
 62
     7
176
     1
 62
   257
176
     1
 90
        1
176
     1
 90
        1
176
     1
 40
1.0
176
     1
 90
        8
176
     1
 62
     7
176
     1
 40
1.0
176
     1
 90
        1
176
     1
 90
        6
176
     1
 90
        2
176
     1
 62
     7
176
     1
 90
        5
176
     1
 90
        0
176
     1
 90
        0
176
     1
290
     0
176
     1
 90
        1
176
     1
 40
-50.0
176
     1
 90
        0
176
     1
290
     0
176
     1
290
     1
176
     1
290
     1
176
     1
290
     0
176
     1
290
     0
176
     1
290
     0
176
     1
290
     0
176
     1
290
     0
176
     1
290
     0
176
     1
 90
       50
176
     1
 40
0.0
176
     1
 40
1.0
176
     1
 90
        0
176
     1
 62
    18
420
        0
176
     1
 90
       50
176
     1
 90
        3
176
     1
 62
     5
420
      255
176
     1
290
     0
176
     1
 90
       50
176
     1
 90
       50
176
     1
 90
       50
176
     1
290
     0
176
     1
 90
       50
176
     1
 62
   256
176
     0
 40
1.0
176
     0
 90
        2
176
     1
  1
strokes_ogs.tif
176
     1
290
     0
176
     1
 40
1.0
176
     1
 40
1.0
176
     1
  0
VISUALSTYLE
  5
3D
102
{ACAD_REACTORS
330
2A
102
}
330
2A
100
AcDbVisualStyle
  2
EdgeColorOff
 70
    22
177
     3
291
     1
 70
    58
 90
        2
176
     0
 90
        2
176
     0
 90
        0
176
     0
 90
        0
176
     0
 40
0.6
176
     0
 40
30.0
176
     0
 62
     7
420
 16777215
176
     0
 90
        1
176
     0
 90
        4
176
     0
 62
     7
176
     0
 62
   257
176
     0
 90
        1
176
     0
 90
        1
176
     0
 40
1.0
176
     0
 90
        8
176
     2
 62
     7
176
     0
 40
1.0
176
     0
 90
        1
176
     0
 90
        6
176
     0
 90
        2
176
     0
 62
     7
176
     0
 90
        5
176
     0
 90
        0
176
     0
 90
        0
176
     0
290
     0
176
     0
 90
        1
176
     0
 40
0.0
176
     0
 90
        0
176
     0
290
     0
176
     0
290
     1
176
     0
290
     1
176
     0
290
     0
176
     0
290
     0
176
     0
290
     0
176
     0
290
     0
176
     0
290
     0
176
     0
290
     0
176
     0
 90
       50
176
     0
 40
0.0
176
     0
 40
1.0
176
     0
 90
        0
176
     0
 62
    18
420
        0
176
     0
 90
       50
176
     0
 90
        3
176
     0
 62
     5
420
      255
176
     0
290
     0
176
     0
 90
       50
176
     0
 90
       50
176
     0
 90
       50
176
     0
290
     0
176
     0
 90
       50
176
     0
 62
   256
176
     0
 40
1.0
176
     0
 90
        2
176
     0
  1
strokes_ogs.tif
176
     0
290
     0
176
     0
 40
1.0
176
     0
 40
1.0
176
     0
  0
VISUALSTYLE
  5
39
102
{ACAD_REACTORS
330
2A
102
}
330
2A
100
AcDbVisualStyle
  2
Facepattern
 70
    15
177
     3
291
     1
 70
    58
 90
        2
176
     1
 90
        2
176
     1
 90
        0
176
     1
 90
        0
176
     1
 40
0.6
176
     1
 40
30.0
176
     1
 62
     7
420
 16777215
176
     1
 90
        1
176
     1
 90
        4
176
     1
 62
     7
176
     1
 62
   257
176
     1
 90
        1
176
     1
 90
        1
176
     1
 40
1.0
176
     1
 90
        8
176
     1
 62
     7
176
     1
 40
1.0
176
     1
 90
        1
176
     1
 90
        6
176
     1
 90
        2
176
     1
 62
     7
176
     1
 90
        5
176
     1
 90
        0
176
     1
 90
        0
176
     1
290
     0
176
     1
 90
        1
176
     1
 40
0.0
176
     1
 90
        0
176
     1
290
     0
176
     1
290
     1
176
     1
290
     1
176
     1
290
     0
176
     1
290
     0
176
     1
290
     0
176
     1
290
     0
176
     1
290
     0
176
     1
290
     0
176
     1
 90
       50
176
     1
 40
0.0
176
     1
 40
1.0
176
     1
 90
        0
176
     1
 62
    18
420
        0
176
     1
 90
       50
176
     1
 90
        3
176
     1
 62
     5
420
      255
176
     1
290
     0
176
     1
 90
       50
176
     1
 90
       50
176
     1
 90
       50
176
     1
290
     0
176
     1
 90
       50
176
     1
 62
   256
176
     0
 40
1.0
176
     0
 90
        2
176
     1
  1
strokes_ogs.tif
176
     1
290
     0
176
     1
 40
1.0
176
     1
 40
1.0
176
     1
  0
VISUALSTYLE
  5
2B
102
{ACAD_REACTORS
330
2A
102
}
330
2A
100
AcDbVisualStyle
  2
Flat
 70
     0
177
     3
291
     1
 70
    58
 90
        2
176
     1
 90
        1
176
     1
 90
        1
176
     1
 90
        2
176
     1
 40
0.6
176
     1
 40
30.0
176
     1
 62
     7
420
 16777215
176
     1
 90
        0
176
     1
 90
        0
176
     1
 62
     7
176
     1
 62
   257
176
     1
 90
        1
176
     1
 90
        1
176
     1
 40
1.0
176
     1
 90
        8
176
     1
 62
     7
176
     1
 40
1.0
176
     1
 90
        1
176
     1
 90
        6
176
     1
 90
        2
176
     1
 62
     7
176
     1
 90
        5
176
     1
 90
        0
176
     1
 90
        0
176
     1
290
     0
176
     1
 90
       13
176
     1
 40
0.0
176
     1
 90
        0
176
     1
290
     0
176
     1
290
     1
176
     1
290
     1
176
     1
290
     0
176
     1
290
     0
176
     1
290
     0
176
     1
290
     0
176
     1
290
     0
176
     1
290
     0
176
     1
 90
       50
176
     1
 40
0.0
176
     1
 40
1.0
176
     1
 90
        0
176
     1
 62
    18
420
        0
176
     1
 90
       50
176
     1
 90
        3
176
     1
 62
     5
420
      255
176
     1
290
     0
176
     1
 90
       50
176
     1
 90
       50
176
     1
 90
       50
176
     1
290
     0
176
     1
 90
       50
176
     1
 62
   256
176
     0
 40
1.0
176
     0
 90
        2
176
     1
  1
strokes_ogs.tif
176
     1
290
     0
176
     1
 40
1.0
176
     1
 40
1.0
176
     1
  0
VISUALSTYLE
  5
2C
102
{ACAD_REACTORS
330
2A
102
}
330
2A
100
AcDbVisualStyle
  2
FlatWithEdges
 70
     1
177
     3
291
     1
 70
    58
 90
        2
176
     1
 90
        1
176
     1
 90
        1
176
     1
 90
        2
176
     1
 40
0.6
176
     1
 40
30.0
176
     1
 62
     7
420
 16777215
176
     1
 90
        1
176
     1
 90
        0
176
     1
 62
     7
176
     1
 62
   257
176
     1
 90
        1
176
     1
 90
        1
176
     1
 40
1.0
176
     1
 90
        0
176
     1
 62
   257
176
     1
 40
1.0
176
     1
 90
        1
176
     1
 90
        6
176
     1
 90
        2
176
     1
 62
     7
176
     1
 90
        5
176
     1
 90
        0
176
     1
 90
        0
176
     1
290
     0
176
     1
 90
       13
176
     1
 40
0.0
176
     1
 90
        0
176
     1
290
     0
176
     1
290
     1
176
     1
290
     1
176
     1
290
     0
176
     1
290
     0
176
     1
290
     0
176
     1
290
     0
176
     1
290
     0
176
     1
290
     0
176
     1
 90
       50
176
     1
 40
0.0
176
     1
 40
1.0
176
     1
 90
        0
176
     1
 62
    18
420
        0
176
     1
 90
       50
176
     1
 90
        3
176
     1
 62
     5
420
      255
176
     1
290
     0
176
     1
 90
       50
176
     1
 90
       50
176
     1
 90
       50
176
     1
290
     0
176
     1
 90
       50
176
     1
 62
   256
176
     0
 40
1.0
176
     0
 90
        2
176
     1
  1
strokes_ogs.tif
176
     1
290
     0
176
     1
 40
1.0
176
     1
 40
1.0
176
     1
  0
VISUALSTYLE
  5
2D
102
{ACAD_REACTORS
330
2A
102
}
330
2A
100
AcDbVisualStyle
  2
Gouraud
 70
     2
177
     3
291
     1
 70
    58
 90
        2
176
     1
 90
        2
176
     1
 90
        1
176
     1
 90
        2
176
     1
 40
0.6
176
     1
 40
30.0
176
     1
 62
     7
420
 16777215
176
     1
 90
        0
176
     1
 90
        0
176
     1
 62
     7
176
     1
 62
   257
176
     1
 90
        1
176
     1
 90
        1
176
     1
 40
1.0
176
     1
 90
        0
176
     1
 62
     7
176
     1
 40
1.0
176
     1
 90
        1
176
     1
 90
        6
176
     1
 90
        2
176
     1
 62
     7
176
     1
 90
        5
176
     1
 90
        0
176
     1
 90
        0
176
     1
290
     0
176
     1
 90
       13
176
     1
 40
0.0
176
     1
 90
        0
176
     1
290
     0
176
     1
290
     1
176
     1
290
     1
176
     1
290
     0
176
     1
290
     0
176
     1
290
     0
176
     1
290
     0
176
     1
290
     0
176
     1
290
     0
176
     1
 90
       50
176
     1
 40
0.0
176
     1
 40
1.0
176
     1
 90
        0
176
     1
 62
    18
420
        0
176
     1
 90
       50
176
     1
 90
        3
176
     1
 62
     5
420
      255
176
     1
290
     0
176
     1
 90
       50
176
     1
 90
       50
176
     1
 90
       50
176
     1
290
     0
176
     1
 90
       50
176
     1
 62
   256
176
     0
 40
1.0
176
     0
 90
        2
176
     1
  1
strokes_ogs.tif
176
     1
290
     0
176
     1
 40
1.0
176
     1
 40
1.0
176
     1
  0
VISUALSTYLE
  5
2E
102
{ACAD_REACTORS
330
2A
102
}
330
2A
100
AcDbVisualStyle
  2
GouraudWithEdges
 70
     3
177
     3
291
     1
 70
    58
 90
        2
176
     1
 90
        2
176
     1
 90
        1
176
     1
 90
        2
176
     1
 40
0.6
176
     1
 40
30.0
176
     1
 62
     7
420
 16777215
176
     1
 90
        1
176
     1
 90
        0
176
     1
 62
     7
176
     1
 62
   257
176
     1
 90
        1
176
     1
 90
        1
176
     1
 40
1.0
176
     1
 90
        0
176
     1
 62
   257
176
     1
 40
1.0
176
     1
 90
        1
176
     1
 90
        6
176
     1
 90
        2
176
     1
 62
     7
176
     1
 90
        5
176
     1
 90
        0
176
     1
 90
        0
176
     1
290
     0
176
     1
 90
       13
176
     1
 40
0.0
176
     1
 90
        0
176
     1
290
     0
176
     1
290
     1
176
     1
290
     1
176
     1
290
     0
176
     1
290
     0
176
     1
290
     0
176
     1
290
     0
176
     1
290
     0
176
     1
290
     0
176
     1
 90
       50
176
     1
 40
0.0
176
     1
 40
1.0
176
     1
 90
        0
176
     1
 62
    18
420
        0
176
     1
 90
       50
176
     1
 90
        3
176
     1
 62
     5
420
      255
176
     1
290
     0
176
     1
 90
       50
176
     1
 90
       50
176
     1
 90
       50
176
     1
290
     0
176
     1
 90
       50
176
     1
 62
   256
176
     0
 40
1.0
176
     0
 90
        2
176
     1
  1
strokes_ogs.tif
176
     1
290
     0
176
     1
 40
1.0
176
     1
 40
1.0
176
     1
  0
VISUALSTYLE
  5
31
102
{ACAD_REACTORS
330
2A
102
}
330
2A
100
AcDbVisualStyle
  2
Hidden
 70
     6
177
     3
291
     0
 70
    58
 90
        1
176
     1
 90
        2
176
     1
 90
        2
176
     1
 90
        0
176
     1
 40
0.6
176
     1
 40
30.0
176
     1
 62
     7
420
 16777215
176
     1
 90
        2
176
     1
 90
        2
176
     1
 62
     7
176
     1
 62
   257
176
     1
 90
        2
176
     1
 90
        1
176
     1
 40
40.0
176
     1
 90
        0
176
     1
 62
   257
176
     1
 40
1.0
176
     1
 90
        1
176
     1
 90
        6
176
     1
 90
        2
176
     1
 62
     7
176
     1
 90
        3
176
     1
 90
        0
176
     1
 90
        0
176
     1
290
     0
176
     1
 90
        1
176
     1
 40
0.0
176
     1
 90
        0
176
     1
290
     0
176
     1
290
     1
176
     1
290
     1
176
     1
290
     0
176
     1
290
     0
176
     1
290
     0
176
     1
290
     0
176
     1
290
     0
176
     1
290
     0
176
     1
 90
       50
176
     1
 40
0.0
176
     1
 40
1.0
176
     1
 90
        0
176
     1
 62
    18
420
        0
176
     1
 90
       50
176
     1
 90
        3
176
     1
 62
     5
420
      255
176
     1
290
     0
176
     1
 90
       50
176
     1
 90
       50
176
     1
 90
       50
176
     1
290
     0
176
     1
 90
       50
176
     1
 62
   256
176
     0
 40
1.0
176
     0
 90
        2
176
     1
  1
strokes_ogs.tif
176
     1
290
     0
176
     1
 40
1.0
176
     1
 40
1.0
176
     1
  0
VISUALSTYLE
  5
3B
102
{ACAD_REACTORS
330
2A
102
}
330
2A
100
AcDbVisualStyle
  2
JitterOff
 70
    20
177
     3
291
     1
 70
    58
 90
        2
176
     0
 90
        2
176
     0
 90
        0
176
     0
 90
        0
176
     0
 40
0.6
176
     0
 40
30.0
176
     0
 62
     7
420
 16777215
176
     0
 90
        1
176
     0
 90
        4
176
     0
 62
     7
176
     0
 62
   257
176
     0
 90
        1
176
     0
 90
        1
176
     0
 40
1.0
176
     0
 90
       10
176
     2
 62
     7
176
     0
 40
1.0
176
     0
 90
        1
176
     0
 90
        6
176
     0
 90
        2
176
     0
 62
     7
176
     0
 90
        5
176
     0
 90
        0
176
     0
 90
        0
176
     0
290
     0
176
     0
 90
        1
176
     0
 40
0.0
176
     0
 90
        0
176
     0
290
     0
176
     0
290
     1
176
     0
290
     1
176
     0
290
     0
176
     0
290
     0
176
     0
290
     0
176
     0
290
     0
176
     0
290
     0
176
     0
290
     0
176
     0
 90
       50
176
     0
 40
0.0
176
     0
 40
1.0
176
     0
 90
        0
176
     0
 62
    18
420
        0
176
     0
 90
       50
176
     0
 90
        3
176
     0
 62
     5
420
      255
176
     0
290
     0
176
     0
 90
       50
176
     0
 90
       50
176
     0
 90
       50
176
     0
290
     0
176
     0
 90
       50
176
     0
 62
   256
176
     0
 40
1.0
176
     0
 90
        2
176
     0
  1
strokes_ogs.tif
176
     0
290
     0
176
     0
 40
1.0
176
     0
 40
1.0
176
     0
  0
VISUALSTYLE
  5
38
102
{ACAD_REACTORS
330
2A
102
}
330
2A
100
AcDbVisualStyle
  2
Linepattern
 70
    14
177
     3
291
     1
 70
    58
 90
        2
176
     1
 90
        2
176
     1
 90
        0
176
     1
 90
        0
176
     1
 40
0.6
176
     1
 40
30.0
176
     1
 62
     7
420
 16777215
176
     1
 90
        1
176
     1
 90
        4
176
     1
 62
     7
176
     1
 62
   257
176
     1
 90
        7
176
     1
 90
        7
176
     1
 40
1.0
176
     1
 90
        8
176
     1
 62
     7
176
     1
 40
1.0
176
     1
 90
        1
176
     1
 90
        6
176
     1
 90
        2
176
     1
 62
     7
176
     1
 90
        5
176
     1
 90
        0
176
     1
 90
        0
176
     1
290
     0
176
     1
 90
        1
176
     1
 40
0.0
176
     1
 90
        0
176
     1
290
     0
176
     1
290
     1
176
     1
290
     1
176
     1
290
     0
176
     1
290
     0
176
     1
290
     0
176
     1
290
     0
176
     1
290
     0
176
     1
290
     0
176
     1
 90
       50
176
     1
 40
0.0
176
     1
 40
1.0
176
     1
 90
        0
176
     1
 62
    18
420
        0
176
     1
 90
       50
176
     1
 90
        3
176
     1
 62
     5
420
      255
176
     1
290
     0
176
     1
 90
       50
176
     1
 90
       50
176
     1
 90
       50
176
     1
290
     0
176
     1
 90
       50
176
     1
 62
   256
176
     0
 40
1.0
176
     0
 90
        2
176
     1
  1
strokes_ogs.tif
176
     1
290
     0
176
     1
 40
1.0
176
     1
 40
1.0
176
     1
  0
VISUALSTYLE
  5
3C
102
{ACAD_REACTORS
330
2A
102
}
330
2A
100
AcDbVisualStyle
  2
OverhangOff
 70
    21
177
     3
291
     1
 70
    58
 90
        2
176
     0
 90
        2
176
     0
 90
        0
176
     0
 90
        0
176
     0
 40
0.6
176
     0
 40
30.0
176
     0
 62
     7
420
 16777215
176
     0
 90
        1
176
     0
 90
        4
176
     0
 62
     7
176
     0
 62
   257
176
     0
 90
        1
176
     0
 90
        1
176
     0
 40
1.0
176
     0
 90
        9
176
     2
 62
     7
176
     0
 40
1.0
176
     0
 90
        1
176
     0
 90
        6
176
     0
 90
        2
176
     0
 62
     7
176
     0
 90
        5
176
     0
 90
        0
176
     0
 90
        0
176
     0
290
     0
176
     0
 90
        1
176
     0
 40
0.0
176
     0
 90
        0
176
     0
290
     0
176
     0
290
     1
176
     0
290
     1
176
     0
290
     0
176
     0
290
     0
176
     0
290
     0
176
     0
290
     0
176
     0
290
     0
176
     0
290
     0
176
     0
 90
       50
176
     0
 40
0.0
176
     0
 40
1.0
176
     0
 90
        0
176
     0
 62
    18
420
        0
176
     0
 90
       50
176
     0
 90
        3
176
     0
 62
     5
420
      255
176
     0
290
     0
176
     0
 90
       50
176
     0
 90
       50
176
     0
 90
       50
176
     0
290
     0
176
     0
 90
       50
176
     0
 62
   256
176
     0
 40
1.0
176
     0
 90
        2
176
     0
  1
strokes_ogs.tif
176
     0
290
     0
176
     0
 40
1.0
176
     0
 40
1.0
176
     0
  0
VISUALSTYLE
  5
33
102
{ACAD_REACTORS
330
2A
102
}
330
2A
100
AcDbVisualStyle
  2
Realistic
 70
     8
177
     3
291
     0
 70
    58
 90
        2
176
     1
 90
        3
176
     1
 90
        0
176
     1
 90
        2
176
     1
 40
0.6
176
     1
 40
30.0
176
     1
 62
     7
420
 16777215
176
     1
 90
        0
176
     1
 90
        0
176
     1
 62
     7
176
     1
 62
   257
176
     1
 90
        1
176
     1
 90
        1
176
     1
 40
1.0
176
     1
 90
        8
176
     1
 62
   257
176
     1
 40
1.0
176
     1
 90
        1
176
     1
 90
        6
176
     1
 90
        2
176
     1
 62
     7
176
     1
 90
        3
176
     1
 90
        0
176
     1
 90
        0
176
     1
290
     0
176
     1
 90
       13
176
     1
 40
0.0
176
     1
 90
        0
176
     1
290
     0
176
     1
290
     1
176
     1
290
     1
176
     1
290
     0
176
     1
290
     0
176
     1
290
     0
176
     1
290
     0
176
     1
290
     0
176
     1
290
     0
176
     1
 90
       50
176
     1
 40
0.0
176
     1
 40
1.0
176
     1
 90
        0
176
     1
 62
    18
420
        0
176
     1
 90
       50
176
     1
 90
        3
176
     1
 62
     5
420
      255
176
     1
290
     0
176
     1
 90
       50
176
     1
 90
       50
176
     1
 90
       50
176
     1
290
     0
176
     1
 90
       50
176
     1
 62
   256
176
     0
 40
1.0
176
     0
 90
        2
176
     1
  1
strokes_ogs.tif
176
     1
290
     0
176
     1
 40
1.0
176
     1
 40
1.0
176
     1
  0
VISUALSTYLE
  5
42
102
{ACAD_REACTORS
330
2A
102
}
330
2A
100
AcDbVisualStyle
  2
Shaded
 70
    27
177
     3
291
     0
 70
    58
 90
        2
176
     1
 90
        2
176
     1
 90
        1
176
     1
 90
        2
176
     1
 40
0.6
176
     1
 40
30.0
176
     1
 62
     7
420
 16777215
176
     1
 90
        0
176
     1
 90
        4
176
     1
 62
     7
176
     1
 62
   257
176
     1
 90
        1
176
     1
 90
        1
176
     1
 40
1.0
176
     1
 90
        8
176
     1
 62
   257
176
     1
 40
1.0
176
     1
 90
        1
176
     1
 90
        6
176
     1
 90
        2
176
     1
 62
     8
420
  7895160
176
     1
 90
        3
176
     1
 90
        0
176
     1
 90
        0
176
     1
290
     0
176
     1
 90
        5
176
     1
 40
0.0
176
     1
 90
        0
176
     1
290
     0
176
     1
290
     1
176
     1
290
     1
176
     1
290
     0
176
     1
290
     0
176
     1
290
     0
176
     1
290
     0
176
     1
290
     0
176
     1
290
     0
176
     1
 90
       50
176
     1
 40
0.0
176
     1
 40
1.0
176
     1
 90
        0
176
     1
 62
    18
420
        0
176
     1
 90
       50
176
     1
 90
        3
176
     1
 62
     5
420
      255
176
     1
290
     0
176
     1
 90
       50
176
     1
 90
       50
176
     1
 90
       50
176
     1
290
     0
176
     1
 90
       50
176
     1
 62
   256
176
     0
 40
1.0
176
     0
 90
        2
176
     1
  1
strokes_ogs.tif
176
     1
290
     0
176
     1
 40
1.0
176
     1
 40
1.0
176
     1
  0
VISUALSTYLE
  5
41
102
{ACAD_REACTORS
330
2A
102
}
330
2A
100
AcDbVisualStyle
  2
Shaded with edges
 70
    26
177
     3
291
     0
 70
    58
 90
        2
176
     1
 90
        2
176
     1
 90
        1
176
     1
 90
        2
176
     1
 40
0.6
176
     1
 40
30.0
176
     1
 62
     7
420
 16777215
176
     1
 90
        1
176
     1
 90
       10
176
     1
 62
     7
176
     1
 62
   257
176
     1
 90
        2
176
     1
 90
        1
176
     1
 40
1.0
176
     1
 90
        8
176
     1
 62
   257
176
     1
 40
1.0
176
     1
 90
        1
176
     1
 90
        6
176
     1
 90
        2
176
     1
 62
     7
176
     1
 90
        3
176
     1
 90
        0
176
     1
 90
        0
176
     1
290
     0
176
     1
 90
        5
176
     1
 40
0.0
176
     1
 90
        0
176
     1
290
     0
176
     1
290
     1
176
     1
290
     1
176
     1
290
     0
176
     1
290
     0
176
     1
290
     0
176
     1
290
     0
176
     1
290
     0
176
     1
290
     0
176
     1
 90
       50
176
     1
 40
0.0
176
     1
 40
1.0
176
     1
 90
        0
176
     1
 62
    18
420
        0
176
     1
 90
       50
176
     1
 90
        3
176
     1
 62
     5
420
      255
176
     1
290
     0
176
     1
 90
       50
176
     1
 90
       50
176
     1
 90
       50
176
     1
290
     0
176
     1
 90
       50
176
     1
 62
   256
176
     0
 40
1.0
176
     0
 90
        2
176
     1
  1
strokes_ogs.tif
176
     1
290
     0
176
     1
 40
1.0
176
     1
 40
1.0
176
     1
  0
VISUALSTYLE
  5
3E
102
{ACAD_REACTORS
330
2A
102
}
330
2A
100
AcDbVisualStyle
  2
Shades of Gray
 70
    23
177
     3
291
     0
 70
    58
 90
        2
176
     1
 90
        2
176
     1
 90
        3
176
     1
 90
        0
176
     1
 40
0.6
176
     1
 40
30.0
176
     1
 62
     7
420
 16777215
176
     1
 90
        2
176
     1
 90
        2
176
     1
 62
     7
176
     1
 62
     7
176
     1
 90
        1
176
     1
 90
        1
176
     1
 40
40.0
176
     1
 90
        8
176
     1
 62
     7
176
     1
 40
1.0
176
     1
 90
        1
176
     1
 90
        6
176
     1
 90
        2
176
     1
 62
     7
176
     1
 90
        3
176
     1
 90
        0
176
     1
 90
        0
176
     1
290
     0
176
     1
 90
        1
176
     1
 40
0.0
176
     1
 90
        0
176
     1
290
     0
176
     1
290
     1
176
     1
290
     1
176
     1
290
     0
176
     1
290
     0
176
     1
290
     0
176
     1
290
     0
176
     1
290
     0
176
     1
290
     0
176
     1
 90
       50
176
     1
 40
0.0
176
     1
 40
1.0
176
     1
 90
        0
176
     1
 62
    18
420
        0
176
     1
 90
       50
176
     1
 90
        3
176
     1
 62
     5
420
      255
176
     1
290
     0
176
     1
 90
       50
176
     1
 90
       50
176
     1
 90
       50
176
     1
290
     0
176
     1
 90
       50
176
     1
 62
   256
176
     0
 40
1.0
176
     0
 90
        2
176
     1
  1
strokes_ogs.tif
176
     1
290
     0
176
     1
 40
1.0
176
     1
 40
1.0
176
     1
  0
VISUALSTYLE
  5
3F
102
{ACAD_REACTORS
330
2A
102
}
330
2A
100
AcDbVisualStyle
  2
Sketchy
 70
    24
177
     3
291
     0
 70
    58
 90
        1
176
     1
 90
        2
176
     1
 90
        2
176
     1
 90
        0
176
     1
 40
0.6
176
     1
 40
30.0
176
     1
 62
     7
420
 16777215
176
     1
 90
        2
176
     1
 90
        2
176
     1
 62
     7
176
     1
 62
     7
176
     1
 90
        1
176
     1
 90
        1
176
     1
 40
40.0
176
     1
 90
       11
176
     1
 62
     7
176
     1
 40
1.0
176
     1
 90
        1
176
     1
 90
        6
176
     1
 90
        2
176
     1
 62
     7
176
     1
 90
        6
176
     1
 90
        0
176
     1
 90
        0
176
     1
290
     0
176
     1
 90
        1
176
     1
 40
0.0
176
     1
 90
        0
176
     1
290
     0
176
     1
290
     1
176
     1
290
     1
176
     1
290
     0
176
     1
290
     0
176
     1
290
     0
176
     1
290
     0
176
     1
290
     0
176
     1
290
     0
176
     1
 90
       50
176
     1
 40
0.0
176
     1
 40
1.0
176
     1
 90
        0
176
     1
 62
    18
420
        0
176
     1
 90
       50
176
     1
 90
        3
176
     1
 62
     5
420
      255
176
     1
290
     0
176
     1
 90
       50
176
     1
 90
       50
176
     1
 90
       50
176
     1
290
     0
176
     1
 90
       50
176
     1
 62
   256
176
     0
 40
1.0
176
     0
 90
        2
176
     1
  1
strokes_ogs.tif
176
     1
290
     0
176
     1
 40
1.0
176
     1
 40
1.0
176
     1
  0
VISUALSTYLE
  5
37
102
{ACAD_REACTORS
330
2A
102
}
330
2A
100
AcDbVisualStyle
  2
Thicken
 70
    13
177
     3
291
     1
 70
    58
 90
        2
176
     1
 90
        2
176
     1
 90
        0
176
     1
 90
        0
176
     1
 40
0.6
176
     1
 40
30.0
176
     1
 62
     7
420
 16777215
176
     1
 90
        1
176
     1
 90
        4
176
     1
 62
     7
176
     1
 62
   257
176
     1
 90
        1
176
     1
 90
        1
176
     1
 40
1.0
176
     1
 90
       12
176
     1
 62
     7
176
     1
 40
1.0
176
     1
 90
        1
176
     1
 90
        6
176
     1
 90
        2
176
     1
 62
     7
176
     1
 90
        5
176
     1
 90
        0
176
     1
 90
        0
176
     1
290
     0
176
     1
 90
        1
176
     1
 40
0.0
176
     1
 90
        0
176
     1
290
     0
176
     1
290
     1
176
     1
290
     1
176
     1
290
     0
176
     1
290
     0
176
     1
290
     0
176
     1
290
     0
176
     1
290
     0
176
     1
290
     0
176
     1
 90
       50
176
     1
 40
0.0
176
     1
 40
1.0
176
     1
 90
        0
176
     1
 62
    18
420
        0
176
     1
 90
       50
176
     1
 90
        3
176
     1
 62
     5
420
      255
176
     1
290
     0
176
     1
 90
       50
176
     1
 90
       50
176
     1
 90
       50
176
     1
290
     0
176
     1
 90
       50
176
     1
 62
   256
176
     0
 40
1.0
176
     0
 90
        2
176
     1
  1
strokes_ogs.tif
176
     1
290
     0
176
     1
 40
1.0
176
     1
 40
1.0
176
     1
  0
VISUALSTYLE
  5
30
102
{ACAD_REACTORS
330
2A
102
}
330
2A
100
AcDbVisualStyle
  2
Wireframe
 70
     5
177
     3
291
     0
 70
    58
 90
        0
176
     1
 90
        2
176
     1
 90
        0
176
     1
 90
        0
176
     1
 40
0.6
176
     1
 40
30.0
176
     1
 62
     7
420
 16777215
176
     1
 90
        1
176
     1
 90
        4
176
     1
 62
     7
176
     1
 62
   257
176
     1
 90
        1
176
     1
 90
        1
176
     1
 40
1.0
176
     1
 90
        0
176
     1
 62
   257
176
     1
 40
1.0
176
     1
 90
        1
176
     1
 90
        6
176
     1
 90
        2
176
     1
 62
     7
176
     1
 90
        3
176
     1
 90
        0
176
     1
 90
        0
176
     1
290
     0
176
     1
 90
        1
176
     1
 40
0.0
176
     1
 90
        0
176
     1
290
     0
176
     1
290
     1
176
     1
290
     1
176
     1
290
     0
176
     1
290
     0
176
     1
290
     0
176
     1
290
     0
176
     1
290
     0
176
     1
290
     0
176
     1
 90
       50
176
     1
 40
0.0
176
     1
 40
1.0
176
     1
 90
        0
176
     1
 62
    18
420
        0
176
     1
 90
       50
176
     1
 90
        3
176
     1
 62
     5
420
      255
176
     1
290
     0
176
     1
 90
       50
176
     1
 90
       50
176
     1
 90
       50
176
     1
290
     0
176
     1
 90
       50
176
     1
 62
   256
176
     0
 40
1.0
176
     0
 90
        2
176
     1
  1
strokes_ogs.tif
176
     1
290
     0
176
     1
 40
1.0
176
     1
 40
1.0
176
     1
  0
VISUALSTYLE
  5
40
102
{ACAD_REACTORS
330
2A
102
}
330
2A
100
AcDbVisualStyle
  2
X-Ray
 70
    25
177
     3
291
     0
 70
    58
 90
        2
176
     1
 90
        2
176
     1
 90
        1
176
     1
 90
        1
176
     1
 40
0.5
176
     1
 40
30.0
176
     1
 62
     7
420
 16777215
176
     1
 90
        1
176
     1
 90
        0
176
     1
 62
     7
176
     1
 62
   257
176
     1
 90
        1
176
     1
 90
        1
176
     1
 40
1.0
176
     1
 90
        8
176
     1
 62
     7
176
     1
 40
1.0
176
     1
 90
        1
176
     1
 90
        6
176
     1
 90
        2
176
     1
 62
     7
176
     1
 90
        3
176
     1
 90
        0
176
     1
 90
        0
176
     1
290
     0
176
     1
 90
       13
176
     1
 40
0.0
176
     1
 90
        0
176
     1
290
     0
176
     1
290
     1
176
     1
290
     1
176
     1
290
     0
176
     1
290
     0
176
     1
290
     0
176
     1
290
     0
176
     1
290
     0
176
     1
290
     0
176
     1
 90
       50
176
     1
 40
0.0
176
     1
 40
1.0
176
     1
 90
        0
176
     1
 62
    18
420
        0
176
     1
 90
       50
176
     1
 90
        3
176
     1
 62
     5
420
      255
176
     1
290
     0
176
     1
 90
       50
176
     1
 90
       50
176
     1
 90
       50
176
     1
290
     0
176
     1
 90
       50
176
     1
 62
   256
176
     0
 40
1.0
176
     0
 90
        2
176
     1
  1
strokes_ogs.tif
176
     1
290
     0
176
     1
 40
1.0
176
     1
 40
1.0
176
     1
  0
DICTIONARYVAR
  5
22C
102
{ACAD_REACTORS
330
22B
102
}
330
22B
100
DictionaryVariables
280
     0
  1
1:1
  0
DICTIONARYVAR
  5
231
102
{ACAD_REACTORS
330
22B
102
}
330
22B
100
DictionaryVariables
280
     0
  1
Standard
  0
DICTIONARYVAR
  5
230
102
{ACAD_REACTORS
330
22B
102
}
330
22B
100
DictionaryVariables
280
     0
  1
Standard
  0
DICTIONARY
  5
22D
330
6A
100
AcDbDictionary
280
     1
281
     1
  3
ACAD_ROUNDTRIP_2008_TABLESTYLE_CELLSTYLEMAP
360
22E
  0
CELLSTYLEMAP
  5
22E
102
{ACAD_REACTORS
330
22D
102
}
330
22D
100
AcDbCellStyleMap
 90
        3
300
CELLSTYLE
  1
TABLEFORMAT_BEGIN
 90
        5
170
     1
 91
        0
 92
    32768
 62
   257
 93
        1
300
CONTENTFORMAT
  1
CONTENTFORMAT_BEGIN
 90
        0
 91
        0
 92
        4
 93
        0
300

 40
0.0
140
1.0
 94
        5
 62
     0
340
11
144
0.25
309
CONTENTFORMAT_END
171
     1
301
MARGIN
  1
CELLMARGIN_BEGIN
 40
0.06
 40
0.06
 40
0.06
 40
0.06
 40
0.06
 40
0.06
309
CELLMARGIN_END
 94
        6
 95
        1
302
GRIDFORMAT
  1
GRIDFORMAT_BEGIN
 90
        0
 91
        1
 62
     0
 92
       -2
340
14
 93
        0
 40
0.045
309
GRIDFORMAT_END
 95
        2
302
GRIDFORMAT
  1
GRIDFORMAT_BEGIN
 90
        0
 91
        1
 62
     0
 92
       -2
340
14
 93
        0
 40
0.045
309
GRIDFORMAT_END
 95
        4
302
GRIDFORMAT
  1
GRIDFORMAT_BEGIN
 90
        0
 91
        1
 62
     0
 92
       -2
340
14
 93
        0
 40
0.045
309
GRIDFORMAT_END
 95
        8
302
GRIDFORMAT
  1
GRIDFORMAT_BEGIN
 90
        0
 91
        1
 62
     0
 92
       -2
340
14
 93
        0
 40
0.045
309
GRIDFORMAT_END
 95
       16
302
GRIDFORMAT
  1
GRIDFORMAT_BEGIN
 90
        0
 91
        1
 62
     0
 92
       -2
340
14
 93
        0
 40
0.045
309
GRIDFORMAT_END
 95
       32
302
GRIDFORMAT
  1
GRIDFORMAT_BEGIN
 90
        0
 91
        1
 62
     0
 92
       -2
340
14
 93
        0
 40
0.045
309
GRIDFORMAT_END
309
TABLEFORMAT_END
  1
CELLSTYLE_BEGIN
 90
        1
 91
        1
300
_TITLE
309
CELLSTYLE_END
300
CELLSTYLE
  1
TABLEFORMAT_BEGIN
 90
        5
170
     1
 91
        0
 92
        0
 62
   257
 93
        1
300
CONTENTFORMAT
  1
CONTENTFORMAT_BEGIN
 90
        0
 91
        0
 92
        4
 93
        0
300

 40
0.0
140
1.0
 94
        5
 62
     0
340
11
144
0.18
309
CONTENTFORMAT_END
171
     1
301
MARGIN
  1
CELLMARGIN_BEGIN
 40
0.06
 40
0.06
 40
0.06
 40
0.06
 40
0.06
 40
0.06
309
CELLMARGIN_END
 94
        6
 95
        1
302
GRIDFORMAT
  1
GRIDFORMAT_BEGIN
 90
        0
 91
        1
 62
     0
 92
       -2
340
14
 93
        0
 40
0.045
309
GRIDFORMAT_END
 95
        2
302
GRIDFORMAT
  1
GRIDFORMAT_BEGIN
 90
        0
 91
        1
 62
     0
 92
       -2
340
14
 93
        0
 40
0.045
309
GRIDFORMAT_END
 95
        4
302
GRIDFORMAT
  1
GRIDFORMAT_BEGIN
 90
        0
 91
        1
 62
     0
 92
       -2
340
14
 93
        0
 40
0.045
309
GRIDFORMAT_END
 95
        8
302
GRIDFORMAT
  1
GRIDFORMAT_BEGIN
 90
        0
 91
        1
 62
     0
 92
       -2
340
14
 93
        0
 40
0.045
309
GRIDFORMAT_END
 95
       16
302
GRIDFORMAT
  1
GRIDFORMAT_BEGIN
 90
        0
 91
        1
 62
     0
 92
       -2
340
14
 93
        0
 40
0.045
309
GRIDFORMAT_END
 95
       32
302
GRIDFORMAT
  1
GRIDFORMAT_BEGIN
 90
        0
 91
        1
 62
     0
 92
       -2
340
14
 93
        0
 40
0.045
309
GRIDFORMAT_END
309
TABLEFORMAT_END
  1
CELLSTYLE_BEGIN
 90
        2
 91
        1
300
_HEADER
309
CELLSTYLE_END
300
CELLSTYLE
  1
TABLEFORMAT_BEGIN
 90
        5
170
     1
 91
        0
 92
        0
 62
   257
 93
        1
300
CONTENTFORMAT
  1
CONTENTFORMAT_BEGIN
 90
        0
 91
        0
 92
        4
 93
        0
300

 40
0.0
140
1.0
 94
        2
 62
     0
340
11
144
0.18
309
CONTENTFORMAT_END
171
     1
301
MARGIN
  1
CELLMARGIN_BEGIN
 40
0.06
 40
0.06
 40
0.06
 40
0.06
 40
0.06
 40
0.06
309
CELLMARGIN_END
 94
        6
 95
        1
302
GRIDFORMAT
  1
GRIDFORMAT_BEGIN
 90
        0
 91
        1
 62
     0
 92
       -2
340
14
 93
        0
 40
0.045
309
GRIDFORMAT_END
 95
        2
302
GRIDFORMAT
  1
GRIDFORMAT_BEGIN
 90
        0
 91
        1
 62
     0
 92
       -2
340
14
 93
        0
 40
0.045
309
GRIDFORMAT_END
 95
        4
302
GRIDFORMAT
  1
GRIDFORMAT_BEGIN
 90
        0
 91
        1
 62
     0
 92
       -2
340
14
 93
        0
 40
0.045
309
GRIDFORMAT_END
 95
        8
302
GRIDFORMAT
  1
GRIDFORMAT_BEGIN
 90
        0
 91
        1
 62
     0
 92
       -2
340
14
 93
        0
 40
0.045
309
GRIDFORMAT_END
 95
       16
302
GRIDFORMAT
  1
GRIDFORMAT_BEGIN
 90
        0
 91
        1
 62
     0
 92
       -2
340
14
 93
        0
 40
0.045
309
GRIDFORMAT_END
 95
       32
302
GRIDFORMAT
  1
GRIDFORMAT_BEGIN
 90
        0
 91
        1
 62
     0
 92
       -2
340
14
 93
        0
 40
0.045
309
GRIDFORMAT_END
309
TABLEFORMAT_END
  1
CELLSTYLE_BEGIN
 90
        3
 91
        2
300
_DATA
309
CELLSTYLE_END
  0
ENDSEC
  0
EOF