0
SECTION
  2
HEADER
  9
$ACADVER
  1
AC1027
  9
$ACADMAINTVER
 70
     8
  9
$DWGCODEPAGE
  3
ANSI_1252
  9
$REQUIREDVERSIONS
160
                 0
  9
$COMMENTS
  1
File was created by Cadenas
  9
$CUSTOMPROPERTYTAG
  1
NN
  9
$CUSTOMPROPERTY
  1
Imperial - IP Pillow Block 4-Bolt Labyrinth Seal
  9
$CUSTOMPROPERTYTAG
  1
NT
  9
$CUSTOMPROPERTY
  1
Imperial 4 Bolt Square Flange Bearings
  9
$CUSTOMPROPERTYTAG
  1
NB
  9
$CUSTOMPROPERTY
  1
069755
  9
$CUSTOMPROPERTYTAG
  1
NBSYN
  9
$CUSTOMPROPERTY
  1
$PN.
  9
$CUSTOMPROPERTYTAG
  1
LINA
  9
$CUSTOMPROPERTY
  1
069755
  9
$CUSTOMPROPERTYTAG
  1
SS
  9
$CUSTOMPROPERTY
  1
1-5/8
  9
$CUSTOMPROPERTYTAG
  1
PN
  9
$CUSTOMPROPERTY
  1
069755
  9
$CUSTOMPROPERTYTAG
  1
DESCRIPTION
  9
$CUSTOMPROPERTY
  1
F4S-IP-110L
  9
$CUSTOMPROPERTYTAG
  1
EF
  9
$CUSTOMPROPERTY
  1
Non-Expansion Type
  9
$CUSTOMPROPERTYTAG
  1
ST
  9
$CUSTOMPROPERTY
  1
Labyrinth Seal
  9
$CUSTOMPROPERTYTAG
  1
A
  9
$CUSTOMPROPERTY
  1
2-13/16
  9
$CUSTOMPROPERTYTAG
  1
B
  9
$CUSTOMPROPERTY
  1
5-1/8
  9
$CUSTOMPROPERTYTAG
  1
C
  9
$CUSTOMPROPERTY
  1
3-7/64
  9
$CUSTOMPROPERTYTAG
  1
D
  9
$CUSTOMPROPERTY
  1
3-57/64
  9
$CUSTOMPROPERTYTAG
  1
F
  9
$CUSTOMPROPERTY
  1
1/2
  9
$CUSTOMPROPERTYTAG
  1
G
  9
$CUSTOMPROPERTY
  1
1-13/64
  9
$CUSTOMPROPERTYTAG
  1
H
  9
$CUSTOMPROPERTY
  1
1/2
  9
$CUSTOMPROPERTYTAG
  1
J
  9
$CUSTOMPROPERTY
  1
4-13/32
  9
$CUSTOMPROPERTYTAG
  1
K
  9
$CUSTOMPROPERTY
  1
5-1/2
  9
$CUSTOMPROPERTYTAG
  1
L
  9
$CUSTOMPROPERTY
  1
3
  9
$CUSTOMPROPERTYTAG
  1
N
  9
$CUSTOMPROPERTY
  1
2-25/32
  9
$CUSTOMPROPERTYTAG
  1
P
  9
$CUSTOMPROPERTY
  1
19/64
  9
$CUSTOMPROPERTYTAG
  1
X
  9
$CUSTOMPROPERTY
  1
1/4
  9
$CUSTOMPROPERTYTAG
  1
Y
  9
$CUSTOMPROPERTY
  1
0.020
  9
$CUSTOMPROPERTYTAG
  1
Z
  9
$CUSTOMPROPERTY
  1
2-5/64
  9
$CUSTOMPROPERTYTAG
  1
COMPANY
  9
$CUSTOMPROPERTY
  1
baldor
  9
$INSBASE
 10
0.0
 20
0.0
 30
0.0
  9
$EXTMIN
 10
1.000000000000000E+20
 20
1.000000000000000E+20
 30
1.000000000000000E+20
  9
$EXTMAX
 10
-1.000000000000000E+20
 20
-1.000000000000000E+20
 30
-1.000000000000000E+20
  9
$LIMMIN
 10
0.0
 20
0.0
  9
$LIMMAX
 10
12.0
 20
9.0
  9
$ORTHOMODE
 70
     0
  9
$REGENMODE
 70
     1
  9
$FILLMODE
 70
     1
  9
$QTEXTMODE
 70
     0
  9
$MIRRTEXT
 70
     1
  9
$LTSCALE
 40
1.0
  9
$ATTMODE
 70
     1
  9
$TEXTSIZE
 40
0.2
  9
$TRACEWID
 40
0.05
  9
$TEXTSTYLE
  7
Standard
  9
$CLAYER
  8
0
  9
$CELTYPE
  6
ByLayer
  9
$CECOLOR
 62
   256
  9
$CELTSCALE
 40
1.0
  9
$DISPSILH
 70
     0
  9
$DIMSCALE
 40
1.0
  9
$DIMASZ
 40
0.18
  9
$DIMEXO
 40
0.0625
  9
$DIMDLI
 40
0.38
  9
$DIMRND
 40
0.0
  9
$DIMDLE
 40
0.0
  9
$DIMEXE
 40
0.18
  9
$DIMTP
 40
0.0
  9
$DIMTM
 40
0.0
  9
$DIMTXT
 40
0.18
  9
$DIMCEN
 40
0.09
  9
$DIMTSZ
 40
0.0
  9
$DIMTOL
 70
     0
  9
$DIMLIM
 70
     0
  9
$DIMTIH
 70
     1
  9
$DIMTOH
 70
     1
  9
$DIMSE1
 70
     0
  9
$DIMSE2
 70
     0
  9
$DIMTAD
 70
     0
  9
$DIMZIN
 70
     0
  9
$DIMBLK
  1

  9
$DIMASO
 70
     1
  9
$DIMSHO
 70
     1
  9
$DIMPOST
  1

  9
$DIMAPOST
  1

  9
$DIMALT
 70
     0
  9
$DIMALTD
 70
     2
  9
$DIMALTF
 40
25.4
  9
$DIMLFAC
 40
1.0
  9
$DIMTOFL
 70
     0
  9
$DIMTVP
 40
0.0
  9
$DIMTIX
 70
     0
  9
$DIMSOXD
 70
     0
  9
$DIMSAH
 70
     0
  9
$DIMBLK1
  1

  9
$DIMBLK2
  1

  9
$DIMSTYLE
  2
Standard
  9
$DIMCLRD
 70
     0
  9
$DIMCLRE
 70
     0
  9
$DIMCLRT
 70
     0
  9
$DIMTFAC
 40
1.0
  9
$DIMGAP
 40
0.09
  9
$DIMJUST
 70
     0
  9
$DIMSD1
 70
     0
  9
$DIMSD2
 70
     0
  9
$DIMTOLJ
 70
     1
  9
$DIMTZIN
 70
     0
  9
$DIMALTZ
 70
     0
  9
$DIMALTTZ
 70
     0
  9
$DIMUPT
 70
     0
  9
$DIMDEC
 70
     4
  9
$DIMTDEC
 70
     4
  9
$DIMALTU
 70
     2
  9
$DIMALTTD
 70
     2
  9
$DIMTXSTY
  7
Standard
  9
$DIMAUNIT
 70
     0
  9
$DIMADEC
 70
     0
  9
$DIMALTRND
 40
0.0
  9
$DIMAZIN
 70
     0
  9
$DIMDSEP
 70
    46
  9
$DIMATFIT
 70
     3
  9
$DIMFRAC
 70
     0
  9
$DIMLDRBLK
  1

  9
$DIMLUNIT
 70
     2
  9
$DIMLWD
 70
    -2
  9
$DIMLWE
 70
    -2
  9
$DIMTMOVE
 70
     0
  9
$DIMFXL
 40
1.0
  9
$DIMFXLON
 70
     0
  9
$DIMJOGANG
 40
0.7853981633974483
  9
$DIMTFILL
 70
     0
  9
$DIMTFILLCLR
 70
     0
  9
$DIMARCSYM
 70
     0
  9
$DIMLTYPE
  6

  9
$DIMLTEX1
  6

  9
$DIMLTEX2
  6

  9
$DIMTXTDIRECTION
 70
     0
  9
$LUNITS
 70
     2
  9
$LUPREC
 70
     4
  9
$SKETCHINC
 40
0.1
  9
$FILLETRAD
 40
0.5
  9
$AUNITS
 70
     0
  9
$AUPREC
 70
     0
  9
$MENU
  1
.
  9
$ELEVATION
 40
0.0
  9
$PELEVATION
 40
0.0
  9
$THICKNESS
 40
0.0
  9
$LIMCHECK
 70
     0
  9
$CHAMFERA
 40
0.0
  9
$CHAMFERB
 40
0.0
  9
$CHAMFERC
 40
0.0
  9
$CHAMFERD
 40
0.0
  9
$SKPOLY
 70
     0
  9
$TDCREATE
 40
2458168.963263079
  9
$TDUCREATE
 40
2458168.921596412
  9
$TDUPDATE
 40
2458168.963263264
  9
$TDUUPDATE
 40
2458168.921596597
  9
$TDINDWG
 40
0.0000000116
  9
$TDUSRTIMER
 40
0.0000000116
  9
$USRTIMER
 70
     1
  9
$ANGBASE
 50
0.0
  9
$ANGDIR
 70
     0
  9
$PDMODE
 70
     0
  9
$PDSIZE
 40
0.0
  9
$PLINEWID
 40
0.0
  9
$SPLFRAME
 70
     0
  9
$SPLINETYPE
 70
     6
  9
$SPLINESEGS
 70
     8
  9
$HANDSEED
  5
237
  9
$SURFTAB1
 70
     6
  9
$SURFTAB2
 70
     6
  9
$SURFTYPE
 70
     6
  9
$SURFU
 70
     6
  9
$SURFV
 70
     6
  9
$UCSBASE
  2

  9
$UCSNAME
  2

  9
$UCSORG
 10
0.0
 20
0.0
 30
0.0
  9
$UCSXDIR
 10
1.0
 20
0.0
 30
0.0
  9
$UCSYDIR
 10
0.0
 20
1.0
 30
0.0
  9
$UCSORTHOREF
  2

  9
$UCSORTHOVIEW
 70
     0
  9
$UCSORGTOP
 10
0.0
 20
0.0
 30
0.0
  9
$UCSORGBOTTOM
 10
0.0
 20
0.0
 30
0.0
  9
$UCSORGLEFT
 10
0.0
 20
0.0
 30
0.0
  9
$UCSORGRIGHT
 10
0.0
 20
0.0
 30
0.0
  9
$UCSORGFRONT
 10
0.0
 20
0.0
 30
0.0
  9
$UCSORGBACK
 10
0.0
 20
0.0
 30
0.0
  9
$PUCSBASE
  2

  9
$PUCSNAME
  2

  9
$PUCSORG
 10
0.0
 20
0.0
 30
0.0
  9
$PUCSXDIR
 10
1.0
 20
0.0
 30
0.0
  9
$PUCSYDIR
 10
0.0
 20
1.0
 30
0.0
  9
$PUCSORTHOREF
  2

  9
$PUCSORTHOVIEW
 70
     0
  9
$PUCSORGTOP
 10
0.0
 20
0.0
 30
0.0
  9
$PUCSORGBOTTOM
 10
0.0
 20
0.0
 30
0.0
  9
$PUCSORGLEFT
 10
0.0
 20
0.0
 30
0.0
  9
$PUCSORGRIGHT
 10
0.0
 20
0.0
 30
0.0
  9
$PUCSORGFRONT
 10
0.0
 20
0.0
 30
0.0
  9
$PUCSORGBACK
 10
0.0
 20
0.0
 30
0.0
  9
$USERI1
 70
     0
  9
$USERI2
 70
     0
  9
$USERI3
 70
     0
  9
$USERI4
 70
     0
  9
$USERI5
 70
     0
  9
$USERR1
 40
0.0
  9
$USERR2
 40
0.0
  9
$USERR3
 40
0.0
  9
$USERR4
 40
0.0
  9
$USERR5
 40
0.0
  9
$WORLDVIEW
 70
     1
  9
$SHADEDGE
 70
     3
  9
$SHADEDIF
 70
    70
  9
$TILEMODE
 70
     1
  9
$MAXACTVP
 70
    64
  9
$PINSBASE
 10
0.0
 20
0.0
 30
0.0
  9
$PLIMCHECK
 70
     0
  9
$PEXTMIN
 10
1.000000000000000E+20
 20
1.000000000000000E+20
 30
1.000000000000000E+20
  9
$PEXTMAX
 10
-1.000000000000000E+20
 20
-1.000000000000000E+20
 30
-1.000000000000000E+20
  9
$PLIMMIN
 10
0.0
 20
0.0
  9
$PLIMMAX
 10
12.0
 20
9.0
  9
$UNITMODE
 70
     0
  9
$VISRETAIN
 70
     1
  9
$PLINEGEN
 70
     0
  9
$PSLTSCALE
 70
     1
  9
$TREEDEPTH
 70
  3020
  9
$CMLSTYLE
  2
Standard
  9
$CMLJUST
 70
     0
  9
$CMLSCALE
 40
1.0
  9
$PROXYGRAPHICS
 70
     1
  9
$MEASUREMENT
 70
     0
  9
$CELWEIGHT
370
    -1
  9
$ENDCAPS
280
     0
  9
$JOINSTYLE
280
     0
  9
$LWDISPLAY
290
     0
  9
$INSUNITS
 70
     1
  9
$HYPERLINKBASE
  1

  9
$STYLESHEET
  1

  9
$XEDIT
290
     1
  9
$CEPSNTYPE
380
     0
  9
$PSTYLEMODE
290
     1
  9
$FINGERPRINTGUID
  2
{A63AC06E-F7EF-464D-9714-37489B811225}
  9
$VERSIONGUID
  2
{FAEB1C32-E019-11D5-929B-00C0DF256EC4}
  9
$EXTNAMES
290
     1
  9
$PSVPSCALE
 40
0.0
  9
$OLESTARTUP
290
     0
  9
$SORTENTS
280
   127
  9
$INDEXCTL
280
     0
  9
$HIDETEXT
280
     1
  9
$XCLIPFRAME
280
     2
  9
$HALOGAP
280
     0
  9
$OBSCOLOR
 70
   257
  9
$OBSLTYPE
280
     0
  9
$INTERSECTIONDISPLAY
280
     0
  9
$INTERSECTIONCOLOR
 70
   257
  9
$DIMASSOC
280
     2
  9
$PROJECTNAME
  1

  9
$CAMERADISPLAY
290
     0
  9
$LENSLENGTH
 40
50.0
  9
$CAMERAHEIGHT
 40
0.0
  9
$STEPSPERSEC
 40
2.0
  9
$STEPSIZE
 40
6.0
  9
$3DDWFPREC
 40
2.0
  9
$PSOLWIDTH
 40
0.25
  9
$PSOLHEIGHT
 40
4.0
  9
$LOFTANG1
 40
1.570796326794897
  9
$LOFTANG2
 40
1.570796326794897
  9
$LOFTMAG1
 40
0.0
  9
$LOFTMAG2
 40
0.0
  9
$LOFTPARAM
 70
     7
  9
$LOFTNORMALS
280
     1
  9
$LATITUDE
 40
37.795
  9
$LONGITUDE
 40
-122.394
  9
$NORTHDIRECTION
 40
0.0
  9
$TIMEZONE
 70
 -8000
  9
$LIGHTGLYPHDISPLAY
280
     1
  9
$TILEMODELIGHTSYNCH
280
     1
  9
$CMATERIAL
347
44
  9
$SOLIDHIST
280
     0
  9
$SHOWHIST
280
     1
  9
$DWFFRAME
280
     2
  9
$DGNFRAME
280
     2
  9
$REALWORLDSCALE
290
     1
  9
$INTERFERECOLOR
 62
   256
  9
$CSHADOW
280
     0
  9
$SHADOWPLANELOCATION
 40
0.0
  0
ENDSEC
  0
SECTION
  2
CLASSES
  0
CLASS
  1
ACDBDICTIONARYWDFLT
  2
AcDbDictionaryWithDefault
  3
ObjectDBX Classes
 90
        0
 91
        4
280
     0
281
     0
  0
CLASS
  1
VISUALSTYLE
  2
AcDbVisualStyle
  3
ObjectDBX Classes
 90
     4095
 91
        4
280
     0
281
     0
  0
CLASS
  1
MATERIAL
  2
AcDbMaterial
  3
ObjectDBX Classes
 90
     1153
 91
        4
280
     0
281
     0
  0
CLASS
  1
SCALE
  2
AcDbScale
  3
ObjectDBX Classes
 90
     1153
 91
        4
280
     0
281
     0
  0
CLASS
  1
TABLESTYLE
  2
AcDbTableStyle
  3
ObjectDBX Classes
 90
     4095
 91
        4
280
     0
281
     0
  0
CLASS
  1
MLEADERSTYLE
  2
AcDbMLeaderStyle
  3
ACDB_MLEADERSTYLE_CLASS
 90
     4095
 91
        4
280
     0
281
     0
  0
CLASS
  1
SUN
  2
AcDbSun
  3
SCENEOE
 90
     1153
 91
        4
280
     0
281
     0
  0
CLASS
  1
DICTIONARYVAR
  2
AcDbDictionaryVar
  3
ObjectDBX Classes
 90
        0
 91
        4
280
     0
281
     0
  0
CLASS
  1
CELLSTYLEMAP
  2
AcDbCellStyleMap
  3
ObjectDBX Classes
 90
     1152
 91
        4
280
     0
281
     0
  0
ENDSEC
  0
SECTION
  2
TABLES
  0
TABLE
  2
VPORT
  5
8
330
0
100
AcDbSymbolTable
 70
     1
  0
VPORT
  5
29
330
8
100
AcDbSymbolTableRecord
100
AcDbViewportTableRecord
  2
*Active
 70
     0
 10
0.0
 20
0.0
 11
1.0
 21
1.0
 12
-1.570070312487513
 22
0.0738124999999998
 13
0.0
 23
0.0
 14
0.5
 24
0.5
 15
0.5
 25
0.5
 16
0.0
 26
0.0
 36
1.0
 17
0.0
 27
0.0
 37
0.0
 40
5.3780775
 41
0.637606386766548
 42
50.0
 43
0.0
 44
0.0
 50
0.0
 51
0.0
 71
     0
 72
   100
 73
     1
 74
     3
 75
     0
 76
     0
 77
     0
 78
     0
281
     0
 65
     1
110
0.0
120
0.0
130
0.0
111
1.0
121
0.0
131
0.0
112
0.0
122
1.0
132
0.0
 79
     0
146
0.0
348
2F
 60
     3
 61
     5
292
     1
282
     1
141
0.0
142
0.0
 63
   250
361
6D
  0
ENDTAB
  0
TABLE
  2
LTYPE
  5
5
330
0
100
AcDbSymbolTable
 70
     3
  0
LTYPE
  5
14
330
5
100
AcDbSymbolTableRecord
100
AcDbLinetypeTableRecord
  2
ByBlock
 70
     0
  3

 72
    65
 73
     0
 40
0.0
  0
LTYPE
  5
15
330
5
100
AcDbSymbolTableRecord
100
AcDbLinetypeTableRecord
  2
ByLayer
 70
     0
  3

 72
    65
 73
     0
 40
0.0
  0
LTYPE
  5
16
330
5
100
AcDbSymbolTableRecord
100
AcDbLinetypeTableRecord
  2
Continuous
 70
     0
  3
Solid line
 72
    65
 73
     0
 40
0.0
  0
LTYPE
  5
9D
330
5
100
AcDbSymbolTableRecord
100
AcDbLinetypeTableRecord
  2
Dashed
 70
     0
  3

 72
    65
 73
     2
 40
2.0
 49
1.0
 74
     0
 49
-1.0
 74
     0
  0
LTYPE
  5
17E
330
5
100
AcDbSymbolTableRecord
100
AcDbLinetypeTableRecord
  2
Center
 70
     0
  3

 72
    65
 73
     4
 40
1.5
 49
0.45
 74
     0
 49
-0.5
 74
     0
 49
0.05
 74
     0
 49
-0.5
 74
     0
  0
ENDTAB
  0
TABLE
  2
LAYER
  5
2
330
0
100
AcDbSymbolTable
 70
     7
  0
LAYER
  5
10
330
2
100
AcDbSymbolTableRecord
100
AcDbLayerTableRecord
  2
0
 70
     0
 62
     7
  6
Continuous
370
    -3
390
F
347
46
348
0
  0
LAYER
  5
72
330
2
100
AcDbSymbolTableRecord
100
AcDbLayerTableRecord
  2
AM_6
 70
     0
 62
    -2
  6
Continuous
370
    35
390
F
347
46
348
0
  0
LAYER
  5
9E
330
2
100
AcDbSymbolTableRecord
100
AcDbLayerTableRecord
  2
AM_9
 70
     0
 62
     6
  6
Dashed
370
    25
390
F
347
46
348
0
  0
LAYER
  5
AA
330
2
100
AcDbSymbolTableRecord
100
AcDbLayerTableRecord
  2
AM_5
 70
     0
 62
     3
  6
Continuous
370
    25
390
F
347
46
348
0
  0
LAYER
  5
AE
330
2
100
AcDbSymbolTableRecord
100
AcDbLayerTableRecord
  2
AM_4
 70
     0
 62
     7
  6
Continuous
370
    50
390
F
347
46
348
0
  0
LAYER
  5
17F
330
2
100
AcDbSymbolTableRecord
100
AcDbLayerTableRecord
  2
AM_7
 70
     0
 62
     7
  6
Center
370
    25
390
F
347
46
348
0
  0
LAYER
  5
220
330
2
100
AcDbSymbolTableRecord
100
AcDbLayerTableRecord
  2
ConnectionPoints
 70
     0
 62
     7
  6
Continuous
370
    50
390
F
347
46
348
0
  0
ENDTAB
  0
TABLE
  2
STYLE
  5
3
330
0
100
AcDbSymbolTable
 70
     1
  0
STYLE
  5
11
330
3
100
AcDbSymbolTableRecord
100
AcDbTextStyleTableRecord
  2
Standard
 70
     0
 40
0.0
 41
1.0
 50
0.0
 71
     0
 42
0.2
  3
txt
  4

  0
ENDTAB
  0
TABLE
  2
VIEW
  5
6
330
0
100
AcDbSymbolTable
 70
     0
  0
ENDTAB
  0
TABLE
  2
UCS
  5
7
330
0
100
AcDbSymbolTable
 70
     0
  0
ENDTAB
  0
TABLE
  2
APPID
  5
9
330
0
100
AcDbSymbolTable
 70
     1
  0
APPID
  5
12
330
9
100
AcDbSymbolTableRecord
100
AcDbRegAppTableRecord
  2
ACAD
 70
     0
  0
ENDTAB
  0
TABLE
  2
DIMSTYLE
  5
A
330
0
100
AcDbSymbolTable
 70
     1
100
AcDbDimStyleTable
  0
DIMSTYLE
105
27
330
A
100
AcDbSymbolTableRecord
100
AcDbDimStyleTableRecord
  2
Standard
 70
     0
178
     0
340
11
  0
ENDTAB
  0
TABLE
  2
BLOCK_RECORD
  5
1
330
0
100
AcDbSymbolTable
 70
     8
  0
BLOCK_RECORD
  5
1F
330
1
100
AcDbSymbolTableRecord
100
AcDbBlockTableRecord
  2
*Model_Space
340
22
 70
     0
280
     1
281
     0
  0
BLOCK_RECORD
  5
1B
330
1
100
AcDbSymbolTableRecord
100
AcDbBlockTableRecord
  2
*Paper_Space
340
1E
 70
     0
280
     1
281
     0
  0
BLOCK_RECORD
  5
23
330
1
100
AcDbSymbolTableRecord
100
AcDbBlockTableRecord
  2
*Paper_Space0
340
26
 70
     0
280
     1
281
     0
  0
BLOCK_RECORD
  5
6E
330
1
100
AcDbSymbolTableRecord
100
AcDbBlockTableRecord
  2
1_069755_2
340
0
102
{BLKREFS
331
6F
102
}
 70
     0
280
     1
281
     0
  0
BLOCK_RECORD
  5
8D
330
1
100
AcDbSymbolTableRecord
100
AcDbBlockTableRecord
  2
2_ASME_B18_3_10_1_0_in_069755_2
340
0
102
{BLKREFS
331
8E
102
}
 70
     0
280
     1
281
     0
  0
BLOCK_RECORD
  5
B5
330
1
100
AcDbSymbolTableRecord
100
AcDbBlockTableRecord
  2
3_ASME_B18_3_10_2_0_in_069755_2
340
0
102
{BLKREFS
331
B6
102
}
 70
     0
280
     1
281
     0
  0
BLOCK_RECORD
  5
D9
330
1
100
AcDbSymbolTableRecord
100
AcDbBlockTableRecord
  2
4_070886LW_0_in_069755_2
340
0
102
{BLKREFS
331
DA
102
}
 70
     0
280
     1
281
     0
  0
BLOCK_RECORD
  5
10F
330
1
100
AcDbSymbolTableRecord
100
AcDbBlockTableRecord
  2
5_070918I_0_in_069755_2
340
0
102
{BLKREFS
331
110
102
}
 70
     0
280
     1
281
     0
  0
BLOCK_RECORD
  5
198
330
1
100
AcDbSymbolTableRecord
100
AcDbBlockTableRecord
  2
6_405015E_Inch_0_in_069755_2
340
0
102
{BLKREFS
331
199
102
}
 70
     0
280
     1
281
     0
  0
BLOCK_RECORD
  5
1D7
330
1
100
AcDbSymbolTableRecord
100
AcDbBlockTableRecord
  2
7_069755H_0_in_069755_2
340
0
102
{BLKREFS
331
1D8
102
}
 70
     0
280
     1
281
     0
  0
ENDTAB
  0
ENDSEC
  0
SECTION
  2
BLOCKS
  0
BLOCK
  5
20
330
1F
100
AcDbEntity
  8
0
100
AcDbBlockBegin
  2
*Model_Space
 70
     0
 10
0.0
 20
0.0
 30
0.0
  3
*Model_Space
  1

  0
ENDBLK
  5
21
330
1F
100
AcDbEntity
  8
0
100
AcDbBlockEnd
  0
BLOCK
  5
1C
330
1B
100
AcDbEntity
 67
     1
  8
0
100
AcDbBlockBegin
  2
*Paper_Space
 70
     0
 10
0.0
 20
0.0
 30
0.0
  3
*Paper_Space
  1

  0
ENDBLK
  5
1D
330
1B
100
AcDbEntity
 67
     1
  8
0
100
AcDbBlockEnd
  0
BLOCK
  5
24
330
23
100
AcDbEntity
  8
0
100
AcDbBlockBegin
  2
*Paper_Space0
 70
     0
 10
0.0
 20
0.0
 30
0.0
  3
*Paper_Space0
  1

  0
ENDBLK
  5
25
330
23
100
AcDbEntity
  8
0
100
AcDbBlockEnd
  0
BLOCK
  5
70
330
6E
100
AcDbEntity
  8
0
100
AcDbBlockBegin
  2
1_069755_2
 70
     2
 10
0.0
 20
0.0
 30
0.0
  3
1_069755_2
  1

  0
ATTDEF
  5
73
330
6E
100
AcDbEntity
  8
AM_6
100
AcDbText
 10
5.110859375024972
 20
2.710125
 30
0.0
 40
0.5
  1
Imperial - IP Pillow Block 4-Bolt Labyrinth Seal
100
AcDbAttributeDefinition
  3

  2
NN
 70
     8
280
     0
  0
ATTDEF
  5
74
330
6E
100
AcDbEntity
  8
AM_6
100
AcDbText
 10
5.110859375024972
 20
2.210125
 30
0.0
 40
0.5
  1
Imperial 4 Bolt Square Flange Bearings
100
AcDbAttributeDefinition
  3

  2
NT
 70
     8
280
     0
  0
ATTDEF
  5
75
330
6E
100
AcDbEntity
  8
AM_6
100
AcDbText
 10
5.110859375024972
 20
1.710125
 30
0.0
 40
0.5
  1
069755
100
AcDbAttributeDefinition
  3

  2
NB
 70
     8
280
     0
  0
ATTDEF
  5
76
330
6E
100
AcDbEntity
  8
AM_6
100
AcDbText
 10
5.110859375024972
 20
1.210125
 30
0.0
 40
0.5
  1
$PN.
100
AcDbAttributeDefinition
  3

  2
NBSYN
 70
     8
280
     0
  0
ATTDEF
  5
77
330
6E
100
AcDbEntity
  8
AM_6
100
AcDbText
 10
5.110859375024972
 20
0.7101250000000001
 30
0.0
 40
0.5
  1
069755
100
AcDbAttributeDefinition
  3

  2
LINA
 70
     8
280
     0
  0
ATTDEF
  5
78
330
6E
100
AcDbEntity
  8
AM_6
100
AcDbText
 10
5.110859375024972
 20
0.2101250000000001
 30
0.0
 40
0.5
  1
1-5/8
100
AcDbAttributeDefinition
  3

  2
SS
 70
     8
280
     0
  0
ATTDEF
  5
79
330
6E
100
AcDbEntity
  8
AM_6
100
AcDbText
 10
5.110859375024972
 20
-0.2898749999999999
 30
0.0
 40
0.5
  1
069755
100
AcDbAttributeDefinition
  3

  2
PN
 70
     8
280
     0
  0
ATTDEF
  5
7A
330
6E
100
AcDbEntity
  8
AM_6
100
AcDbText
 10
5.110859375024972
 20
-0.7898749999999999
 30
0.0
 40
0.5
  1
F4S-IP-110L
100
AcDbAttributeDefinition
  3

  2
DESCRIPTION
 70
     8
280
     0
  0
ATTDEF
  5
7B
330
6E
100
AcDbEntity
  8
AM_6
100
AcDbText
 10
5.110859375024972
 20
-1.289875
 30
0.0
 40
0.5
  1
Non-Expansion Type
100
AcDbAttributeDefinition
  3

  2
EF
 70
     8
280
     0
  0
ATTDEF
  5
7C
330
6E
100
AcDbEntity
  8
AM_6
100
AcDbText
 10
5.110859375024972
 20
-1.789875
 30
0.0
 40
0.5
  1
Labyrinth Seal
100
AcDbAttributeDefinition
  3

  2
ST
 70
     8
280
     0
  0
ATTDEF
  5
7D
330
6E
100
AcDbEntity
  8
AM_6
100
AcDbText
 10
5.110859375024972
 20
-2.289875
 30
0.0
 40
0.5
  1
2-13/16
100
AcDbAttributeDefinition
  3

  2
A
 70
     8
280
     0
  0
ATTDEF
  5
7E
330
6E
100
AcDbEntity
  8
AM_6
100
AcDbText
 10
5.110859375024972
 20
-2.789875
 30
0.0
 40
0.5
  1
5-1/8
100
AcDbAttributeDefinition
  3

  2
B
 70
     8
280
     0
  0
ATTDEF
  5
7F
330
6E
100
AcDbEntity
  8
AM_6
100
AcDbText
 10
5.110859375024972
 20
-3.289875
 30
0.0
 40
0.5
  1
3-7/64
100
AcDbAttributeDefinition
  3

  2
C
 70
     8
280
     0
  0
ATTDEF
  5
80
330
6E
100
AcDbEntity
  8
AM_6
100
AcDbText
 10
5.110859375024972
 20
-3.789875
 30
0.0
 40
0.5
  1
3-57/64
100
AcDbAttributeDefinition
  3

  2
D
 70
     8
280
     0
  0
ATTDEF
  5
81
330
6E
100
AcDbEntity
  8
AM_6
100
AcDbText
 10
5.110859375024972
 20
-4.289875
 30
0.0
 40
0.5
  1
1/2
100
AcDbAttributeDefinition
  3

  2
F
 70
     8
280
     0
  0
ATTDEF
  5
82
330
6E
100
AcDbEntity
  8
AM_6
100
AcDbText
 10
5.110859375024972
 20
-4.789875
 30
0.0
 40
0.5
  1
1-13/64
100
AcDbAttributeDefinition
  3

  2
G
 70
     8
280
     0
  0
ATTDEF
  5
83
330
6E
100
AcDbEntity
  8
AM_6
100
AcDbText
 10
5.110859375024972
 20
-5.289875
 30
0.0
 40
0.5
  1
1/2
100
AcDbAttributeDefinition
  3

  2
H
 70
     8
280
     0
  0
ATTDEF
  5
84
330
6E
100
AcDbEntity
  8
AM_6
100
AcDbText
 10
5.110859375024972
 20
-5.789875
 30
0.0
 40
0.5
  1
4-13/32
100
AcDbAttributeDefinition
  3

  2
J
 70
     8
280
     0
  0
ATTDEF
  5
85
330
6E
100
AcDbEntity
  8
AM_6
100
AcDbText
 10
5.110859375024972
 20
-6.289875
 30
0.0
 40
0.5
  1
5-1/2
100
AcDbAttributeDefinition
  3

  2
K
 70
     8
280
     0
  0
ATTDEF
  5
86
330
6E
100
AcDbEntity
  8
AM_6
100
AcDbText
 10
5.110859375024972
 20
-6.789875
 30
0.0
 40
0.5
  1
3
100
AcDbAttributeDefinition
  3

  2
L
 70
     8
280
     0
  0
ATTDEF
  5
87
330
6E
100
AcDbEntity
  8
AM_6
100
AcDbText
 10
5.110859375024972
 20
-7.289875
 30
0.0
 40
0.5
  1
2-25/32
100
AcDbAttributeDefinition
  3

  2
N
 70
     8
280
     0
  0
ATTDEF
  5
88
330
6E
100
AcDbEntity
  8
AM_6
100
AcDbText
 10
5.110859375024972
 20
-7.789875
 30
0.0
 40
0.5
  1
19/64
100
AcDbAttributeDefinition
  3

  2
P
 70
     8
280
     0
  0
ATTDEF
  5
89
330
6E
100
AcDbEntity
  8
AM_6
100
AcDbText
 10
5.110859375024972
 20
-8.289875
 30
0.0
 40
0.5
  1
1/4
100
AcDbAttributeDefinition
  3

  2
X
 70
     8
280
     0
  0
ATTDEF
  5
8A
330
6E
100
AcDbEntity
  8
AM_6
100
AcDbText
 10
5.110859375024972
 20
-8.789875
 30
0.0
 40
0.5
  1
0.020
100
AcDbAttributeDefinition
  3

  2
Y
 70
     8
280
     0
  0
ATTDEF
  5
8B
330
6E
100
AcDbEntity
  8
AM_6
100
AcDbText
 10
5.110859375024972
 20
-9.289875
 30
0.0
 40
0.5
  1
2-5/64
100
AcDbAttributeDefinition
  3

  2
Z
 70
     8
280
     0
  0
ATTDEF
  5
8C
330
6E
100
AcDbEntity
  8
AM_6
100
AcDbText
 10
5.110859375024972
 20
-9.789875
 30
0.0
 40
0.5
  1
baldor
100
AcDbAttributeDefinition
  3

  2
COMPANY
 70
     8
280
     0
  0
INSERT
  5
8E
330
6E
100
AcDbEntity
  8
0
100
AcDbBlockReference
  2
2_ASME_B18_3_10_1_0_in_069755_2
 10
0.0
 20
0.0
 30
0.0
  0
INSERT
  5
B6
330
6E
100
AcDbEntity
  8
0
100
AcDbBlockReference
  2
3_ASME_B18_3_10_2_0_in_069755_2
 10
0.0
 20
0.0
 30
0.0
  0
INSERT
  5
DA
330
6E
100
AcDbEntity
  8
0
100
AcDbBlockReference
  2
4_070886LW_0_in_069755_2
 10
0.0
 20
0.0
 30
0.0
  0
INSERT
  5
110
330
6E
100
AcDbEntity
  8
0
100
AcDbBlockReference
  2
5_070918I_0_in_069755_2
 10
0.0
 20
0.0
 30
0.0
  0
INSERT
  5
199
330
6E
100
AcDbEntity
  8
0
100
AcDbBlockReference
  2
6_405015E_Inch_0_in_069755_2
 10
0.0
 20
0.0
 30
0.0
  0
INSERT
  5
1D8
330
6E
100
AcDbEntity
  8
0
100
AcDbBlockReference
  2
7_069755H_0_in_069755_2
 10
0.0
 20
0.0
 30
0.0
  0
ENDBLK
  5
71
330
6E
100
AcDbEntity
  8
0
100
AcDbBlockEnd
  0
BLOCK
  5
8F
330
8D
100
AcDbEntity
  8
0
100
AcDbBlockBegin
  2
2_ASME_B18_3_10_1_0_in_069755_2
 70
     2
 10
0.0
 20
0.0
 30
0.0
  3
2_ASME_B18_3_10_1_0_in_069755_2
  1

  0
ATTDEF
  5
91
330
8D
100
AcDbEntity
  8
AM_6
100
AcDbText
 10
2.849625000000001
 20
-1.020888888888889
 30
0.0
 40
0.5
  1
ANSI/ASME B18.3-1998
100
AcDbAttributeDefinition
  3

  2
NN
 70
     8
280
     0
  0
ATTDEF
  5
92
330
8D
100
AcDbEntity
  8
AM_6
100
AcDbText
 10
2.849625000000001
 20
-1.520888888888889
 30
0.0
 40
0.5
  1
Socket Button Head Cap Screws
100
AcDbAttributeDefinition
  3

  2
NT
 70
     8
280
     0
  0
ATTDEF
  5
93
330
8D
100
AcDbEntity
  8
AM_6
100
AcDbText
 10
2.849625000000001
 20
-2.020888888888889
 30
0.0
 40
0.5
  1
ASME B18.3-10
100
AcDbAttributeDefinition
  3

  2
NB
 70
     8
280
     0
  0
ATTDEF
  5
94
330
8D
100
AcDbEntity
  8
AM_6
100
AcDbText
 10
2.849625000000001
 20
-2.520888888888889
 30
0.0
 40
0.5
  1
ASME B18.3-$NS.
100
AcDbAttributeDefinition
  3

  2
NBSYN
 70
     8
280
     0
  0
ATTDEF
  5
95
330
8D
100
AcDbEntity
  8
AM_6
100
AcDbText
 10
2.849625000000001
 20
-3.020888888888889
 30
0.0
 40
0.5
  1
ASME B18.3-10
100
AcDbAttributeDefinition
  3

  2
LINA
 70
     8
280
     0
  0
ATTDEF
  5
96
330
8D
100
AcDbEntity
  8
AM_6
100
AcDbText
 10
2.849625000000001
 20
-3.520888888888889
 30
0.0
 40
0.5
  1
10
100
AcDbAttributeDefinition
  3

  2
NS
 70
     8
280
     0
  0
ATTDEF
  5
97
330
8D
100
AcDbEntity
  8
AM_6
100
AcDbText
 10
2.849625000000001
 20
-4.020888888888889
 30
0.0
 40
0.5
  1
0.361
100
AcDbAttributeDefinition
  3

  2
A
 70
     8
280
     0
  0
ATTDEF
  5
98
330
8D
100
AcDbEntity
  8
AM_6
100
AcDbText
 10
2.849625000000001
 20
-4.520888888888889
 30
0.0
 40
0.5
  1
0.101
100
AcDbAttributeDefinition
  3

  2
H
 70
     8
280
     0
  0
ATTDEF
  5
99
330
8D
100
AcDbEntity
  8
AM_6
100
AcDbText
 10
2.849625000000001
 20
-5.020888888888889
 30
0.0
 40
0.5
  1
0.800
100
AcDbAttributeDefinition
  3

  2
L
 70
     8
280
     0
  0
ATTDEF
  5
9A
330
8D
100
AcDbEntity
  8
AM_6
100
AcDbText
 10
2.849625000000001
 20
-5.520888888888889
 30
0.0
 40
0.5
  1
0.020
100
AcDbAttributeDefinition
  3

  2
S
 70
     8
280
     0
  0
ATTDEF
  5
9B
330
8D
100
AcDbEntity
  8
AM_6
100
AcDbText
 10
2.849625000000001
 20
-6.020888888888889
 30
0.0
 40
0.5
  1
0.125000
100
AcDbAttributeDefinition
  3

  2
J
 70
     8
280
     0
  0
ATTDEF
  5
9C
330
8D
100
AcDbEntity
  8
AM_6
100
AcDbText
 10
2.849625000000001
 20
-6.520888888888889
 30
0.0
 40
0.5
  1
baldor
100
AcDbAttributeDefinition
  3

  2
COMPANY
 70
     8
280
     0
  0
LINE
  5
9F
330
8D
100
AcDbEntity
  8
AM_9
100
AcDbLine
 10
-2.990375
 20
-1.129220105240186
 30
0.0
 11
-3.051375
 21
-1.129220105240186
 31
0.0
  0
LINE
  5
A0
330
8D
100
AcDbEntity
  8
AM_9
100
AcDbLine
 10
-2.990375
 20
-1.273557672537592
 30
0.0
 11
-3.051375
 21
-1.273557672537592
 31
0.0
  0
LINE
  5
A1
330
8D
100
AcDbEntity
  8
AM_9
100
AcDbLine
 10
-2.990375
 20
-1.129220105240186
 30
0.0
 11
-2.990375
 21
-1.273557672537592
 31
0.0
  0
LINE
  5
A2
330
8D
100
AcDbEntity
  8
AM_9
100
AcDbLine
 10
-2.990375
 20
-1.165304497064537
 30
0.0
 11
-3.051375
 21
-1.165304497064537
 31
0.0
  0
LINE
  5
A3
330
8D
100
AcDbEntity
  8
AM_9
100
AcDbLine
 10
-2.990375
 20
-1.23747328071324
 30
0.0
 11
-3.051375
 21
-1.23747328071324
 31
0.0
  0
LINE
  5
A4
330
8D
100
AcDbEntity
  8
AM_9
100
AcDbLine
 10
-2.150374999999999
 20
-1.124988888888889
 30
0.0
 11
-2.150374999999999
 21
-1.277788888888889
 31
0.0
  0
LINE
  5
A5
330
8D
100
AcDbEntity
  8
AM_9
100
AcDbLine
 10
-2.150374999999999
 20
-1.124988888888889
 30
0.0
 11
-2.168975
 21
-1.106388888888889
 31
0.0
  0
LINE
  5
A6
330
8D
100
AcDbEntity
  8
AM_9
100
AcDbLine
 10
-2.168975
 20
-1.296388888888889
 30
0.0
 11
-2.150374999999999
 21
-1.277788888888889
 31
0.0
  0
LINE
  5
A7
330
8D
100
AcDbEntity
  8
AM_9
100
AcDbLine
 10
-2.168975
 20
-1.106388888888889
 30
0.0
 11
-2.168975
 21
-1.296388888888889
 31
0.0
  0
LINE
  5
A8
330
8D
100
AcDbEntity
  8
AM_9
100
AcDbLine
 10
-2.950375
 20
-1.296388888888889
 30
0.0
 11
-2.168975
 21
-1.296388888888889
 31
0.0
  0
LINE
  5
A9
330
8D
100
AcDbEntity
  8
AM_9
100
AcDbLine
 10
-2.168975
 20
-1.106388888888889
 30
0.0
 11
-2.950375
 21
-1.106388888888889
 31
0.0
  0
LINE
  5
AB
330
8D
100
AcDbEntity
  8
AM_5
100
AcDbLine
 10
-2.870375
 20
-1.277788888888889
 30
0.0
 11
-2.902591145020781
 21
-1.296388888888889
 31
0.0
  0
LINE
  5
AC
330
8D
100
AcDbEntity
  8
AM_5
100
AcDbLine
 10
-2.870375
 20
-1.106388888888888
 30
0.0
 11
-2.870375
 21
-1.296389005689807
 31
0.0
  0
LINE
  5
AD
330
8D
100
AcDbEntity
  8
AM_5
100
AcDbLine
 10
-2.870375
 20
-1.124988888888889
 30
0.0
 11
-2.902591145020781
 21
-1.106388888888889
 31
0.0
  0
LINE
  5
AF
330
8D
100
AcDbEntity
  8
AM_4
100
AcDbLine
 10
-3.051375
 20
-1.101888888888889
 30
0.0
 11
-3.051375
 21
-1.300888888888889
 31
0.0
  0
ARC
  5
B0
330
8D
100
AcDbEntity
  8
AM_4
100
AcDbCircle
 10
-2.970374999999999
 20
-1.300888888888888
 30
0.0
 40
0.0810000000000004
100
AcDbArc
 50
180.0
 51
270.0
  0
ARC
  5
B1
330
8D
100
AcDbEntity
  8
AM_4
100
AcDbCircle
 10
-2.970375
 20
-1.101888888888889
 30
0.0
 40
0.0810000000000002
100
AcDbArc
 50
90.0
 51
180.0
  0
LINE
  5
B2
330
8D
100
AcDbEntity
  8
AM_4
100
AcDbLine
 10
-2.970375
 20
-1.020888888888889
 30
0.0
 11
-2.970375
 21
-1.381888888888889
 31
0.0
  0
LINE
  5
B3
330
8D
100
AcDbEntity
  8
AM_4
100
AcDbLine
 10
-2.970375
 20
-1.381888888888889
 30
0.0
 11
-2.950375
 21
-1.381888888888889
 31
0.0
  0
LINE
  5
B4
330
8D
100
AcDbEntity
  8
AM_4
100
AcDbLine
 10
-2.950375
 20
-1.020888888888889
 30
0.0
 11
-2.970375
 21
-1.020888888888889
 31
0.0
  0
ENDBLK
  5
90
330
8D
100
AcDbEntity
  8
0
100
AcDbBlockEnd
  0
BLOCK
  5
B7
330
B5
100
AcDbEntity
  8
0
100
AcDbBlockBegin
  2
3_ASME_B18_3_10_2_0_in_069755_2
 70
     2
 10
0.0
 20
0.0
 30
0.0
  3
3_ASME_B18_3_10_2_0_in_069755_2
  1

  0
ATTDEF
  5
B9
330
B5
100
AcDbEntity
  8
AM_6
100
AcDbText
 10
2.849625000000001
 20
1.381888888888889
 30
0.0
 40
0.5
  1
ANSI/ASME B18.3-1998
100
AcDbAttributeDefinition
  3

  2
NN
 70
     8
280
     0
  0
ATTDEF
  5
BA
330
B5
100
AcDbEntity
  8
AM_6
100
AcDbText
 10
2.849625000000001
 20
0.8818888888888889
 30
0.0
 40
0.5
  1
Socket Button Head Cap Screws
100
AcDbAttributeDefinition
  3

  2
NT
 70
     8
280
     0
  0
ATTDEF
  5
BB
330
B5
100
AcDbEntity
  8
AM_6
100
AcDbText
 10
2.849625000000001
 20
0.3818888888888889
 30
0.0
 40
0.5
  1
ASME B18.3-10
100
AcDbAttributeDefinition
  3

  2
NB
 70
     8
280
     0
  0
ATTDEF
  5
BC
330
B5
100
AcDbEntity
  8
AM_6
100
AcDbText
 10
2.849625000000001
 20
-0.1181111111111111
 30
0.0
 40
0.5
  1
ASME B18.3-$NS.
100
AcDbAttributeDefinition
  3

  2
NBSYN
 70
     8
280
     0
  0
ATTDEF
  5
BD
330
B5
100
AcDbEntity
  8
AM_6
100
AcDbText
 10
2.849625000000001
 20
-0.6181111111111111
 30
0.0
 40
0.5
  1
ASME B18.3-10
100
AcDbAttributeDefinition
  3

  2
LINA
 70
     8
280
     0
  0
ATTDEF
  5
BE
330
B5
100
AcDbEntity
  8
AM_6
100
AcDbText
 10
2.849625000000001
 20
-1.118111111111111
 30
0.0
 40
0.5
  1
10
100
AcDbAttributeDefinition
  3

  2
NS
 70
     8
280
     0
  0
ATTDEF
  5
BF
330
B5
100
AcDbEntity
  8
AM_6
100
AcDbText
 10
2.849625000000001
 20
-1.618111111111111
 30
0.0
 40
0.5
  1
0.361
100
AcDbAttributeDefinition
  3

  2
A
 70
     8
280
     0
  0
ATTDEF
  5
C0
330
B5
100
AcDbEntity
  8
AM_6
100
AcDbText
 10
2.849625000000001
 20
-2.118111111111111
 30
0.0
 40
0.5
  1
0.101
100
AcDbAttributeDefinition
  3

  2
H
 70
     8
280
     0
  0
ATTDEF
  5
C1
330
B5
100
AcDbEntity
  8
AM_6
100
AcDbText
 10
2.849625000000001
 20
-2.618111111111111
 30
0.0
 40
0.5
  1
0.800
100
AcDbAttributeDefinition
  3

  2
L
 70
     8
280
     0
  0
ATTDEF
  5
C2
330
B5
100
AcDbEntity
  8
AM_6
100
AcDbText
 10
2.849625000000001
 20
-3.118111111111111
 30
0.0
 40
0.5
  1
0.020
100
AcDbAttributeDefinition
  3

  2
S
 70
     8
280
     0
  0
ATTDEF
  5
C3
330
B5
100
AcDbEntity
  8
AM_6
100
AcDbText
 10
2.849625000000001
 20
-3.618111111111111
 30
0.0
 40
0.5
  1
0.125000
100
AcDbAttributeDefinition
  3

  2
J
 70
     8
280
     0
  0
ATTDEF
  5
C4
330
B5
100
AcDbEntity
  8
AM_6
100
AcDbText
 10
2.849625000000001
 20
-4.118111111111111
 30
0.0
 40
0.5
  1
baldor
100
AcDbAttributeDefinition
  3

  2
COMPANY
 70
     8
280
     0
  0
LINE
  5
C5
330
B5
100
AcDbEntity
  8
AM_9
100
AcDbLine
 10
-2.990375
 20
1.273557672537592
 30
0.0
 11
-3.051375
 21
1.273557672537592
 31
0.0
  0
LINE
  5
C6
330
B5
100
AcDbEntity
  8
AM_9
100
AcDbLine
 10
-2.990375
 20
1.129220105240186
 30
0.0
 11
-3.051375
 21
1.129220105240186
 31
0.0
  0
LINE
  5
C7
330
B5
100
AcDbEntity
  8
AM_9
100
AcDbLine
 10
-2.990375
 20
1.23747328071324
 30
0.0
 11
-3.051375
 21
1.23747328071324
 31
0.0
  0
LINE
  5
C8
330
B5
100
AcDbEntity
  8
AM_9
100
AcDbLine
 10
-2.990375
 20
1.273557672537592
 30
0.0
 11
-2.990375
 21
1.129220105240186
 31
0.0
  0
LINE
  5
C9
330
B5
100
AcDbEntity
  8
AM_9
100
AcDbLine
 10
-2.990375
 20
1.165304497064537
 30
0.0
 11
-3.051375
 21
1.165304497064537
 31
0.0
  0
LINE
  5
CA
330
B5
100
AcDbEntity
  8
AM_9
100
AcDbLine
 10
-2.150374999999999
 20
1.277788888888889
 30
0.0
 11
-2.150374999999999
 21
1.124988888888889
 31
0.0
  0
LINE
  5
CB
330
B5
100
AcDbEntity
  8
AM_9
100
AcDbLine
 10
-2.150374999999999
 20
1.277788888888889
 30
0.0
 11
-2.168975
 21
1.296388888888889
 31
0.0
  0
LINE
  5
CC
330
B5
100
AcDbEntity
  8
AM_9
100
AcDbLine
 10
-2.168975
 20
1.106388888888889
 30
0.0
 11
-2.150374999999999
 21
1.124988888888889
 31
0.0
  0
LINE
  5
CD
330
B5
100
AcDbEntity
  8
AM_9
100
AcDbLine
 10
-2.168975
 20
1.296388888888889
 30
0.0
 11
-2.168975
 21
1.106388888888889
 31
0.0
  0
LINE
  5
CE
330
B5
100
AcDbEntity
  8
AM_9
100
AcDbLine
 10
-2.950375
 20
1.106388888888889
 30
0.0
 11
-2.168975
 21
1.106388888888889
 31
0.0
  0
LINE
  5
CF
330
B5
100
AcDbEntity
  8
AM_9
100
AcDbLine
 10
-2.168975
 20
1.296388888888889
 30
0.0
 11
-2.950375
 21
1.296388888888889
 31
0.0
  0
LINE
  5
D0
330
B5
100
AcDbEntity
  8
AM_5
100
AcDbLine
 10
-2.870375
 20
1.124988888888889
 30
0.0
 11
-2.902591145020782
 21
1.106388888888888
 31
0.0
  0
LINE
  5
D1
330
B5
100
AcDbEntity
  8
AM_5
100
AcDbLine
 10
-2.870375
 20
1.296389005689807
 30
0.0
 11
-2.870375
 21
1.106388888888889
 31
0.0
  0
LINE
  5
D2
330
B5
100
AcDbEntity
  8
AM_5
100
AcDbLine
 10
-2.870375
 20
1.277788888888889
 30
0.0
 11
-2.902591145020781
 21
1.296388888888889
 31
0.0
  0
LINE
  5
D3
330
B5
100
AcDbEntity
  8
AM_4
100
AcDbLine
 10
-3.051375
 20
1.300888888888889
 30
0.0
 11
-3.051375
 21
1.101888888888889
 31
0.0
  0
ARC
  5
D4
330
B5
100
AcDbEntity
  8
AM_4
100
AcDbCircle
 10
-2.970375
 20
1.101888888888889
 30
0.0
 40
0.0809999999999995
100
AcDbArc
 50
180.0
 51
270.0
  0
ARC
  5
D5
330
B5
100
AcDbEntity
  8
AM_4
100
AcDbCircle
 10
-2.970374999999998
 20
1.300888888888887
 30
0.0
 40
0.0810000000000015
100
AcDbArc
 50
90.0
 51
180.0
  0
LINE
  5
D6
330
B5
100
AcDbEntity
  8
AM_4
100
AcDbLine
 10
-2.970375
 20
1.381888888888889
 30
0.0
 11
-2.970375
 21
1.020888888888889
 31
0.0
  0
LINE
  5
D7
330
B5
100
AcDbEntity
  8
AM_4
100
AcDbLine
 10
-2.970375
 20
1.020888888888889
 30
0.0
 11
-2.950375
 21
1.020888888888889
 31
0.0
  0
LINE
  5
D8
330
B5
100
AcDbEntity
  8
AM_4
100
AcDbLine
 10
-2.950375
 20
1.381888888888889
 30
0.0
 11
-2.970375
 21
1.381888888888889
 31
0.0
  0
ENDBLK
  5
B8
330
B5
100
AcDbEntity
  8
0
100
AcDbBlockEnd
  0
BLOCK
  5
DB
330
D9
100
AcDbEntity
  8
0
100
AcDbBlockBegin
  2
4_070886LW_0_in_069755_2
 70
     2
 10
0.0
 20
0.0
 30
0.0
  3
4_070886LW_0_in_069755_2
  1

  0
ATTDEF
  5
DD
330
D9
100
AcDbEntity
  8
AM_6
100
AcDbText
 10
2.489625
 20
1.5
 30
0.0
 40
0.5
  1
Imperial Insert Lockwasher -Inch
100
AcDbAttributeDefinition
  3

  2
NN
 70
     8
280
     0
  0
ATTDEF
  5
DE
330
D9
100
AcDbEntity
  8
AM_6
100
AcDbText
 10
2.489625
 20
0.9999999999999998
 30
0.0
 40
0.5
  1
Imperial Bearings
100
AcDbAttributeDefinition
  3

  2
NT
 70
     8
280
     0
  0
ATTDEF
  5
DF
330
D9
100
AcDbEntity
  8
AM_6
100
AcDbText
 10
2.489625
 20
0.4999999999999998
 30
0.0
 40
0.5
  1
070886LW
100
AcDbAttributeDefinition
  3

  2
NB
 70
     8
280
     0
  0
ATTDEF
  5
E0
330
D9
100
AcDbEntity
  8
AM_6
100
AcDbText
 10
2.489625
 20
-0.0000000000000002
 30
0.0
 40
0.5
  1
$PN.LW
100
AcDbAttributeDefinition
  3

  2
NBSYN
 70
     8
280
     0
  0
ATTDEF
  5
E1
330
D9
100
AcDbEntity
  8
AM_6
100
AcDbText
 10
2.489625
 20
-0.5000000000000002
 30
0.0
 40
0.5
  1
070886
100
AcDbAttributeDefinition
  3

  2
LINA
 70
     8
280
     0
  0
ATTDEF
  5
E2
330
D9
100
AcDbEntity
  8
AM_6
100
AcDbText
 10
2.489625
 20
-1.0
 30
0.0
 40
0.5
  1
1-5/8
100
AcDbAttributeDefinition
  3

  2
SS
 70
     8
280
     0
  0
ATTDEF
  5
E3
330
D9
100
AcDbEntity
  8
AM_6
100
AcDbText
 10
2.489625
 20
-1.5
 30
0.0
 40
0.5
  1
1.625000
100
AcDbAttributeDefinition
  3

  2
SS1
 70
     8
280
     0
  0
ATTDEF
  5
E4
330
D9
100
AcDbEntity
  8
AM_6
100
AcDbText
 10
2.489625
 20
-2.0
 30
0.0
 40
0.5
  1
070886
100
AcDbAttributeDefinition
  3

  2
PN
 70
     8
280
     0
  0
ATTDEF
  5
E5
330
D9
100
AcDbEntity
  8
AM_6
100
AcDbText
 10
2.489625
 20
-2.5
 30
0.0
 40
0.5
  1
INS-IP-110R
100
AcDbAttributeDefinition
  3

  2
DESCRIPTION
 70
     8
280
     0
  0
ATTDEF
  5
E6
330
D9
100
AcDbEntity
  8
AM_6
100
AcDbText
 10
2.489625
 20
-3.0
 30
0.0
 40
0.5
  1
3.3465
100
AcDbAttributeDefinition
  3

  2
A
 70
     8
280
     0
  0
ATTDEF
  5
E7
330
D9
100
AcDbEntity
  8
AM_6
100
AcDbText
 10
2.489625
 20
-3.5
 30
0.0
 40
0.5
  1
61/64
100
AcDbAttributeDefinition
  3

  2
B
 70
     8
280
     0
  0
ATTDEF
  5
E8
330
D9
100
AcDbEntity
  8
AM_6
100
AcDbText
 10
2.489625
 20
-4.0
 30
0.0
 40
0.5
  1
2-13/16
100
AcDbAttributeDefinition
  3

  2
C
 70
     8
280
     0
  0
ATTDEF
  5
E9
330
D9
100
AcDbEntity
  8
AM_6
100
AcDbText
 10
2.489625
 20
-4.5
 30
0.0
 40
0.5
  1
0.954
100
AcDbAttributeDefinition
  3

  2
D
 70
     8
280
     0
  0
ATTDEF
  5
EA
330
D9
100
AcDbEntity
  8
AM_6
100
AcDbText
 10
2.489625
 20
-5.0
 30
0.0
 40
0.5
  1
3
100
AcDbAttributeDefinition
  3

  2
E
 70
     8
280
     0
  0
ATTDEF
  5
EB
330
D9
100
AcDbEntity
  8
AM_6
100
AcDbText
 10
2.489625
 20
-5.5
 30
0.0
 40
0.5
  1
0.1900
100
AcDbAttributeDefinition
  3

  2
NDM
 70
     8
280
     0
  0
ATTDEF
  5
EC
330
D9
100
AcDbEntity
  8
AM_6
100
AcDbText
 10
2.489625
 20
-6.0
 30
0.0
 40
0.5
  1
0.1450
100
AcDbAttributeDefinition
  3

  2
KDM
 70
     8
280
     0
  0
ATTDEF
  5
ED
330
D9
100
AcDbEntity
  8
AM_6
100
AcDbText
 10
2.489625
 20
-6.5
 30
0.0
 40
0.5
  1
2.42
100
AcDbAttributeDefinition
  3

  2
AL
 70
     8
280
     0
  0
ATTDEF
  5
EE
330
D9
100
AcDbEntity
  8
AM_6
100
AcDbText
 10
2.489625
 20
-7.0
 30
0.0
 40
0.5
  1
0.38
100
AcDbAttributeDefinition
  3

  2
BL
 70
     8
280
     0
  0
ATTDEF
  5
EF
330
D9
100
AcDbEntity
  8
AM_6
100
AcDbText
 10
2.489625
 20
-7.5
 30
0.0
 40
0.5
  1
0.07
100
AcDbAttributeDefinition
  3

  2
CL
 70
     8
280
     0
  0
ATTDEF
  5
F0
330
D9
100
AcDbEntity
  8
AM_6
100
AcDbText
 10
2.489625
 20
-8.0
 30
0.0
 40
0.5
  1
0.44
100
AcDbAttributeDefinition
  3

  2
DL
 70
     8
280
     0
  0
ATTDEF
  5
F1
330
D9
100
AcDbEntity
  8
AM_6
100
AcDbText
 10
2.489625
 20
-8.5
 30
0.0
 40
0.5
  1
baldor
100
AcDbAttributeDefinition
  3

  2
COMPANY
 70
     8
280
     0
  0
LINE
  5
F2
330
D9
100
AcDbEntity
  8
AM_9
100
AcDbLine
 10
-2.880375
 20
0.7704006647723406
 30
0.0
 11
-2.950375
 21
0.7704006647723406
 31
0.0
  0
LINE
  5
F3
330
D9
100
AcDbEntity
  8
AM_9
100
AcDbLine
 10
-2.510375
 20
0.7489155407992824
 30
0.0
 11
-2.880375
 21
0.7489155407992824
 31
0.0
  0
LINE
  5
F4
330
D9
100
AcDbEntity
  8
AM_9
100
AcDbLine
 10
-2.510375
 20
0.7091484516230548
 30
0.0
 11
-2.950375
 21
0.7091484516230548
 31
0.0
  0
LINE
  5
F5
330
D9
100
AcDbEntity
  8
AM_9
100
AcDbLine
 10
-2.880375
 20
0.8216253929486494
 30
0.0
 11
-2.510375
 21
0.8216253929486493
 31
0.0
  0
LINE
  5
F6
330
D9
100
AcDbEntity
  8
AM_9
100
AcDbLine
 10
-2.510375
 20
0.7818583037724218
 30
0.0
 11
-2.950375
 21
0.7818583037724218
 31
0.0
  0
LINE
  5
F7
330
D9
100
AcDbEntity
  8
AM_9
100
AcDbLine
 10
-2.510375
 20
0.7091484516230548
 30
0.0
 11
-2.510375
 21
0.8216253929486493
 31
0.0
  0
LINE
  5
F8
330
D9
100
AcDbEntity
  8
AM_9
100
AcDbLine
 10
-2.880375
 20
0.8431105169217075
 30
0.0
 11
-2.950375
 21
0.8431105169217075
 31
0.0
  0
LINE
  5
F9
330
D9
100
AcDbEntity
  8
AM_9
100
AcDbLine
 10
-2.880375
 20
1.201388888888889
 30
0.0
 11
-2.950375
 21
1.201388888888889
 31
0.0
  0
LINE
  5
FA
330
D9
100
AcDbEntity
  8
AM_9
100
AcDbLine
 10
-2.880375
 20
1.296463345701357
 30
0.0
 11
-2.950375
 21
1.296463345701357
 31
0.0
  0
LINE
  5
FB
330
D9
100
AcDbEntity
  8
AM_9
100
AcDbLine
 10
-2.880375
 20
-1.201388888888889
 30
0.0
 11
-2.950375
 21
-1.201388888888889
 31
0.0
  0
LINE
  5
FC
330
D9
100
AcDbEntity
  8
AM_9
100
AcDbLine
 10
-2.950375
 20
-1.296463345701357
 30
0.0
 11
-2.880375
 21
-1.296463345701357
 31
0.0
  0
LINE
  5
FD
330
D9
100
AcDbEntity
  8
AM_9
100
AcDbLine
 10
-2.880375
 20
0.8732259590751008
 30
0.0
 11
-2.950375
 21
0.8732259590751008
 31
0.0
  0
LINE
  5
FE
330
D9
100
AcDbEntity
  8
AM_9
100
AcDbLine
 10
-2.880375
 20
-0.8732259590751006
 30
0.0
 11
-2.950375
 21
-0.8732259590751005
 31
0.0
  0
LINE
  5
FF
330
D9
100
AcDbEntity
  8
AM_9
100
AcDbLine
 10
-2.880375
 20
-0.6846391413828519
 30
0.0
 11
-2.950375
 21
-0.684639141382852
 31
0.0
  0
LINE
  5
100
330
D9
100
AcDbEntity
  8
AM_9
100
AcDbLine
 10
-2.880375
 20
0.6846391413828523
 30
0.0
 11
-2.950375
 21
0.6846391413828521
 31
0.0
  0
LINE
  5
101
330
D9
100
AcDbEntity
  8
AM_9
100
AcDbLine
 10
-2.880375
 20
0.5502888529574085
 30
0.0
 11
-2.950375
 21
0.5502888529574086
 31
0.0
  0
LINE
  5
102
330
D9
100
AcDbEntity
  8
AM_9
100
AcDbLine
 10
-2.880375
 20
-0.5502888529574078
 30
0.0
 11
-2.950375
 21
-0.550288852957408
 31
0.0
  0
LINE
  5
103
330
D9
100
AcDbEntity
  8
AM_9
100
AcDbLine
 10
-2.880375
 20
0.9166853743882272
 30
0.0
 11
-2.950375
 21
0.9166853743882272
 31
0.0
  0
LINE
  5
104
330
D9
100
AcDbEntity
  8
AM_9
100
AcDbLine
 10
-2.880375
 20
0.7823350859627831
 30
0.0
 11
-2.950375
 21
0.7823350859627831
 31
0.0
  0
LINE
  5
105
330
D9
100
AcDbEntity
  8
AM_9
100
AcDbLine
 10
-2.880375
 20
0.9445628876318475
 30
0.0
 11
-2.950375
 21
0.9445628876318475
 31
0.0
  0
LINE
  5
106
330
D9
100
AcDbEntity
  8
AM_9
100
AcDbLine
 10
-2.880375
 20
-0.7823350859627828
 30
0.0
 11
-2.950375
 21
-0.7823350859627826
 31
0.0
  0
LINE
  5
107
330
D9
100
AcDbEntity
  8
AM_9
100
AcDbLine
 10
-2.880375
 20
-0.9166853743882151
 30
0.0
 11
-2.950375
 21
-0.9166853743882151
 31
0.0
  0
LINE
  5
108
330
D9
100
AcDbEntity
  8
AM_9
100
AcDbLine
 10
-2.950375
 20
-0.9445628876318469
 30
0.0
 11
-2.880375
 21
-0.9445628876318469
 31
0.0
  0
LINE
  5
109
330
D9
100
AcDbEntity
  8
AM_9
100
AcDbLine
 10
-2.880375
 20
0.0950744568124685
 30
0.0
 11
-2.950375
 21
0.0950744568124685
 31
0.0
  0
LINE
  5
10A
330
D9
100
AcDbEntity
  8
AM_9
100
AcDbLine
 10
-2.950375
 20
-0.0950744568124677
 30
0.0
 11
-2.880375
 21
-0.0950744568124677
 31
0.0
  0
LINE
  5
10B
330
D9
100
AcDbEntity
  8
AM_4
100
AcDbLine
 10
-2.880375
 20
1.5
 30
0.0
 11
-2.950375
 21
1.5
 31
0.0
  0
LINE
  5
10C
330
D9
100
AcDbEntity
  8
AM_4
100
AcDbLine
 10
-2.950375
 20
-1.5
 30
0.0
 11
-2.880375
 21
-1.5
 31
0.0
  0
LINE
  5
10D
330
D9
100
AcDbEntity
  8
AM_4
100
AcDbLine
 10
-2.950375
 20
1.5
 30
0.0
 11
-2.950375
 21
-1.5
 31
0.0
  0
LINE
  5
10E
330
D9
100
AcDbEntity
  8
AM_4
100
AcDbLine
 10
-2.880375
 20
1.5
 30
0.0
 11
-2.880375
 21
-1.5
 31
0.0
  0
ENDBLK
  5
DC
330
D9
100
AcDbEntity
  8
0
100
AcDbBlockEnd
  0
BLOCK
  5
111
330
10F
100
AcDbEntity
  8
0
100
AcDbBlockBegin
  2
5_070918I_0_in_069755_2
 70
     2
 10
0.0
 20
0.0
 30
0.0
  3
5_070918I_0_in_069755_2
  1

  0
ATTDEF
  5
113
330
10F
100
AcDbEntity
  8
AM_6
100
AcDbText
 10
4.723125
 20
1.67325
 30
0.0
 40
0.5
  1
Imperial Insert -Inch
100
AcDbAttributeDefinition
  3

  2
NN
 70
     8
280
     0
  0
ATTDEF
  5
114
330
10F
100
AcDbEntity
  8
AM_6
100
AcDbText
 10
4.723125
 20
1.17325
 30
0.0
 40
0.5
  1
Imperial Bearings
100
AcDbAttributeDefinition
  3

  2
NT
 70
     8
280
     0
  0
ATTDEF
  5
115
330
10F
100
AcDbEntity
  8
AM_6
100
AcDbText
 10
4.723125
 20
0.6732499999999999
 30
0.0
 40
0.5
  1
070918I
100
AcDbAttributeDefinition
  3

  2
NB
 70
     8
280
     0
  0
ATTDEF
  5
116
330
10F
100
AcDbEntity
  8
AM_6
100
AcDbText
 10
4.723125
 20
0.1732499999999999
 30
0.0
 40
0.5
  1
$PN.I
100
AcDbAttributeDefinition
  3

  2
NBSYN
 70
     8
280
     0
  0
ATTDEF
  5
117
330
10F
100
AcDbEntity
  8
AM_6
100
AcDbText
 10
4.723125
 20
-0.3267500000000001
 30
0.0
 40
0.5
  1
070918
100
AcDbAttributeDefinition
  3

  2
LINA
 70
     8
280
     0
  0
ATTDEF
  5
118
330
10F
100
AcDbEntity
  8
AM_6
100
AcDbText
 10
4.723125
 20
-0.8267500000000001
 30
0.0
 40
0.5
  1
1-5/8
100
AcDbAttributeDefinition
  3

  2
SS
 70
     8
280
     0
  0
ATTDEF
  5
119
330
10F
100
AcDbEntity
  8
AM_6
100
AcDbText
 10
4.723125
 20
-1.32675
 30
0.0
 40
0.5
  1
1.625000
100
AcDbAttributeDefinition
  3

  2
SS1
 70
     8
280
     0
  0
ATTDEF
  5
11A
330
10F
100
AcDbEntity
  8
AM_6
100
AcDbText
 10
4.723125
 20
-1.82675
 30
0.0
 40
0.5
  1
070918
100
AcDbAttributeDefinition
  3

  2
PN
 70
     8
280
     0
  0
ATTDEF
  5
11B
330
10F
100
AcDbEntity
  8
AM_6
100
AcDbText
 10
4.723125
 20
-2.32675
 30
0.0
 40
0.5
  1
INS-IP-110L
100
AcDbAttributeDefinition
  3

  2
DESCRIPTION
 70
     8
280
     0
  0
ATTDEF
  5
11C
330
10F
100
AcDbEntity
  8
AM_6
100
AcDbText
 10
4.723125
 20
-2.82675
 30
0.0
 40
0.5
  1
Labyrinth Seal
100
AcDbAttributeDefinition
  3

  2
ST
 70
     8
280
     0
  0
ATTDEF
  5
11D
330
10F
100
AcDbEntity
  8
AM_6
100
AcDbText
 10
4.723125
 20
-3.32675
 30
0.0
 40
0.5
  1
3.3465
100
AcDbAttributeDefinition
  3

  2
A
 70
     8
280
     0
  0
ATTDEF
  5
11E
330
10F
100
AcDbEntity
  8
AM_6
100
AcDbText
 10
4.723125
 20
-3.82675
 30
0.0
 40
0.5
  1
61/64
100
AcDbAttributeDefinition
  3

  2
B
 70
     8
280
     0
  0
ATTDEF
  5
11F
330
10F
100
AcDbEntity
  8
AM_6
100
AcDbText
 10
4.723125
 20
-4.326750000000001
 30
0.0
 40
0.5
  1
2-13/16
100
AcDbAttributeDefinition
  3

  2
C
 70
     8
280
     0
  0
ATTDEF
  5
120
330
10F
100
AcDbEntity
  8
AM_6
100
AcDbText
 10
4.723125
 20
-4.826750000000001
 30
0.0
 40
0.5
  1
0.954
100
AcDbAttributeDefinition
  3

  2
D
 70
     8
280
     0
  0
ATTDEF
  5
121
330
10F
100
AcDbEntity
  8
AM_6
100
AcDbText
 10
4.723125
 20
-5.326750000000001
 30
0.0
 40
0.5
  1
3
100
AcDbAttributeDefinition
  3

  2
E
 70
     8
280
     0
  0
ATTDEF
  5
122
330
10F
100
AcDbEntity
  8
AM_6
100
AcDbText
 10
4.723125
 20
-5.826750000000001
 30
0.0
 40
0.5
  1
0.1900
100
AcDbAttributeDefinition
  3

  2
NDM
 70
     8
280
     0
  0
ATTDEF
  5
123
330
10F
100
AcDbEntity
  8
AM_6
100
AcDbText
 10
4.723125
 20
-6.326750000000001
 30
0.0
 40
0.5
  1
0.101
100
AcDbAttributeDefinition
  3

  2
H
 70
     8
280
     0
  0
ATTDEF
  5
124
330
10F
100
AcDbEntity
  8
AM_6
100
AcDbText
 10
4.723125
 20
-6.826750000000001
 30
0.0
 40
0.5
  1
0.1450
100
AcDbAttributeDefinition
  3

  2
KDM
 70
     8
280
     0
  0
ATTDEF
  5
125
330
10F
100
AcDbEntity
  8
AM_6
100
AcDbText
 10
4.723125
 20
-7.326750000000001
 30
0.0
 40
0.5
  1
2.42
100
AcDbAttributeDefinition
  3

  2
AL
 70
     8
280
     0
  0
ATTDEF
  5
126
330
10F
100
AcDbEntity
  8
AM_6
100
AcDbText
 10
4.723125
 20
-7.826750000000001
 30
0.0
 40
0.5
  1
0.38
100
AcDbAttributeDefinition
  3

  2
BL
 70
     8
280
     0
  0
ATTDEF
  5
127
330
10F
100
AcDbEntity
  8
AM_6
100
AcDbText
 10
4.723125
 20
-8.32675
 30
0.0
 40
0.5
  1
0.07
100
AcDbAttributeDefinition
  3

  2
CL
 70
     8
280
     0
  0
ATTDEF
  5
128
330
10F
100
AcDbEntity
  8
AM_6
100
AcDbText
 10
4.723125
 20
-8.82675
 30
0.0
 40
0.5
  1
0.44
100
AcDbAttributeDefinition
  3

  2
DL
 70
     8
280
     0
  0
ATTDEF
  5
129
330
10F
100
AcDbEntity
  8
AM_6
100
AcDbText
 10
4.723125
 20
-9.32675
 30
0.0
 40
0.5
  1
0.8000
100
AcDbAttributeDefinition
  3

  2
LL
 70
     8
280
     0
  0
ATTDEF
  5
12A
330
10F
100
AcDbEntity
  8
AM_6
100
AcDbText
 10
4.723125
 20
-9.82675
 30
0.0
 40
0.5
  1
0.020
100
AcDbAttributeDefinition
  3

  2
Y
 70
     8
280
     0
  0
ATTDEF
  5
12B
330
10F
100
AcDbEntity
  8
AM_6
100
AcDbText
 10
4.723125
 20
-10.32675
 30
0.0
 40
0.5
  1
0.020000
100
AcDbAttributeDefinition
  3

  2
Y1
 70
     8
280
     0
  0
ATTDEF
  5
12C
330
10F
100
AcDbEntity
  8
AM_6
100
AcDbText
 10
4.723125
 20
-10.82675
 30
0.0
 40
0.5
  1
2-5/64
100
AcDbAttributeDefinition
  3

  2
Z
 70
     8
280
     0
  0
ATTDEF
  5
12D
330
10F
100
AcDbEntity
  8
AM_6
100
AcDbText
 10
4.723125
 20
-11.32675
 30
0.0
 40
0.5
  1
2.078125
100
AcDbAttributeDefinition
  3

  2
Z1
 70
     8
280
     0
  0
ATTDEF
  5
12E
330
10F
100
AcDbEntity
  8
AM_6
100
AcDbText
 10
4.723125
 20
-11.82675
 30
0.0
 40
0.5
  1
baldor
100
AcDbAttributeDefinition
  3

  2
COMPANY
 70
     8
280
     0
  0
LINE
  5
12F
330
10F
100
AcDbEntity
  8
AM_9
100
AcDbLine
 10
-0.7743124999999997
 20
0.8237231954928378
 30
0.0
 11
-2.880375
 21
0.8237231954928378
 31
0.0
  0
LINE
  5
130
330
10F
100
AcDbEntity
  8
AM_9
100
AcDbLine
 10
-0.7743124999999997
 20
0.7510133433434709
 30
0.0
 11
-2.880375
 21
0.7510133433434709
 31
0.0
  0
LINE
  5
131
330
10F
100
AcDbEntity
  8
AM_9
100
AcDbLine
 10
-2.040375
 20
1.201388888888889
 30
0.0
 11
-2.074158989833329
 21
1.273838888888889
 31
0.0
  0
LINE
  5
132
330
10F
100
AcDbEntity
  8
AM_9
100
AcDbLine
 10
-2.074158989833329
 20
1.128938888888889
 30
0.0
 11
-2.040375
 21
1.201388888888889
 31
0.0
  0
LINE
  5
133
330
10F
100
AcDbEntity
  8
AM_9
100
AcDbLine
 10
-2.040374999999993
 20
-1.201388888888889
 30
0.0
 11
-2.074158989833313
 21
-1.128938888888889
 31
0.0
  0
LINE
  5
134
330
10F
100
AcDbEntity
  8
AM_9
100
AcDbLine
 10
-2.074158989833313
 20
-1.273838888888889
 30
0.0
 11
-2.040374999999993
 21
-1.201388888888889
 31
0.0
  0
LINE
  5
135
330
10F
100
AcDbEntity
  8
AM_9
100
AcDbLine
 10
-2.074158989833329
 20
1.128938888888889
 30
0.0
 11
-2.074158989833329
 21
1.273838888888889
 31
0.0
  0
LINE
  5
136
330
10F
100
AcDbEntity
  8
AM_9
100
AcDbLine
 10
-2.074158989833329
 20
1.273838888888889
 30
0.0
 11
-2.857825
 21
1.273838888888889
 31
0.0
  0
LINE
  5
137
330
10F
100
AcDbEntity
  8
AM_9
100
AcDbLine
 10
-2.857825
 20
1.128938888888889
 30
0.0
 11
-2.074158989833329
 21
1.128938888888889
 31
0.0
  0
LINE
  5
138
330
10F
100
AcDbEntity
  8
AM_9
100
AcDbLine
 10
-2.857824999999995
 20
-1.273838888888889
 30
0.0
 11
-2.074158989833313
 21
-1.273838888888889
 31
0.0
  0
LINE
  5
139
330
10F
100
AcDbEntity
  8
AM_9
100
AcDbLine
 10
-2.074158989833313
 20
-1.128938888888889
 30
0.0
 11
-2.857824999999995
 21
-1.128938888888889
 31
0.0
  0
LINE
  5
13A
330
10F
100
AcDbEntity
  8
AM_9
100
AcDbLine
 10
-2.074158989833313
 20
-1.128938888888889
 30
0.0
 11
-2.074158989833313
 21
-1.273838888888889
 31
0.0
  0
LINE
  5
13B
330
10F
100
AcDbEntity
  8
AM_9
100
AcDbLine
 10
-2.857825
 20
1.128938888888889
 30
0.0
 11
-2.857825
 21
1.273838888888889
 31
0.0
  0
LINE
  5
13C
330
10F
100
AcDbEntity
  8
AM_9
100
AcDbLine
 10
-2.857825
 20
1.273838888888889
 30
0.0
 11
-2.880375
 21
1.296388888888889
 31
0.0
  0
LINE
  5
13D
330
10F
100
AcDbEntity
  8
AM_9
100
AcDbLine
 10
-2.880375
 20
1.106388888888889
 30
0.0
 11
-2.857825
 21
1.128938888888889
 31
0.0
  0
LINE
  5
13E
330
10F
100
AcDbEntity
  8
AM_9
100
AcDbLine
 10
-2.857824999999995
 20
-1.128938888888889
 30
0.0
 11
-2.880375
 21
-1.106388888888889
 31
0.0
  0
LINE
  5
13F
330
10F
100
AcDbEntity
  8
AM_9
100
AcDbLine
 10
-2.880375
 20
-1.296388888888889
 30
0.0
 11
-2.857824999999995
 21
-1.273838888888889
 31
0.0
  0
LINE
  5
140
330
10F
100
AcDbEntity
  8
AM_9
100
AcDbLine
 10
-2.857824999999995
 20
-1.128938888888889
 30
0.0
 11
-2.857824999999995
 21
-1.273838888888889
 31
0.0
  0
LINE
  5
141
330
10F
100
AcDbEntity
  8
AM_9
100
AcDbLine
 10
-0.7743124999999997
 20
0.7818583037724217
 30
0.0
 11
-3.109375
 21
0.7818583037724217
 31
0.0
  0
LINE
  5
142
330
10F
100
AcDbEntity
  8
AM_9
100
AcDbLine
 10
-3.109375
 20
0.709148451623055
 30
0.0
 11
-0.7743124999999997
 21
0.7091484516230547
 31
0.0
  0
LINE
  5
143
330
10F
100
AcDbEntity
  8
AM_9
100
AcDbLine
 10
-0.7743125
 20
0.8125
 30
0.0
 11
-3.109375
 21
0.8125
 31
0.0
  0
LINE
  5
144
330
10F
100
AcDbEntity
  8
AM_9
100
AcDbLine
 10
-3.109375
 20
-0.8125
 30
0.0
 11
-0.7743125
 21
-0.8125
 31
0.0
  0
LINE
  5
145
330
10F
100
AcDbEntity
  8
AM_9
100
AcDbLine
 10
-0.2968749999999998
 20
0.8552631578947368
 30
0.0
 11
-0.7743124999999997
 21
0.8552631578947368
 31
0.0
  0
LINE
  5
146
330
10F
100
AcDbEntity
  8
AM_9
100
AcDbLine
 10
-0.7743124999999997
 20
-0.8552631578947368
 30
0.0
 11
-0.2968749999999998
 21
-0.8552631578947368
 31
0.0
  0
LINE
  5
147
330
10F
100
AcDbEntity
  8
AM_9
100
AcDbLine
 10
-3.109375
 20
0.8216253929486493
 30
0.0
 11
-2.880375
 21
0.8216253929486493
 31
0.0
  0
LINE
  5
148
330
10F
100
AcDbEntity
  8
AM_9
100
AcDbLine
 10
-2.880375
 20
0.7489155407992825
 30
0.0
 11
-3.109375
 21
0.7489155407992824
 31
0.0
  0
LINE
  5
149
330
10F
100
AcDbEntity
  8
AM_9
100
AcDbLine
 10
-2.880375
 20
0.8552631578947368
 30
0.0
 11
-2.950375
 21
0.8552631578947368
 31
0.0
  0
LINE
  5
14A
330
10F
100
AcDbEntity
  8
AM_9
100
AcDbLine
 10
-2.950375
 20
-0.8552631578947368
 30
0.0
 11
-2.880375
 21
-0.8552631578947368
 31
0.0
  0
LINE
  5
14B
330
10F
100
AcDbEntity
  8
AM_9
100
AcDbLine
 10
-2.440375
 20
-0.7212489168102785
 30
0.0
 11
-2.880375
 21
-0.7212489168102785
 31
0.0
  0
LINE
  5
14C
330
10F
100
AcDbEntity
  8
AM_9
100
AcDbLine
 10
-2.440375
 20
0.7212489168102781
 30
0.0
 11
-2.880375
 21
0.7212489168102781
 31
0.0
  0
LINE
  5
14D
330
10F
100
AcDbEntity
  8
AM_9
100
AcDbLine
 10
-0.2968749999999998
 20
-1.0390625
 30
0.0
 11
-0.2968749999999998
 21
1.0390625
 31
0.0
  0
LINE
  5
14E
330
10F
100
AcDbEntity
  8
AM_9
100
AcDbLine
 10
-0.2768749999999995
 20
1.0390625
 30
0.0
 11
-0.2968749999999998
 21
1.0390625
 31
0.0
  0
LINE
  5
14F
330
10F
100
AcDbEntity
  8
AM_9
100
AcDbLine
 10
-0.2968749999999998
 20
-1.0390625
 30
0.0
 11
-0.2768749999999995
 21
-1.0390625
 31
0.0
  0
LINE
  5
150
330
10F
100
AcDbEntity
  8
AM_9
100
AcDbLine
 10
-0.3035176282051283
 20
1.154513888888889
 30
0.0
 11
-0.5836874999999996
 21
1.154513888888889
 31
0.0
  0
LINE
  5
151
330
10F
100
AcDbEntity
  8
AM_9
100
AcDbLine
 10
-0.5836874999999996
 20
-1.154513888888889
 30
0.0
 11
-0.3035176282051283
 21
-1.154513888888889
 31
0.0
  0
LINE
  5
152
330
10F
100
AcDbEntity
  8
AM_9
100
AcDbLine
 10
-0.276875
 20
-1.127871260683761
 30
0.0
 11
-0.276875
 21
1.127871260683761
 31
0.0
  0
LINE
  5
153
330
10F
100
AcDbEntity
  8
AM_9
100
AcDbLine
 10
-0.3035176282051283
 20
-1.154513888888889
 30
0.0
 11
-0.3035176282051283
 21
1.154513888888889
 31
0.0
  0
ARC
  5
154
330
10F
100
AcDbEntity
  8
AM_9
100
AcDbCircle
 10
-0.3035176282051272
 20
1.127871260683762
 30
0.0
 40
0.0266426282051271
100
AcDbArc
 50
0.0
 51
90.0
  0
ARC
  5
155
330
10F
100
AcDbEntity
  8
AM_9
100
AcDbCircle
 10
-0.3035176282051272
 20
-1.127871260683762
 30
0.0
 40
0.0266426282051271
100
AcDbArc
 50
270.0
 51
0.0
  0
LINE
  5
156
330
10F
100
AcDbEntity
  8
AM_9
100
AcDbLine
 10
-2.440375
 20
-0.7212489168102785
 30
0.0
 11
-2.440375
 21
-0.928718736429617
 31
0.0
  0
LINE
  5
157
330
10F
100
AcDbEntity
  8
AM_9
100
AcDbLine
 10
-2.440375
 20
0.9287187364296167
 30
0.0
 11
-2.440375
 21
0.7212489168102781
 31
0.0
  0
LINE
  5
158
330
10F
100
AcDbEntity
  8
AM_9
100
AcDbLine
 10
-0.5836875000000001
 20
-1.305457578016765
 30
0.0
 11
-0.5836875000000001
 21
1.305457578016765
 31
0.0
  0
ARC
  5
159
330
10F
100
AcDbEntity
  8
AM_9
100
AcDbCircle
 10
-0.683687499999999
 20
1.305457578016766
 30
0.0
 40
0.0999999999999989
100
AcDbArc
 50
0.0
 51
60.00000000000016
  0
ARC
  5
15A
330
10F
100
AcDbEntity
  8
AM_9
100
AcDbCircle
 10
-0.6836874999999988
 20
-1.305457578016766
 30
0.0
 40
0.0999999999999987
100
AcDbArc
 50
299.9999999999998
 51
0.0
  0
LINE
  5
15B
330
10F
100
AcDbEntity
  8
AM_9
100
AcDbLine
 10
-0.6336874999999998
 20
-1.392060118395209
 30
0.0
 11
-0.6336874999999998
 21
1.392060118395209
 31
0.0
  0
LINE
  5
15C
330
10F
100
AcDbEntity
  8
AM_9
100
AcDbLine
 10
-0.6336874999999998
 20
1.392060118395209
 30
0.0
 11
-0.7743125
 21
1.47325
 31
0.0
  0
LINE
  5
15D
330
10F
100
AcDbEntity
  8
AM_9
100
AcDbLine
 10
-0.7743125
 20
-1.47325
 30
0.0
 11
-0.6336874999999998
 21
-1.392060118395209
 31
0.0
  0
LINE
  5
15E
330
10F
100
AcDbEntity
  8
AM_9
100
AcDbLine
 10
-1.90625
 20
-1.534017194581149
 30
0.0
 11
-1.7274375
 21
-1.540261464675892
 31
0.0
  0
LINE
  5
15F
330
10F
100
AcDbEntity
  8
AM_9
100
AcDbLine
 10
-1.7274375
 20
1.540261464675892
 30
0.0
 11
-1.90625
 21
1.534017194581149
 31
0.0
  0
LINE
  5
160
330
10F
100
AcDbEntity
  8
AM_9
100
AcDbLine
 10
-1.223360651233932
 20
1.62559375
 30
0.0
 11
-1.278389348766068
 21
1.62559375
 31
0.0
  0
LINE
  5
161
330
10F
100
AcDbEntity
  8
AM_9
100
AcDbLine
 10
-1.278389348766068
 20
-1.62559375
 30
0.0
 11
-1.223360651233932
 21
-1.62559375
 31
0.0
  0
LINE
  5
162
330
10F
100
AcDbEntity
  8
AM_9
100
AcDbLine
 10
-1.7274375
 20
-1.623249999999999
 30
0.0
 11
-1.7274375
 21
1.623249999999999
 31
0.0
  0
ARC
  5
163
330
10F
100
AcDbEntity
  8
AM_9
100
AcDbCircle
 10
-1.677437499999999
 20
1.623249999999999
 30
0.0
 40
0.0500000000000007
100
AcDbArc
 50
90.0
 51
180.0
  0
ARC
  5
164
330
10F
100
AcDbEntity
  8
AM_9
100
AcDbCircle
 10
-1.677437499999999
 20
-1.623249999999999
 30
0.0
 40
0.0500000000000007
100
AcDbArc
 50
180.0
 51
270.0
  0
LINE
  5
165
330
10F
100
AcDbEntity
  8
AM_9
100
AcDbLine
 10
-0.7743125
 20
-1.623250000000001
 30
0.0
 11
-0.7743125
 21
1.623250000000001
 31
0.0
  0
ARC
  5
166
330
10F
100
AcDbEntity
  8
AM_9
100
AcDbCircle
 10
-0.824312499999999
 20
1.623250000000001
 30
0.0
 40
0.049999999999999
100
AcDbArc
 50
0.0
 51
90.0
  0
ARC
  5
167
330
10F
100
AcDbEntity
  8
AM_9
100
AcDbCircle
 10
-0.824312499999999
 20
-1.623250000000001
 30
0.0
 40
0.0499999999999989
100
AcDbArc
 50
270.0
 51
0.0
  0
LINE
  5
168
330
10F
100
AcDbEntity
  8
AM_9
100
AcDbLine
 10
-1.278389348766068
 20
-1.62559375
 30
0.0
 11
-1.278389348766068
 21
1.62559375
 31
0.0
  0
LINE
  5
169
330
10F
100
AcDbEntity
  8
AM_9
100
AcDbLine
 10
-1.278389348766068
 20
1.62559375
 30
0.0
 11
-1.305903697532136
 21
1.67325
 31
0.0
  0
LINE
  5
16A
330
10F
100
AcDbEntity
  8
AM_9
100
AcDbLine
 10
-1.305903697532136
 20
-1.67325
 30
0.0
 11
-1.278389348766068
 21
-1.62559375
 31
0.0
  0
LINE
  5
16B
330
10F
100
AcDbEntity
  8
AM_9
100
AcDbLine
 10
-0.8243125
 20
-1.67325
 30
0.0
 11
-0.8243125
 21
1.67325
 31
0.0
  0
LINE
  5
16C
330
10F
100
AcDbEntity
  8
AM_9
100
AcDbLine
 10
-0.8243125
 20
1.67325
 30
0.0
 11
-1.195846302467864
 21
1.67325
 31
0.0
  0
LINE
  5
16D
330
10F
100
AcDbEntity
  8
AM_9
100
AcDbLine
 10
-1.195846302467864
 20
-1.67325
 30
0.0
 11
-0.8243125
 21
-1.67325
 31
0.0
  0
LINE
  5
16E
330
10F
100
AcDbEntity
  8
AM_9
100
AcDbLine
 10
-1.305903697532136
 20
-1.67325
 30
0.0
 11
-1.305903697532136
 21
1.67325
 31
0.0
  0
LINE
  5
16F
330
10F
100
AcDbEntity
  8
AM_9
100
AcDbLine
 10
-1.677437499999999
 20
-1.67325
 30
0.0
 11
-1.677437499999999
 21
1.67325
 31
0.0
  0
LINE
  5
170
330
10F
100
AcDbEntity
  8
AM_9
100
AcDbLine
 10
-1.305903697532136
 20
1.67325
 30
0.0
 11
-1.677437499999999
 21
1.67325
 31
0.0
  0
LINE
  5
171
330
10F
100
AcDbEntity
  8
AM_9
100
AcDbLine
 10
-1.677437499999999
 20
-1.67325
 30
0.0
 11
-1.305903697532136
 21
-1.67325
 31
0.0
  0
LINE
  5
172
330
10F
100
AcDbEntity
  8
AM_9
100
AcDbLine
 10
-1.195846302467864
 20
-1.67325
 30
0.0
 11
-1.195846302467864
 21
1.67325
 31
0.0
  0
LINE
  5
173
330
10F
100
AcDbEntity
  8
AM_9
100
AcDbLine
 10
-1.223360651233932
 20
-1.62559375
 30
0.0
 11
-1.223360651233932
 21
1.62559375
 31
0.0
  0
LINE
  5
174
330
10F
100
AcDbEntity
  8
AM_9
100
AcDbLine
 10
-1.223360651233932
 20
-1.62559375
 30
0.0
 11
-1.195846302467864
 21
-1.67325
 31
0.0
  0
LINE
  5
175
330
10F
100
AcDbEntity
  8
AM_9
100
AcDbLine
 10
-1.195846302467864
 20
1.67325
 30
0.0
 11
-1.223360651233932
 21
1.62559375
 31
0.0
  0
LINE
  5
176
330
10F
100
AcDbEntity
  8
AM_5
100
AcDbLine
 10
-2.120375
 20
1.273838888888889
 30
0.0
 11
-2.120375
 21
1.296388888888889
 31
0.0
  0
LINE
  5
177
330
10F
100
AcDbEntity
  8
AM_5
100
AcDbLine
 10
-2.120375
 20
1.296388888888889
 30
0.0
 11
-2.107355751429774
 21
1.273838888888889
 31
0.0
  0
LINE
  5
178
330
10F
100
AcDbEntity
  8
AM_5
100
AcDbLine
 10
-2.120375
 20
1.128938888888889
 30
0.0
 11
-2.120375
 21
1.106388888888889
 31
0.0
  0
LINE
  5
179
330
10F
100
AcDbEntity
  8
AM_5
100
AcDbLine
 10
-2.120375
 20
1.106388888888889
 30
0.0
 11
-2.107355751429774
 21
1.128938888888889
 31
0.0
  0
LINE
  5
17A
330
10F
100
AcDbEntity
  8
AM_5
100
AcDbLine
 10
-2.120375000000004
 20
-1.273838888888889
 30
0.0
 11
-2.120375000000004
 21
-1.296388888888889
 31
0.0
  0
LINE
  5
17B
330
10F
100
AcDbEntity
  8
AM_5
100
AcDbLine
 10
-2.120375000000004
 20
-1.296388888888889
 30
0.0
 11
-2.107355751429768
 21
-1.273838888888889
 31
0.0
  0
LINE
  5
17C
330
10F
100
AcDbEntity
  8
AM_5
100
AcDbLine
 10
-2.120375000000004
 20
-1.128938888888889
 30
0.0
 11
-2.120375000000004
 21
-1.106388888888889
 31
0.0
  0
LINE
  5
17D
330
10F
100
AcDbEntity
  8
AM_5
100
AcDbLine
 10
-2.120375000000004
 20
-1.106388888888889
 30
0.0
 11
-2.107355751429768
 21
-1.128938888888889
 31
0.0
  0
LINE
  5
180
330
10F
100
AcDbEntity
  8
AM_7
100
AcDbLine
 10
-1.998375
 20
1.201388888888889
 30
0.0
 11
-3.096425
 21
1.201388888888889
 31
0.0
  0
LINE
  5
181
330
10F
100
AcDbEntity
  8
AM_7
100
AcDbLine
 10
-1.998374999999993
 20
-1.201388888888889
 30
0.0
 11
-3.096425
 21
-1.201388888888889
 31
0.0
  0
LINE
  5
182
330
10F
100
AcDbEntity
  8
AM_4
100
AcDbLine
 10
-2.950375
 20
0.8552631578947368
 30
0.0
 11
-3.109375
 21
0.8552631578947368
 31
0.0
  0
LINE
  5
183
330
10F
100
AcDbEntity
  8
AM_4
100
AcDbLine
 10
-3.109375
 20
-0.8552631578947368
 30
0.0
 11
-2.950375
 21
-0.8552631578947368
 31
0.0
  0
LINE
  5
184
330
10F
100
AcDbEntity
  8
AM_4
100
AcDbLine
 10
-3.109375
 20
-0.8552631578947368
 30
0.0
 11
-3.109375
 21
0.8552631578947368
 31
0.0
  0
ARC
  5
185
330
10F
100
AcDbEntity
  8
AM_4
100
AcDbCircle
 10
-2.830374999999999
 20
-1.451715561259647
 30
0.0
 40
0.0500000000000012
100
AcDbArc
 50
180.0
 51
267.999999999999
  0
ARC
  5
186
330
10F
100
AcDbEntity
  8
AM_4
100
AcDbCircle
 10
-2.830374999999999
 20
1.451715561259646
 30
0.0
 40
0.0500000000000012
100
AcDbArc
 50
92.00000000000095
 51
180.0
  0
LWPOLYLINE
  5
187
330
10F
100
AcDbEntity
  8
AM_4
100
AcDbPolyline
 90
        6
 70
     0
 43
0.0
 10
-2.880375
 20
1.152038371976444
 10
-2.879852677997732
 20
1.157179401881074
 10
-2.874602214874398
 20
1.168670885864119
 10
-2.864274476214343
 20
1.178246925837471
 10
-2.850120490382565
 20
1.184793095789032
 10
-2.832119974835125
 20
1.187668414017759
  0
LWPOLYLINE
  5
188
330
10F
100
AcDbEntity
  8
AM_4
100
AcDbPolyline
 90
        6
 70
     0
 43
0.0
 10
-2.832119974835125
 20
-1.187668414017759
 10
-2.848460137763142
 20
-1.185276901611705
 10
-2.862768195988425
 20
-1.179198140676667
 10
-2.873491053567917
 20
-1.170093601500122
 10
-2.879436012141457
 20
-1.158916864064283
 10
-2.880375
 20
-1.152038371976443
  0
LINE
  5
189
330
10F
100
AcDbEntity
  8
AM_4
100
AcDbLine
 10
-2.440375
 20
-0.9899494936611661
 30
0.0
 11
-2.880375
 21
-0.9899494936611661
 31
0.0
  0
LINE
  5
18A
330
10F
100
AcDbEntity
  8
AM_4
100
AcDbLine
 10
-2.440375
 20
0.9899494936611664
 30
0.0
 11
-2.880375
 21
0.9899494936611664
 31
0.0
  0
LWPOLYLINE
  5
18B
330
10F
100
AcDbEntity
  8
AM_4
100
AcDbPolyline
 90
        6
 70
     0
 43
0.0
 10
-2.832119974835125
 20
0.9189678371668707
 10
-2.848460137763146
 20
0.9165763247608155
 10
-2.862768195988429
 20
0.9104975638257776
 10
-2.873491053567919
 20
0.9013930246492315
 10
-2.879436012141457
 20
0.8902162872133924
 10
-2.880375
 20
0.8833377951255553
  0
LWPOLYLINE
  5
18C
330
10F
100
AcDbEntity
  8
AM_4
100
AcDbPolyline
 90
        6
 70
     0
 43
0.0
 10
-2.880375
 20
-0.8833377951255559
 10
-2.879852677997732
 20
-0.8884788250301864
 10
-2.874602214874398
 20
-0.8999703090132312
 10
-2.864274476214343
 20
-0.9095463489865827
 10
-2.850120490382565
 20
-0.9160925189381443
 10
-2.832119974835125
 20
-0.9189678371668708
  0
LINE
  5
18D
330
10F
100
AcDbEntity
  8
AM_4
100
AcDbLine
 10
-2.832119974835125
 20
-0.9189678371668708
 30
0.0
 11
-2.832119974835125
 21
0.9189678371668707
 31
0.0
  0
LINE
  5
18E
330
10F
100
AcDbEntity
  8
AM_4
100
AcDbLine
 10
-2.832119974835125
 20
-0.9189678371668708
 30
0.0
 11
-2.440375
 21
-0.928718736429617
 31
0.0
  0
LINE
  5
18F
330
10F
100
AcDbEntity
  8
AM_4
100
AcDbLine
 10
-2.440375
 20
-0.928718736429617
 30
0.0
 11
-2.440375
 21
-1.197419313280505
 31
0.0
  0
LINE
  5
190
330
10F
100
AcDbEntity
  8
AM_4
100
AcDbLine
 10
-2.440375
 20
-1.197419313280505
 30
0.0
 11
-2.832119974835125
 21
-1.187668414017759
 31
0.0
  0
LINE
  5
191
330
10F
100
AcDbEntity
  8
AM_4
100
AcDbLine
 10
-2.832119974835125
 20
1.187668414017759
 30
0.0
 11
-2.832119974835125
 21
1.501685102610602
 31
0.0
  0
LINE
  5
192
330
10F
100
AcDbEntity
  8
AM_4
100
AcDbLine
 10
-2.832119974835125
 20
1.187668414017759
 30
0.0
 11
-2.440375
 21
1.197419313280505
 31
0.0
  0
LINE
  5
193
330
10F
100
AcDbEntity
  8
AM_4
100
AcDbLine
 10
-2.440375
 20
1.197419313280505
 30
0.0
 11
-2.440375
 21
0.9287187364296167
 31
0.0
  0
LINE
  5
194
330
10F
100
AcDbEntity
  8
AM_4
100
AcDbLine
 10
-2.440375
 20
0.9287187364296167
 30
0.0
 11
-2.832119974835125
 21
0.9189678371668707
 31
0.0
  0
LINE
  5
195
330
10F
100
AcDbEntity
  8
AM_4
100
AcDbLine
 10
-2.832119974835125
 20
-1.501685102610602
 30
0.0
 11
-1.90625
 21
-1.534017194581149
 31
0.0
  0
LINE
  5
196
330
10F
100
AcDbEntity
  8
AM_4
100
AcDbLine
 10
-1.90625
 20
1.534017194581149
 30
0.0
 11
-2.832119974835125
 21
1.501685102610602
 31
0.0
  0
LINE
  5
197
330
10F
100
AcDbEntity
  8
AM_4
100
AcDbLine
 10
-2.832119974835125
 20
-1.501685102610602
 30
0.0
 11
-2.832119974835125
 21
-1.187668414017759
 31
0.0
  0
ENDBLK
  5
112
330
10F
100
AcDbEntity
  8
0
100
AcDbBlockEnd
  0
BLOCK
  5
19A
330
198
100
AcDbEntity
  8
0
100
AcDbBlockBegin
  2
6_405015E_Inch_0_in_069755_2
 70
     2
 10
0.0
 20
0.0
 30
0.0
  3
6_405015E_Inch_0_in_069755_2
  1

  0
ATTDEF
  5
19C
330
198
100
AcDbEntity
  8
AM_6
100
AcDbText
 10
4.049465742770462
 20
2.710125
 30
0.0
 40
0.5
  1
405015E -Inch
100
AcDbAttributeDefinition
  3

  2
NN
 70
     8
280
     0
  0
ATTDEF
  5
19D
330
198
100
AcDbEntity
  8
AM_6
100
AcDbText
 10
4.049465742770462
 20
2.210125
 30
0.0
 40
0.5
  1
Grease Fitting
100
AcDbAttributeDefinition
  3

  2
NT
 70
     8
280
     0
  0
ATTDEF
  5
19E
330
198
100
AcDbEntity
  8
AM_6
100
AcDbText
 10
4.049465742770462
 20
1.710125
 30
0.0
 40
0.5
  1
405015E-Inch
100
AcDbAttributeDefinition
  3

  2
NB
 70
     8
280
     0
  0
ATTDEF
  5
19F
330
198
100
AcDbEntity
  8
AM_6
100
AcDbText
 10
4.049465742770462
 20
1.210125
 30
0.0
 40
0.5
  1
$MN.-Inch
100
AcDbAttributeDefinition
  3

  2
NBSYN
 70
     8
280
     0
  0
ATTDEF
  5
1A0
330
198
100
AcDbEntity
  8
AM_6
100
AcDbText
 10
4.049465742770462
 20
0.7101250000000001
 30
0.0
 40
0.5
  1
405015E
100
AcDbAttributeDefinition
  3

  2
LINA
 70
     8
280
     0
  0
ATTDEF
  5
1A1
330
198
100
AcDbEntity
  8
AM_6
100
AcDbText
 10
4.049465742770462
 20
0.2101250000000001
 30
0.0
 40
0.5
  1
405015E
100
AcDbAttributeDefinition
  3

  2
MN
 70
     8
280
     0
  0
ATTDEF
  5
1A2
330
198
100
AcDbEntity
  8
AM_6
100
AcDbText
 10
4.049465742770462
 20
-0.2898749999999999
 30
0.0
 40
0.5
  1
1/8 x 27PTF
100
AcDbAttributeDefinition
  3

  2
T
 70
     8
280
     0
  0
ATTDEF
  5
1A3
330
198
100
AcDbEntity
  8
AM_6
100
AcDbText
 10
4.049465742770462
 20
-0.7898749999999999
 30
0.0
 40
0.5
  1
baldor
100
AcDbAttributeDefinition
  3

  2
COMPANY
 70
     8
280
     0
  0
LINE
  5
1A4
330
198
100
AcDbEntity
  8
AM_9
100
AcDbLine
 10
-1.365027872472269
 20
2.038125
 30
0.0
 11
-1.041222127527731
 21
2.038125
 31
0.0
  0
LINE
  5
1A5
330
198
100
AcDbEntity
  8
AM_9
100
AcDbLine
 10
-1.041222127527731
 20
2.038125
 30
0.0
 11
-1.004507373218785
 21
2.074839754308946
 31
0.0
  0
LINE
  5
1A6
330
198
100
AcDbEntity
  8
AM_9
100
AcDbLine
 10
-1.401742626781215
 20
2.074839754308946
 30
0.0
 11
-1.365027872472269
 21
2.038125
 31
0.0
  0
LINE
  5
1A7
330
198
100
AcDbEntity
  8
AM_9
100
AcDbLine
 10
-1.401742626781215
 20
2.074839754308946
 30
0.0
 11
-1.004507373218785
 21
2.074839754308946
 31
0.0
  0
LINE
  5
1A8
330
198
100
AcDbEntity
  8
AM_9
100
AcDbLine
 10
-1.004507373218785
 20
2.074839754308946
 30
0.0
 11
-0.9973731027769304
 21
2.303125
 31
0.0
  0
LINE
  5
1A9
330
198
100
AcDbEntity
  8
AM_9
100
AcDbLine
 10
-1.40887689722307
 20
2.303125
 30
0.0
 11
-1.401742626781215
 21
2.074839754308946
 31
0.0
  0
LINE
  5
1AA
330
198
100
AcDbEntity
  8
AM_5
100
AcDbLine
 10
-1.034975875147652
 20
2.237995087748463
 30
0.0
 11
-1.041222127527731
 21
2.038125
 31
0.0
  0
LINE
  5
1AB
330
198
100
AcDbEntity
  8
AM_5
100
AcDbLine
 10
-0.9973731027769303
 20
2.303125
 30
0.0
 11
-1.034975875147652
 21
2.237995087748463
 31
0.0
  0
LINE
  5
1AC
330
198
100
AcDbEntity
  8
AM_5
100
AcDbLine
 10
-1.406841485751557
 20
2.237995087748463
 30
0.0
 11
-0.9994085142484432
 21
2.237995087748463
 31
0.0
  0
LINE
  5
1AD
330
198
100
AcDbEntity
  8
AM_5
100
AcDbLine
 10
-1.371274124852348
 20
2.237995087748463
 30
0.0
 11
-1.365027872472269
 21
2.038125
 31
0.0
  0
LINE
  5
1AE
330
198
100
AcDbEntity
  8
AM_5
100
AcDbLine
 10
-1.40887689722307
 20
2.303125
 30
0.0
 11
-1.371274124852348
 21
2.237995087748463
 31
0.0
  0
LINE
  5
1AF
330
198
100
AcDbEntity
  8
AM_7
100
AcDbLine
 10
-1.203125
 20
2.710125
 30
0.0
 11
-1.203125
 21
2.006125
 31
0.0
  0
LINE
  5
1B0
330
198
100
AcDbEntity
  8
AM_4
100
AcDbLine
 10
-1.098125
 20
2.508125
 30
0.0
 11
-1.098125
 21
2.538125
 31
0.0
  0
LINE
  5
1B1
330
198
100
AcDbEntity
  8
AM_4
100
AcDbLine
 10
-1.308125
 20
2.538125
 30
0.0
 11
-1.308125
 21
2.508125
 31
0.0
  0
LINE
  5
1B2
330
198
100
AcDbEntity
  8
AM_4
100
AcDbLine
 10
-1.421875
 20
2.403125
 30
0.0
 11
-0.9843750000000001
 21
2.403125
 31
0.0
  0
LINE
  5
1B3
330
198
100
AcDbEntity
  8
AM_4
100
AcDbLine
 10
-0.9505342572295388
 20
2.394057400303386
 30
0.0
 11
-0.9843750000000001
 21
2.403125
 31
0.0
  0
LINE
  5
1B4
330
198
100
AcDbEntity
  8
AM_4
100
AcDbLine
 10
-1.421875
 20
2.403125
 30
0.0
 11
-1.455715742770461
 21
2.394057400303386
 31
0.0
  0
LINE
  5
1B5
330
198
100
AcDbEntity
  8
AM_4
100
AcDbLine
 10
-0.9843750000000001
 20
2.303125
 30
0.0
 11
-0.9505342572295388
 21
2.312192599696615
 31
0.0
  0
LINE
  5
1B6
330
198
100
AcDbEntity
  8
AM_4
100
AcDbLine
 10
-1.455715742770461
 20
2.312192599696615
 30
0.0
 11
-1.421875
 21
2.303125
 31
0.0
  0
LINE
  5
1B7
330
198
100
AcDbEntity
  8
AM_4
100
AcDbLine
 10
-1.308125
 20
2.508125
 30
0.0
 11
-1.098125
 21
2.508125
 31
0.0
  0
LINE
  5
1B8
330
198
100
AcDbEntity
  8
AM_4
100
AcDbLine
 10
-1.308125
 20
2.508125
 30
0.0
 11
-1.321945090734898
 21
2.475878121618572
 31
0.0
  0
LINE
  5
1B9
330
198
100
AcDbEntity
  8
AM_4
100
AcDbLine
 10
-1.084304909265102
 20
2.475878121618572
 30
0.0
 11
-1.098125
 21
2.508125
 31
0.0
  0
LINE
  5
1BA
330
198
100
AcDbEntity
  8
AM_4
100
AcDbLine
 10
-1.308125
 20
2.538125
 30
0.0
 11
-1.098125
 21
2.538125
 31
0.0
  0
LINE
  5
1BB
330
198
100
AcDbEntity
  8
AM_4
100
AcDbLine
 10
-1.098125
 20
2.538125
 30
0.0
 11
-1.068125
 21
2.598125
 31
0.0
  0
LINE
  5
1BC
330
198
100
AcDbEntity
  8
AM_4
100
AcDbLine
 10
-1.338125
 20
2.598125
 30
0.0
 11
-1.308125
 21
2.538125
 31
0.0
  0
LINE
  5
1BD
330
198
100
AcDbEntity
  8
AM_4
100
AcDbLine
 10
-1.305802901933187
 20
2.678125
 30
0.0
 11
-1.100447098066813
 21
2.678125
 31
0.0
  0
LINE
  5
1BE
330
198
100
AcDbEntity
  8
AM_4
100
AcDbLine
 10
-1.338125
 20
2.598125
 30
0.0
 11
-1.068125
 21
2.598125
 31
0.0
  0
LINE
  5
1BF
330
198
100
AcDbEntity
  8
AM_4
100
AcDbLine
 10
-1.305802901933187
 20
2.678125
 30
0.0
 11
-1.338125
 21
2.598125
 31
0.0
  0
LINE
  5
1C0
330
198
100
AcDbEntity
  8
AM_4
100
AcDbLine
 10
-1.068125
 20
2.598125
 30
0.0
 11
-1.100447098066813
 21
2.678125
 31
0.0
  0
LINE
  5
1C1
330
198
100
AcDbEntity
  8
AM_4
100
AcDbLine
 10
-1.321945090734898
 20
2.475878121618572
 30
0.0
 11
-1.084304909265102
 21
2.475878121618572
 31
0.0
  0
LINE
  5
1C2
330
198
100
AcDbEntity
  8
AM_4
100
AcDbLine
 10
-1.321945090734898
 20
2.475878121618572
 30
0.0
 11
-1.375659053283015
 21
2.421443198540882
 31
0.0
  0
LINE
  5
1C3
330
198
100
AcDbEntity
  8
AM_4
100
AcDbLine
 10
-1.030590946716985
 20
2.421443198540882
 30
0.0
 11
-1.084304909265102
 21
2.475878121618572
 31
0.0
  0
LINE
  5
1C4
330
198
100
AcDbEntity
  8
AM_4
100
AcDbLine
 10
-1.375659053283015
 20
2.421443198540882
 30
0.0
 11
-1.030590946716985
 21
2.421443198540882
 31
0.0
  0
LINE
  5
1C5
330
198
100
AcDbEntity
  8
AM_4
100
AcDbLine
 10
-1.375659053283015
 20
2.421443198540882
 30
0.0
 11
-1.416875
 21
2.403125
 31
0.0
  0
LINE
  5
1C6
330
198
100
AcDbEntity
  8
AM_4
100
AcDbLine
 10
-0.989375
 20
2.403125
 30
0.0
 11
-1.030590946716985
 21
2.421443198540882
 31
0.0
  0
LINE
  5
1C7
330
198
100
AcDbEntity
  8
AM_4
100
AcDbLine
 10
-0.9505342572295388
 20
2.394057400303386
 30
0.0
 11
-0.9505342572295388
 21
2.312192599696615
 31
0.0
  0
LWPOLYLINE
  5
1C8
330
198
100
AcDbEntity
  8
AM_4
100
AcDbPolyline
 90
        4
 70
     0
 43
0.0
 10
-1.013681942922154
 20
2.403125
 10
-0.9978950214990003
 20
2.402517585996001
 10
-0.9821081000758465
 20
2.400731619214965
 10
-0.9505342572295388
 20
2.394057400303386
  0
LWPOLYLINE
  5
1C9
330
198
100
AcDbEntity
  8
AM_4
100
AcDbPolyline
 90
        4
 70
     0
 43
0.0
 10
-1.076829628614769
 20
2.394057400303386
 10
-1.045397750267872
 20
2.40071047505038
 10
-1.029561961446461
 20
2.402510438185773
 10
-1.013681942922154
 20
2.403125
  0
LWPOLYLINE
  5
1CA
330
198
100
AcDbEntity
  8
AM_4
100
AcDbPolyline
 90
        4
 70
     0
 43
0.0
 10
-0.9505342572295388
 20
2.312192599696615
 10
-0.9819661355764356
 20
2.30553952494962
 10
-0.997801924397847
 20
2.303739561814227
 10
-1.013681942922154
 20
2.303125
  0
LWPOLYLINE
  5
1CB
330
198
100
AcDbEntity
  8
AM_4
100
AcDbPolyline
 90
        4
 70
     0
 43
0.0
 10
-1.013681942922154
 20
2.303125
 10
-1.029468864345308
 20
2.303732414003999
 10
-1.045255785768462
 20
2.305518380785035
 10
-1.076829628614769
 20
2.312192599696615
  0
LINE
  5
1CC
330
198
100
AcDbEntity
  8
AM_4
100
AcDbLine
 10
-1.076829628614769
 20
2.394057400303386
 30
0.0
 11
-1.076829628614769
 21
2.312192599696615
 31
0.0
  0
LWPOLYLINE
  5
1CD
330
198
100
AcDbEntity
  8
AM_4
100
AcDbPolyline
 90
        4
 70
     0
 43
0.0
 10
-1.203125
 20
2.403125
 10
-1.154725183944101
 20
2.401707439282863
 10
-1.106325367888202
 20
2.397642587482157
 10
-1.076829628614769
 20
2.394057400303386
  0
LWPOLYLINE
  5
1CE
330
198
100
AcDbEntity
  8
AM_4
100
AcDbPolyline
 90
        4
 70
     0
 43
0.0
 10
-1.329420371385231
 20
2.394057400303386
 10
-1.266556614691437
 20
2.40071047505038
 10
-1.234885037048614
 20
2.402510438185773
 10
-1.203125
 20
2.403125
  0
LWPOLYLINE
  5
1CF
330
198
100
AcDbEntity
  8
AM_4
100
AcDbPolyline
 90
        4
 70
     0
 43
0.0
 10
-1.076829628614769
 20
2.312192599696615
 10
-1.106325367888202
 20
2.308607412517844
 10
-1.154582558752246
 20
2.304550828243072
 10
-1.203125
 20
2.303125
  0
LINE
  5
1D0
330
198
100
AcDbEntity
  8
AM_4
100
AcDbLine
 10
-1.329420371385231
 20
2.394057400303386
 30
0.0
 11
-1.329420371385231
 21
2.312192599696615
 31
0.0
  0
LWPOLYLINE
  5
1D1
330
198
100
AcDbEntity
  8
AM_4
100
AcDbPolyline
 90
        4
 70
     0
 43
0.0
 10
-1.392568057077846
 20
2.403125
 10
-1.376781135654692
 20
2.402517585996001
 10
-1.360994214231539
 20
2.400731619214965
 10
-1.329420371385231
 20
2.394057400303386
  0
LWPOLYLINE
  5
1D2
330
198
100
AcDbEntity
  8
AM_4
100
AcDbPolyline
 90
        4
 70
     0
 43
0.0
 10
-1.455715742770461
 20
2.394057400303386
 10
-1.424283864423564
 20
2.40071047505038
 10
-1.408448075602153
 20
2.402510438185773
 10
-1.392568057077846
 20
2.403125
  0
LINE
  5
1D3
330
198
100
AcDbEntity
  8
AM_4
100
AcDbLine
 10
-1.455715742770461
 20
2.394057400303386
 30
0.0
 11
-1.455715742770461
 21
2.312192599696615
 31
0.0
  0
LWPOLYLINE
  5
1D4
330
198
100
AcDbEntity
  8
AM_4
100
AcDbPolyline
 90
        4
 70
     0
 43
0.0
 10
-1.392568057077846
 20
2.303125
 10
-1.408354978501
 20
2.303732414003999
 10
-1.424141899924154
 20
2.305518380785035
 10
-1.455715742770461
 20
2.312192599696615
  0
LWPOLYLINE
  5
1D5
330
198
100
AcDbEntity
  8
AM_4
100
AcDbPolyline
 90
        4
 70
     0
 43
0.0
 10
-1.203125
 20
2.303125
 10
-1.234698842846308
 20
2.303732414003999
 10
-1.266272685692615
 20
2.305518380785035
 10
-1.329420371385231
 20
2.312192599696615
  0
LWPOLYLINE
  5
1D6
330
198
100
AcDbEntity
  8
AM_4
100
AcDbPolyline
 90
        4
 70
     0
 43
0.0
 10
-1.329420371385231
 20
2.312192599696615
 10
-1.360852249732128
 20
2.30553952494962
 10
-1.376688038553539
 20
2.303739561814227
 10
-1.392568057077846
 20
2.303125
  0
ENDBLK
  5
19B
330
198
100
AcDbEntity
  8
0
100
AcDbBlockEnd
  0
BLOCK
  5
1D9
330
1D7
100
AcDbEntity
  8
0
100
AcDbBlockBegin
  2
7_069755H_0_in_069755_2
 70
     2
 10
0.0
 20
0.0
 30
0.0
  3
7_069755H_0_in_069755_2
  1

  0
ATTDEF
  5
1DB
330
1D7
100
AcDbEntity
  8
AM_6
100
AcDbText
 10
5.110859375024972
 20
2.5625
 30
0.0
 40
0.5
  1
F4S-L -(Labyrinth Seal)-Housing -Inch
100
AcDbAttributeDefinition
  3

  2
NN
 70
     8
280
     0
  0
ATTDEF
  5
1DC
330
1D7
100
AcDbEntity
  8
AM_6
100
AcDbText
 10
5.110859375024972
 20
2.0625
 30
0.0
 40
0.5
  1
Imperial 4 Bolt Square Flange Bearings
100
AcDbAttributeDefinition
  3

  2
NT
 70
     8
280
     0
  0
ATTDEF
  5
1DD
330
1D7
100
AcDbEntity
  8
AM_6
100
AcDbText
 10
5.110859375024972
 20
1.5625
 30
0.0
 40
0.5
  1
069755H
100
AcDbAttributeDefinition
  3

  2
NB
 70
     8
280
     0
  0
ATTDEF
  5
1DE
330
1D7
100
AcDbEntity
  8
AM_6
100
AcDbText
 10
5.110859375024972
 20
1.0625
 30
0.0
 40
0.5
  1
$PN.H
100
AcDbAttributeDefinition
  3

  2
NBSYN
 70
     8
280
     0
  0
ATTDEF
  5
1DF
330
1D7
100
AcDbEntity
  8
AM_6
100
AcDbText
 10
5.110859375024972
 20
0.5625
 30
0.0
 40
0.5
  1
069755
100
AcDbAttributeDefinition
  3

  2
LINA
 70
     8
280
     0
  0
ATTDEF
  5
1E0
330
1D7
100
AcDbEntity
  8
AM_6
100
AcDbText
 10
5.110859375024972
 20
0.0625
 30
0.0
 40
0.5
  1
1-5/8
100
AcDbAttributeDefinition
  3

  2
SS
 70
     8
280
     0
  0
ATTDEF
  5
1E1
330
1D7
100
AcDbEntity
  8
AM_6
100
AcDbText
 10
5.110859375024972
 20
-0.4375
 30
0.0
 40
0.5
  1
069755
100
AcDbAttributeDefinition
  3

  2
PN
 70
     8
280
     0
  0
ATTDEF
  5
1E2
330
1D7
100
AcDbEntity
  8
AM_6
100
AcDbText
 10
5.110859375024972
 20
-0.9375
 30
0.0
 40
0.5
  1
F4S-IP-110L
100
AcDbAttributeDefinition
  3

  2
DESCRIPTION
 70
     8
280
     0
  0
ATTDEF
  5
1E3
330
1D7
100
AcDbEntity
  8
AM_6
100
AcDbText
 10
5.110859375024972
 20
-1.4375
 30
0.0
 40
0.5
  1
Non-Expansion Type
100
AcDbAttributeDefinition
  3

  2
EF
 70
     8
280
     0
  0
ATTDEF
  5
1E4
330
1D7
100
AcDbEntity
  8
AM_6
100
AcDbText
 10
5.110859375024972
 20
-1.9375
 30
0.0
 40
0.5
  1
Labyrinth Seal
100
AcDbAttributeDefinition
  3

  2
ST
 70
     8
280
     0
  0
ATTDEF
  5
1E5
330
1D7
100
AcDbEntity
  8
AM_6
100
AcDbText
 10
5.110859375024972
 20
-2.4375
 30
0.0
 40
0.5
  1
2-13/16
100
AcDbAttributeDefinition
  3

  2
A
 70
     8
280
     0
  0
ATTDEF
  5
1E6
330
1D7
100
AcDbEntity
  8
AM_6
100
AcDbText
 10
5.110859375024972
 20
-2.9375
 30
0.0
 40
0.5
  1
5-1/8
100
AcDbAttributeDefinition
  3

  2
B
 70
     8
280
     0
  0
ATTDEF
  5
1E7
330
1D7
100
AcDbEntity
  8
AM_6
100
AcDbText
 10
5.110859375024972
 20
-3.4375
 30
0.0
 40
0.5
  1
3-7/64
100
AcDbAttributeDefinition
  3

  2
C
 70
     8
280
     0
  0
ATTDEF
  5
1E8
330
1D7
100
AcDbEntity
  8
AM_6
100
AcDbText
 10
5.110859375024972
 20
-3.9375
 30
0.0
 40
0.5
  1
3-57/64
100
AcDbAttributeDefinition
  3

  2
D
 70
     8
280
     0
  0
ATTDEF
  5
1E9
330
1D7
100
AcDbEntity
  8
AM_6
100
AcDbText
 10
5.110859375024972
 20
-4.4375
 30
0.0
 40
0.5
  1
1/2
100
AcDbAttributeDefinition
  3

  2
F
 70
     8
280
     0
  0
ATTDEF
  5
1EA
330
1D7
100
AcDbEntity
  8
AM_6
100
AcDbText
 10
5.110859375024972
 20
-4.9375
 30
0.0
 40
0.5
  1
1-13/64
100
AcDbAttributeDefinition
  3

  2
G
 70
     8
280
     0
  0
ATTDEF
  5
1EB
330
1D7
100
AcDbEntity
  8
AM_6
100
AcDbText
 10
5.110859375024972
 20
-5.4375
 30
0.0
 40
0.5
  1
1/2
100
AcDbAttributeDefinition
  3

  2
H
 70
     8
280
     0
  0
ATTDEF
  5
1EC
330
1D7
100
AcDbEntity
  8
AM_6
100
AcDbText
 10
5.110859375024972
 20
-5.9375
 30
0.0
 40
0.5
  1
4-13/32
100
AcDbAttributeDefinition
  3

  2
J
 70
     8
280
     0
  0
ATTDEF
  5
1ED
330
1D7
100
AcDbEntity
  8
AM_6
100
AcDbText
 10
5.110859375024972
 20
-6.4375
 30
0.0
 40
0.5
  1
5-1/2
100
AcDbAttributeDefinition
  3

  2
K
 70
     8
280
     0
  0
ATTDEF
  5
1EE
330
1D7
100
AcDbEntity
  8
AM_6
100
AcDbText
 10
5.110859375024972
 20
-6.9375
 30
0.0
 40
0.5
  1
3
100
AcDbAttributeDefinition
  3

  2
L
 70
     8
280
     0
  0
ATTDEF
  5
1EF
330
1D7
100
AcDbEntity
  8
AM_6
100
AcDbText
 10
5.110859375024972
 20
-7.4375
 30
0.0
 40
0.5
  1
2-25/32
100
AcDbAttributeDefinition
  3

  2
N
 70
     8
280
     0
  0
ATTDEF
  5
1F0
330
1D7
100
AcDbEntity
  8
AM_6
100
AcDbText
 10
5.110859375024972
 20
-7.9375
 30
0.0
 40
0.5
  1
19/64
100
AcDbAttributeDefinition
  3

  2
P
 70
     8
280
     0
  0
ATTDEF
  5
1F1
330
1D7
100
AcDbEntity
  8
AM_6
100
AcDbText
 10
5.110859375024972
 20
-8.4375
 30
0.0
 40
0.5
  1
1/4
100
AcDbAttributeDefinition
  3

  2
X
 70
     8
280
     0
  0
ATTDEF
  5
1F2
330
1D7
100
AcDbEntity
  8
AM_6
100
AcDbText
 10
5.110859375024972
 20
-8.9375
 30
0.0
 40
0.5
  1
0.020
100
AcDbAttributeDefinition
  3

  2
Y
 70
     8
280
     0
  0
ATTDEF
  5
1F3
330
1D7
100
AcDbEntity
  8
AM_6
100
AcDbText
 10
5.110859375024972
 20
-9.4375
 30
0.0
 40
0.5
  1
2-5/64
100
AcDbAttributeDefinition
  3

  2
Z
 70
     8
280
     0
  0
ATTDEF
  5
1F4
330
1D7
100
AcDbEntity
  8
AM_6
100
AcDbText
 10
5.110859375024972
 20
-9.9375
 30
0.0
 40
0.5
  1
baldor
100
AcDbAttributeDefinition
  3

  2
COMPANY
 70
     8
280
     0
  0
LINE
  5
1F5
330
1D7
100
AcDbEntity
  8
AM_9
100
AcDbLine
 10
0.0
 20
1.67325
 30
0.0
 11
-1.90625
 21
1.67325
 31
0.0
  0
LINE
  5
1F6
330
1D7
100
AcDbEntity
  8
AM_9
100
AcDbLine
 10
-1.90625
 20
-1.67325
 30
0.0
 11
0.0
 21
-1.67325
 31
0.0
  0
LINE
  5
1F7
330
1D7
100
AcDbEntity
  8
AM_9
100
AcDbLine
 10
-0.4499999999999998
 20
2.505031151412485
 30
0.0
 11
-0.4999999999999998
 21
2.505031151412485
 31
0.0
  0
LINE
  5
1F8
330
1D7
100
AcDbEntity
  8
AM_9
100
AcDbLine
 10
-0.4499999999999998
 20
2.5625
 30
0.0
 11
-0.4500000000000001
 21
1.989027059642791
 31
0.0
  0
LINE
  5
1F9
330
1D7
100
AcDbEntity
  8
AM_9
100
AcDbLine
 10
-0.4499999999999998
 20
-2.505031151412486
 30
0.0
 11
-0.4999999999999998
 21
-2.505031151412486
 31
0.0
  0
LINE
  5
1FA
330
1D7
100
AcDbEntity
  8
AM_9
100
AcDbLine
 10
-0.4499999999999998
 20
-1.989027059642791
 30
0.0
 11
-0.4499999999999998
 21
-2.5625
 31
0.0
  0
LINE
  5
1FB
330
1D7
100
AcDbEntity
  8
AM_9
100
AcDbLine
 10
-0.4999999999999998
 20
-2.1953125
 30
0.0
 11
0.0000000000000001
 21
-2.1953125
 31
0.0
  0
LINE
  5
1FC
330
1D7
100
AcDbEntity
  8
AM_9
100
AcDbLine
 10
0.0000000000000001
 20
-1.6953125
 30
0.0
 11
-0.4999999999999998
 21
-1.6953125
 31
0.0
  0
LINE
  5
1FD
330
1D7
100
AcDbEntity
  8
AM_9
100
AcDbLine
 10
-0.4999999999999998
 20
1.6953125
 30
0.0
 11
0.0000000000000001
 21
1.6953125
 31
0.0
  0
LINE
  5
1FE
330
1D7
100
AcDbEntity
  8
AM_9
100
AcDbLine
 10
0.0000000000000001
 20
2.1953125
 30
0.0
 11
-0.4999999999999998
 21
2.1953125
 31
0.0
  0
LINE
  5
1FF
330
1D7
100
AcDbEntity
  8
AM_9
100
AcDbLine
 10
-0.4999999999999999
 20
1.989027059642791
 30
0.0
 11
-0.4500000000000001
 21
1.989027059642791
 31
0.0
  0
LINE
  5
200
330
1D7
100
AcDbEntity
  8
AM_9
100
AcDbLine
 10
-0.4499999999999998
 20
-1.989027059642791
 30
0.0
 11
-0.4999999999999999
 21
-1.989027059642791
 31
0.0
  0
LINE
  5
201
330
1D7
100
AcDbEntity
  8
AM_9
100
AcDbLine
 10
-0.4499999999999998
 20
2.203125
 30
0.0
 11
-0.4999999999999998
 21
2.203125
 31
0.0
  0
LINE
  5
202
330
1D7
100
AcDbEntity
  8
AM_9
100
AcDbLine
 10
-0.4999999999999999
 20
-2.203125
 30
0.0
 11
-0.4499999999999998
 21
-2.203125
 31
0.0
  0
LINE
  5
203
330
1D7
100
AcDbEntity
  8
AM_7
100
AcDbLine
 10
0.1108593750249728
 20
0.0
 30
0.0
 11
-3.251
 21
0.0
 31
0.0
  0
LINE
  5
204
330
1D7
100
AcDbEntity
  8
AM_7
100
AcDbLine
 10
0.0299999999999999
 20
1.9453125
 30
0.0
 11
-0.6300000000000001
 21
1.9453125
 31
0.0
  0
LINE
  5
205
330
1D7
100
AcDbEntity
  8
AM_7
100
AcDbLine
 10
0.0299999999999999
 20
-1.9453125
 30
0.0
 11
-0.6300000000000001
 21
-1.9453125
 31
0.0
  0
LINE
  5
206
330
1D7
100
AcDbEntity
  8
AM_4
100
AcDbLine
 10
-0.8031249999999999
 20
2.303125
 30
0.0
 11
-1.603124999909021
 21
2.303125
 31
0.0
  0
ARC
  5
207
330
1D7
100
AcDbEntity
  8
AM_4
100
AcDbCircle
 10
-1.603124999999999
 20
2.203124999999998
 30
0.0
 40
0.1000000000000019
100
AcDbArc
 50
90.0
 51
180.0
  0
ARC
  5
208
330
1D7
100
AcDbEntity
  8
AM_4
100
AcDbCircle
 10
-0.8031250000000014
 20
2.203124999999998
 30
0.0
 40
0.1000000000000015
100
AcDbArc
 50
0.0
 51
90.0
  0
LINE
  5
209
330
1D7
100
AcDbEntity
  8
AM_4
100
AcDbLine
 10
-0.7031249999999999
 20
2.203125
 30
0.0
 11
-1.703125
 21
2.203124999999999
 31
0.0
  0
LWPOLYLINE
  5
20A
330
1D7
100
AcDbEntity
  8
AM_4
100
AcDbPolyline
 90
       38
 70
     0
 43
0.0
 10
-0.7031249999999999
 20
2.203125
 10
-0.7048059732344053
 20
2.2027435194818
 10
-0.709823103867446
 20
2.201614527194298
 10
-0.7184438009460716
 20
2.199698432478201
 10
-0.7304866150671923
 20
2.197076878158088
 10
-0.7453777549992958
 20
2.193921355742841
 10
-0.7632969200752675
 20
2.190253068829096
 10
-0.7847552754247371
 20
2.186044956700436
 10
-0.8091263742984146
 20
2.181512017541901
 10
-0.8358950336182065
 20
2.176836792963511
 10
-0.8651623963937474
 20
2.172090810040251
 10
-0.8976740477599203
 20
2.167270747713509
 10
-0.932406562436614
 20
2.162648431451992
 10
-0.9685031514039063
 20
2.158427903040948
 10
-1.006278168169882
 20
2.154648101390702
 10
-1.04667812172859
 20
2.151334791643341
 10
-1.088288386042771
 20
2.148708266268402
 10
-1.128845740477032
 20
2.146924115263928
 10
-1.169934310723371
 20
2.145894076481795
 10
-1.2125136345202
 20
2.145659573054244
 10
-1.255021385264059
 20
2.146264895214119
 10
-1.295132330087038
 20
2.147610416916304
 10
-1.334611461764037
 20
2.149662404949257
 10
-1.374277641796916
 20
2.152453926154714
 10
-1.412719595092511
 20
2.155850101448844
 10
-1.448981697286664
 20
2.159677871204649
 10
-1.483583033676211
 20
2.163889201017124
 10
-1.517179044811878
 20
2.16849989593489
 10
-1.548570711691156
 20
2.173267702182777
 10
-1.577412754368778
 20
2.178038510231358
 10
-1.603676753470854
 20
2.182705081506334
 10
-1.627813655763649
 20
2.187263028080416
 10
-1.648857488792988
 20
2.191446375613738
 10
-1.666210399509688
 20
2.195041267156027
 10
-1.680349579030827
 20
2.198068029988187
 10
-1.691427893159957
 20
2.200499184098485
 10
-1.698884312451102
 20
2.202166447275725
 10
-1.703125
 20
2.203124999999999
  0
LINE
  5
20B
330
1D7
100
AcDbEntity
  8
AM_4
100
AcDbLine
 10
-0.4999999999999998
 20
2.203125
 30
0.0
 11
-0.7031249999999999
 21
2.203125
 31
0.0
  0
LINE
  5
20C
330
1D7
100
AcDbEntity
  8
AM_4
100
AcDbLine
 10
-1.703125
 20
2.203125
 30
0.0
 11
-1.7859375
 21
2.203125
 31
0.0
  0
LINE
  5
20D
330
1D7
100
AcDbEntity
  8
AM_4
100
AcDbLine
 10
-1.7859375
 20
-2.203125
 30
0.0
 11
-0.4999999999999999
 21
-2.203125
 31
0.0
  0
LINE
  5
20E
330
1D7
100
AcDbEntity
  8
AM_4
100
AcDbLine
 10
-1.7859375
 20
-2.203125
 30
0.0
 11
-1.7859375
 21
2.203125
 31
0.0
  0
LINE
  5
20F
330
1D7
100
AcDbEntity
  8
AM_4
100
AcDbLine
 10
-1.90625
 20
-2.082812500000001
 30
0.0
 11
-1.90625
 21
2.082812500000001
 31
0.0
  0
ARC
  5
210
330
1D7
100
AcDbEntity
  8
AM_4
100
AcDbCircle
 10
-1.7859375
 20
2.0828125
 30
0.0
 40
0.1203124999999994
100
AcDbArc
 50
90.0
 51
180.0
  0
ARC
  5
211
330
1D7
100
AcDbEntity
  8
AM_4
100
AcDbCircle
 10
-1.7859375
 20
-2.0828125
 30
0.0
 40
0.1203124999999996
100
AcDbArc
 50
180.0
 51
270.0
  0
LINE
  5
212
330
1D7
100
AcDbEntity
  8
AM_4
100
AcDbLine
 10
-0.4999999999999998
 20
-2.5625
 30
0.0
 11
-0.4999999999999998
 21
-0.9473811913025055
 31
0.0
  0
LINE
  5
213
330
1D7
100
AcDbEntity
  8
AM_4
100
AcDbLine
 10
-0.4999999999999998
 20
-0.9473811913025055
 30
0.0
 11
-0.4499999999999997
 21
-0.9473811913025056
 31
0.0
  0
LINE
  5
214
330
1D7
100
AcDbEntity
  8
AM_4
100
AcDbLine
 10
-0.4499999999999997
 20
0.9473811913025046
 30
0.0
 11
-0.4999999999999998
 21
0.9473811913025044
 31
0.0
  0
LINE
  5
215
330
1D7
100
AcDbEntity
  8
AM_4
100
AcDbLine
 10
-0.4999999999999998
 20
-2.5625
 30
0.0
 11
0.0000000000000001
 21
-2.5625
 31
0.0
  0
LINE
  5
216
330
1D7
100
AcDbEntity
  8
AM_4
100
AcDbLine
 10
-0.4499999999999998
 20
-1.923264157084494
 30
0.0
 11
-0.4499999999999998
 21
1.923264157084486
 31
0.0
  0
LINE
  5
217
330
1D7
100
AcDbEntity
  8
AM_4
100
AcDbLine
 10
-0.4999999999999998
 20
-1.945312500000001
 30
0.0
 11
0.0000000000000002
 21
-1.945312500000001
 31
0.0
  0
LINE
  5
218
330
1D7
100
AcDbEntity
  8
AM_4
100
AcDbLine
 10
-0.4999999999999998
 20
0.9473811913025044
 30
0.0
 11
-0.4999999999999998
 21
2.5625
 31
0.0
  0
LINE
  5
219
330
1D7
100
AcDbEntity
  8
AM_4
100
AcDbLine
 10
0.0000000000000001
 20
-2.5625
 30
0.0
 11
0.0000000000000001
 21
2.5625
 31
0.0
  0
LINE
  5
21A
330
1D7
100
AcDbEntity
  8
AM_4
100
AcDbLine
 10
-0.4999999999999998
 20
2.5625
 30
0.0
 11
0.0000000000000001
 21
2.5625
 31
0.0
  0
LINE
  5
21B
330
1D7
100
AcDbEntity
  8
AM_4
100
AcDbLine
 10
-0.4999999999999998
 20
1.9453125
 30
0.0
 11
0.0000000000000002
 21
1.9453125
 31
0.0
  0
LINE
  5
21C
330
1D7
100
AcDbEntity
  8
AM_4
100
AcDbLine
 10
-0.4499999999999998
 20
1.923264157084486
 30
0.0
 11
-0.4999999999999998
 21
1.923264157084486
 31
0.0
  0
LINE
  5
21D
330
1D7
100
AcDbEntity
  8
AM_4
100
AcDbLine
 10
-0.4499999999999998
 20
1.684311406434167
 30
0.0
 11
-0.4999999999999998
 21
1.684311406434167
 31
0.0
  0
LINE
  5
21E
330
1D7
100
AcDbEntity
  8
AM_4
100
AcDbLine
 10
-0.4999999999999998
 20
-1.923264157084494
 30
0.0
 11
-0.4499999999999998
 21
-1.923264157084494
 31
0.0
  0
LINE
  5
21F
330
1D7
100
AcDbEntity
  8
AM_4
100
AcDbLine
 10
-0.4499999999999998
 20
-1.684311406434168
 30
0.0
 11
-0.4999999999999998
 21
-1.684311406434168
 31
0.0
  0
ENDBLK
  5
1DA
330
1D7
100
AcDbEntity
  8
0
100
AcDbBlockEnd
  0
ENDSEC
  0
SECTION
  2
ENTITIES
  0
INSERT
  5
6F
330
1F
100
AcDbEntity
  8
0
100
AcDbBlockReference
  2
1_069755_2
 10
0.0
 20
0.0
 30
0.0
  0
POINT
  5
221
330
1F
100
AcDbEntity
  8
ConnectionPoints
100
AcDbPoint
 10
-2.950375
 20
1.201388888888889
 30
0.0000000000000002
  0
POINT
  5
222
330
1F
100
AcDbEntity
  8
ConnectionPoints
100
AcDbPoint
 10
-2.880375
 20
0.0
 30
0.0000000000000002
  0
POINT
  5
223
330
1F
100
AcDbEntity
  8
ConnectionPoints
100
AcDbPoint
 10
-3.109375
 20
0.0
 30
0.0000000000000002
  0
POINT
  5
224
330
1F
100
AcDbEntity
  8
ConnectionPoints
100
AcDbPoint
 10
-3.079375
 20
0.0
 30
0.0000000000000002
  0
POINT
  5
225
330
1F
100
AcDbEntity
  8
ConnectionPoints
100
AcDbPoint
 10
-2.880375
 20
1.201388888888889
 30
0.0000000000000002
  0
POINT
  5
226
330
1F
100
AcDbEntity
  8
ConnectionPoints
100
AcDbPoint
 10
-3.008375
 20
1.201388888888889
 30
0.0000000000000002
  0
POINT
  5
227
330
1F
100
AcDbEntity
  8
ConnectionPoints
100
AcDbPoint
 10
-2.880375
 20
-1.201388888888889
 30
0.0000000000000002
  0
POINT
  5
228
330
1F
100
AcDbEntity
  8
ConnectionPoints
100
AcDbPoint
 10
-3.008375
 20
-1.201388888888889
 30
0.0000000000000002
  0
POINT
  5
229
330
1F
100
AcDbEntity
  8
ConnectionPoints
100
AcDbPoint
 10
-2.880375
 20
0.0
 30
0.0000000000000002
  0
POINT
  5
22A
330
1F
100
AcDbEntity
  8
ConnectionPoints
100
AcDbPoint
 10
-1.203125
 20
2.303125
 30
0.0000000000000001
  0
POINT
  5
22B
330
1F
100
AcDbEntity
  8
ConnectionPoints
100
AcDbPoint
 10
-1.203125
 20
2.303125
 30
0.0000000000000001
  0
POINT
  5
22C
330
1F
100
AcDbEntity
  8
ConnectionPoints
100
AcDbPoint
 10
-2.859375
 20
0.0
 30
0.0000000000000002
  0
POINT
  5
22D
330
1F
100
AcDbEntity
  8
ConnectionPoints
100
AcDbPoint
 10
-3.109375
 20
0.0
 30
0.0000000000000002
  0
ENDSEC
  0
SECTION
  2
OBJECTS
  0
DICTIONARY
  5
C
330
0
100
AcDbDictionary
281
     1
  3
ACAD_DETAILVIEWSTYLE
350
235
  3
ACAD_GROUP
350
D
  3
ACAD_LAYOUT
350
1A
  3
ACAD_MATERIAL
350
43
  3
ACAD_MLEADERSTYLE
350
6B
  3
ACAD_MLINESTYLE
350
17
  3
ACAD_PLOTSETTINGS
350
19
  3
ACAD_PLOTSTYLENAME
350
E
  3
ACAD_SCALELIST
350
47
  3
ACAD_SECTIONVIEWSTYLE
350
236
  3
ACAD_TABLESTYLE
350
69
  3
ACAD_VISUALSTYLE
350
2A
  3
ACDB_RECOMPOSE_DATA
350
232
  3
AcDbVariableDictionary
350
22E
  0
SUN
  5
6D
330
29
100
AcDbSun
 90
        1
290
     0
 63
     7
421
 16777215
 40
1.0
291
     1
 91
  2455826
 92
 54000000
292
     0
 70
     2
 71
   256
280
     1
  0
DICTIONARY
  5
235
102
{ACAD_REACTORS
330
C
102
}
330
C
100
AcDbDictionary
281
     1
  0
DICTIONARY
  5
D
102
{ACAD_REACTORS
330
C
102
}
330
C
100
AcDbDictionary
281
     1
  0
DICTIONARY
  5
1A
102
{ACAD_REACTORS
330
C
102
}
330
C
100
AcDbDictionary
281
     1
  3
Layout1
350
1E
  3
Layout2
350
26
  3
Model
350
22
  0
DICTIONARY
  5
43
102
{ACAD_REACTORS
330
C
102
}
330
C
100
AcDbDictionary
281
     1
  3
ByBlock
350
45
  3
ByLayer
350
44
  3
Global
350
46
  0
DICTIONARY
  5
6B
102
{ACAD_REACTORS
330
C
102
}
330
C
100
AcDbDictionary
281
     1
  3
Standard
350
6C
  0
DICTIONARY
  5
17
102
{ACAD_REACTORS
330
C
102
}
330
C
100
AcDbDictionary
281
     1
  3
Standard
350
18
  0
DICTIONARY
  5
19
102
{ACAD_REACTORS
330
C
102
}
330
C
100
AcDbDictionary
281
     1
  0
ACDBDICTIONARYWDFLT
  5
E
102
{ACAD_REACTORS
330
C
102
}
330
C
100
AcDbDictionary
281
     1
  3
Normal
350
F
100
AcDbDictionaryWithDefault
340
F
  0
DICTIONARY
  5
47
102
{ACAD_REACTORS
330
C
102
}
330
C
100
AcDbDictionary
281
     1
  3
A0
350
48
  3
A1
350
49
  3
A2
350
4A
  3
A3
350
4B
  3
A4
350
4C
  3
A5
350
4D
  3
A6
350
4E
  3
A7
350
4F
  3
A8
350
50
  3
A9
350
51
  3
B0
350
52
  3
B1
350
53
  3
B2
350
54
  3
B3
350
55
  3
B4
350
56
  3
B5
350
57
  3
B6
350
58
  3
B7
350
59
  3
B8
350
5A
  3
B9
350
5B
  3
C0
350
5C
  3
C1
350
5D
  3
C2
350
5E
  3
C3
350
5F
  3
C4
350
60
  3
C5
350
61
  3
C6
350
62
  3
C7
350
63
  3
C8
350
64
  3
C9
350
65
  3
D0
350
66
  3
D1
350
67
  3
D2
350
68
  0
DICTIONARY
  5
236
102
{ACAD_REACTORS
330
C
102
}
330
C
100
AcDbDictionary
281
     1
  0
DICTIONARY
  5
69
102
{ACAD_REACTORS
330
C
102
}
330
C
100
AcDbDictionary
281
     1
  3
Standard
350
6A
  0
DICTIONARY
  5
2A
102
{ACAD_REACTORS
330
C
102
}
330
C
100
AcDbDictionary
281
     1
  3
2dWireframe
350
2F
  3
Basic
350
32
  3
Brighten
350
36
  3
ColorChange
350
3A
  3
Conceptual
350
34
  3
Dim
350
35
  3
EdgeColorOff
350
3D
  3
Facepattern
350
39
  3
Flat
350
2B
  3
FlatWithEdges
350
2C
  3
Gouraud
350
2D
  3
GouraudWithEdges
350
2E
  3
Hidden
350
31
  3
JitterOff
350
3B
  3
Linepattern
350
38
  3
OverhangOff
350
3C
  3
Realistic
350
33
  3
Shaded
350
42
  3
Shaded with edges
350
41
  3
Shades of Gray
350
3E
  3
Sketchy
350
3F
  3
Thicken
350
37
  3
Wireframe
350
30
  3
X-Ray
350
40
  0
XRECORD
  5
232
102
{ACAD_REACTORS
330
C
102
}
330
C
100
AcDbXrecord
280
     1
 90
        1
330
6A
  0
DICTIONARY
  5
22E
102
{ACAD_REACTORS
330
C
102
}
330
C
100
AcDbDictionary
281
     1
  3
CANNOSCALE
350
22F
  3
CMLEADERSTYLE
350
234
  3
CTABLESTYLE
350
233
  0
LAYOUT
  5
1E
102
{ACAD_REACTORS
330
1A
102
}
330
1A
100
AcDbPlotSettings
  1

  2
none_device
  4

  6

 40
0.0
 41
0.0
 42
0.0
 43
0.0
 44
0.0
 45
0.0
 46
0.0
 47
0.0
 48
0.0
 49
0.0
140
0.0
141
0.0
142
1.0
143
1.0
 70
   688
 72
     0
 73
     0
 74
     5
  7

 75
    16
 76
     0
 77
     2
 78
   300
147
1.0
148
0.0
149
0.0
100
AcDbLayout
  1
Layout1
 70
     1
 71
     1
 10
0.0
 20
0.0
 11
12.0
 21
9.0
 12
0.0
 22
0.0
 32
0.0
 14
1.000000000000000E+20
 24
1.000000000000000E+20
 34
1.000000000000000E+20
 15
-1.000000000000000E+20
 25
-1.000000000000000E+20
 35
-1.000000000000000E+20
146
0.0
 13
0.0
 23
0.0
 33
0.0
 16
1.0
 26
0.0
 36
0.0
 17
0.0
 27
1.0
 37
0.0
 76
     0
330
1B
  0
LAYOUT
  5
26
102
{ACAD_REACTORS
330
1A
102
}
330
1A
100
AcDbPlotSettings
  1

  2
none_device
  4

  6

 40
0.0
 41
0.0
 42
0.0
 43
0.0
 44
0.0
 45
0.0
 46
0.0
 47
0.0
 48
0.0
 49
0.0
140
0.0
141
0.0
142
1.0
143
1.0
 70
   688
 72
     0
 73
     0
 74
     5
  7

 75
    16
 76
     0
 77
     2
 78
   300
147
1.0
148
0.0
149
0.0
100
AcDbLayout
  1
Layout2
 70
     1
 71
     2
 10
0.0
 20
0.0
 11
0.0
 21
0.0
 12
0.0
 22
0.0
 32
0.0
 14
0.0
 24
0.0
 34
0.0
 15
0.0
 25
0.0
 35
0.0
146
0.0
 13
0.0
 23
0.0
 33
0.0
 16
1.0
 26
0.0
 36
0.0
 17
0.0
 27
1.0
 37
0.0
 76
     0
330
23
  0
LAYOUT
  5
22
102
{ACAD_REACTORS
330
1A
102
}
330
1A
100
AcDbPlotSettings
  1

  2
none_device
  4
Letter_(8.50_x_11.00_Inches)
  6

 40
6.35
 41
6.35
 42
6.35000508
 43
6.35000508
 44
215.9
 45
279.4
 46
0.0
 47
0.0
 48
0.0
 49
0.0
140
0.0
141
0.0
142
1.0
143
1.0
 70
  1712
 72
     0
 73
     0
 74
     0
  7

 75
     0
 76
     0
 77
     2
 78
   300
147
1.0
148
0.0
149
0.0
100
AcDbLayout
  1
Model
 70
     1
 71
     0
 10
0.0
 20
0.0
 11
12.0
 21
9.0
 12
0.0
 22
0.0
 32
0.0
 14
1.000000000000000E+20
 24
1.000000000000000E+20
 34
1.000000000000000E+20
 15
-1.000000000000000E+20
 25
-1.000000000000000E+20
 35
-1.000000000000000E+20
146
0.0
 13
0.0
 23
0.0
 33
0.0
 16
1.0
 26
0.0
 36
0.0
 17
0.0
 27
1.0
 37
0.0
 76
     0
330
1F
331
29
  0
MATERIAL
  5
45
102
{ACAD_REACTORS
330
43
102
}
330
43
100
AcDbMaterial
  1
ByBlock
 72
     1
 94
      127
  0
MATERIAL
  5
44
102
{ACAD_REACTORS
330
43
102
}
330
43
100
AcDbMaterial
  1
ByLayer
 72
     1
 94
      127
  0
MATERIAL
  5
46
102
{ACAD_REACTORS
330
43
102
}
330
43
100
AcDbMaterial
  1
Global
 72
     1
 94
      127
  0
MLEADERSTYLE
  5
6C
102
{ACAD_REACTORS
330
6B
102
}
330
6B
100
AcDbMLeaderStyle
179
     2
170
     2
171
     1
172
     0
 90
        2
 40
0.0
 41
0.0
173
     1
 91
-1056964608
340
14
 92
       -2
290
     1
 42
0.09
291
     1
 43
0.36
  3
Standard
341
0
 44
0.18
300

342
11
174
     1
178
     6
175
     1
176
     0
 93
-1056964608
 45
0.18
292
     0
297
     0
 46
0.18
343
0
 94
-1056964608
 47
1.0
 49
1.0
140
1.0
293
     1
141
0.0
294
     1
177
     0
142
1.0
295
     0
296
     0
143
0.125
271
     0
272
     9
273
     9
298
     0
  0
MLINESTYLE
  5
18
102
{ACAD_REACTORS
330
17
102
}
330
17
100
AcDbMlineStyle
  2
Standard
 70
     0
  3

 62
   256
 51
90.0
 52
90.0
 71
     2
 49
0.5
 62
   256
  6
BYLAYER
 49
-0.5
 62
   256
  6
BYLAYER
  0
ACDBPLACEHOLDER
  5
F
102
{ACAD_REACTORS
330
E
102
}
330
E
  0
SCALE
  5
48
102
{ACAD_REACTORS
330
47
102
}
330
47
100
AcDbScale
 70
     0
300
1:1
140
1.0
141
1.0
290
     1
  0
SCALE
  5
49
102
{ACAD_REACTORS
330
47
102
}
330
47
100
AcDbScale
 70
     0
300
1:2
140
1.0
141
2.0
290
     0
  0
SCALE
  5
4A
102
{ACAD_REACTORS
330
47
102
}
330
47
100
AcDbScale
 70
     0
300
1:4
140
1.0
141
4.0
290
     0
  0
SCALE
  5
4B
102
{ACAD_REACTORS
330
47
102
}
330
47
100
AcDbScale
 70
     0
300
1:5
140
1.0
141
5.0
290
     0
  0
SCALE
  5
4C
102
{ACAD_REACTORS
330
47
102
}
330
47
100
AcDbScale
 70
     0
300
1:8
140
1.0
141
8.0
290
     0
  0
SCALE
  5
4D
102
{ACAD_REACTORS
330
47
102
}
330
47
100
AcDbScale
 70
     0
300
1:10
140
1.0
141
10.0
290
     0
  0
SCALE
  5
4E
102
{ACAD_REACTORS
330
47
102
}
330
47
100
AcDbScale
 70
     0
300
1:16
140
1.0
141
16.0
290
     0
  0
SCALE
  5
4F
102
{ACAD_REACTORS
330
47
102
}
330
47
100
AcDbScale
 70
     0
300
1:20
140
1.0
141
20.0
290
     0
  0
SCALE
  5
50
102
{ACAD_REACTORS
330
47
102
}
330
47
100
AcDbScale
 70
     0
300
1:30
140
1.0
141
30.0
290
     0
  0
SCALE
  5
51
102
{ACAD_REACTORS
330
47
102
}
330
47
100
AcDbScale
 70
     0
300
1:40
140
1.0
141
40.0
290
     0
  0
SCALE
  5
52
102
{ACAD_REACTORS
330
47
102
}
330
47
100
AcDbScale
 70
     0
300
1:50
140
1.0
141
50.0
290
     0
  0
SCALE
  5
53
102
{ACAD_REACTORS
330
47
102
}
330
47
100
AcDbScale
 70
     0
300
1:100
140
1.0
141
100.0
290
     0
  0
SCALE
  5
54
102
{ACAD_REACTORS
330
47
102
}
330
47
100
AcDbScale
 70
     0
300
2:1
140
2.0
141
1.0
290
     0
  0
SCALE
  5
55
102
{ACAD_REACTORS
330
47
102
}
330
47
100
AcDbScale
 70
     0
300
4:1
140
4.0
141
1.0
290
     0
  0
SCALE
  5
56
102
{ACAD_REACTORS
330
47
102
}
330
47
100
AcDbScale
 70
     0
300
8:1
140
8.0
141
1.0
290
     0
  0
SCALE
  5
57
102
{ACAD_REACTORS
330
47
102
}
330
47
100
AcDbScale
 70
     0
300
10:1
140
10.0
141
1.0
290
     0
  0
SCALE
  5
58
102
{ACAD_REACTORS
330
47
102
}
330
47
100
AcDbScale
 70
     0
300
100:1
140
100.0
141
1.0
290
     0
  0
SCALE
  5
59
102
{ACAD_REACTORS
330
47
102
}
330
47
100
AcDbScale
 70
     0
300
1/128" = 1'-0"
140
0.0078125
141
12.0
290
     0
  0
SCALE
  5
5A
102
{ACAD_REACTORS
330
47
102
}
330
47
100
AcDbScale
 70
     0
300
1/64" = 1'-0"
140
0.015625
141
12.0
290
     0
  0
SCALE
  5
5B
102
{ACAD_REACTORS
330
47
102
}
330
47
100
AcDbScale
 70
     0
300
1/32" = 1'-0"
140
0.03125
141
12.0
290
     0
  0
SCALE
  5
5C
102
{ACAD_REACTORS
330
47
102
}
330
47
100
AcDbScale
 70
     0
300
1/16" = 1'-0"
140
0.0625
141
12.0
290
     0
  0
SCALE
  5
5D
102
{ACAD_REACTORS
330
47
102
}
330
47
100
AcDbScale
 70
     0
300
3/32" = 1'-0"
140
0.09375
141
12.0
290
     0
  0
SCALE
  5
5E
102
{ACAD_REACTORS
330
47
102
}
330
47
100
AcDbScale
 70
     0
300
1/8" = 1'-0"
140
0.125
141
12.0
290
     0
  0
SCALE
  5
5F
102
{ACAD_REACTORS
330
47
102
}
330
47
100
AcDbScale
 70
     0
300
3/16" = 1'-0"
140
0.1875
141
12.0
290
     0
  0
SCALE
  5
60
102
{ACAD_REACTORS
330
47
102
}
330
47
100
AcDbScale
 70
     0
300
1/4" = 1'-0"
140
0.25
141
12.0
290
     0
  0
SCALE
  5
61
102
{ACAD_REACTORS
330
47
102
}
330
47
100
AcDbScale
 70
     0
300
3/8" = 1'-0"
140
0.375
141
12.0
290
     0
  0
SCALE
  5
62
102
{ACAD_REACTORS
330
47
102
}
330
47
100
AcDbScale
 70
     0
300
1/2" = 1'-0"
140
0.5
141
12.0
290
     0
  0
SCALE
  5
63
102
{ACAD_REACTORS
330
47
102
}
330
47
100
AcDbScale
 70
     0
300
3/4" = 1'-0"
140
0.75
141
12.0
290
     0
  0
SCALE
  5
64
102
{ACAD_REACTORS
330
47
102
}
330
47
100
AcDbScale
 70
     0
300
1" = 1'-0"
140
1.0
141
12.0
290
     0
  0
SCALE
  5
65
102
{ACAD_REACTORS
330
47
102
}
330
47
100
AcDbScale
 70
     0
300
1-1/2" = 1'-0"
140
1.5
141
12.0
290
     0
  0
SCALE
  5
66
102
{ACAD_REACTORS
330
47
102
}
330
47
100
AcDbScale
 70
     0
300
3" = 1'-0"
140
3.0
141
12.0
290
     0
  0
SCALE
  5
67
102
{ACAD_REACTORS
330
47
102
}
330
47
100
AcDbScale
 70
     0
300
6" = 1'-0"
140
6.0
141
12.0
290
     0
  0
SCALE
  5
68
102
{ACAD_REACTORS
330
47
102
}
330
47
100
AcDbScale
 70
     0
300
1'-0" = 1'-0"
140
12.0
141
12.0
290
     0
  0
TABLESTYLE
  5
6A
102
{ACAD_REACTORS
330
69
102
}
102
{ACAD_XDICTIONARY
360
230
102
}
330
69
100
AcDbTableStyle
  3
Standard
 70
     0
 71
     0
 40
0.06
 41
0.06
280
     0
281
     0
  7
Standard
140
0.18
170
     2
 62
     0
 63
   257
283
     0
 90
        4
 91
        0
  1

274
    -2
284
     1
 64
     0
275
    -2
285
     1
 65
     0
276
    -2
286
     1
 66
     0
277
    -2
287
     1
 67
     0
278
    -2
288
     1
 68
     0
279
    -2
289
     1
 69
     0
  7
Standard
140
0.25
170
     5
 62
     0
 63
   257
283
     0
 90
        4
 91
        0
  1

274
    -2
284
     1
 64
     0
275
    -2
285
     1
 65
     0
276
    -2
286
     1
 66
     0
277
    -2
287
     1
 67
     0
278
    -2
288
     1
 68
     0
279
    -2
289
     1
 69
     0
  7
Standard
140
0.18
170
     5
 62
     0
 63
   257
283
     0
 90
        4
 91
        0
  1

274
    -2
284
     1
 64
     0
275
    -2
285
     1
 65
     0
276
    -2
286
     1
 66
     0
277
    -2
287
     1
 67
     0
278
    -2
288
     1
 68
     0
279
    -2
289
     1
 69
     0
  0
VISUALSTYLE
  5
2F
102
{ACAD_REACTORS
330
2A
102
}
330
2A
100
AcDbVisualStyle
  2
2dWireframe
 70
     4
177
     3
291
     0
 70
    58
 90
        0
176
     1
 90
        2
176
     1
 90
        0
176
     1
 90
        0
176
     1
 40
0.6
176
     1
 40
30.0
176
     1
 62
     7
420
 16777215
176
     1
 90
        1
176
     1
 90
        4
176
     1
 62
     7
176
     1
 62
   257
176
     1
 90
        1
176
     1
 90
        1
176
     1
 40
1.0
176
     1
 90
        0
176
     1
 62
   257
176
     1
 40
1.0
176
     1
 90
        1
176
     1
 90
        6
176
     1
 90
        2
176
     1
 62
     7
176
     1
 90
        5
176
     1
 90
        0
176
     1
 90
        0
176
     1
290
     0
176
     1
 90
        1
176
     1
 40
0.0
176
     1
 90
        0
176
     1
290
     1
176
     1
290
     1
176
     1
290
     0
176
     1
290
     0
176
     1
290
     0
176
     1
290
     0
176
     1
290
     0
176
     1
290
     0
176
     1
290
     0
176
     1
 90
       50
176
     1
 40
0.0
176
     1
 40
1.0
176
     1
 90
        0
176
     1
 62
    18
420
        0
176
     1
 90
       50
176
     1
 90
        3
176
     1
 62
     5
420
      255
176
     1
290
     0
176
     1
 90
       50
176
     1
 90
       50
176
     1
 90
       50
176
     1
290
     0
176
     1
 90
       50
176
     1
 62
   256
176
     0
 40
1.0
176
     0
 90
        2
176
     1
  1
strokes_ogs.tif
176
     1
290
     0
176
     1
 40
1.0
176
     1
 40
1.0
176
     1
  0
VISUALSTYLE
  5
32
102
{ACAD_REACTORS
330
2A
102
}
330
2A
100
AcDbVisualStyle
  2
Basic
 70
     7
177
     3
291
     1
 70
    58
 90
        1
176
     1
 90
        0
176
     1
 90
        1
176
     1
 90
        0
176
     1
 40
0.6
176
     1
 40
30.0
176
     1
 62
     7
420
 16777215
176
     1
 90
        0
176
     1
 90
        4
176
     1
 62
     7
176
     1
 62
   257
176
     1
 90
        1
176
     1
 90
        1
176
     1
 40
1.0
176
     1
 90
        8
176
     1
 62
     7
176
     1
 40
1.0
176
     1
 90
        1
176
     1
 90
        6
176
     1
 90
        2
176
     1
 62
     7
176
     1
 90
        5
176
     1
 90
        0
176
     1
 90
        0
176
     1
290
     0
176
     1
 90
        1
176
     1
 40
0.0
176
     1
 90
        0
176
     1
290
     0
176
     1
290
     1
176
     1
290
     1
176
     1
290
     0
176
     1
290
     0
176
     1
290
     0
176
     1
290
     0
176
     1
290
     0
176
     1
290
     0
176
     1
 90
       50
176
     1
 40
0.0
176
     1
 40
1.0
176
     1
 90
        0
176
     1
 62
    18
420
        0
176
     1
 90
       50
176
     1
 90
        3
176
     1
 62
     5
420
      255
176
     1
290
     0
176
     1
 90
       50
176
     1
 90
       50
176
     1
 90
       50
176
     1
290
     0
176
     1
 90
       50
176
     1
 62
   256
176
     0
 40
1.0
176
     0
 90
        2
176
     1
  1
strokes_ogs.tif
176
     1
290
     0
176
     1
 40
1.0
176
     1
 40
1.0
176
     1
  0
VISUALSTYLE
  5
36
102
{ACAD_REACTORS
330
2A
102
}
330
2A
100
AcDbVisualStyle
  2
Brighten
 70
    12
177
     3
291
     1
 70
    58
 90
        2
176
     1
 90
        2
176
     1
 90
        0
176
     1
 90
        0
176
     1
 40
0.6
176
     1
 40
30.0
176
     1
 62
     7
420
 16777215
176
     1
 90
        1
176
     1
 90
        4
176
     1
 62
     7
176
     1
 62
   257
176
     1
 90
        1
176
     1
 90
        1
176
     1
 40
1.0
176
     1
 90
        8
176
     1
 62
     7
176
     1
 40
1.0
176
     1
 90
        1
176
     1
 90
        6
176
     1
 90
        2
176
     1
 62
     7
176
     1
 90
        5
176
     1
 90
        0
176
     1
 90
        0
176
     1
290
     0
176
     1
 90
        1
176
     1
 40
50.0
176
     1
 90
        0
176
     1
290
     0
176
     1
290
     1
176
     1
290
     1
176
     1
290
     0
176
     1
290
     0
176
     1
290
     0
176
     1
290
     0
176
     1
290
     0
176
     1
290
     0
176
     1
 90
       50
176
     1
 40
0.0
176
     1
 40
1.0
176
     1
 90
        0
176
     1
 62
    18
420
        0
176
     1
 90
       50
176
     1
 90
        3
176
     1
 62
     5
420
      255
176
     1
290
     0
176
     1
 90
       50
176
     1
 90
       50
176
     1
 90
       50
176
     1
290
     0
176
     1
 90
       50
176
     1
 62
   256
176
     0
 40
1.0
176
     0
 90
        2
176
     1
  1
strokes_ogs.tif
176
     1
290
     0
176
     1
 40
1.0
176
     1
 40
1.0
176
     1
  0
VISUALSTYLE
  5
3A
102
{ACAD_REACTORS
330
2A
102
}
330
2A
100
AcDbVisualStyle
  2
ColorChange
 70
    16
177
     3
291
     1
 70
    58
 90
        2
176
     1
 90
        2
176
     1
 90
        3
176
     1
 90
        0
176
     1
 40
0.6
176
     1
 40
30.0
176
     1
 62
     8
420
  8421504
176
     1
 90
        1
176
     1
 90
        4
176
     1
 62
     7
176
     1
 62
   257
176
     1
 90
        1
176
     1
 90
        1
176
     1
 40
1.0
176
     1
 90
        8
176
     1
 62
     8
420
  8421504
176
     1
 40
1.0
176
     1
 90
        1
176
     1
 90
        6
176
     1
 90
        2
176
     1
 62
     7
176
     1
 90
        5
176
     1
 90
        0
176
     1
 90
        0
176
     1
290
     0
176
     1
 90
        1
176
     1
 40
0.0
176
     1
 90
        0
176
     1
290
     0
176
     1
290
     1
176
     1
290
     1
176
     1
290
     0
176
     1
290
     0
176
     1
290
     0
176
     1
290
     0
176
     1
290
     0
176
     1
290
     0
176
     1
 90
       50
176
     1
 40
0.0
176
     1
 40
1.0
176
     1
 90
        0
176
     1
 62
    18
420
        0
176
     1
 90
       50
176
     1
 90
        3
176
     1
 62
     5
420
      255
176
     1
290
     0
176
     1
 90
       50
176
     1
 90
       50
176
     1
 90
       50
176
     1
290
     0
176
     1
 90
       50
176
     1
 62
   256
176
     0
 40
1.0
176
     0
 90
        2
176
     1
  1
strokes_ogs.tif
176
     1
290
     0
176
     1
 40
1.0
176
     1
 40
1.0
176
     1
  0
VISUALSTYLE
  5
34
102
{ACAD_REACTORS
330
2A
102
}
330
2A
100
AcDbVisualStyle
  2
Conceptual
 70
     9
177
     3
291
     0
 70
    58
 90
        3
176
     1
 90
        2
176
     1
 90
        0
176
     1
 90
        0
176
     1
 40
0.6
176
     1
 40
30.0
176
     1
 62
     7
420
 16777215
176
     1
 90
        2
176
     1
 90
        2
176
     1
 62
     7
176
     1
 62
   257
176
     1
 90
        1
176
     1
 90
        1
176
     1
 40
179.0
176
     1
 90
        8
176
     1
 62
     7
176
     1
 40
1.0
176
     1
 90
        1
176
     1
 90
        6
176
     1
 90
        2
176
     1
 62
     7
176
     1
 90
        3
176
     1
 90
        0
176
     1
 90
        0
176
     1
290
     0
176
     1
 90
        1
176
     1
 40
0.0
176
     1
 90
        0
176
     1
290
     0
176
     1
290
     1
176
     1
290
     1
176
     1
290
     0
176
     1
290
     0
176
     1
290
     0
176
     1
290
     0
176
     1
290
     0
176
     1
290
     0
176
     1
 90
       50
176
     1
 40
0.0
176
     1
 40
1.0
176
     1
 90
        0
176
     1
 62
    18
420
        0
176
     1
 90
       50
176
     1
 90
        3
176
     1
 62
     5
420
      255
176
     1
290
     0
176
     1
 90
       50
176
     1
 90
       50
176
     1
 90
       50
176
     1
290
     0
176
     1
 90
       50
176
     1
 62
   256
176
     0
 40
1.0
176
     0
 90
        2
176
     1
  1
strokes_ogs.tif
176
     1
290
     0
176
     1
 40
1.0
176
     1
 40
1.0
176
     1
  0
VISUALSTYLE
  5
35
102
{ACAD_REACTORS
330
2A
102
}
330
2A
100
AcDbVisualStyle
  2
Dim
 70
    11
177
     3
291
     1
 70
    58
 90
        2
176
     1
 90
        2
176
     1
 90
        0
176
     1
 90
        0
176
     1
 40
0.6
176
     1
 40
30.0
176
     1
 62
     7
420
 16777215
176
     1
 90
        1
176
     1
 90
        4
176
     1
 62
     7
176
     1
 62
   257
176
     1
 90
        1
176
     1
 90
        1
176
     1
 40
1.0
176
     1
 90
        8
176
     1
 62
     7
176
     1
 40
1.0
176
     1
 90
        1
176
     1
 90
        6
176
     1
 90
        2
176
     1
 62
     7
176
     1
 90
        5
176
     1
 90
        0
176
     1
 90
        0
176
     1
290
     0
176
     1
 90
        1
176
     1
 40
-50.0
176
     1
 90
        0
176
     1
290
     0
176
     1
290
     1
176
     1
290
     1
176
     1
290
     0
176
     1
290
     0
176
     1
290
     0
176
     1
290
     0
176
     1
290
     0
176
     1
290
     0
176
     1
 90
       50
176
     1
 40
0.0
176
     1
 40
1.0
176
     1
 90
        0
176
     1
 62
    18
420
        0
176
     1
 90
       50
176
     1
 90
        3
176
     1
 62
     5
420
      255
176
     1
290
     0
176
     1
 90
       50
176
     1
 90
       50
176
     1
 90
       50
176
     1
290
     0
176
     1
 90
       50
176
     1
 62
   256
176
     0
 40
1.0
176
     0
 90
        2
176
     1
  1
strokes_ogs.tif
176
     1
290
     0
176
     1
 40
1.0
176
     1
 40
1.0
176
     1
  0
VISUALSTYLE
  5
3D
102
{ACAD_REACTORS
330
2A
102
}
330
2A
100
AcDbVisualStyle
  2
EdgeColorOff
 70
    22
177
     3
291
     1
 70
    58
 90
        2
176
     0
 90
        2
176
     0
 90
        0
176
     0
 90
        0
176
     0
 40
0.6
176
     0
 40
30.0
176
     0
 62
     7
420
 16777215
176
     0
 90
        1
176
     0
 90
        4
176
     0
 62
     7
176
     0
 62
   257
176
     0
 90
        1
176
     0
 90
        1
176
     0
 40
1.0
176
     0
 90
        8
176
     2
 62
     7
176
     0
 40
1.0
176
     0
 90
        1
176
     0
 90
        6
176
     0
 90
        2
176
     0
 62
     7
176
     0
 90
        5
176
     0
 90
        0
176
     0
 90
        0
176
     0
290
     0
176
     0
 90
        1
176
     0
 40
0.0
176
     0
 90
        0
176
     0
290
     0
176
     0
290
     1
176
     0
290
     1
176
     0
290
     0
176
     0
290
     0
176
     0
290
     0
176
     0
290
     0
176
     0
290
     0
176
     0
290
     0
176
     0
 90
       50
176
     0
 40
0.0
176
     0
 40
1.0
176
     0
 90
        0
176
     0
 62
    18
420
        0
176
     0
 90
       50
176
     0
 90
        3
176
     0
 62
     5
420
      255
176
     0
290
     0
176
     0
 90
       50
176
     0
 90
       50
176
     0
 90
       50
176
     0
290
     0
176
     0
 90
       50
176
     0
 62
   256
176
     0
 40
1.0
176
     0
 90
        2
176
     0
  1
strokes_ogs.tif
176
     0
290
     0
176
     0
 40
1.0
176
     0
 40
1.0
176
     0
  0
VISUALSTYLE
  5
39
102
{ACAD_REACTORS
330
2A
102
}
330
2A
100
AcDbVisualStyle
  2
Facepattern
 70
    15
177
     3
291
     1
 70
    58
 90
        2
176
     1
 90
        2
176
     1
 90
        0
176
     1
 90
        0
176
     1
 40
0.6
176
     1
 40
30.0
176
     1
 62
     7
420
 16777215
176
     1
 90
        1
176
     1
 90
        4
176
     1
 62
     7
176
     1
 62
   257
176
     1
 90
        1
176
     1
 90
        1
176
     1
 40
1.0
176
     1
 90
        8
176
     1
 62
     7
176
     1
 40
1.0
176
     1
 90
        1
176
     1
 90
        6
176
     1
 90
        2
176
     1
 62
     7
176
     1
 90
        5
176
     1
 90
        0
176
     1
 90
        0
176
     1
290
     0
176
     1
 90
        1
176
     1
 40
0.0
176
     1
 90
        0
176
     1
290
     0
176
     1
290
     1
176
     1
290
     1
176
     1
290
     0
176
     1
290
     0
176
     1
290
     0
176
     1
290
     0
176
     1
290
     0
176
     1
290
     0
176
     1
 90
       50
176
     1
 40
0.0
176
     1
 40
1.0
176
     1
 90
        0
176
     1
 62
    18
420
        0
176
     1
 90
       50
176
     1
 90
        3
176
     1
 62
     5
420
      255
176
     1
290
     0
176
     1
 90
       50
176
     1
 90
       50
176
     1
 90
       50
176
     1
290
     0
176
     1
 90
       50
176
     1
 62
   256
176
     0
 40
1.0
176
     0
 90
        2
176
     1
  1
strokes_ogs.tif
176
     1
290
     0
176
     1
 40
1.0
176
     1
 40
1.0
176
     1
  0
VISUALSTYLE
  5
2B
102
{ACAD_REACTORS
330
2A
102
}
330
2A
100
AcDbVisualStyle
  2
Flat
 70
     0
177
     3
291
     1
 70
    58
 90
        2
176
     1
 90
        1
176
     1
 90
        1
176
     1
 90
        2
176
     1
 40
0.6
176
     1
 40
30.0
176
     1
 62
     7
420
 16777215
176
     1
 90
        0
176
     1
 90
        0
176
     1
 62
     7
176
     1
 62
   257
176
     1
 90
        1
176
     1
 90
        1
176
     1
 40
1.0
176
     1
 90
        8
176
     1
 62
     7
176
     1
 40
1.0
176
     1
 90
        1
176
     1
 90
        6
176
     1
 90
        2
176
     1
 62
     7
176
     1
 90
        5
176
     1
 90
        0
176
     1
 90
        0
176
     1
290
     0
176
     1
 90
       13
176
     1
 40
0.0
176
     1
 90
        0
176
     1
290
     0
176
     1
290
     1
176
     1
290
     1
176
     1
290
     0
176
     1
290
     0
176
     1
290
     0
176
     1
290
     0
176
     1
290
     0
176
     1
290
     0
176
     1
 90
       50
176
     1
 40
0.0
176
     1
 40
1.0
176
     1
 90
        0
176
     1
 62
    18
420
        0
176
     1
 90
       50
176
     1
 90
        3
176
     1
 62
     5
420
      255
176
     1
290
     0
176
     1
 90
       50
176
     1
 90
       50
176
     1
 90
       50
176
     1
290
     0
176
     1
 90
       50
176
     1
 62
   256
176
     0
 40
1.0
176
     0
 90
        2
176
     1
  1
strokes_ogs.tif
176
     1
290
     0
176
     1
 40
1.0
176
     1
 40
1.0
176
     1
  0
VISUALSTYLE
  5
2C
102
{ACAD_REACTORS
330
2A
102
}
330
2A
100
AcDbVisualStyle
  2
FlatWithEdges
 70
     1
177
     3
291
     1
 70
    58
 90
        2
176
     1
 90
        1
176
     1
 90
        1
176
     1
 90
        2
176
     1
 40
0.6
176
     1
 40
30.0
176
     1
 62
     7
420
 16777215
176
     1
 90
        1
176
     1
 90
        0
176
     1
 62
     7
176
     1
 62
   257
176
     1
 90
        1
176
     1
 90
        1
176
     1
 40
1.0
176
     1
 90
        0
176
     1
 62
   257
176
     1
 40
1.0
176
     1
 90
        1
176
     1
 90
        6
176
     1
 90
        2
176
     1
 62
     7
176
     1
 90
        5
176
     1
 90
        0
176
     1
 90
        0
176
     1
290
     0
176
     1
 90
       13
176
     1
 40
0.0
176
     1
 90
        0
176
     1
290
     0
176
     1
290
     1
176
     1
290
     1
176
     1
290
     0
176
     1
290
     0
176
     1
290
     0
176
     1
290
     0
176
     1
290
     0
176
     1
290
     0
176
     1
 90
       50
176
     1
 40
0.0
176
     1
 40
1.0
176
     1
 90
        0
176
     1
 62
    18
420
        0
176
     1
 90
       50
176
     1
 90
        3
176
     1
 62
     5
420
      255
176
     1
290
     0
176
     1
 90
       50
176
     1
 90
       50
176
     1
 90
       50
176
     1
290
     0
176
     1
 90
       50
176
     1
 62
   256
176
     0
 40
1.0
176
     0
 90
        2
176
     1
  1
strokes_ogs.tif
176
     1
290
     0
176
     1
 40
1.0
176
     1
 40
1.0
176
     1
  0
VISUALSTYLE
  5
2D
102
{ACAD_REACTORS
330
2A
102
}
330
2A
100
AcDbVisualStyle
  2
Gouraud
 70
     2
177
     3
291
     1
 70
    58
 90
        2
176
     1
 90
        2
176
     1
 90
        1
176
     1
 90
        2
176
     1
 40
0.6
176
     1
 40
30.0
176
     1
 62
     7
420
 16777215
176
     1
 90
        0
176
     1
 90
        0
176
     1
 62
     7
176
     1
 62
   257
176
     1
 90
        1
176
     1
 90
        1
176
     1
 40
1.0
176
     1
 90
        0
176
     1
 62
     7
176
     1
 40
1.0
176
     1
 90
        1
176
     1
 90
        6
176
     1
 90
        2
176
     1
 62
     7
176
     1
 90
        5
176
     1
 90
        0
176
     1
 90
        0
176
     1
290
     0
176
     1
 90
       13
176
     1
 40
0.0
176
     1
 90
        0
176
     1
290
     0
176
     1
290
     1
176
     1
290
     1
176
     1
290
     0
176
     1
290
     0
176
     1
290
     0
176
     1
290
     0
176
     1
290
     0
176
     1
290
     0
176
     1
 90
       50
176
     1
 40
0.0
176
     1
 40
1.0
176
     1
 90
        0
176
     1
 62
    18
420
        0
176
     1
 90
       50
176
     1
 90
        3
176
     1
 62
     5
420
      255
176
     1
290
     0
176
     1
 90
       50
176
     1
 90
       50
176
     1
 90
       50
176
     1
290
     0
176
     1
 90
       50
176
     1
 62
   256
176
     0
 40
1.0
176
     0
 90
        2
176
     1
  1
strokes_ogs.tif
176
     1
290
     0
176
     1
 40
1.0
176
     1
 40
1.0
176
     1
  0
VISUALSTYLE
  5
2E
102
{ACAD_REACTORS
330
2A
102
}
330
2A
100
AcDbVisualStyle
  2
GouraudWithEdges
 70
     3
177
     3
291
     1
 70
    58
 90
        2
176
     1
 90
        2
176
     1
 90
        1
176
     1
 90
        2
176
     1
 40
0.6
176
     1
 40
30.0
176
     1
 62
     7
420
 16777215
176
     1
 90
        1
176
     1
 90
        0
176
     1
 62
     7
176
     1
 62
   257
176
     1
 90
        1
176
     1
 90
        1
176
     1
 40
1.0
176
     1
 90
        0
176
     1
 62
   257
176
     1
 40
1.0
176
     1
 90
        1
176
     1
 90
        6
176
     1
 90
        2
176
     1
 62
     7
176
     1
 90
        5
176
     1
 90
        0
176
     1
 90
        0
176
     1
290
     0
176
     1
 90
       13
176
     1
 40
0.0
176
     1
 90
        0
176
     1
290
     0
176
     1
290
     1
176
     1
290
     1
176
     1
290
     0
176
     1
290
     0
176
     1
290
     0
176
     1
290
     0
176
     1
290
     0
176
     1
290
     0
176
     1
 90
       50
176
     1
 40
0.0
176
     1
 40
1.0
176
     1
 90
        0
176
     1
 62
    18
420
        0
176
     1
 90
       50
176
     1
 90
        3
176
     1
 62
     5
420
      255
176
     1
290
     0
176
     1
 90
       50
176
     1
 90
       50
176
     1
 90
       50
176
     1
290
     0
176
     1
 90
       50
176
     1
 62
   256
176
     0
 40
1.0
176
     0
 90
        2
176
     1
  1
strokes_ogs.tif
176
     1
290
     0
176
     1
 40
1.0
176
     1
 40
1.0
176
     1
  0
VISUALSTYLE
  5
31
102
{ACAD_REACTORS
330
2A
102
}
330
2A
100
AcDbVisualStyle
  2
Hidden
 70
     6
177
     3
291
     0
 70
    58
 90
        1
176
     1
 90
        2
176
     1
 90
        2
176
     1
 90
        0
176
     1
 40
0.6
176
     1
 40
30.0
176
     1
 62
     7
420
 16777215
176
     1
 90
        2
176
     1
 90
        2
176
     1
 62
     7
176
     1
 62
   257
176
     1
 90
        2
176
     1
 90
        1
176
     1
 40
40.0
176
     1
 90
        0
176
     1
 62
   257
176
     1
 40
1.0
176
     1
 90
        1
176
     1
 90
        6
176
     1
 90
        2
176
     1
 62
     7
176
     1
 90
        3
176
     1
 90
        0
176
     1
 90
        0
176
     1
290
     0
176
     1
 90
        1
176
     1
 40
0.0
176
     1
 90
        0
176
     1
290
     0
176
     1
290
     1
176
     1
290
     1
176
     1
290
     0
176
     1
290
     0
176
     1
290
     0
176
     1
290
     0
176
     1
290
     0
176
     1
290
     0
176
     1
 90
       50
176
     1
 40
0.0
176
     1
 40
1.0
176
     1
 90
        0
176
     1
 62
    18
420
        0
176
     1
 90
       50
176
     1
 90
        3
176
     1
 62
     5
420
      255
176
     1
290
     0
176
     1
 90
       50
176
     1
 90
       50
176
     1
 90
       50
176
     1
290
     0
176
     1
 90
       50
176
     1
 62
   256
176
     0
 40
1.0
176
     0
 90
        2
176
     1
  1
strokes_ogs.tif
176
     1
290
     0
176
     1
 40
1.0
176
     1
 40
1.0
176
     1
  0
VISUALSTYLE
  5
3B
102
{ACAD_REACTORS
330
2A
102
}
330
2A
100
AcDbVisualStyle
  2
JitterOff
 70
    20
177
     3
291
     1
 70
    58
 90
        2
176
     0
 90
        2
176
     0
 90
        0
176
     0
 90
        0
176
     0
 40
0.6
176
     0
 40
30.0
176
     0
 62
     7
420
 16777215
176
     0
 90
        1
176
     0
 90
        4
176
     0
 62
     7
176
     0
 62
   257
176
     0
 90
        1
176
     0
 90
        1
176
     0
 40
1.0
176
     0
 90
       10
176
     2
 62
     7
176
     0
 40
1.0
176
     0
 90
        1
176
     0
 90
        6
176
     0
 90
        2
176
     0
 62
     7
176
     0
 90
        5
176
     0
 90
        0
176
     0
 90
        0
176
     0
290
     0
176
     0
 90
        1
176
     0
 40
0.0
176
     0
 90
        0
176
     0
290
     0
176
     0
290
     1
176
     0
290
     1
176
     0
290
     0
176
     0
290
     0
176
     0
290
     0
176
     0
290
     0
176
     0
290
     0
176
     0
290
     0
176
     0
 90
       50
176
     0
 40
0.0
176
     0
 40
1.0
176
     0
 90
        0
176
     0
 62
    18
420
        0
176
     0
 90
       50
176
     0
 90
        3
176
     0
 62
     5
420
      255
176
     0
290
     0
176
     0
 90
       50
176
     0
 90
       50
176
     0
 90
       50
176
     0
290
     0
176
     0
 90
       50
176
     0
 62
   256
176
     0
 40
1.0
176
     0
 90
        2
176
     0
  1
strokes_ogs.tif
176
     0
290
     0
176
     0
 40
1.0
176
     0
 40
1.0
176
     0
  0
VISUALSTYLE
  5
38
102
{ACAD_REACTORS
330
2A
102
}
330
2A
100
AcDbVisualStyle
  2
Linepattern
 70
    14
177
     3
291
     1
 70
    58
 90
        2
176
     1
 90
        2
176
     1
 90
        0
176
     1
 90
        0
176
     1
 40
0.6
176
     1
 40
30.0
176
     1
 62
     7
420
 16777215
176
     1
 90
        1
176
     1
 90
        4
176
     1
 62
     7
176
     1
 62
   257
176
     1
 90
        7
176
     1
 90
        7
176
     1
 40
1.0
176
     1
 90
        8
176
     1
 62
     7
176
     1
 40
1.0
176
     1
 90
        1
176
     1
 90
        6
176
     1
 90
        2
176
     1
 62
     7
176
     1
 90
        5
176
     1
 90
        0
176
     1
 90
        0
176
     1
290
     0
176
     1
 90
        1
176
     1
 40
0.0
176
     1
 90
        0
176
     1
290
     0
176
     1
290
     1
176
     1
290
     1
176
     1
290
     0
176
     1
290
     0
176
     1
290
     0
176
     1
290
     0
176
     1
290
     0
176
     1
290
     0
176
     1
 90
       50
176
     1
 40
0.0
176
     1
 40
1.0
176
     1
 90
        0
176
     1
 62
    18
420
        0
176
     1
 90
       50
176
     1
 90
        3
176
     1
 62
     5
420
      255
176
     1
290
     0
176
     1
 90
       50
176
     1
 90
       50
176
     1
 90
       50
176
     1
290
     0
176
     1
 90
       50
176
     1
 62
   256
176
     0
 40
1.0
176
     0
 90
        2
176
     1
  1
strokes_ogs.tif
176
     1
290
     0
176
     1
 40
1.0
176
     1
 40
1.0
176
     1
  0
VISUALSTYLE
  5
3C
102
{ACAD_REACTORS
330
2A
102
}
330
2A
100
AcDbVisualStyle
  2
OverhangOff
 70
    21
177
     3
291
     1
 70
    58
 90
        2
176
     0
 90
        2
176
     0
 90
        0
176
     0
 90
        0
176
     0
 40
0.6
176
     0
 40
30.0
176
     0
 62
     7
420
 16777215
176
     0
 90
        1
176
     0
 90
        4
176
     0
 62
     7
176
     0
 62
   257
176
     0
 90
        1
176
     0
 90
        1
176
     0
 40
1.0
176
     0
 90
        9
176
     2
 62
     7
176
     0
 40
1.0
176
     0
 90
        1
176
     0
 90
        6
176
     0
 90
        2
176
     0
 62
     7
176
     0
 90
        5
176
     0
 90
        0
176
     0
 90
        0
176
     0
290
     0
176
     0
 90
        1
176
     0
 40
0.0
176
     0
 90
        0
176
     0
290
     0
176
     0
290
     1
176
     0
290
     1
176
     0
290
     0
176
     0
290
     0
176
     0
290
     0
176
     0
290
     0
176
     0
290
     0
176
     0
290
     0
176
     0
 90
       50
176
     0
 40
0.0
176
     0
 40
1.0
176
     0
 90
        0
176
     0
 62
    18
420
        0
176
     0
 90
       50
176
     0
 90
        3
176
     0
 62
     5
420
      255
176
     0
290
     0
176
     0
 90
       50
176
     0
 90
       50
176
     0
 90
       50
176
     0
290
     0
176
     0
 90
       50
176
     0
 62
   256
176
     0
 40
1.0
176
     0
 90
        2
176
     0
  1
strokes_ogs.tif
176
     0
290
     0
176
     0
 40
1.0
176
     0
 40
1.0
176
     0
  0
VISUALSTYLE
  5
33
102
{ACAD_REACTORS
330
2A
102
}
330
2A
100
AcDbVisualStyle
  2
Realistic
 70
     8
177
     3
291
     0
 70
    58
 90
        2
176
     1
 90
        3
176
     1
 90
        0
176
     1
 90
        2
176
     1
 40
0.6
176
     1
 40
30.0
176
     1
 62
     7
420
 16777215
176
     1
 90
        0
176
     1
 90
        0
176
     1
 62
     7
176
     1
 62
   257
176
     1
 90
        1
176
     1
 90
        1
176
     1
 40
1.0
176
     1
 90
        8
176
     1
 62
   257
176
     1
 40
1.0
176
     1
 90
        1
176
     1
 90
        6
176
     1
 90
        2
176
     1
 62
     7
176
     1
 90
        3
176
     1
 90
        0
176
     1
 90
        0
176
     1
290
     0
176
     1
 90
       13
176
     1
 40
0.0
176
     1
 90
        0
176
     1
290
     0
176
     1
290
     1
176
     1
290
     1
176
     1
290
     0
176
     1
290
     0
176
     1
290
     0
176
     1
290
     0
176
     1
290
     0
176
     1
290
     0
176
     1
 90
       50
176
     1
 40
0.0
176
     1
 40
1.0
176
     1
 90
        0
176
     1
 62
    18
420
        0
176
     1
 90
       50
176
     1
 90
        3
176
     1
 62
     5
420
      255
176
     1
290
     0
176
     1
 90
       50
176
     1
 90
       50
176
     1
 90
       50
176
     1
290
     0
176
     1
 90
       50
176
     1
 62
   256
176
     0
 40
1.0
176
     0
 90
        2
176
     1
  1
strokes_ogs.tif
176
     1
290
     0
176
     1
 40
1.0
176
     1
 40
1.0
176
     1
  0
VISUALSTYLE
  5
42
102
{ACAD_REACTORS
330
2A
102
}
330
2A
100
AcDbVisualStyle
  2
Shaded
 70
    27
177
     3
291
     0
 70
    58
 90
        2
176
     1
 90
        2
176
     1
 90
        1
176
     1
 90
        2
176
     1
 40
0.6
176
     1
 40
30.0
176
     1
 62
     7
420
 16777215
176
     1
 90
        0
176
     1
 90
        4
176
     1
 62
     7
176
     1
 62
   257
176
     1
 90
        1
176
     1
 90
        1
176
     1
 40
1.0
176
     1
 90
        8
176
     1
 62
   257
176
     1
 40
1.0
176
     1
 90
        1
176
     1
 90
        6
176
     1
 90
        2
176
     1
 62
     8
420
  7895160
176
     1
 90
        3
176
     1
 90
        0
176
     1
 90
        0
176
     1
290
     0
176
     1
 90
        5
176
     1
 40
0.0
176
     1
 90
        0
176
     1
290
     0
176
     1
290
     1
176
     1
290
     1
176
     1
290
     0
176
     1
290
     0
176
     1
290
     0
176
     1
290
     0
176
     1
290
     0
176
     1
290
     0
176
     1
 90
       50
176
     1
 40
0.0
176
     1
 40
1.0
176
     1
 90
        0
176
     1
 62
    18
420
        0
176
     1
 90
       50
176
     1
 90
        3
176
     1
 62
     5
420
      255
176
     1
290
     0
176
     1
 90
       50
176
     1
 90
       50
176
     1
 90
       50
176
     1
290
     0
176
     1
 90
       50
176
     1
 62
   256
176
     0
 40
1.0
176
     0
 90
        2
176
     1
  1
strokes_ogs.tif
176
     1
290
     0
176
     1
 40
1.0
176
     1
 40
1.0
176
     1
  0
VISUALSTYLE
  5
41
102
{ACAD_REACTORS
330
2A
102
}
330
2A
100
AcDbVisualStyle
  2
Shaded with edges
 70
    26
177
     3
291
     0
 70
    58
 90
        2
176
     1
 90
        2
176
     1
 90
        1
176
     1
 90
        2
176
     1
 40
0.6
176
     1
 40
30.0
176
     1
 62
     7
420
 16777215
176
     1
 90
        1
176
     1
 90
       10
176
     1
 62
     7
176
     1
 62
   257
176
     1
 90
        2
176
     1
 90
        1
176
     1
 40
1.0
176
     1
 90
        8
176
     1
 62
   257
176
     1
 40
1.0
176
     1
 90
        1
176
     1
 90
        6
176
     1
 90
        2
176
     1
 62
     7
176
     1
 90
        3
176
     1
 90
        0
176
     1
 90
        0
176
     1
290
     0
176
     1
 90
        5
176
     1
 40
0.0
176
     1
 90
        0
176
     1
290
     0
176
     1
290
     1
176
     1
290
     1
176
     1
290
     0
176
     1
290
     0
176
     1
290
     0
176
     1
290
     0
176
     1
290
     0
176
     1
290
     0
176
     1
 90
       50
176
     1
 40
0.0
176
     1
 40
1.0
176
     1
 90
        0
176
     1
 62
    18
420
        0
176
     1
 90
       50
176
     1
 90
        3
176
     1
 62
     5
420
      255
176
     1
290
     0
176
     1
 90
       50
176
     1
 90
       50
176
     1
 90
       50
176
     1
290
     0
176
     1
 90
       50
176
     1
 62
   256
176
     0
 40
1.0
176
     0
 90
        2
176
     1
  1
strokes_ogs.tif
176
     1
290
     0
176
     1
 40
1.0
176
     1
 40
1.0
176
     1
  0
VISUALSTYLE
  5
3E
102
{ACAD_REACTORS
330
2A
102
}
330
2A
100
AcDbVisualStyle
  2
Shades of Gray
 70
    23
177
     3
291
     0
 70
    58
 90
        2
176
     1
 90
        2
176
     1
 90
        3
176
     1
 90
        0
176
     1
 40
0.6
176
     1
 40
30.0
176
     1
 62
     7
420
 16777215
176
     1
 90
        2
176
     1
 90
        2
176
     1
 62
     7
176
     1
 62
     7
176
     1
 90
        1
176
     1
 90
        1
176
     1
 40
40.0
176
     1
 90
        8
176
     1
 62
     7
176
     1
 40
1.0
176
     1
 90
        1
176
     1
 90
        6
176
     1
 90
        2
176
     1
 62
     7
176
     1
 90
        3
176
     1
 90
        0
176
     1
 90
        0
176
     1
290
     0
176
     1
 90
        1
176
     1
 40
0.0
176
     1
 90
        0
176
     1
290
     0
176
     1
290
     1
176
     1
290
     1
176
     1
290
     0
176
     1
290
     0
176
     1
290
     0
176
     1
290
     0
176
     1
290
     0
176
     1
290
     0
176
     1
 90
       50
176
     1
 40
0.0
176
     1
 40
1.0
176
     1
 90
        0
176
     1
 62
    18
420
        0
176
     1
 90
       50
176
     1
 90
        3
176
     1
 62
     5
420
      255
176
     1
290
     0
176
     1
 90
       50
176
     1
 90
       50
176
     1
 90
       50
176
     1
290
     0
176
     1
 90
       50
176
     1
 62
   256
176
     0
 40
1.0
176
     0
 90
        2
176
     1
  1
strokes_ogs.tif
176
     1
290
     0
176
     1
 40
1.0
176
     1
 40
1.0
176
     1
  0
VISUALSTYLE
  5
3F
102
{ACAD_REACTORS
330
2A
102
}
330
2A
100
AcDbVisualStyle
  2
Sketchy
 70
    24
177
     3
291
     0
 70
    58
 90
        1
176
     1
 90
        2
176
     1
 90
        2
176
     1
 90
        0
176
     1
 40
0.6
176
     1
 40
30.0
176
     1
 62
     7
420
 16777215
176
     1
 90
        2
176
     1
 90
        2
176
     1
 62
     7
176
     1
 62
     7
176
     1
 90
        1
176
     1
 90
        1
176
     1
 40
40.0
176
     1
 90
       11
176
     1
 62
     7
176
     1
 40
1.0
176
     1
 90
        1
176
     1
 90
        6
176
     1
 90
        2
176
     1
 62
     7
176
     1
 90
        6
176
     1
 90
        0
176
     1
 90
        0
176
     1
290
     0
176
     1
 90
        1
176
     1
 40
0.0
176
     1
 90
        0
176
     1
290
     0
176
     1
290
     1
176
     1
290
     1
176
     1
290
     0
176
     1
290
     0
176
     1
290
     0
176
     1
290
     0
176
     1
290
     0
176
     1
290
     0
176
     1
 90
       50
176
     1
 40
0.0
176
     1
 40
1.0
176
     1
 90
        0
176
     1
 62
    18
420
        0
176
     1
 90
       50
176
     1
 90
        3
176
     1
 62
     5
420
      255
176
     1
290
     0
176
     1
 90
       50
176
     1
 90
       50
176
     1
 90
       50
176
     1
290
     0
176
     1
 90
       50
176
     1
 62
   256
176
     0
 40
1.0
176
     0
 90
        2
176
     1
  1
strokes_ogs.tif
176
     1
290
     0
176
     1
 40
1.0
176
     1
 40
1.0
176
     1
  0
VISUALSTYLE
  5
37
102
{ACAD_REACTORS
330
2A
102
}
330
2A
100
AcDbVisualStyle
  2
Thicken
 70
    13
177
     3
291
     1
 70
    58
 90
        2
176
     1
 90
        2
176
     1
 90
        0
176
     1
 90
        0
176
     1
 40
0.6
176
     1
 40
30.0
176
     1
 62
     7
420
 16777215
176
     1
 90
        1
176
     1
 90
        4
176
     1
 62
     7
176
     1
 62
   257
176
     1
 90
        1
176
     1
 90
        1
176
     1
 40
1.0
176
     1
 90
       12
176
     1
 62
     7
176
     1
 40
1.0
176
     1
 90
        1
176
     1
 90
        6
176
     1
 90
        2
176
     1
 62
     7
176
     1
 90
        5
176
     1
 90
        0
176
     1
 90
        0
176
     1
290
     0
176
     1
 90
        1
176
     1
 40
0.0
176
     1
 90
        0
176
     1
290
     0
176
     1
290
     1
176
     1
290
     1
176
     1
290
     0
176
     1
290
     0
176
     1
290
     0
176
     1
290
     0
176
     1
290
     0
176
     1
290
     0
176
     1
 90
       50
176
     1
 40
0.0
176
     1
 40
1.0
176
     1
 90
        0
176
     1
 62
    18
420
        0
176
     1
 90
       50
176
     1
 90
        3
176
     1
 62
     5
420
      255
176
     1
290
     0
176
     1
 90
       50
176
     1
 90
       50
176
     1
 90
       50
176
     1
290
     0
176
     1
 90
       50
176
     1
 62
   256
176
     0
 40
1.0
176
     0
 90
        2
176
     1
  1
strokes_ogs.tif
176
     1
290
     0
176
     1
 40
1.0
176
     1
 40
1.0
176
     1
  0
VISUALSTYLE
  5
30
102
{ACAD_REACTORS
330
2A
102
}
330
2A
100
AcDbVisualStyle
  2
Wireframe
 70
     5
177
     3
291
     0
 70
    58
 90
        0
176
     1
 90
        2
176
     1
 90
        0
176
     1
 90
        0
176
     1
 40
0.6
176
     1
 40
30.0
176
     1
 62
     7
420
 16777215
176
     1
 90
        1
176
     1
 90
        4
176
     1
 62
     7
176
     1
 62
   257
176
     1
 90
        1
176
     1
 90
        1
176
     1
 40
1.0
176
     1
 90
        0
176
     1
 62
   257
176
     1
 40
1.0
176
     1
 90
        1
176
     1
 90
        6
176
     1
 90
        2
176
     1
 62
     7
176
     1
 90
        3
176
     1
 90
        0
176
     1
 90
        0
176
     1
290
     0
176
     1
 90
        1
176
     1
 40
0.0
176
     1
 90
        0
176
     1
290
     0
176
     1
290
     1
176
     1
290
     1
176
     1
290
     0
176
     1
290
     0
176
     1
290
     0
176
     1
290
     0
176
     1
290
     0
176
     1
290
     0
176
     1
 90
       50
176
     1
 40
0.0
176
     1
 40
1.0
176
     1
 90
        0
176
     1
 62
    18
420
        0
176
     1
 90
       50
176
     1
 90
        3
176
     1
 62
     5
420
      255
176
     1
290
     0
176
     1
 90
       50
176
     1
 90
       50
176
     1
 90
       50
176
     1
290
     0
176
     1
 90
       50
176
     1
 62
   256
176
     0
 40
1.0
176
     0
 90
        2
176
     1
  1
strokes_ogs.tif
176
     1
290
     0
176
     1
 40
1.0
176
     1
 40
1.0
176
     1
  0
VISUALSTYLE
  5
40
102
{ACAD_REACTORS
330
2A
102
}
330
2A
100
AcDbVisualStyle
  2
X-Ray
 70
    25
177
     3
291
     0
 70
    58
 90
        2
176
     1
 90
        2
176
     1
 90
        1
176
     1
 90
        1
176
     1
 40
0.5
176
     1
 40
30.0
176
     1
 62
     7
420
 16777215
176
     1
 90
        1
176
     1
 90
        0
176
     1
 62
     7
176
     1
 62
   257
176
     1
 90
        1
176
     1
 90
        1
176
     1
 40
1.0
176
     1
 90
        8
176
     1
 62
     7
176
     1
 40
1.0
176
     1
 90
        1
176
     1
 90
        6
176
     1
 90
        2
176
     1
 62
     7
176
     1
 90
        3
176
     1
 90
        0
176
     1
 90
        0
176
     1
290
     0
176
     1
 90
       13
176
     1
 40
0.0
176
     1
 90
        0
176
     1
290
     0
176
     1
290
     1
176
     1
290
     1
176
     1
290
     0
176
     1
290
     0
176
     1
290
     0
176
     1
290
     0
176
     1
290
     0
176
     1
290
     0
176
     1
 90
       50
176
     1
 40
0.0
176
     1
 40
1.0
176
     1
 90
        0
176
     1
 62
    18
420
        0
176
     1
 90
       50
176
     1
 90
        3
176
     1
 62
     5
420
      255
176
     1
290
     0
176
     1
 90
       50
176
     1
 90
       50
176
     1
 90
       50
176
     1
290
     0
176
     1
 90
       50
176
     1
 62
   256
176
     0
 40
1.0
176
     0
 90
        2
176
     1
  1
strokes_ogs.tif
176
     1
290
     0
176
     1
 40
1.0
176
     1
 40
1.0
176
     1
  0
DICTIONARYVAR
  5
22F
102
{ACAD_REACTORS
330
22E
102
}
330
22E
100
DictionaryVariables
280
     0
  1
1:1
  0
DICTIONARYVAR
  5
234
102
{ACAD_REACTORS
330
22E
102
}
330
22E
100
DictionaryVariables
280
     0
  1
Standard
  0
DICTIONARYVAR
  5
233
102
{ACAD_REACTORS
330
22E
102
}
330
22E
100
DictionaryVariables
280
     0
  1
Standard
  0
DICTIONARY
  5
230
330
6A
100
AcDbDictionary
280
     1
281
     1
  3
ACAD_ROUNDTRIP_2008_TABLESTYLE_CELLSTYLEMAP
360
231
  0
CELLSTYLEMAP
  5
231
102
{ACAD_REACTORS
330
230
102
}
330
230
100
AcDbCellStyleMap
 90
        3
300
CELLSTYLE
  1
TABLEFORMAT_BEGIN
 90
        5
170
     1
 91
        0
 92
    32768
 62
   257
 93
        1
300
CONTENTFORMAT
  1
CONTENTFORMAT_BEGIN
 90
        0
 91
        0
 92
        4
 93
        0
300

 40
0.0
140
1.0
 94
        5
 62
     0
340
11
144
0.25
309
CONTENTFORMAT_END
171
     1
301
MARGIN
  1
CELLMARGIN_BEGIN
 40
0.06
 40
0.06
 40
0.06
 40
0.06
 40
0.06
 40
0.06
309
CELLMARGIN_END
 94
        6
 95
        1
302
GRIDFORMAT
  1
GRIDFORMAT_BEGIN
 90
        0
 91
        1
 62
     0
 92
       -2
340
14
 93
        0
 40
0.045
309
GRIDFORMAT_END
 95
        2
302
GRIDFORMAT
  1
GRIDFORMAT_BEGIN
 90
        0
 91
        1
 62
     0
 92
       -2
340
14
 93
        0
 40
0.045
309
GRIDFORMAT_END
 95
        4
302
GRIDFORMAT
  1
GRIDFORMAT_BEGIN
 90
        0
 91
        1
 62
     0
 92
       -2
340
14
 93
        0
 40
0.045
309
GRIDFORMAT_END
 95
        8
302
GRIDFORMAT
  1
GRIDFORMAT_BEGIN
 90
        0
 91
        1
 62
     0
 92
       -2
340
14
 93
        0
 40
0.045
309
GRIDFORMAT_END
 95
       16
302
GRIDFORMAT
  1
GRIDFORMAT_BEGIN
 90
        0
 91
        1
 62
     0
 92
       -2
340
14
 93
        0
 40
0.045
309
GRIDFORMAT_END
 95
       32
302
GRIDFORMAT
  1
GRIDFORMAT_BEGIN
 90
        0
 91
        1
 62
     0
 92
       -2
340
14
 93
        0
 40
0.045
309
GRIDFORMAT_END
309
TABLEFORMAT_END
  1
CELLSTYLE_BEGIN
 90
        1
 91
        1
300
_TITLE
309
CELLSTYLE_END
300
CELLSTYLE
  1
TABLEFORMAT_BEGIN
 90
        5
170
     1
 91
        0
 92
        0
 62
   257
 93
        1
300
CONTENTFORMAT
  1
CONTENTFORMAT_BEGIN
 90
        0
 91
        0
 92
        4
 93
        0
300

 40
0.0
140
1.0
 94
        5
 62
     0
340
11
144
0.18
309
CONTENTFORMAT_END
171
     1
301
MARGIN
  1
CELLMARGIN_BEGIN
 40
0.06
 40
0.06
 40
0.06
 40
0.06
 40
0.06
 40
0.06
309
CELLMARGIN_END
 94
        6
 95
        1
302
GRIDFORMAT
  1
GRIDFORMAT_BEGIN
 90
        0
 91
        1
 62
     0
 92
       -2
340
14
 93
        0
 40
0.045
309
GRIDFORMAT_END
 95
        2
302
GRIDFORMAT
  1
GRIDFORMAT_BEGIN
 90
        0
 91
        1
 62
     0
 92
       -2
340
14
 93
        0
 40
0.045
309
GRIDFORMAT_END
 95
        4
302
GRIDFORMAT
  1
GRIDFORMAT_BEGIN
 90
        0
 91
        1
 62
     0
 92
       -2
340
14
 93
        0
 40
0.045
309
GRIDFORMAT_END
 95
        8
302
GRIDFORMAT
  1
GRIDFORMAT_BEGIN
 90
        0
 91
        1
 62
     0
 92
       -2
340
14
 93
        0
 40
0.045
309
GRIDFORMAT_END
 95
       16
302
GRIDFORMAT
  1
GRIDFORMAT_BEGIN
 90
        0
 91
        1
 62
     0
 92
       -2
340
14
 93
        0
 40
0.045
309
GRIDFORMAT_END
 95
       32
302
GRIDFORMAT
  1
GRIDFORMAT_BEGIN
 90
        0
 91
        1
 62
     0
 92
       -2
340
14
 93
        0
 40
0.045
309
GRIDFORMAT_END
309
TABLEFORMAT_END
  1
CELLSTYLE_BEGIN
 90
        2
 91
        1
300
_HEADER
309
CELLSTYLE_END
300
CELLSTYLE
  1
TABLEFORMAT_BEGIN
 90
        5
170
     1
 91
        0
 92
        0
 62
   257
 93
        1
300
CONTENTFORMAT
  1
CONTENTFORMAT_BEGIN
 90
        0
 91
        0
 92
        4
 93
        0
300

 40
0.0
140
1.0
 94
        2
 62
     0
340
11
144
0.18
309
CONTENTFORMAT_END
171
     1
301
MARGIN
  1
CELLMARGIN_BEGIN
 40
0.06
 40
0.06
 40
0.06
 40
0.06
 40
0.06
 40
0.06
309
CELLMARGIN_END
 94
        6
 95
        1
302
GRIDFORMAT
  1
GRIDFORMAT_BEGIN
 90
        0
 91
        1
 62
     0
 92
       -2
340
14
 93
        0
 40
0.045
309
GRIDFORMAT_END
 95
        2
302
GRIDFORMAT
  1
GRIDFORMAT_BEGIN
 90
        0
 91
        1
 62
     0
 92
       -2
340
14
 93
        0
 40
0.045
309
GRIDFORMAT_END
 95
        4
302
GRIDFORMAT
  1
GRIDFORMAT_BEGIN
 90
        0
 91
        1
 62
     0
 92
       -2
340
14
 93
        0
 40
0.045
309
GRIDFORMAT_END
 95
        8
302
GRIDFORMAT
  1
GRIDFORMAT_BEGIN
 90
        0
 91
        1
 62
     0
 92
       -2
340
14
 93
        0
 40
0.045
309
GRIDFORMAT_END
 95
       16
302
GRIDFORMAT
  1
GRIDFORMAT_BEGIN
 90
        0
 91
        1
 62
     0
 92
       -2
340
14
 93
        0
 40
0.045
309
GRIDFORMAT_END
 95
       32
302
GRIDFORMAT
  1
GRIDFORMAT_BEGIN
 90
        0
 91
        1
 62
     0
 92
       -2
340
14
 93
        0
 40
0.045
309
GRIDFORMAT_END
309
TABLEFORMAT_END
  1
CELLSTYLE_BEGIN
 90
        3
 91
        2
300
_DATA
309
CELLSTYLE_END
  0
ENDSEC
  0
EOF