0
SECTION
  2
HEADER
  9
$ACADVER
  1
AC1027
  9
$ACADMAINTVER
 70
     8
  9
$DWGCODEPAGE
  3
ANSI_1252
  9
$REQUIREDVERSIONS
160
                 0
  9
$COMMENTS
  1
File was created by Cadenas
  9
$CUSTOMPROPERTYTAG
  1
NN
  9
$CUSTOMPROPERTY
  1
Imperial - IP Pillow Block 4-Bolt Trident Seal
  9
$CUSTOMPROPERTYTAG
  1
NT
  9
$CUSTOMPROPERTY
  1
Imperial 4 Bolt Square Flange Bearings
  9
$CUSTOMPROPERTYTAG
  1
NB
  9
$CUSTOMPROPERTY
  1
069695
  9
$CUSTOMPROPERTYTAG
  1
NBSYN
  9
$CUSTOMPROPERTY
  1
$PN.
  9
$CUSTOMPROPERTYTAG
  1
LINA
  9
$CUSTOMPROPERTY
  1
069695
  9
$CUSTOMPROPERTYTAG
  1
SS
  9
$CUSTOMPROPERTY
  1
1-1/4
  9
$CUSTOMPROPERTYTAG
  1
PN
  9
$CUSTOMPROPERTY
  1
069695
  9
$CUSTOMPROPERTYTAG
  1
DESCRIPTION
  9
$CUSTOMPROPERTY
  1
F4S-IP-104R
  9
$CUSTOMPROPERTYTAG
  1
EF
  9
$CUSTOMPROPERTY
  1
Non-Expansion Type
  9
$CUSTOMPROPERTYTAG
  1
ST
  9
$CUSTOMPROPERTY
  1
Contact Seal
  9
$CUSTOMPROPERTYTAG
  1
A
  9
$CUSTOMPROPERTY
  1
2-5/8
  9
$CUSTOMPROPERTYTAG
  1
B
  9
$CUSTOMPROPERTY
  1
4-3/4
  9
$CUSTOMPROPERTYTAG
  1
C
  9
$CUSTOMPROPERTY
  1
2-55/64
  9
$CUSTOMPROPERTYTAG
  1
D
  9
$CUSTOMPROPERTY
  1
3-17/32
  9
$CUSTOMPROPERTYTAG
  1
F
  9
$CUSTOMPROPERTY
  1
1/2
  9
$CUSTOMPROPERTYTAG
  1
G
  9
$CUSTOMPROPERTY
  1
1-5/64
  9
$CUSTOMPROPERTYTAG
  1
H
  9
$CUSTOMPROPERTY
  1
1/2
  9
$CUSTOMPROPERTYTAG
  1
J
  9
$CUSTOMPROPERTY
  1
3-13/16
  9
$CUSTOMPROPERTYTAG
  1
K
  9
$CUSTOMPROPERTY
  1
5
  9
$CUSTOMPROPERTYTAG
  1
L
  9
$CUSTOMPROPERTY
  1
2-23/32
  9
$CUSTOMPROPERTYTAG
  1
N
  9
$CUSTOMPROPERTY
  1
2-31/64
  9
$CUSTOMPROPERTYTAG
  1
P
  9
$CUSTOMPROPERTY
  1
15/64
  9
$CUSTOMPROPERTYTAG
  1
X
  9
$CUSTOMPROPERTY
  1
3/16
  9
$CUSTOMPROPERTYTAG
  1
Y
  9
$CUSTOMPROPERTY
  1
0.020
  9
$CUSTOMPROPERTYTAG
  1
Z
  9
$CUSTOMPROPERTY
  1
1-51/64
  9
$CUSTOMPROPERTYTAG
  1
COMPANY
  9
$CUSTOMPROPERTY
  1
baldor
  9
$INSBASE
 10
0.0
 20
0.0
 30
0.0
  9
$EXTMIN
 10
1.000000000000000E+20
 20
1.000000000000000E+20
 30
1.000000000000000E+20
  9
$EXTMAX
 10
-1.000000000000000E+20
 20
-1.000000000000000E+20
 30
-1.000000000000000E+20
  9
$LIMMIN
 10
0.0
 20
0.0
  9
$LIMMAX
 10
12.0
 20
9.0
  9
$ORTHOMODE
 70
     0
  9
$REGENMODE
 70
     1
  9
$FILLMODE
 70
     1
  9
$QTEXTMODE
 70
     0
  9
$MIRRTEXT
 70
     1
  9
$LTSCALE
 40
1.0
  9
$ATTMODE
 70
     1
  9
$TEXTSIZE
 40
0.2
  9
$TRACEWID
 40
0.05
  9
$TEXTSTYLE
  7
Standard
  9
$CLAYER
  8
0
  9
$CELTYPE
  6
ByLayer
  9
$CECOLOR
 62
   256
  9
$CELTSCALE
 40
1.0
  9
$DISPSILH
 70
     0
  9
$DIMSCALE
 40
1.0
  9
$DIMASZ
 40
0.18
  9
$DIMEXO
 40
0.0625
  9
$DIMDLI
 40
0.38
  9
$DIMRND
 40
0.0
  9
$DIMDLE
 40
0.0
  9
$DIMEXE
 40
0.18
  9
$DIMTP
 40
0.0
  9
$DIMTM
 40
0.0
  9
$DIMTXT
 40
0.18
  9
$DIMCEN
 40
0.09
  9
$DIMTSZ
 40
0.0
  9
$DIMTOL
 70
     0
  9
$DIMLIM
 70
     0
  9
$DIMTIH
 70
     1
  9
$DIMTOH
 70
     1
  9
$DIMSE1
 70
     0
  9
$DIMSE2
 70
     0
  9
$DIMTAD
 70
     0
  9
$DIMZIN
 70
     0
  9
$DIMBLK
  1

  9
$DIMASO
 70
     1
  9
$DIMSHO
 70
     1
  9
$DIMPOST
  1

  9
$DIMAPOST
  1

  9
$DIMALT
 70
     0
  9
$DIMALTD
 70
     2
  9
$DIMALTF
 40
25.4
  9
$DIMLFAC
 40
1.0
  9
$DIMTOFL
 70
     0
  9
$DIMTVP
 40
0.0
  9
$DIMTIX
 70
     0
  9
$DIMSOXD
 70
     0
  9
$DIMSAH
 70
     0
  9
$DIMBLK1
  1

  9
$DIMBLK2
  1

  9
$DIMSTYLE
  2
Standard
  9
$DIMCLRD
 70
     0
  9
$DIMCLRE
 70
     0
  9
$DIMCLRT
 70
     0
  9
$DIMTFAC
 40
1.0
  9
$DIMGAP
 40
0.09
  9
$DIMJUST
 70
     0
  9
$DIMSD1
 70
     0
  9
$DIMSD2
 70
     0
  9
$DIMTOLJ
 70
     1
  9
$DIMTZIN
 70
     0
  9
$DIMALTZ
 70
     0
  9
$DIMALTTZ
 70
     0
  9
$DIMUPT
 70
     0
  9
$DIMDEC
 70
     4
  9
$DIMTDEC
 70
     4
  9
$DIMALTU
 70
     2
  9
$DIMALTTD
 70
     2
  9
$DIMTXSTY
  7
Standard
  9
$DIMAUNIT
 70
     0
  9
$DIMADEC
 70
     0
  9
$DIMALTRND
 40
0.0
  9
$DIMAZIN
 70
     0
  9
$DIMDSEP
 70
    46
  9
$DIMATFIT
 70
     3
  9
$DIMFRAC
 70
     0
  9
$DIMLDRBLK
  1

  9
$DIMLUNIT
 70
     2
  9
$DIMLWD
 70
    -2
  9
$DIMLWE
 70
    -2
  9
$DIMTMOVE
 70
     0
  9
$DIMFXL
 40
1.0
  9
$DIMFXLON
 70
     0
  9
$DIMJOGANG
 40
0.7853981633974483
  9
$DIMTFILL
 70
     0
  9
$DIMTFILLCLR
 70
     0
  9
$DIMARCSYM
 70
     0
  9
$DIMLTYPE
  6

  9
$DIMLTEX1
  6

  9
$DIMLTEX2
  6

  9
$DIMTXTDIRECTION
 70
     0
  9
$LUNITS
 70
     2
  9
$LUPREC
 70
     4
  9
$SKETCHINC
 40
0.1
  9
$FILLETRAD
 40
0.5
  9
$AUNITS
 70
     0
  9
$AUPREC
 70
     0
  9
$MENU
  1
.
  9
$ELEVATION
 40
0.0
  9
$PELEVATION
 40
0.0
  9
$THICKNESS
 40
0.0
  9
$LIMCHECK
 70
     0
  9
$CHAMFERA
 40
0.0
  9
$CHAMFERB
 40
0.0
  9
$CHAMFERC
 40
0.0
  9
$CHAMFERD
 40
0.0
  9
$SKPOLY
 70
     0
  9
$TDCREATE
 40
2458168.990661181
  9
$TDUCREATE
 40
2458168.948994514
  9
$TDUPDATE
 40
2458168.990661551
  9
$TDUUPDATE
 40
2458168.948994884
  9
$TDINDWG
 40
0.0000000116
  9
$TDUSRTIMER
 40
0.0000000116
  9
$USRTIMER
 70
     1
  9
$ANGBASE
 50
0.0
  9
$ANGDIR
 70
     0
  9
$PDMODE
 70
     0
  9
$PDSIZE
 40
0.0
  9
$PLINEWID
 40
0.0
  9
$SPLFRAME
 70
     0
  9
$SPLINETYPE
 70
     6
  9
$SPLINESEGS
 70
     8
  9
$HANDSEED
  5
237
  9
$SURFTAB1
 70
     6
  9
$SURFTAB2
 70
     6
  9
$SURFTYPE
 70
     6
  9
$SURFU
 70
     6
  9
$SURFV
 70
     6
  9
$UCSBASE
  2

  9
$UCSNAME
  2

  9
$UCSORG
 10
0.0
 20
0.0
 30
0.0
  9
$UCSXDIR
 10
1.0
 20
0.0
 30
0.0
  9
$UCSYDIR
 10
0.0
 20
1.0
 30
0.0
  9
$UCSORTHOREF
  2

  9
$UCSORTHOVIEW
 70
     0
  9
$UCSORGTOP
 10
0.0
 20
0.0
 30
0.0
  9
$UCSORGBOTTOM
 10
0.0
 20
0.0
 30
0.0
  9
$UCSORGLEFT
 10
0.0
 20
0.0
 30
0.0
  9
$UCSORGRIGHT
 10
0.0
 20
0.0
 30
0.0
  9
$UCSORGFRONT
 10
0.0
 20
0.0
 30
0.0
  9
$UCSORGBACK
 10
0.0
 20
0.0
 30
0.0
  9
$PUCSBASE
  2

  9
$PUCSNAME
  2

  9
$PUCSORG
 10
0.0
 20
0.0
 30
0.0
  9
$PUCSXDIR
 10
1.0
 20
0.0
 30
0.0
  9
$PUCSYDIR
 10
0.0
 20
1.0
 30
0.0
  9
$PUCSORTHOREF
  2

  9
$PUCSORTHOVIEW
 70
     0
  9
$PUCSORGTOP
 10
0.0
 20
0.0
 30
0.0
  9
$PUCSORGBOTTOM
 10
0.0
 20
0.0
 30
0.0
  9
$PUCSORGLEFT
 10
0.0
 20
0.0
 30
0.0
  9
$PUCSORGRIGHT
 10
0.0
 20
0.0
 30
0.0
  9
$PUCSORGFRONT
 10
0.0
 20
0.0
 30
0.0
  9
$PUCSORGBACK
 10
0.0
 20
0.0
 30
0.0
  9
$USERI1
 70
     0
  9
$USERI2
 70
     0
  9
$USERI3
 70
     0
  9
$USERI4
 70
     0
  9
$USERI5
 70
     0
  9
$USERR1
 40
0.0
  9
$USERR2
 40
0.0
  9
$USERR3
 40
0.0
  9
$USERR4
 40
0.0
  9
$USERR5
 40
0.0
  9
$WORLDVIEW
 70
     1
  9
$SHADEDGE
 70
     3
  9
$SHADEDIF
 70
    70
  9
$TILEMODE
 70
     1
  9
$MAXACTVP
 70
    64
  9
$PINSBASE
 10
0.0
 20
0.0
 30
0.0
  9
$PLIMCHECK
 70
     0
  9
$PEXTMIN
 10
1.000000000000000E+20
 20
1.000000000000000E+20
 30
1.000000000000000E+20
  9
$PEXTMAX
 10
-1.000000000000000E+20
 20
-1.000000000000000E+20
 30
-1.000000000000000E+20
  9
$PLIMMIN
 10
0.0
 20
0.0
  9
$PLIMMAX
 10
12.0
 20
9.0
  9
$UNITMODE
 70
     0
  9
$VISRETAIN
 70
     1
  9
$PLINEGEN
 70
     0
  9
$PSLTSCALE
 70
     1
  9
$TREEDEPTH
 70
  3020
  9
$CMLSTYLE
  2
Standard
  9
$CMLJUST
 70
     0
  9
$CMLSCALE
 40
1.0
  9
$PROXYGRAPHICS
 70
     1
  9
$MEASUREMENT
 70
     0
  9
$CELWEIGHT
370
    -1
  9
$ENDCAPS
280
     0
  9
$JOINSTYLE
280
     0
  9
$LWDISPLAY
290
     0
  9
$INSUNITS
 70
     1
  9
$HYPERLINKBASE
  1

  9
$STYLESHEET
  1

  9
$XEDIT
290
     1
  9
$CEPSNTYPE
380
     0
  9
$PSTYLEMODE
290
     1
  9
$FINGERPRINTGUID
  2
{41E62B2A-DD66-4373-8632-982F52B1DBE2}
  9
$VERSIONGUID
  2
{FAEB1C32-E019-11D5-929B-00C0DF256EC4}
  9
$EXTNAMES
290
     1
  9
$PSVPSCALE
 40
0.0
  9
$OLESTARTUP
290
     0
  9
$SORTENTS
280
   127
  9
$INDEXCTL
280
     0
  9
$HIDETEXT
280
     1
  9
$XCLIPFRAME
280
     2
  9
$HALOGAP
280
     0
  9
$OBSCOLOR
 70
   257
  9
$OBSLTYPE
280
     0
  9
$INTERSECTIONDISPLAY
280
     0
  9
$INTERSECTIONCOLOR
 70
   257
  9
$DIMASSOC
280
     2
  9
$PROJECTNAME
  1

  9
$CAMERADISPLAY
290
     0
  9
$LENSLENGTH
 40
50.0
  9
$CAMERAHEIGHT
 40
0.0
  9
$STEPSPERSEC
 40
2.0
  9
$STEPSIZE
 40
6.0
  9
$3DDWFPREC
 40
2.0
  9
$PSOLWIDTH
 40
0.25
  9
$PSOLHEIGHT
 40
4.0
  9
$LOFTANG1
 40
1.570796326794897
  9
$LOFTANG2
 40
1.570796326794897
  9
$LOFTMAG1
 40
0.0
  9
$LOFTMAG2
 40
0.0
  9
$LOFTPARAM
 70
     7
  9
$LOFTNORMALS
280
     1
  9
$LATITUDE
 40
37.795
  9
$LONGITUDE
 40
-122.394
  9
$NORTHDIRECTION
 40
0.0
  9
$TIMEZONE
 70
 -8000
  9
$LIGHTGLYPHDISPLAY
280
     1
  9
$TILEMODELIGHTSYNCH
280
     1
  9
$CMATERIAL
347
44
  9
$SOLIDHIST
280
     0
  9
$SHOWHIST
280
     1
  9
$DWFFRAME
280
     2
  9
$DGNFRAME
280
     2
  9
$REALWORLDSCALE
290
     1
  9
$INTERFERECOLOR
 62
   256
  9
$CSHADOW
280
     0
  9
$SHADOWPLANELOCATION
 40
0.0
  0
ENDSEC
  0
SECTION
  2
CLASSES
  0
CLASS
  1
ACDBDICTIONARYWDFLT
  2
AcDbDictionaryWithDefault
  3
ObjectDBX Classes
 90
        0
 91
        4
280
     0
281
     0
  0
CLASS
  1
VISUALSTYLE
  2
AcDbVisualStyle
  3
ObjectDBX Classes
 90
     4095
 91
        4
280
     0
281
     0
  0
CLASS
  1
MATERIAL
  2
AcDbMaterial
  3
ObjectDBX Classes
 90
     1153
 91
        4
280
     0
281
     0
  0
CLASS
  1
SCALE
  2
AcDbScale
  3
ObjectDBX Classes
 90
     1153
 91
        4
280
     0
281
     0
  0
CLASS
  1
TABLESTYLE
  2
AcDbTableStyle
  3
ObjectDBX Classes
 90
     4095
 91
        4
280
     0
281
     0
  0
CLASS
  1
MLEADERSTYLE
  2
AcDbMLeaderStyle
  3
ACDB_MLEADERSTYLE_CLASS
 90
     4095
 91
        4
280
     0
281
     0
  0
CLASS
  1
SUN
  2
AcDbSun
  3
SCENEOE
 90
     1153
 91
        4
280
     0
281
     0
  0
CLASS
  1
DICTIONARYVAR
  2
AcDbDictionaryVar
  3
ObjectDBX Classes
 90
        0
 91
        4
280
     0
281
     0
  0
CLASS
  1
CELLSTYLEMAP
  2
AcDbCellStyleMap
  3
ObjectDBX Classes
 90
     1152
 91
        4
280
     0
281
     0
  0
ENDSEC
  0
SECTION
  2
TABLES
  0
TABLE
  2
VPORT
  5
8
330
0
100
AcDbSymbolTable
 70
     1
  0
VPORT
  5
29
330
8
100
AcDbSymbolTableRecord
100
AcDbViewportTableRecord
  2
*Active
 70
     0
 10
0.0
 20
0.0
 11
1.0
 21
1.0
 12
-1.444132812488517
 22
0.0191249999999998
 13
0.0
 23
0.0
 14
0.5
 24
0.5
 15
0.5
 25
0.5
 16
0.0
 26
0.0
 36
1.0
 17
0.0
 27
0.0
 37
0.0
 40
4.884015
 41
0.6463706730064145
 42
50.0
 43
0.0
 44
0.0
 50
0.0
 51
0.0
 71
     0
 72
   100
 73
     1
 74
     3
 75
     0
 76
     0
 77
     0
 78
     0
281
     0
 65
     1
110
0.0
120
0.0
130
0.0
111
1.0
121
0.0
131
0.0
112
0.0
122
1.0
132
0.0
 79
     0
146
0.0
348
2F
 60
     3
 61
     5
292
     1
282
     1
141
0.0
142
0.0
 63
   250
361
6D
  0
ENDTAB
  0
TABLE
  2
LTYPE
  5
5
330
0
100
AcDbSymbolTable
 70
     3
  0
LTYPE
  5
14
330
5
100
AcDbSymbolTableRecord
100
AcDbLinetypeTableRecord
  2
ByBlock
 70
     0
  3

 72
    65
 73
     0
 40
0.0
  0
LTYPE
  5
15
330
5
100
AcDbSymbolTableRecord
100
AcDbLinetypeTableRecord
  2
ByLayer
 70
     0
  3

 72
    65
 73
     0
 40
0.0
  0
LTYPE
  5
16
330
5
100
AcDbSymbolTableRecord
100
AcDbLinetypeTableRecord
  2
Continuous
 70
     0
  3
Solid line
 72
    65
 73
     0
 40
0.0
  0
LTYPE
  5
9D
330
5
100
AcDbSymbolTableRecord
100
AcDbLinetypeTableRecord
  2
Dashed
 70
     0
  3

 72
    65
 73
     2
 40
2.0
 49
1.0
 74
     0
 49
-1.0
 74
     0
  0
LTYPE
  5
17E
330
5
100
AcDbSymbolTableRecord
100
AcDbLinetypeTableRecord
  2
Center
 70
     0
  3

 72
    65
 73
     4
 40
1.5
 49
0.45
 74
     0
 49
-0.5
 74
     0
 49
0.05
 74
     0
 49
-0.5
 74
     0
  0
ENDTAB
  0
TABLE
  2
LAYER
  5
2
330
0
100
AcDbSymbolTable
 70
     7
  0
LAYER
  5
10
330
2
100
AcDbSymbolTableRecord
100
AcDbLayerTableRecord
  2
0
 70
     0
 62
     7
  6
Continuous
370
    -3
390
F
347
46
348
0
  0
LAYER
  5
72
330
2
100
AcDbSymbolTableRecord
100
AcDbLayerTableRecord
  2
AM_6
 70
     0
 62
    -2
  6
Continuous
370
    35
390
F
347
46
348
0
  0
LAYER
  5
9E
330
2
100
AcDbSymbolTableRecord
100
AcDbLayerTableRecord
  2
AM_9
 70
     0
 62
     6
  6
Dashed
370
    25
390
F
347
46
348
0
  0
LAYER
  5
AA
330
2
100
AcDbSymbolTableRecord
100
AcDbLayerTableRecord
  2
AM_5
 70
     0
 62
     3
  6
Continuous
370
    25
390
F
347
46
348
0
  0
LAYER
  5
AE
330
2
100
AcDbSymbolTableRecord
100
AcDbLayerTableRecord
  2
AM_4
 70
     0
 62
     7
  6
Continuous
370
    50
390
F
347
46
348
0
  0
LAYER
  5
17F
330
2
100
AcDbSymbolTableRecord
100
AcDbLayerTableRecord
  2
AM_7
 70
     0
 62
     7
  6
Center
370
    25
390
F
347
46
348
0
  0
LAYER
  5
220
330
2
100
AcDbSymbolTableRecord
100
AcDbLayerTableRecord
  2
ConnectionPoints
 70
     0
 62
     7
  6
Continuous
370
    50
390
F
347
46
348
0
  0
ENDTAB
  0
TABLE
  2
STYLE
  5
3
330
0
100
AcDbSymbolTable
 70
     1
  0
STYLE
  5
11
330
3
100
AcDbSymbolTableRecord
100
AcDbTextStyleTableRecord
  2
Standard
 70
     0
 40
0.0
 41
1.0
 50
0.0
 71
     0
 42
0.2
  3
txt
  4

  0
ENDTAB
  0
TABLE
  2
VIEW
  5
6
330
0
100
AcDbSymbolTable
 70
     0
  0
ENDTAB
  0
TABLE
  2
UCS
  5
7
330
0
100
AcDbSymbolTable
 70
     0
  0
ENDTAB
  0
TABLE
  2
APPID
  5
9
330
0
100
AcDbSymbolTable
 70
     1
  0
APPID
  5
12
330
9
100
AcDbSymbolTableRecord
100
AcDbRegAppTableRecord
  2
ACAD
 70
     0
  0
ENDTAB
  0
TABLE
  2
DIMSTYLE
  5
A
330
0
100
AcDbSymbolTable
 70
     1
100
AcDbDimStyleTable
  0
DIMSTYLE
105
27
330
A
100
AcDbSymbolTableRecord
100
AcDbDimStyleTableRecord
  2
Standard
 70
     0
178
     0
340
11
  0
ENDTAB
  0
TABLE
  2
BLOCK_RECORD
  5
1
330
0
100
AcDbSymbolTable
 70
     8
  0
BLOCK_RECORD
  5
1F
330
1
100
AcDbSymbolTableRecord
100
AcDbBlockTableRecord
  2
*Model_Space
340
22
 70
     0
280
     1
281
     0
  0
BLOCK_RECORD
  5
1B
330
1
100
AcDbSymbolTableRecord
100
AcDbBlockTableRecord
  2
*Paper_Space
340
1E
 70
     0
280
     1
281
     0
  0
BLOCK_RECORD
  5
23
330
1
100
AcDbSymbolTableRecord
100
AcDbBlockTableRecord
  2
*Paper_Space0
340
26
 70
     0
280
     1
281
     0
  0
BLOCK_RECORD
  5
6E
330
1
100
AcDbSymbolTableRecord
100
AcDbBlockTableRecord
  2
1_069695_2
340
0
102
{BLKREFS
331
6F
102
}
 70
     0
280
     1
281
     0
  0
BLOCK_RECORD
  5
8D
330
1
100
AcDbSymbolTableRecord
100
AcDbBlockTableRecord
  2
2_ASME_B18_3_10_1_0_in_069695_2
340
0
102
{BLKREFS
331
8E
102
}
 70
     0
280
     1
281
     0
  0
BLOCK_RECORD
  5
B5
330
1
100
AcDbSymbolTableRecord
100
AcDbBlockTableRecord
  2
3_ASME_B18_3_10_2_0_in_069695_2
340
0
102
{BLKREFS
331
B6
102
}
 70
     0
280
     1
281
     0
  0
BLOCK_RECORD
  5
D9
330
1
100
AcDbSymbolTableRecord
100
AcDbBlockTableRecord
  2
4_070882LW_0_in_069695_2
340
0
102
{BLKREFS
331
DA
102
}
 70
     0
280
     1
281
     0
  0
BLOCK_RECORD
  5
10F
330
1
100
AcDbSymbolTableRecord
100
AcDbBlockTableRecord
  2
5_070882I_0_in_069695_2
340
0
102
{BLKREFS
331
110
102
}
 70
     0
280
     1
281
     0
  0
BLOCK_RECORD
  5
198
330
1
100
AcDbSymbolTableRecord
100
AcDbBlockTableRecord
  2
6_405015E_Inch_0_in_069695_2
340
0
102
{BLKREFS
331
199
102
}
 70
     0
280
     1
281
     0
  0
BLOCK_RECORD
  5
1D7
330
1
100
AcDbSymbolTableRecord
100
AcDbBlockTableRecord
  2
7_069695H_0_in_069695_2
340
0
102
{BLKREFS
331
1D8
102
}
 70
     0
280
     1
281
     0
  0
ENDTAB
  0
ENDSEC
  0
SECTION
  2
BLOCKS
  0
BLOCK
  5
20
330
1F
100
AcDbEntity
  8
0
100
AcDbBlockBegin
  2
*Model_Space
 70
     0
 10
0.0
 20
0.0
 30
0.0
  3
*Model_Space
  1

  0
ENDBLK
  5
21
330
1F
100
AcDbEntity
  8
0
100
AcDbBlockEnd
  0
BLOCK
  5
1C
330
1B
100
AcDbEntity
 67
     1
  8
0
100
AcDbBlockBegin
  2
*Paper_Space
 70
     0
 10
0.0
 20
0.0
 30
0.0
  3
*Paper_Space
  1

  0
ENDBLK
  5
1D
330
1B
100
AcDbEntity
 67
     1
  8
0
100
AcDbBlockEnd
  0
BLOCK
  5
24
330
23
100
AcDbEntity
  8
0
100
AcDbBlockBegin
  2
*Paper_Space0
 70
     0
 10
0.0
 20
0.0
 30
0.0
  3
*Paper_Space0
  1

  0
ENDBLK
  5
25
330
23
100
AcDbEntity
  8
0
100
AcDbBlockEnd
  0
BLOCK
  5
70
330
6E
100
AcDbEntity
  8
0
100
AcDbBlockBegin
  2
1_069695_2
 70
     2
 10
0.0
 20
0.0
 30
0.0
  3
1_069695_2
  1

  0
ATTDEF
  5
73
330
6E
100
AcDbEntity
  8
AM_6
100
AcDbText
 10
5.103359375022965
 20
2.41325
 30
0.0
 40
0.5
  1
Imperial - IP Pillow Block 4-Bolt Trident Seal
100
AcDbAttributeDefinition
  3

  2
NN
 70
     8
280
     0
  0
ATTDEF
  5
74
330
6E
100
AcDbEntity
  8
AM_6
100
AcDbText
 10
5.103359375022965
 20
1.91325
 30
0.0
 40
0.5
  1
Imperial 4 Bolt Square Flange Bearings
100
AcDbAttributeDefinition
  3

  2
NT
 70
     8
280
     0
  0
ATTDEF
  5
75
330
6E
100
AcDbEntity
  8
AM_6
100
AcDbText
 10
5.103359375022965
 20
1.41325
 30
0.0
 40
0.5
  1
069695
100
AcDbAttributeDefinition
  3

  2
NB
 70
     8
280
     0
  0
ATTDEF
  5
76
330
6E
100
AcDbEntity
  8
AM_6
100
AcDbText
 10
5.103359375022965
 20
0.9132500000000001
 30
0.0
 40
0.5
  1
$PN.
100
AcDbAttributeDefinition
  3

  2
NBSYN
 70
     8
280
     0
  0
ATTDEF
  5
77
330
6E
100
AcDbEntity
  8
AM_6
100
AcDbText
 10
5.103359375022965
 20
0.4132500000000001
 30
0.0
 40
0.5
  1
069695
100
AcDbAttributeDefinition
  3

  2
LINA
 70
     8
280
     0
  0
ATTDEF
  5
78
330
6E
100
AcDbEntity
  8
AM_6
100
AcDbText
 10
5.103359375022965
 20
-0.0867499999999999
 30
0.0
 40
0.5
  1
1-1/4
100
AcDbAttributeDefinition
  3

  2
SS
 70
     8
280
     0
  0
ATTDEF
  5
79
330
6E
100
AcDbEntity
  8
AM_6
100
AcDbText
 10
5.103359375022965
 20
-0.5867499999999999
 30
0.0
 40
0.5
  1
069695
100
AcDbAttributeDefinition
  3

  2
PN
 70
     8
280
     0
  0
ATTDEF
  5
7A
330
6E
100
AcDbEntity
  8
AM_6
100
AcDbText
 10
5.103359375022965
 20
-1.08675
 30
0.0
 40
0.5
  1
F4S-IP-104R
100
AcDbAttributeDefinition
  3

  2
DESCRIPTION
 70
     8
280
     0
  0
ATTDEF
  5
7B
330
6E
100
AcDbEntity
  8
AM_6
100
AcDbText
 10
5.103359375022965
 20
-1.58675
 30
0.0
 40
0.5
  1
Non-Expansion Type
100
AcDbAttributeDefinition
  3

  2
EF
 70
     8
280
     0
  0
ATTDEF
  5
7C
330
6E
100
AcDbEntity
  8
AM_6
100
AcDbText
 10
5.103359375022965
 20
-2.08675
 30
0.0
 40
0.5
  1
Contact Seal
100
AcDbAttributeDefinition
  3

  2
ST
 70
     8
280
     0
  0
ATTDEF
  5
7D
330
6E
100
AcDbEntity
  8
AM_6
100
AcDbText
 10
5.103359375022965
 20
-2.58675
 30
0.0
 40
0.5
  1
2-5/8
100
AcDbAttributeDefinition
  3

  2
A
 70
     8
280
     0
  0
ATTDEF
  5
7E
330
6E
100
AcDbEntity
  8
AM_6
100
AcDbText
 10
5.103359375022965
 20
-3.08675
 30
0.0
 40
0.5
  1
4-3/4
100
AcDbAttributeDefinition
  3

  2
B
 70
     8
280
     0
  0
ATTDEF
  5
7F
330
6E
100
AcDbEntity
  8
AM_6
100
AcDbText
 10
5.103359375022965
 20
-3.58675
 30
0.0
 40
0.5
  1
2-55/64
100
AcDbAttributeDefinition
  3

  2
C
 70
     8
280
     0
  0
ATTDEF
  5
80
330
6E
100
AcDbEntity
  8
AM_6
100
AcDbText
 10
5.103359375022965
 20
-4.08675
 30
0.0
 40
0.5
  1
3-17/32
100
AcDbAttributeDefinition
  3

  2
D
 70
     8
280
     0
  0
ATTDEF
  5
81
330
6E
100
AcDbEntity
  8
AM_6
100
AcDbText
 10
5.103359375022965
 20
-4.58675
 30
0.0
 40
0.5
  1
1/2
100
AcDbAttributeDefinition
  3

  2
F
 70
     8
280
     0
  0
ATTDEF
  5
82
330
6E
100
AcDbEntity
  8
AM_6
100
AcDbText
 10
5.103359375022965
 20
-5.08675
 30
0.0
 40
0.5
  1
1-5/64
100
AcDbAttributeDefinition
  3

  2
G
 70
     8
280
     0
  0
ATTDEF
  5
83
330
6E
100
AcDbEntity
  8
AM_6
100
AcDbText
 10
5.103359375022965
 20
-5.58675
 30
0.0
 40
0.5
  1
1/2
100
AcDbAttributeDefinition
  3

  2
H
 70
     8
280
     0
  0
ATTDEF
  5
84
330
6E
100
AcDbEntity
  8
AM_6
100
AcDbText
 10
5.103359375022965
 20
-6.08675
 30
0.0
 40
0.5
  1
3-13/16
100
AcDbAttributeDefinition
  3

  2
J
 70
     8
280
     0
  0
ATTDEF
  5
85
330
6E
100
AcDbEntity
  8
AM_6
100
AcDbText
 10
5.103359375022965
 20
-6.58675
 30
0.0
 40
0.5
  1
5
100
AcDbAttributeDefinition
  3

  2
K
 70
     8
280
     0
  0
ATTDEF
  5
86
330
6E
100
AcDbEntity
  8
AM_6
100
AcDbText
 10
5.103359375022965
 20
-7.08675
 30
0.0
 40
0.5
  1
2-23/32
100
AcDbAttributeDefinition
  3

  2
L
 70
     8
280
     0
  0
ATTDEF
  5
87
330
6E
100
AcDbEntity
  8
AM_6
100
AcDbText
 10
5.103359375022965
 20
-7.58675
 30
0.0
 40
0.5
  1
2-31/64
100
AcDbAttributeDefinition
  3

  2
N
 70
     8
280
     0
  0
ATTDEF
  5
88
330
6E
100
AcDbEntity
  8
AM_6
100
AcDbText
 10
5.103359375022965
 20
-8.08675
 30
0.0
 40
0.5
  1
15/64
100
AcDbAttributeDefinition
  3

  2
P
 70
     8
280
     0
  0
ATTDEF
  5
89
330
6E
100
AcDbEntity
  8
AM_6
100
AcDbText
 10
5.103359375022965
 20
-8.58675
 30
0.0
 40
0.5
  1
3/16
100
AcDbAttributeDefinition
  3

  2
X
 70
     8
280
     0
  0
ATTDEF
  5
8A
330
6E
100
AcDbEntity
  8
AM_6
100
AcDbText
 10
5.103359375022965
 20
-9.08675
 30
0.0
 40
0.5
  1
0.020
100
AcDbAttributeDefinition
  3

  2
Y
 70
     8
280
     0
  0
ATTDEF
  5
8B
330
6E
100
AcDbEntity
  8
AM_6
100
AcDbText
 10
5.103359375022965
 20
-9.58675
 30
0.0
 40
0.5
  1
1-51/64
100
AcDbAttributeDefinition
  3

  2
Z
 70
     8
280
     0
  0
ATTDEF
  5
8C
330
6E
100
AcDbEntity
  8
AM_6
100
AcDbText
 10
5.103359375022965
 20
-10.08675
 30
0.0
 40
0.5
  1
baldor
100
AcDbAttributeDefinition
  3

  2
COMPANY
 70
     8
280
     0
  0
INSERT
  5
8E
330
6E
100
AcDbEntity
  8
0
100
AcDbBlockReference
  2
2_ASME_B18_3_10_1_0_in_069695_2
 10
0.0
 20
0.0
 30
0.0
  0
INSERT
  5
B6
330
6E
100
AcDbEntity
  8
0
100
AcDbBlockReference
  2
3_ASME_B18_3_10_2_0_in_069695_2
 10
0.0
 20
0.0
 30
0.0
  0
INSERT
  5
DA
330
6E
100
AcDbEntity
  8
0
100
AcDbBlockReference
  2
4_070882LW_0_in_069695_2
 10
0.0
 20
0.0
 30
0.0
  0
INSERT
  5
110
330
6E
100
AcDbEntity
  8
0
100
AcDbBlockReference
  2
5_070882I_0_in_069695_2
 10
0.0
 20
0.0
 30
0.0
  0
INSERT
  5
199
330
6E
100
AcDbEntity
  8
0
100
AcDbBlockReference
  2
6_405015E_Inch_0_in_069695_2
 10
0.0
 20
0.0
 30
0.0
  0
INSERT
  5
1D8
330
6E
100
AcDbEntity
  8
0
100
AcDbBlockReference
  2
7_069695H_0_in_069695_2
 10
0.0
 20
0.0
 30
0.0
  0
ENDBLK
  5
71
330
6E
100
AcDbEntity
  8
0
100
AcDbBlockEnd
  0
BLOCK
  5
8F
330
8D
100
AcDbEntity
  8
0
100
AcDbBlockBegin
  2
2_ASME_B18_3_10_1_0_in_069695_2
 70
     2
 10
0.0
 20
0.0
 30
0.0
  3
2_ASME_B18_3_10_1_0_in_069695_2
  1

  0
ATTDEF
  5
91
330
8D
100
AcDbEntity
  8
AM_6
100
AcDbText
 10
3.102291666666667
 20
-0.8464097222222224
 30
0.0
 40
0.5
  1
ANSI/ASME B18.3-1998
100
AcDbAttributeDefinition
  3

  2
NN
 70
     8
280
     0
  0
ATTDEF
  5
92
330
8D
100
AcDbEntity
  8
AM_6
100
AcDbText
 10
3.102291666666667
 20
-1.346409722222222
 30
0.0
 40
0.5
  1
Socket Button Head Cap Screws
100
AcDbAttributeDefinition
  3

  2
NT
 70
     8
280
     0
  0
ATTDEF
  5
93
330
8D
100
AcDbEntity
  8
AM_6
100
AcDbText
 10
3.102291666666667
 20
-1.846409722222222
 30
0.0
 40
0.5
  1
ASME B18.3-10
100
AcDbAttributeDefinition
  3

  2
NB
 70
     8
280
     0
  0
ATTDEF
  5
94
330
8D
100
AcDbEntity
  8
AM_6
100
AcDbText
 10
3.102291666666667
 20
-2.346409722222222
 30
0.0
 40
0.5
  1
ASME B18.3-$NS.
100
AcDbAttributeDefinition
  3

  2
NBSYN
 70
     8
280
     0
  0
ATTDEF
  5
95
330
8D
100
AcDbEntity
  8
AM_6
100
AcDbText
 10
3.102291666666667
 20
-2.846409722222222
 30
0.0
 40
0.5
  1
ASME B18.3-10
100
AcDbAttributeDefinition
  3

  2
LINA
 70
     8
280
     0
  0
ATTDEF
  5
96
330
8D
100
AcDbEntity
  8
AM_6
100
AcDbText
 10
3.102291666666667
 20
-3.346409722222222
 30
0.0
 40
0.5
  1
10
100
AcDbAttributeDefinition
  3

  2
NS
 70
     8
280
     0
  0
ATTDEF
  5
97
330
8D
100
AcDbEntity
  8
AM_6
100
AcDbText
 10
3.102291666666667
 20
-3.846409722222222
 30
0.0
 40
0.5
  1
0.361
100
AcDbAttributeDefinition
  3

  2
A
 70
     8
280
     0
  0
ATTDEF
  5
98
330
8D
100
AcDbEntity
  8
AM_6
100
AcDbText
 10
3.102291666666667
 20
-4.346409722222223
 30
0.0
 40
0.5
  1
0.101
100
AcDbAttributeDefinition
  3

  2
H
 70
     8
280
     0
  0
ATTDEF
  5
99
330
8D
100
AcDbEntity
  8
AM_6
100
AcDbText
 10
3.102291666666667
 20
-4.846409722222223
 30
0.0
 40
0.5
  1
0.800
100
AcDbAttributeDefinition
  3

  2
L
 70
     8
280
     0
  0
ATTDEF
  5
9A
330
8D
100
AcDbEntity
  8
AM_6
100
AcDbText
 10
3.102291666666667
 20
-5.346409722222223
 30
0.0
 40
0.5
  1
0.020
100
AcDbAttributeDefinition
  3

  2
S
 70
     8
280
     0
  0
ATTDEF
  5
9B
330
8D
100
AcDbEntity
  8
AM_6
100
AcDbText
 10
3.102291666666667
 20
-5.846409722222223
 30
0.0
 40
0.5
  1
0.125000
100
AcDbAttributeDefinition
  3

  2
J
 70
     8
280
     0
  0
ATTDEF
  5
9C
330
8D
100
AcDbEntity
  8
AM_6
100
AcDbText
 10
3.102291666666667
 20
-6.346409722222223
 30
0.0
 40
0.5
  1
baldor
100
AcDbAttributeDefinition
  3

  2
COMPANY
 70
     8
280
     0
  0
LINE
  5
9F
330
8D
100
AcDbEntity
  8
AM_9
100
AcDbLine
 10
-2.737708333333333
 20
-0.954740938573519
 30
0.0
 11
-2.798708333333333
 21
-0.954740938573519
 31
0.0
  0
LINE
  5
A0
330
8D
100
AcDbEntity
  8
AM_9
100
AcDbLine
 10
-2.737708333333333
 20
-1.099078505870926
 30
0.0
 11
-2.798708333333333
 21
-1.099078505870926
 31
0.0
  0
LINE
  5
A1
330
8D
100
AcDbEntity
  8
AM_9
100
AcDbLine
 10
-2.737708333333333
 20
-0.954740938573519
 30
0.0
 11
-2.737708333333333
 21
-1.099078505870926
 31
0.0
  0
LINE
  5
A2
330
8D
100
AcDbEntity
  8
AM_9
100
AcDbLine
 10
-2.737708333333333
 20
-0.9908253303978707
 30
0.0
 11
-2.798708333333333
 21
-0.9908253303978707
 31
0.0
  0
LINE
  5
A3
330
8D
100
AcDbEntity
  8
AM_9
100
AcDbLine
 10
-2.737708333333333
 20
-1.062994114046574
 30
0.0
 11
-2.798708333333333
 21
-1.062994114046574
 31
0.0
  0
LINE
  5
A4
330
8D
100
AcDbEntity
  8
AM_9
100
AcDbLine
 10
-1.897708333333333
 20
-0.9505097222222223
 30
0.0
 11
-1.897708333333333
 21
-1.103309722222222
 31
0.0
  0
LINE
  5
A5
330
8D
100
AcDbEntity
  8
AM_9
100
AcDbLine
 10
-1.897708333333333
 20
-0.9505097222222223
 30
0.0
 11
-1.916308333333333
 21
-0.9319097222222223
 31
0.0
  0
LINE
  5
A6
330
8D
100
AcDbEntity
  8
AM_9
100
AcDbLine
 10
-1.916308333333333
 20
-1.121909722222222
 30
0.0
 11
-1.897708333333333
 21
-1.103309722222222
 31
0.0
  0
LINE
  5
A7
330
8D
100
AcDbEntity
  8
AM_9
100
AcDbLine
 10
-1.916308333333333
 20
-0.9319097222222223
 30
0.0
 11
-1.916308333333333
 21
-1.121909722222222
 31
0.0
  0
LINE
  5
A8
330
8D
100
AcDbEntity
  8
AM_9
100
AcDbLine
 10
-2.697708333333333
 20
-1.121909722222222
 30
0.0
 11
-1.916308333333333
 21
-1.121909722222222
 31
0.0
  0
LINE
  5
A9
330
8D
100
AcDbEntity
  8
AM_9
100
AcDbLine
 10
-1.916308333333333
 20
-0.9319097222222223
 30
0.0
 11
-2.697708333333333
 21
-0.9319097222222223
 31
0.0
  0
LINE
  5
AB
330
8D
100
AcDbEntity
  8
AM_5
100
AcDbLine
 10
-2.617708333333333
 20
-1.103309722222222
 30
0.0
 11
-2.649924478354114
 21
-1.121909722222222
 31
0.0
  0
LINE
  5
AC
330
8D
100
AcDbEntity
  8
AM_5
100
AcDbLine
 10
-2.617708333333333
 20
-0.9319097222222223
 30
0.0
 11
-2.617708333333333
 21
-1.121909722222223
 31
0.0
  0
LINE
  5
AD
330
8D
100
AcDbEntity
  8
AM_5
100
AcDbLine
 10
-2.617708333333333
 20
-0.9505097222222223
 30
0.0
 11
-2.649924478354114
 21
-0.9319097222222223
 31
0.0
  0
LINE
  5
AF
330
8D
100
AcDbEntity
  8
AM_4
100
AcDbLine
 10
-2.798708333333333
 20
-0.9274097222222223
 30
0.0
 11
-2.798708333333333
 21
-1.126409722222222
 31
0.0
  0
ARC
  5
B0
330
8D
100
AcDbEntity
  8
AM_4
100
AcDbCircle
 10
-2.717708333333333
 20
-1.126409722222222
 30
0.0
 40
0.0810000000000008
100
AcDbArc
 50
180.0
 51
270.0
  0
ARC
  5
B1
330
8D
100
AcDbEntity
  8
AM_4
100
AcDbCircle
 10
-2.717708333333333
 20
-0.9274097222222232
 30
0.0
 40
0.0810000000000007
100
AcDbArc
 50
90.0
 51
180.0
  0
LINE
  5
B2
330
8D
100
AcDbEntity
  8
AM_4
100
AcDbLine
 10
-2.717708333333333
 20
-0.8464097222222224
 30
0.0
 11
-2.717708333333333
 21
-1.207409722222222
 31
0.0
  0
LINE
  5
B3
330
8D
100
AcDbEntity
  8
AM_4
100
AcDbLine
 10
-2.717708333333333
 20
-1.207409722222222
 30
0.0
 11
-2.697708333333333
 21
-1.207409722222222
 31
0.0
  0
LINE
  5
B4
330
8D
100
AcDbEntity
  8
AM_4
100
AcDbLine
 10
-2.697708333333333
 20
-0.8464097222222224
 30
0.0
 11
-2.717708333333333
 21
-0.8464097222222224
 31
0.0
  0
ENDBLK
  5
90
330
8D
100
AcDbEntity
  8
0
100
AcDbBlockEnd
  0
BLOCK
  5
B7
330
B5
100
AcDbEntity
  8
0
100
AcDbBlockBegin
  2
3_ASME_B18_3_10_2_0_in_069695_2
 70
     2
 10
0.0
 20
0.0
 30
0.0
  3
3_ASME_B18_3_10_2_0_in_069695_2
  1

  0
ATTDEF
  5
B9
330
B5
100
AcDbEntity
  8
AM_6
100
AcDbText
 10
3.102291666666667
 20
1.207409722222222
 30
0.0
 40
0.5
  1
ANSI/ASME B18.3-1998
100
AcDbAttributeDefinition
  3

  2
NN
 70
     8
280
     0
  0
ATTDEF
  5
BA
330
B5
100
AcDbEntity
  8
AM_6
100
AcDbText
 10
3.102291666666667
 20
0.7074097222222222
 30
0.0
 40
0.5
  1
Socket Button Head Cap Screws
100
AcDbAttributeDefinition
  3

  2
NT
 70
     8
280
     0
  0
ATTDEF
  5
BB
330
B5
100
AcDbEntity
  8
AM_6
100
AcDbText
 10
3.102291666666667
 20
0.2074097222222222
 30
0.0
 40
0.5
  1
ASME B18.3-10
100
AcDbAttributeDefinition
  3

  2
NB
 70
     8
280
     0
  0
ATTDEF
  5
BC
330
B5
100
AcDbEntity
  8
AM_6
100
AcDbText
 10
3.102291666666667
 20
-0.2925902777777778
 30
0.0
 40
0.5
  1
ASME B18.3-$NS.
100
AcDbAttributeDefinition
  3

  2
NBSYN
 70
     8
280
     0
  0
ATTDEF
  5
BD
330
B5
100
AcDbEntity
  8
AM_6
100
AcDbText
 10
3.102291666666667
 20
-0.7925902777777778
 30
0.0
 40
0.5
  1
ASME B18.3-10
100
AcDbAttributeDefinition
  3

  2
LINA
 70
     8
280
     0
  0
ATTDEF
  5
BE
330
B5
100
AcDbEntity
  8
AM_6
100
AcDbText
 10
3.102291666666667
 20
-1.292590277777778
 30
0.0
 40
0.5
  1
10
100
AcDbAttributeDefinition
  3

  2
NS
 70
     8
280
     0
  0
ATTDEF
  5
BF
330
B5
100
AcDbEntity
  8
AM_6
100
AcDbText
 10
3.102291666666667
 20
-1.792590277777778
 30
0.0
 40
0.5
  1
0.361
100
AcDbAttributeDefinition
  3

  2
A
 70
     8
280
     0
  0
ATTDEF
  5
C0
330
B5
100
AcDbEntity
  8
AM_6
100
AcDbText
 10
3.102291666666667
 20
-2.292590277777778
 30
0.0
 40
0.5
  1
0.101
100
AcDbAttributeDefinition
  3

  2
H
 70
     8
280
     0
  0
ATTDEF
  5
C1
330
B5
100
AcDbEntity
  8
AM_6
100
AcDbText
 10
3.102291666666667
 20
-2.792590277777778
 30
0.0
 40
0.5
  1
0.800
100
AcDbAttributeDefinition
  3

  2
L
 70
     8
280
     0
  0
ATTDEF
  5
C2
330
B5
100
AcDbEntity
  8
AM_6
100
AcDbText
 10
3.102291666666667
 20
-3.292590277777778
 30
0.0
 40
0.5
  1
0.020
100
AcDbAttributeDefinition
  3

  2
S
 70
     8
280
     0
  0
ATTDEF
  5
C3
330
B5
100
AcDbEntity
  8
AM_6
100
AcDbText
 10
3.102291666666667
 20
-3.792590277777778
 30
0.0
 40
0.5
  1
0.125000
100
AcDbAttributeDefinition
  3

  2
J
 70
     8
280
     0
  0
ATTDEF
  5
C4
330
B5
100
AcDbEntity
  8
AM_6
100
AcDbText
 10
3.102291666666667
 20
-4.292590277777778
 30
0.0
 40
0.5
  1
baldor
100
AcDbAttributeDefinition
  3

  2
COMPANY
 70
     8
280
     0
  0
LINE
  5
C5
330
B5
100
AcDbEntity
  8
AM_9
100
AcDbLine
 10
-2.737708333333333
 20
1.099078505870926
 30
0.0
 11
-2.798708333333333
 21
1.099078505870926
 31
0.0
  0
LINE
  5
C6
330
B5
100
AcDbEntity
  8
AM_9
100
AcDbLine
 10
-2.737708333333333
 20
0.954740938573519
 30
0.0
 11
-2.798708333333333
 21
0.954740938573519
 31
0.0
  0
LINE
  5
C7
330
B5
100
AcDbEntity
  8
AM_9
100
AcDbLine
 10
-2.737708333333333
 20
1.062994114046574
 30
0.0
 11
-2.798708333333333
 21
1.062994114046574
 31
0.0
  0
LINE
  5
C8
330
B5
100
AcDbEntity
  8
AM_9
100
AcDbLine
 10
-2.737708333333333
 20
1.099078505870926
 30
0.0
 11
-2.737708333333333
 21
0.954740938573519
 31
0.0
  0
LINE
  5
C9
330
B5
100
AcDbEntity
  8
AM_9
100
AcDbLine
 10
-2.737708333333333
 20
0.9908253303978707
 30
0.0
 11
-2.798708333333333
 21
0.9908253303978707
 31
0.0
  0
LINE
  5
CA
330
B5
100
AcDbEntity
  8
AM_9
100
AcDbLine
 10
-1.897708333333333
 20
1.103309722222222
 30
0.0
 11
-1.897708333333333
 21
0.9505097222222223
 31
0.0
  0
LINE
  5
CB
330
B5
100
AcDbEntity
  8
AM_9
100
AcDbLine
 10
-1.897708333333333
 20
1.103309722222222
 30
0.0
 11
-1.916308333333333
 21
1.121909722222222
 31
0.0
  0
LINE
  5
CC
330
B5
100
AcDbEntity
  8
AM_9
100
AcDbLine
 10
-1.916308333333333
 20
0.9319097222222223
 30
0.0
 11
-1.897708333333333
 21
0.9505097222222223
 31
0.0
  0
LINE
  5
CD
330
B5
100
AcDbEntity
  8
AM_9
100
AcDbLine
 10
-1.916308333333333
 20
1.121909722222222
 30
0.0
 11
-1.916308333333333
 21
0.9319097222222223
 31
0.0
  0
LINE
  5
CE
330
B5
100
AcDbEntity
  8
AM_9
100
AcDbLine
 10
-2.697708333333333
 20
0.9319097222222223
 30
0.0
 11
-1.916308333333333
 21
0.9319097222222223
 31
0.0
  0
LINE
  5
CF
330
B5
100
AcDbEntity
  8
AM_9
100
AcDbLine
 10
-1.916308333333333
 20
1.121909722222222
 30
0.0
 11
-2.697708333333333
 21
1.121909722222222
 31
0.0
  0
LINE
  5
D0
330
B5
100
AcDbEntity
  8
AM_5
100
AcDbLine
 10
-2.617708333333333
 20
0.9505097222222223
 30
0.0
 11
-2.649924478354114
 21
0.9319097222222223
 31
0.0
  0
LINE
  5
D1
330
B5
100
AcDbEntity
  8
AM_5
100
AcDbLine
 10
-2.617708333333333
 20
1.121909722222223
 30
0.0
 11
-2.617708333333333
 21
0.9319097222222222
 31
0.0
  0
LINE
  5
D2
330
B5
100
AcDbEntity
  8
AM_5
100
AcDbLine
 10
-2.617708333333333
 20
1.103309722222222
 30
0.0
 11
-2.649924478354114
 21
1.121909722222222
 31
0.0
  0
LINE
  5
D3
330
B5
100
AcDbEntity
  8
AM_4
100
AcDbLine
 10
-2.798708333333333
 20
1.126409722222222
 30
0.0
 11
-2.798708333333333
 21
0.9274097222222223
 31
0.0
  0
ARC
  5
D4
330
B5
100
AcDbEntity
  8
AM_4
100
AcDbCircle
 10
-2.717708333333333
 20
0.9274097222222232
 30
0.0
 40
0.0810000000000008
100
AcDbArc
 50
180.0
 51
270.0
  0
ARC
  5
D5
330
B5
100
AcDbEntity
  8
AM_4
100
AcDbCircle
 10
-2.717708333333333
 20
1.126409722222222
 30
0.0
 40
0.0810000000000006
100
AcDbArc
 50
90.0
 51
180.0
  0
LINE
  5
D6
330
B5
100
AcDbEntity
  8
AM_4
100
AcDbLine
 10
-2.717708333333333
 20
1.207409722222222
 30
0.0
 11
-2.717708333333333
 21
0.8464097222222224
 31
0.0
  0
LINE
  5
D7
330
B5
100
AcDbEntity
  8
AM_4
100
AcDbLine
 10
-2.717708333333333
 20
0.8464097222222224
 30
0.0
 11
-2.697708333333333
 21
0.8464097222222224
 31
0.0
  0
LINE
  5
D8
330
B5
100
AcDbEntity
  8
AM_4
100
AcDbLine
 10
-2.697708333333333
 20
1.207409722222222
 30
0.0
 11
-2.717708333333333
 21
1.207409722222222
 31
0.0
  0
ENDBLK
  5
B8
330
B5
100
AcDbEntity
  8
0
100
AcDbBlockEnd
  0
BLOCK
  5
DB
330
D9
100
AcDbEntity
  8
0
100
AcDbBlockBegin
  2
4_070882LW_0_in_069695_2
 70
     2
 10
0.0
 20
0.0
 30
0.0
  3
4_070882LW_0_in_069695_2
  1

  0
ATTDEF
  5
DD
330
D9
100
AcDbEntity
  8
AM_6
100
AcDbText
 10
2.742291666666667
 20
1.359375
 30
0.0
 40
0.5
  1
Imperial Insert Lockwasher -Inch
100
AcDbAttributeDefinition
  3

  2
NN
 70
     8
280
     0
  0
ATTDEF
  5
DE
330
D9
100
AcDbEntity
  8
AM_6
100
AcDbText
 10
2.742291666666667
 20
0.859375
 30
0.0
 40
0.5
  1
Imperial Bearings
100
AcDbAttributeDefinition
  3

  2
NT
 70
     8
280
     0
  0
ATTDEF
  5
DF
330
D9
100
AcDbEntity
  8
AM_6
100
AcDbText
 10
2.742291666666667
 20
0.359375
 30
0.0
 40
0.5
  1
070882LW
100
AcDbAttributeDefinition
  3

  2
NB
 70
     8
280
     0
  0
ATTDEF
  5
E0
330
D9
100
AcDbEntity
  8
AM_6
100
AcDbText
 10
2.742291666666667
 20
-0.140625
 30
0.0
 40
0.5
  1
$PN.LW
100
AcDbAttributeDefinition
  3

  2
NBSYN
 70
     8
280
     0
  0
ATTDEF
  5
E1
330
D9
100
AcDbEntity
  8
AM_6
100
AcDbText
 10
2.742291666666667
 20
-0.640625
 30
0.0
 40
0.5
  1
070882
100
AcDbAttributeDefinition
  3

  2
LINA
 70
     8
280
     0
  0
ATTDEF
  5
E2
330
D9
100
AcDbEntity
  8
AM_6
100
AcDbText
 10
2.742291666666667
 20
-1.140625
 30
0.0
 40
0.5
  1
1-1/4
100
AcDbAttributeDefinition
  3

  2
SS
 70
     8
280
     0
  0
ATTDEF
  5
E3
330
D9
100
AcDbEntity
  8
AM_6
100
AcDbText
 10
2.742291666666667
 20
-1.640625
 30
0.0
 40
0.5
  1
1.250000
100
AcDbAttributeDefinition
  3

  2
SS1
 70
     8
280
     0
  0
ATTDEF
  5
E4
330
D9
100
AcDbEntity
  8
AM_6
100
AcDbText
 10
2.742291666666667
 20
-2.140625
 30
0.0
 40
0.5
  1
070882
100
AcDbAttributeDefinition
  3

  2
PN
 70
     8
280
     0
  0
ATTDEF
  5
E5
330
D9
100
AcDbEntity
  8
AM_6
100
AcDbText
 10
2.742291666666667
 20
-2.640625
 30
0.0
 40
0.5
  1
INS-IP-104R
100
AcDbAttributeDefinition
  3

  2
DESCRIPTION
 70
     8
280
     0
  0
ATTDEF
  5
E6
330
D9
100
AcDbEntity
  8
AM_6
100
AcDbText
 10
2.742291666666667
 20
-3.140625
 30
0.0
 40
0.5
  1
3.1496
100
AcDbAttributeDefinition
  3

  2
A
 70
     8
280
     0
  0
ATTDEF
  5
E7
330
D9
100
AcDbEntity
  8
AM_6
100
AcDbText
 10
2.742291666666667
 20
-3.640625
 30
0.0
 40
0.5
  1
61/64
100
AcDbAttributeDefinition
  3

  2
B
 70
     8
280
     0
  0
ATTDEF
  5
E8
330
D9
100
AcDbEntity
  8
AM_6
100
AcDbText
 10
2.742291666666667
 20
-4.140625
 30
0.0
 40
0.5
  1
2-5/8
100
AcDbAttributeDefinition
  3

  2
C
 70
     8
280
     0
  0
ATTDEF
  5
E9
330
D9
100
AcDbEntity
  8
AM_6
100
AcDbText
 10
2.742291666666667
 20
-4.640625
 30
0.0
 40
0.5
  1
0.970
100
AcDbAttributeDefinition
  3

  2
D
 70
     8
280
     0
  0
ATTDEF
  5
EA
330
D9
100
AcDbEntity
  8
AM_6
100
AcDbText
 10
2.742291666666667
 20
-5.140625
 30
0.0
 40
0.5
  1
2-23/32
100
AcDbAttributeDefinition
  3

  2
E
 70
     8
280
     0
  0
ATTDEF
  5
EB
330
D9
100
AcDbEntity
  8
AM_6
100
AcDbText
 10
2.742291666666667
 20
-5.640625
 30
0.0
 40
0.5
  1
0.1900
100
AcDbAttributeDefinition
  3

  2
NDM
 70
     8
280
     0
  0
ATTDEF
  5
EC
330
D9
100
AcDbEntity
  8
AM_6
100
AcDbText
 10
2.742291666666667
 20
-6.140625
 30
0.0
 40
0.5
  1
0.1450
100
AcDbAttributeDefinition
  3

  2
KDM
 70
     8
280
     0
  0
ATTDEF
  5
ED
330
D9
100
AcDbEntity
  8
AM_6
100
AcDbText
 10
2.742291666666667
 20
-6.640625
 30
0.0
 40
0.5
  1
2.22
100
AcDbAttributeDefinition
  3

  2
AL
 70
     8
280
     0
  0
ATTDEF
  5
EE
330
D9
100
AcDbEntity
  8
AM_6
100
AcDbText
 10
2.742291666666667
 20
-7.140625
 30
0.0
 40
0.5
  1
0.38
100
AcDbAttributeDefinition
  3

  2
BL
 70
     8
280
     0
  0
ATTDEF
  5
EF
330
D9
100
AcDbEntity
  8
AM_6
100
AcDbText
 10
2.742291666666667
 20
-7.640625
 30
0.0
 40
0.5
  1
0.07
100
AcDbAttributeDefinition
  3

  2
CL
 70
     8
280
     0
  0
ATTDEF
  5
F0
330
D9
100
AcDbEntity
  8
AM_6
100
AcDbText
 10
2.742291666666667
 20
-8.140625
 30
0.0
 40
0.5
  1
0.44
100
AcDbAttributeDefinition
  3

  2
DL
 70
     8
280
     0
  0
ATTDEF
  5
F1
330
D9
100
AcDbEntity
  8
AM_6
100
AcDbText
 10
2.742291666666667
 20
-8.640625
 30
0.0
 40
0.5
  1
baldor
100
AcDbAttributeDefinition
  3

  2
COMPANY
 70
     8
280
     0
  0
LINE
  5
F2
330
D9
100
AcDbEntity
  8
AM_9
100
AcDbLine
 10
-2.627708333333333
 20
0.5816870733270341
 30
0.0
 11
-2.697708333333333
 21
0.5816870733270341
 31
0.0
  0
LINE
  5
F3
330
D9
100
AcDbEntity
  8
AM_9
100
AcDbLine
 10
-2.257708333333333
 20
0.5650902839867558
 30
0.0
 11
-2.627708333333333
 21
0.5650902839867556
 31
0.0
  0
LINE
  5
F4
330
D9
100
AcDbEntity
  8
AM_9
100
AcDbLine
 10
-2.257708333333333
 20
0.5343603916191675
 30
0.0
 11
-2.697708333333333
 21
0.5343603916191675
 31
0.0
  0
LINE
  5
F5
330
D9
100
AcDbEntity
  8
AM_9
100
AcDbLine
 10
-2.627708333333333
 20
0.6378001361361229
 30
0.0
 11
-2.257708333333333
 21
0.6378001361361227
 31
0.0
  0
LINE
  5
F6
330
D9
100
AcDbEntity
  8
AM_9
100
AcDbLine
 10
-2.257708333333333
 20
0.6070702437685345
 30
0.0
 11
-2.697708333333333
 21
0.6070702437685345
 31
0.0
  0
LINE
  5
F7
330
D9
100
AcDbEntity
  8
AM_9
100
AcDbLine
 10
-2.257708333333333
 20
0.5343603916191675
 30
0.0
 11
-2.257708333333333
 21
0.6378001361361227
 31
0.0
  0
LINE
  5
F8
330
D9
100
AcDbEntity
  8
AM_9
100
AcDbLine
 10
-2.627708333333333
 20
0.654396925476401
 30
0.0
 11
-2.697708333333333
 21
0.654396925476401
 31
0.0
  0
LINE
  5
F9
330
D9
100
AcDbEntity
  8
AM_9
100
AcDbLine
 10
-2.627708333333333
 20
1.031313416298633
 30
0.0
 11
-2.697708333333333
 21
1.031313416298633
 31
0.0
  0
LINE
  5
FA
330
D9
100
AcDbEntity
  8
AM_9
100
AcDbLine
 10
-2.627708333333333
 20
1.122011733355104
 30
0.0
 11
-2.697708333333333
 21
1.122011733355104
 31
0.0
  0
LINE
  5
FB
330
D9
100
AcDbEntity
  8
AM_9
100
AcDbLine
 10
-2.627708333333333
 20
-1.031313416298633
 30
0.0
 11
-2.697708333333333
 21
-1.031313416298633
 31
0.0
  0
LINE
  5
FC
330
D9
100
AcDbEntity
  8
AM_9
100
AcDbLine
 10
-2.697708333333333
 20
-1.122011733355103
 30
0.0
 11
-2.627708333333333
 21
-1.122011733355103
 31
0.0
  0
LINE
  5
FD
330
D9
100
AcDbEntity
  8
AM_9
100
AcDbLine
 10
-2.627708333333333
 20
0.6689638396055355
 30
0.0
 11
-2.697708333333333
 21
0.6689638396055355
 31
0.0
  0
LINE
  5
FE
330
D9
100
AcDbEntity
  8
AM_9
100
AcDbLine
 10
-2.627708333333333
 20
-0.6689638396055354
 30
0.0
 11
-2.697708333333333
 21
-0.6689638396055354
 31
0.0
  0
LINE
  5
FF
330
D9
100
AcDbEntity
  8
AM_9
100
AcDbLine
 10
-2.627708333333333
 20
0.5402040115663863
 30
0.0
 11
-2.697708333333333
 21
0.5402040115663864
 31
0.0
  0
LINE
  5
100
330
D9
100
AcDbEntity
  8
AM_9
100
AcDbLine
 10
-2.627708333333333
 20
-0.540204011566386
 30
0.0
 11
-2.697708333333333
 21
-0.5402040115663861
 31
0.0
  0
LINE
  5
101
330
D9
100
AcDbEntity
  8
AM_9
100
AcDbLine
 10
-2.627708333333333
 20
0.4058537231409421
 30
0.0
 11
-2.697708333333333
 21
0.4058537231409422
 31
0.0
  0
LINE
  5
102
330
D9
100
AcDbEntity
  8
AM_9
100
AcDbLine
 10
-2.627708333333333
 20
-0.4058537231409417
 30
0.0
 11
-2.697708333333333
 21
-0.4058537231409417
 31
0.0
  0
LINE
  5
103
330
D9
100
AcDbEntity
  8
AM_9
100
AcDbLine
 10
-2.627708333333333
 20
0.7964238544061514
 30
0.0
 11
-2.697708333333333
 21
0.7964238544061514
 31
0.0
  0
LINE
  5
104
330
D9
100
AcDbEntity
  8
AM_9
100
AcDbLine
 10
-2.627708333333333
 20
0.6620735659807057
 30
0.0
 11
-2.697708333333333
 21
0.6620735659807057
 31
0.0
  0
LINE
  5
105
330
D9
100
AcDbEntity
  8
AM_9
100
AcDbLine
 10
-2.627708333333333
 20
0.8212368393826085
 30
0.0
 11
-2.697708333333333
 21
0.8212368393826085
 31
0.0
  0
LINE
  5
106
330
D9
100
AcDbEntity
  8
AM_9
100
AcDbLine
 10
-2.627708333333333
 20
-0.6620735659807053
 30
0.0
 11
-2.697708333333333
 21
-0.6620735659807053
 31
0.0
  0
LINE
  5
107
330
D9
100
AcDbEntity
  8
AM_9
100
AcDbLine
 10
-2.627708333333333
 20
-0.796423854406151
 30
0.0
 11
-2.697708333333333
 21
-0.796423854406151
 31
0.0
  0
LINE
  5
108
330
D9
100
AcDbEntity
  8
AM_9
100
AcDbLine
 10
-2.697708333333333
 20
-0.821236839382608
 30
0.0
 11
-2.627708333333333
 21
-0.821236839382608
 31
0.0
  0
LINE
  5
109
330
D9
100
AcDbEntity
  8
AM_9
100
AcDbLine
 10
-2.627708333333333
 20
0.0950000000000005
 30
0.0
 11
-2.697708333333333
 21
0.0950000000000005
 31
0.0
  0
LINE
  5
10A
330
D9
100
AcDbEntity
  8
AM_9
100
AcDbLine
 10
-2.627708333333333
 20
-0.095
 30
0.0
 11
-2.697708333333333
 21
-0.095
 31
0.0
  0
LINE
  5
10B
330
D9
100
AcDbEntity
  8
AM_4
100
AcDbLine
 10
-2.627708333333333
 20
1.359375
 30
0.0
 11
-2.697708333333333
 21
1.359375
 31
0.0
  0
LINE
  5
10C
330
D9
100
AcDbEntity
  8
AM_4
100
AcDbLine
 10
-2.697708333333333
 20
-1.359375
 30
0.0
 11
-2.627708333333333
 21
-1.359375
 31
0.0
  0
LINE
  5
10D
330
D9
100
AcDbEntity
  8
AM_4
100
AcDbLine
 10
-2.697708333333333
 20
1.359375
 30
0.0
 11
-2.697708333333333
 21
-1.359375
 31
0.0
  0
LINE
  5
10E
330
D9
100
AcDbEntity
  8
AM_4
100
AcDbLine
 10
-2.627708333333333
 20
1.359375
 30
0.0
 11
-2.627708333333333
 21
-1.359375
 31
0.0
  0
ENDBLK
  5
DC
330
D9
100
AcDbEntity
  8
0
100
AcDbBlockEnd
  0
BLOCK
  5
111
330
10F
100
AcDbEntity
  8
0
100
AcDbBlockBegin
  2
5_070882I_0_in_069695_2
 70
     2
 10
0.0
 20
0.0
 30
0.0
  3
5_070882I_0_in_069695_2
  1

  0
ATTDEF
  5
113
330
10F
100
AcDbEntity
  8
AM_6
100
AcDbText
 10
4.785625
 20
1.5748
 30
0.0
 40
0.5
  1
Imperial Insert -Inch
100
AcDbAttributeDefinition
  3

  2
NN
 70
     8
280
     0
  0
ATTDEF
  5
114
330
10F
100
AcDbEntity
  8
AM_6
100
AcDbText
 10
4.785625
 20
1.0748
 30
0.0
 40
0.5
  1
Imperial Bearings
100
AcDbAttributeDefinition
  3

  2
NT
 70
     8
280
     0
  0
ATTDEF
  5
115
330
10F
100
AcDbEntity
  8
AM_6
100
AcDbText
 10
4.785625
 20
0.5747999999999998
 30
0.0
 40
0.5
  1
070882I
100
AcDbAttributeDefinition
  3

  2
NB
 70
     8
280
     0
  0
ATTDEF
  5
116
330
10F
100
AcDbEntity
  8
AM_6
100
AcDbText
 10
4.785625
 20
0.0747999999999998
 30
0.0
 40
0.5
  1
$PN.I
100
AcDbAttributeDefinition
  3

  2
NBSYN
 70
     8
280
     0
  0
ATTDEF
  5
117
330
10F
100
AcDbEntity
  8
AM_6
100
AcDbText
 10
4.785625
 20
-0.4252000000000002
 30
0.0
 40
0.5
  1
070882
100
AcDbAttributeDefinition
  3

  2
LINA
 70
     8
280
     0
  0
ATTDEF
  5
118
330
10F
100
AcDbEntity
  8
AM_6
100
AcDbText
 10
4.785625
 20
-0.9252000000000002
 30
0.0
 40
0.5
  1
1-1/4
100
AcDbAttributeDefinition
  3

  2
SS
 70
     8
280
     0
  0
ATTDEF
  5
119
330
10F
100
AcDbEntity
  8
AM_6
100
AcDbText
 10
4.785625
 20
-1.4252
 30
0.0
 40
0.5
  1
1.250000
100
AcDbAttributeDefinition
  3

  2
SS1
 70
     8
280
     0
  0
ATTDEF
  5
11A
330
10F
100
AcDbEntity
  8
AM_6
100
AcDbText
 10
4.785625
 20
-1.9252
 30
0.0
 40
0.5
  1
070882
100
AcDbAttributeDefinition
  3

  2
PN
 70
     8
280
     0
  0
ATTDEF
  5
11B
330
10F
100
AcDbEntity
  8
AM_6
100
AcDbText
 10
4.785625
 20
-2.4252
 30
0.0
 40
0.5
  1
INS-IP-104R
100
AcDbAttributeDefinition
  3

  2
DESCRIPTION
 70
     8
280
     0
  0
ATTDEF
  5
11C
330
10F
100
AcDbEntity
  8
AM_6
100
AcDbText
 10
4.785625
 20
-2.9252
 30
0.0
 40
0.5
  1
Contact Seal
100
AcDbAttributeDefinition
  3

  2
ST
 70
     8
280
     0
  0
ATTDEF
  5
11D
330
10F
100
AcDbEntity
  8
AM_6
100
AcDbText
 10
4.785625
 20
-3.4252
 30
0.0
 40
0.5
  1
3.1496
100
AcDbAttributeDefinition
  3

  2
A
 70
     8
280
     0
  0
ATTDEF
  5
11E
330
10F
100
AcDbEntity
  8
AM_6
100
AcDbText
 10
4.785625
 20
-3.9252
 30
0.0
 40
0.5
  1
61/64
100
AcDbAttributeDefinition
  3

  2
B
 70
     8
280
     0
  0
ATTDEF
  5
11F
330
10F
100
AcDbEntity
  8
AM_6
100
AcDbText
 10
4.785625
 20
-4.4252
 30
0.0
 40
0.5
  1
2-5/8
100
AcDbAttributeDefinition
  3

  2
C
 70
     8
280
     0
  0
ATTDEF
  5
120
330
10F
100
AcDbEntity
  8
AM_6
100
AcDbText
 10
4.785625
 20
-4.9252
 30
0.0
 40
0.5
  1
0.970
100
AcDbAttributeDefinition
  3

  2
D
 70
     8
280
     0
  0
ATTDEF
  5
121
330
10F
100
AcDbEntity
  8
AM_6
100
AcDbText
 10
4.785625
 20
-5.4252
 30
0.0
 40
0.5
  1
2-23/32
100
AcDbAttributeDefinition
  3

  2
E
 70
     8
280
     0
  0
ATTDEF
  5
122
330
10F
100
AcDbEntity
  8
AM_6
100
AcDbText
 10
4.785625
 20
-5.9252
 30
0.0
 40
0.5
  1
0.1900
100
AcDbAttributeDefinition
  3

  2
NDM
 70
     8
280
     0
  0
ATTDEF
  5
123
330
10F
100
AcDbEntity
  8
AM_6
100
AcDbText
 10
4.785625
 20
-6.4252
 30
0.0
 40
0.5
  1
0.101
100
AcDbAttributeDefinition
  3

  2
H
 70
     8
280
     0
  0
ATTDEF
  5
124
330
10F
100
AcDbEntity
  8
AM_6
100
AcDbText
 10
4.785625
 20
-6.9252
 30
0.0
 40
0.5
  1
0.1450
100
AcDbAttributeDefinition
  3

  2
KDM
 70
     8
280
     0
  0
ATTDEF
  5
125
330
10F
100
AcDbEntity
  8
AM_6
100
AcDbText
 10
4.785625
 20
-7.4252
 30
0.0
 40
0.5
  1
2.22
100
AcDbAttributeDefinition
  3

  2
AL
 70
     8
280
     0
  0
ATTDEF
  5
126
330
10F
100
AcDbEntity
  8
AM_6
100
AcDbText
 10
4.785625
 20
-7.9252
 30
0.0
 40
0.5
  1
0.38
100
AcDbAttributeDefinition
  3

  2
BL
 70
     8
280
     0
  0
ATTDEF
  5
127
330
10F
100
AcDbEntity
  8
AM_6
100
AcDbText
 10
4.785625
 20
-8.4252
 30
0.0
 40
0.5
  1
0.07
100
AcDbAttributeDefinition
  3

  2
CL
 70
     8
280
     0
  0
ATTDEF
  5
128
330
10F
100
AcDbEntity
  8
AM_6
100
AcDbText
 10
4.785625
 20
-8.9252
 30
0.0
 40
0.5
  1
0.44
100
AcDbAttributeDefinition
  3

  2
DL
 70
     8
280
     0
  0
ATTDEF
  5
129
330
10F
100
AcDbEntity
  8
AM_6
100
AcDbText
 10
4.785625
 20
-9.4252
 30
0.0
 40
0.5
  1
0.8000
100
AcDbAttributeDefinition
  3

  2
LL
 70
     8
280
     0
  0
ATTDEF
  5
12A
330
10F
100
AcDbEntity
  8
AM_6
100
AcDbText
 10
4.785625
 20
-9.9252
 30
0.0
 40
0.5
  1
0.020
100
AcDbAttributeDefinition
  3

  2
Y
 70
     8
280
     0
  0
ATTDEF
  5
12B
330
10F
100
AcDbEntity
  8
AM_6
100
AcDbText
 10
4.785625
 20
-10.4252
 30
0.0
 40
0.5
  1
0.020000
100
AcDbAttributeDefinition
  3

  2
Y1
 70
     8
280
     0
  0
ATTDEF
  5
12C
330
10F
100
AcDbEntity
  8
AM_6
100
AcDbText
 10
4.785625
 20
-10.9252
 30
0.0
 40
0.5
  1
1-51/64
100
AcDbAttributeDefinition
  3

  2
Z
 70
     8
280
     0
  0
ATTDEF
  5
12D
330
10F
100
AcDbEntity
  8
AM_6
100
AcDbText
 10
4.785625
 20
-11.4252
 30
0.0
 40
0.5
  1
1.796875
100
AcDbAttributeDefinition
  3

  2
Z1
 70
     8
280
     0
  0
ATTDEF
  5
12E
330
10F
100
AcDbEntity
  8
AM_6
100
AcDbText
 10
4.785625
 20
-11.9252
 30
0.0
 40
0.5
  1
baldor
100
AcDbAttributeDefinition
  3

  2
COMPANY
 70
     8
280
     0
  0
LINE
  5
12F
330
10F
100
AcDbEntity
  8
AM_9
100
AcDbLine
 10
-0.7278124999999995
 20
0.6394208116364379
 30
0.0
 11
-2.627708333333333
 21
0.6394208116364379
 31
0.0
  0
LINE
  5
130
330
10F
100
AcDbEntity
  8
AM_9
100
AcDbLine
 10
-0.7278124999999995
 20
0.5667109594870708
 30
0.0
 11
-2.627708333333333
 21
0.5667109594870708
 31
0.0
  0
LINE
  5
131
330
10F
100
AcDbEntity
  8
AM_9
100
AcDbLine
 10
-1.787708333333333
 20
1.026909722222222
 30
0.0
 11
-1.821492323166663
 21
1.099359722222222
 31
0.0
  0
LINE
  5
132
330
10F
100
AcDbEntity
  8
AM_9
100
AcDbLine
 10
-1.821492323166663
 20
0.9544597222222224
 30
0.0
 11
-1.787708333333333
 21
1.026909722222222
 31
0.0
  0
LINE
  5
133
330
10F
100
AcDbEntity
  8
AM_9
100
AcDbLine
 10
-1.787708333333338
 20
-1.026909722222222
 30
0.0
 11
-1.821492323166643
 21
-0.9544597222222224
 31
0.0
  0
LINE
  5
134
330
10F
100
AcDbEntity
  8
AM_9
100
AcDbLine
 10
-1.821492323166643
 20
-1.099359722222222
 30
0.0
 11
-1.787708333333338
 21
-1.026909722222222
 31
0.0
  0
LINE
  5
135
330
10F
100
AcDbEntity
  8
AM_9
100
AcDbLine
 10
-1.821492323166663
 20
0.9544597222222224
 30
0.0
 11
-1.821492323166663
 21
1.099359722222222
 31
0.0
  0
LINE
  5
136
330
10F
100
AcDbEntity
  8
AM_9
100
AcDbLine
 10
-1.821492323166663
 20
1.099359722222222
 30
0.0
 11
-2.605158333333333
 21
1.099359722222222
 31
0.0
  0
LINE
  5
137
330
10F
100
AcDbEntity
  8
AM_9
100
AcDbLine
 10
-2.605158333333333
 20
0.9544597222222224
 30
0.0
 11
-1.821492323166663
 21
0.9544597222222224
 31
0.0
  0
LINE
  5
138
330
10F
100
AcDbEntity
  8
AM_9
100
AcDbLine
 10
-2.60515833333334
 20
-1.099359722222222
 30
0.0
 11
-1.821492323166643
 21
-1.099359722222222
 31
0.0
  0
LINE
  5
139
330
10F
100
AcDbEntity
  8
AM_9
100
AcDbLine
 10
-1.821492323166643
 20
-0.9544597222222224
 30
0.0
 11
-2.60515833333334
 21
-0.9544597222222224
 31
0.0
  0
LINE
  5
13A
330
10F
100
AcDbEntity
  8
AM_9
100
AcDbLine
 10
-1.821492323166643
 20
-0.9544597222222224
 30
0.0
 11
-1.821492323166643
 21
-1.099359722222222
 31
0.0
  0
LINE
  5
13B
330
10F
100
AcDbEntity
  8
AM_9
100
AcDbLine
 10
-2.605158333333333
 20
0.9544597222222224
 30
0.0
 11
-2.605158333333333
 21
1.099359722222222
 31
0.0
  0
LINE
  5
13C
330
10F
100
AcDbEntity
  8
AM_9
100
AcDbLine
 10
-2.605158333333333
 20
1.099359722222222
 30
0.0
 11
-2.627708333333333
 21
1.121909722222222
 31
0.0
  0
LINE
  5
13D
330
10F
100
AcDbEntity
  8
AM_9
100
AcDbLine
 10
-2.627708333333333
 20
0.9319097222222223
 30
0.0
 11
-2.605158333333333
 21
0.9544597222222224
 31
0.0
  0
LINE
  5
13E
330
10F
100
AcDbEntity
  8
AM_9
100
AcDbLine
 10
-2.60515833333334
 20
-0.9544597222222224
 30
0.0
 11
-2.62770833333333
 21
-0.9319097222222223
 31
0.0
  0
LINE
  5
13F
330
10F
100
AcDbEntity
  8
AM_9
100
AcDbLine
 10
-2.62770833333333
 20
-1.121909722222222
 30
0.0
 11
-2.60515833333334
 21
-1.099359722222222
 31
0.0
  0
LINE
  5
140
330
10F
100
AcDbEntity
  8
AM_9
100
AcDbLine
 10
-2.60515833333334
 20
-0.9544597222222224
 30
0.0
 11
-2.60515833333334
 21
-1.099359722222222
 31
0.0
  0
LINE
  5
141
330
10F
100
AcDbEntity
  8
AM_9
100
AcDbLine
 10
-0.7278124999999995
 20
0.6070702437685347
 30
0.0
 11
-2.859375
 21
0.6070702437685344
 31
0.0
  0
LINE
  5
142
330
10F
100
AcDbEntity
  8
AM_9
100
AcDbLine
 10
-2.859375
 20
0.5343603916191675
 30
0.0
 11
-0.7278124999999995
 21
0.5343603916191676
 31
0.0
  0
LINE
  5
143
330
10F
100
AcDbEntity
  8
AM_9
100
AcDbLine
 10
-0.7278125000000001
 20
0.6250000000000003
 30
0.0
 11
-2.859375
 21
0.6250000000000003
 31
0.0
  0
LINE
  5
144
330
10F
100
AcDbEntity
  8
AM_9
100
AcDbLine
 10
-2.859375
 20
-0.6250000000000003
 30
0.0
 11
-0.7278125000000001
 21
-0.6250000000000003
 31
0.0
  0
LINE
  5
145
330
10F
100
AcDbEntity
  8
AM_9
100
AcDbLine
 10
-0.2343749999999999
 20
0.6578947368421053
 30
0.0
 11
-0.7278124999999998
 21
0.6578947368421053
 31
0.0
  0
LINE
  5
146
330
10F
100
AcDbEntity
  8
AM_9
100
AcDbLine
 10
-0.7278124999999998
 20
-0.6578947368421053
 30
0.0
 11
-0.2343749999999999
 21
-0.6578947368421053
 31
0.0
  0
LINE
  5
147
330
10F
100
AcDbEntity
  8
AM_9
100
AcDbLine
 10
-2.859375
 20
0.6378001361361227
 30
0.0
 11
-2.627708333333333
 21
0.6378001361361229
 31
0.0
  0
LINE
  5
148
330
10F
100
AcDbEntity
  8
AM_9
100
AcDbLine
 10
-2.627708333333333
 20
0.5650902839867558
 30
0.0
 11
-2.859375
 21
0.5650902839867556
 31
0.0
  0
LINE
  5
149
330
10F
100
AcDbEntity
  8
AM_9
100
AcDbLine
 10
-2.627708333333333
 20
0.6578947368421053
 30
0.0
 11
-2.697708333333333
 21
0.6578947368421053
 31
0.0
  0
LINE
  5
14A
330
10F
100
AcDbEntity
  8
AM_9
100
AcDbLine
 10
-2.697708333333333
 20
-0.6578947368421053
 30
0.0
 11
-2.627708333333333
 21
-0.6578947368421053
 31
0.0
  0
LINE
  5
14B
330
10F
100
AcDbEntity
  8
AM_9
100
AcDbLine
 10
-0.2343749999999999
 20
-0.8984375
 30
0.0
 11
-0.2343749999999999
 21
0.8984375
 31
0.0
  0
LINE
  5
14C
330
10F
100
AcDbEntity
  8
AM_9
100
AcDbLine
 10
-0.2143749999999995
 20
0.8984375
 30
0.0
 11
-0.2343749999999999
 21
0.8984375
 31
0.0
  0
LINE
  5
14D
330
10F
100
AcDbEntity
  8
AM_9
100
AcDbLine
 10
-0.2343749999999999
 20
-0.8984375
 30
0.0
 11
-0.2143749999999995
 21
-0.8984375
 31
0.0
  0
LINE
  5
14E
330
10F
100
AcDbEntity
  8
AM_9
100
AcDbLine
 10
-2.187708333333333
 20
-0.6505382386916239
 30
0.0
 11
-2.627708333333333
 21
-0.6505382386916239
 31
0.0
  0
LINE
  5
14F
330
10F
100
AcDbEntity
  8
AM_9
100
AcDbLine
 10
-2.187708333333333
 20
0.6505382386916234
 30
0.0
 11
-2.627708333333333
 21
0.6505382386916234
 31
0.0
  0
LINE
  5
150
330
10F
100
AcDbEntity
  8
AM_9
100
AcDbLine
 10
-0.2374118589743595
 20
0.9982638888888888
 30
0.0
 11
-0.5371875000000003
 21
0.9982638888888888
 31
0.0
  0
LINE
  5
151
330
10F
100
AcDbEntity
  8
AM_9
100
AcDbLine
 10
-0.5371875000000003
 20
-0.9982638888888888
 30
0.0
 11
-0.2374118589743595
 21
-0.9982638888888888
 31
0.0
  0
LINE
  5
152
330
10F
100
AcDbEntity
  8
AM_9
100
AcDbLine
 10
-0.2143750000000001
 20
-0.9752270299145298
 30
0.0
 11
-0.2143750000000001
 21
0.9752270299145298
 31
0.0
  0
LINE
  5
153
330
10F
100
AcDbEntity
  8
AM_9
100
AcDbLine
 10
-0.2374118589743595
 20
-0.9982638888888888
 30
0.0
 11
-0.2374118589743595
 21
0.9982638888888888
 31
0.0
  0
ARC
  5
154
330
10F
100
AcDbEntity
  8
AM_9
100
AcDbCircle
 10
-0.237411858974359
 20
0.9752270299145299
 30
0.0
 40
0.0230368589743589
100
AcDbArc
 50
0.0
 51
90.0
  0
ARC
  5
155
330
10F
100
AcDbEntity
  8
AM_9
100
AcDbCircle
 10
-0.2374118589743591
 20
-0.9752270299145299
 30
0.0
 40
0.0230368589743589
100
AcDbArc
 50
270.0
 51
0.0
  0
LINE
  5
156
330
10F
100
AcDbEntity
  8
AM_9
100
AcDbLine
 10
-2.187708333333333
 20
-0.6505382386916239
 30
0.0
 11
-2.187708333333333
 21
-0.8284088841127804
 31
0.0
  0
LINE
  5
157
330
10F
100
AcDbEntity
  8
AM_9
100
AcDbLine
 10
-2.187708333333333
 20
0.8284088841127797
 30
0.0
 11
-2.187708333333333
 21
0.6505382386916234
 31
0.0
  0
LINE
  5
158
330
10F
100
AcDbEntity
  8
AM_9
100
AcDbLine
 10
-0.5371875000000003
 20
-1.207007578016766
 30
0.0
 11
-0.5371875000000003
 21
1.207007578016766
 31
0.0
  0
ARC
  5
159
330
10F
100
AcDbEntity
  8
AM_9
100
AcDbCircle
 10
-0.6371874999999984
 20
1.207007578016766
 30
0.0
 40
0.0999999999999981
100
AcDbArc
 50
0.0
 51
60.00000000000042
  0
ARC
  5
15A
330
10F
100
AcDbEntity
  8
AM_9
100
AcDbCircle
 10
-0.6371874999999984
 20
-1.207007578016766
 30
0.0
 40
0.099999999999998
100
AcDbArc
 50
299.9999999999995
 51
0.0
  0
LINE
  5
15B
330
10F
100
AcDbEntity
  8
AM_9
100
AcDbLine
 10
-0.5871875
 20
-1.293610118395209
 30
0.0
 11
-0.5871875
 21
1.293610118395209
 31
0.0
  0
LINE
  5
15C
330
10F
100
AcDbEntity
  8
AM_9
100
AcDbLine
 10
-0.5871875
 20
1.293610118395209
 30
0.0
 11
-0.7278125000000001
 21
1.3748
 31
0.0
  0
LINE
  5
15D
330
10F
100
AcDbEntity
  8
AM_9
100
AcDbLine
 10
-0.7278125000000001
 20
-1.3748
 30
0.0
 11
-0.5871875
 21
-1.293610118395209
 31
0.0
  0
LINE
  5
15E
330
10F
100
AcDbEntity
  8
AM_9
100
AcDbLine
 10
-1.78125
 20
-1.388933976342702
 30
0.0
 11
-1.6809375
 21
-1.392436966032342
 31
0.0
  0
LINE
  5
15F
330
10F
100
AcDbEntity
  8
AM_9
100
AcDbLine
 10
-1.6809375
 20
1.392436966032342
 30
0.0
 11
-1.78125
 21
1.388933976342702
 31
0.0
  0
LINE
  5
160
330
10F
100
AcDbEntity
  8
AM_9
100
AcDbLine
 10
-1.176860651233932
 20
1.52714375
 30
0.0
 11
-1.231889348766068
 21
1.52714375
 31
0.0
  0
LINE
  5
161
330
10F
100
AcDbEntity
  8
AM_9
100
AcDbLine
 10
-1.231889348766068
 20
-1.52714375
 30
0.0
 11
-1.176860651233932
 21
-1.52714375
 31
0.0
  0
LINE
  5
162
330
10F
100
AcDbEntity
  8
AM_9
100
AcDbLine
 10
-1.6809375
 20
-1.5248
 30
0.0
 11
-1.6809375
 21
1.5248
 31
0.0
  0
ARC
  5
163
330
10F
100
AcDbEntity
  8
AM_9
100
AcDbCircle
 10
-1.6309375
 20
1.524799999999999
 30
0.0
 40
0.05
100
AcDbArc
 50
90.0
 51
180.0
  0
ARC
  5
164
330
10F
100
AcDbEntity
  8
AM_9
100
AcDbCircle
 10
-1.6309375
 20
-1.524799999999999
 30
0.0
 40
0.05
100
AcDbArc
 50
180.0
 51
270.0
  0
LINE
  5
165
330
10F
100
AcDbEntity
  8
AM_9
100
AcDbLine
 10
-0.7278125000000001
 20
-1.5248
 30
0.0
 11
-0.7278125000000001
 21
1.5248
 31
0.0
  0
ARC
  5
166
330
10F
100
AcDbEntity
  8
AM_9
100
AcDbCircle
 10
-0.7778124999999997
 20
1.5248
 30
0.0
 40
0.0499999999999996
100
AcDbArc
 50
0.0
 51
90.0
  0
ARC
  5
167
330
10F
100
AcDbEntity
  8
AM_9
100
AcDbCircle
 10
-0.7778124999999997
 20
-1.5248
 30
0.0
 40
0.0499999999999998
100
AcDbArc
 50
270.0
 51
0.0
  0
LINE
  5
168
330
10F
100
AcDbEntity
  8
AM_9
100
AcDbLine
 10
-1.231889348766068
 20
-1.52714375
 30
0.0
 11
-1.231889348766068
 21
1.52714375
 31
0.0
  0
LINE
  5
169
330
10F
100
AcDbEntity
  8
AM_9
100
AcDbLine
 10
-1.231889348766068
 20
1.52714375
 30
0.0
 11
-1.259403697532136
 21
1.5748
 31
0.0
  0
LINE
  5
16A
330
10F
100
AcDbEntity
  8
AM_9
100
AcDbLine
 10
-1.259403697532136
 20
-1.5748
 30
0.0
 11
-1.231889348766068
 21
-1.52714375
 31
0.0
  0
LINE
  5
16B
330
10F
100
AcDbEntity
  8
AM_9
100
AcDbLine
 10
-0.7778124999999998
 20
-1.5748
 30
0.0
 11
-0.7778124999999998
 21
1.5748
 31
0.0
  0
LINE
  5
16C
330
10F
100
AcDbEntity
  8
AM_9
100
AcDbLine
 10
-0.7778124999999998
 20
1.5748
 30
0.0
 11
-1.149346302467864
 21
1.5748
 31
0.0
  0
LINE
  5
16D
330
10F
100
AcDbEntity
  8
AM_9
100
AcDbLine
 10
-1.149346302467864
 20
-1.5748
 30
0.0
 11
-0.7778124999999998
 21
-1.5748
 31
0.0
  0
LINE
  5
16E
330
10F
100
AcDbEntity
  8
AM_9
100
AcDbLine
 10
-1.259403697532136
 20
-1.5748
 30
0.0
 11
-1.259403697532136
 21
1.5748
 31
0.0
  0
LINE
  5
16F
330
10F
100
AcDbEntity
  8
AM_9
100
AcDbLine
 10
-1.6309375
 20
-1.5748
 30
0.0
 11
-1.6309375
 21
1.5748
 31
0.0
  0
LINE
  5
170
330
10F
100
AcDbEntity
  8
AM_9
100
AcDbLine
 10
-1.259403697532136
 20
1.5748
 30
0.0
 11
-1.6309375
 21
1.5748
 31
0.0
  0
LINE
  5
171
330
10F
100
AcDbEntity
  8
AM_9
100
AcDbLine
 10
-1.6309375
 20
-1.5748
 30
0.0
 11
-1.259403697532136
 21
-1.5748
 31
0.0
  0
LINE
  5
172
330
10F
100
AcDbEntity
  8
AM_9
100
AcDbLine
 10
-1.149346302467864
 20
-1.5748
 30
0.0
 11
-1.149346302467864
 21
1.5748
 31
0.0
  0
LINE
  5
173
330
10F
100
AcDbEntity
  8
AM_9
100
AcDbLine
 10
-1.176860651233932
 20
-1.52714375
 30
0.0
 11
-1.176860651233932
 21
1.52714375
 31
0.0
  0
LINE
  5
174
330
10F
100
AcDbEntity
  8
AM_9
100
AcDbLine
 10
-1.176860651233932
 20
-1.52714375
 30
0.0
 11
-1.149346302467864
 21
-1.5748
 31
0.0
  0
LINE
  5
175
330
10F
100
AcDbEntity
  8
AM_9
100
AcDbLine
 10
-1.149346302467864
 20
1.5748
 30
0.0
 11
-1.176860651233932
 21
1.52714375
 31
0.0
  0
LINE
  5
176
330
10F
100
AcDbEntity
  8
AM_5
100
AcDbLine
 10
-1.867708333333333
 20
1.099359722222222
 30
0.0
 11
-1.867708333333333
 21
1.121909722222222
 31
0.0
  0
LINE
  5
177
330
10F
100
AcDbEntity
  8
AM_5
100
AcDbLine
 10
-1.867708333333333
 20
1.121909722222222
 30
0.0
 11
-1.854689084763107
 21
1.099359722222222
 31
0.0
  0
LINE
  5
178
330
10F
100
AcDbEntity
  8
AM_5
100
AcDbLine
 10
-1.867708333333333
 20
0.9544597222222224
 30
0.0
 11
-1.867708333333333
 21
0.9319097222222223
 31
0.0
  0
LINE
  5
179
330
10F
100
AcDbEntity
  8
AM_5
100
AcDbLine
 10
-1.867708333333333
 20
0.9319097222222223
 30
0.0
 11
-1.854689084763107
 21
0.9544597222222224
 31
0.0
  0
LINE
  5
17A
330
10F
100
AcDbEntity
  8
AM_5
100
AcDbLine
 10
-1.867708333333335
 20
-1.099359722222222
 30
0.0
 11
-1.867708333333335
 21
-1.121909722222222
 31
0.0
  0
LINE
  5
17B
330
10F
100
AcDbEntity
  8
AM_5
100
AcDbLine
 10
-1.867708333333335
 20
-1.121909722222222
 30
0.0
 11
-1.854689084763127
 21
-1.099359722222222
 31
0.0
  0
LINE
  5
17C
330
10F
100
AcDbEntity
  8
AM_5
100
AcDbLine
 10
-1.867708333333335
 20
-0.9544597222222224
 30
0.0
 11
-1.867708333333335
 21
-0.9319097222222223
 31
0.0
  0
LINE
  5
17D
330
10F
100
AcDbEntity
  8
AM_5
100
AcDbLine
 10
-1.867708333333335
 20
-0.9319097222222223
 30
0.0
 11
-1.854689084763127
 21
-0.9544597222222224
 31
0.0
  0
LINE
  5
180
330
10F
100
AcDbEntity
  8
AM_7
100
AcDbLine
 10
-1.745708333333333
 20
1.026909722222222
 30
0.0
 11
-2.843758333333333
 21
1.026909722222222
 31
0.0
  0
LINE
  5
181
330
10F
100
AcDbEntity
  8
AM_7
100
AcDbLine
 10
-1.745708333333339
 20
-1.026909722222222
 30
0.0
 11
-2.843758333333333
 21
-1.026909722222222
 31
0.0
  0
LINE
  5
182
330
10F
100
AcDbEntity
  8
AM_4
100
AcDbLine
 10
-2.697708333333333
 20
0.6578947368421053
 30
0.0
 11
-2.859375
 21
0.6578947368421053
 31
0.0
  0
LINE
  5
183
330
10F
100
AcDbEntity
  8
AM_4
100
AcDbLine
 10
-2.859375
 20
-0.6578947368421053
 30
0.0
 11
-2.697708333333333
 21
-0.6578947368421053
 31
0.0
  0
LINE
  5
184
330
10F
100
AcDbEntity
  8
AM_4
100
AcDbLine
 10
-2.859375
 20
-0.6578947368421053
 30
0.0
 11
-2.859375
 21
0.6578947368421053
 31
0.0
  0
ARC
  5
185
330
10F
100
AcDbEntity
  8
AM_4
100
AcDbCircle
 10
-2.577708333333334
 20
-1.311090561259647
 30
0.0
 40
0.0499999999999989
100
AcDbArc
 50
180.0
 51
268.000000000001
  0
ARC
  5
186
330
10F
100
AcDbEntity
  8
AM_4
100
AcDbCircle
 10
-2.577708333333334
 20
1.311090561259647
 30
0.0
 40
0.0499999999999992
100
AcDbArc
 50
91.99999999999899
 51
180.0
  0
LWPOLYLINE
  5
187
330
10F
100
AcDbEntity
  8
AM_4
100
AcDbPolyline
 90
        6
 70
     0
 43
0.0
 10
-2.627708333333333
 20
1.051644804876985
 10
-2.62719615334545
 20
1.056745917779431
 10
-2.621950969166353
 20
1.068288439312639
 10
-2.611605922695886
 20
1.077904345034989
 10
-2.597434162505154
 20
1.084467122687451
 10
-2.579453308168458
 20
1.087341527345923
  0
LWPOLYLINE
  5
188
330
10F
100
AcDbEntity
  8
AM_4
100
AcDbPolyline
 90
        6
 70
     0
 43
0.0
 10
-2.579453308168458
 20
-1.087341527345923
 10
-2.595772767759576
 20
-1.084951493284856
 10
-2.610062212123401
 20
-1.078879906620323
 10
-2.620785152478868
 20
-1.06978237286775
 10
-2.626753046236281
 20
-1.058595723464173
 10
-2.627708333333333
 20
-1.051644804876985
  0
LINE
  5
189
330
10F
100
AcDbEntity
  8
AM_4
100
AcDbLine
 10
-2.187708333333333
 20
-0.9192388155425117
 30
0.0
 11
-2.627708333333333
 21
-0.9192388155425117
 31
0.0
  0
LINE
  5
18A
330
10F
100
AcDbEntity
  8
AM_4
100
AcDbLine
 10
-2.187708333333333
 20
0.9192388155425117
 30
0.0
 11
-2.627708333333333
 21
0.9192388155425117
 31
0.0
  0
LWPOLYLINE
  5
18B
330
10F
100
AcDbEntity
  8
AM_4
100
AcDbPolyline
 90
        6
 70
     0
 43
0.0
 10
-2.579453308168458
 20
0.8186409504950346
 10
-2.595772767759576
 20
0.8162509164339673
 10
-2.610062212123401
 20
0.810179329769434
 10
-2.620785152478868
 20
0.8010817960168621
 10
-2.626753046236281
 20
0.7898951466132845
 10
-2.627708333333333
 20
0.7829442280260964
  0
LWPOLYLINE
  5
18C
330
10F
100
AcDbEntity
  8
AM_4
100
AcDbPolyline
 90
        6
 70
     0
 43
0.0
 10
-2.627708333333333
 20
-0.7829442280260974
 10
-2.62719615334545
 20
-0.7880453409285433
 10
-2.621950969166353
 20
-0.7995878624617514
 10
-2.611605922695886
 20
-0.8092037681841014
 10
-2.597434162505154
 20
-0.8157665458365635
 10
-2.579453308168458
 20
-0.8186409504950352
  0
LINE
  5
18D
330
10F
100
AcDbEntity
  8
AM_4
100
AcDbLine
 10
-2.579453308168458
 20
-0.8186409504950352
 30
0.0
 11
-2.579453308168458
 21
0.8186409504950346
 31
0.0
  0
LINE
  5
18E
330
10F
100
AcDbEntity
  8
AM_4
100
AcDbLine
 10
-2.579453308168458
 20
-0.8186409504950352
 30
0.0
 11
-2.187708333333333
 21
-0.8284088841127804
 31
0.0
  0
LINE
  5
18F
330
10F
100
AcDbEntity
  8
AM_4
100
AcDbLine
 10
-2.187708333333333
 20
-0.8284088841127804
 30
0.0
 11
-2.187708333333333
 21
-1.097109460963668
 31
0.0
  0
LINE
  5
190
330
10F
100
AcDbEntity
  8
AM_4
100
AcDbLine
 10
-2.187708333333333
 20
-1.097109460963668
 30
0.0
 11
-2.579453308168458
 21
-1.087341527345923
 31
0.0
  0
LINE
  5
191
330
10F
100
AcDbEntity
  8
AM_4
100
AcDbLine
 10
-2.579453308168458
 20
1.087341527345923
 30
0.0
 11
-2.579453308168458
 21
1.361060102610601
 31
0.0
  0
LINE
  5
192
330
10F
100
AcDbEntity
  8
AM_4
100
AcDbLine
 10
-2.579453308168458
 20
1.087341527345923
 30
0.0
 11
-2.187708333333333
 21
1.097109460963668
 31
0.0
  0
LINE
  5
193
330
10F
100
AcDbEntity
  8
AM_4
100
AcDbLine
 10
-2.187708333333333
 20
1.097109460963668
 30
0.0
 11
-2.187708333333333
 21
0.8284088841127797
 31
0.0
  0
LINE
  5
194
330
10F
100
AcDbEntity
  8
AM_4
100
AcDbLine
 10
-2.187708333333333
 20
0.8284088841127797
 30
0.0
 11
-2.579453308168458
 21
0.8186409504950346
 31
0.0
  0
LINE
  5
195
330
10F
100
AcDbEntity
  8
AM_4
100
AcDbLine
 10
-2.579453308168458
 20
-1.361060102610601
 30
0.0
 11
-1.78125
 21
-1.388933976342702
 31
0.0
  0
LINE
  5
196
330
10F
100
AcDbEntity
  8
AM_4
100
AcDbLine
 10
-1.78125
 20
1.388933976342702
 30
0.0
 11
-2.579453308168458
 21
1.361060102610601
 31
0.0
  0
LINE
  5
197
330
10F
100
AcDbEntity
  8
AM_4
100
AcDbLine
 10
-2.579453308168458
 20
-1.361060102610601
 30
0.0
 11
-2.579453308168458
 21
-1.087341527345923
 31
0.0
  0
ENDBLK
  5
112
330
10F
100
AcDbEntity
  8
0
100
AcDbBlockEnd
  0
BLOCK
  5
19A
330
198
100
AcDbEntity
  8
0
100
AcDbBlockBegin
  2
6_405015E_Inch_0_in_069695_2
 70
     2
 10
0.0
 20
0.0
 30
0.0
  3
6_405015E_Inch_0_in_069695_2
  1

  0
ATTDEF
  5
19C
330
198
100
AcDbEntity
  8
AM_6
100
AcDbText
 10
4.111965742770462
 20
2.41325
 30
0.0
 40
0.5
  1
405015E -Inch
100
AcDbAttributeDefinition
  3

  2
NN
 70
     8
280
     0
  0
ATTDEF
  5
19D
330
198
100
AcDbEntity
  8
AM_6
100
AcDbText
 10
4.111965742770462
 20
1.91325
 30
0.0
 40
0.5
  1
Grease Fitting
100
AcDbAttributeDefinition
  3

  2
NT
 70
     8
280
     0
  0
ATTDEF
  5
19E
330
198
100
AcDbEntity
  8
AM_6
100
AcDbText
 10
4.111965742770462
 20
1.41325
 30
0.0
 40
0.5
  1
405015E-Inch
100
AcDbAttributeDefinition
  3

  2
NB
 70
     8
280
     0
  0
ATTDEF
  5
19F
330
198
100
AcDbEntity
  8
AM_6
100
AcDbText
 10
4.111965742770462
 20
0.9132500000000001
 30
0.0
 40
0.5
  1
$MN.-Inch
100
AcDbAttributeDefinition
  3

  2
NBSYN
 70
     8
280
     0
  0
ATTDEF
  5
1A0
330
198
100
AcDbEntity
  8
AM_6
100
AcDbText
 10
4.111965742770462
 20
0.4132500000000001
 30
0.0
 40
0.5
  1
405015E
100
AcDbAttributeDefinition
  3

  2
LINA
 70
     8
280
     0
  0
ATTDEF
  5
1A1
330
198
100
AcDbEntity
  8
AM_6
100
AcDbText
 10
4.111965742770462
 20
-0.0867499999999999
 30
0.0
 40
0.5
  1
405015E
100
AcDbAttributeDefinition
  3

  2
MN
 70
     8
280
     0
  0
ATTDEF
  5
1A2
330
198
100
AcDbEntity
  8
AM_6
100
AcDbText
 10
4.111965742770462
 20
-0.5867499999999999
 30
0.0
 40
0.5
  1
1/8 x 27PTF
100
AcDbAttributeDefinition
  3

  2
T
 70
     8
280
     0
  0
ATTDEF
  5
1A3
330
198
100
AcDbEntity
  8
AM_6
100
AcDbText
 10
4.111965742770462
 20
-1.08675
 30
0.0
 40
0.5
  1
baldor
100
AcDbAttributeDefinition
  3

  2
COMPANY
 70
     8
280
     0
  0
LINE
  5
1A4
330
198
100
AcDbEntity
  8
AM_9
100
AcDbLine
 10
-1.302527872472269
 20
1.74125
 30
0.0
 11
-0.978722127527731
 21
1.74125
 31
0.0
  0
LINE
  5
1A5
330
198
100
AcDbEntity
  8
AM_9
100
AcDbLine
 10
-0.978722127527731
 20
1.74125
 30
0.0
 11
-0.9420073732187846
 21
1.777964754308947
 31
0.0
  0
LINE
  5
1A6
330
198
100
AcDbEntity
  8
AM_9
100
AcDbLine
 10
-1.339242626781215
 20
1.777964754308947
 30
0.0
 11
-1.302527872472269
 21
1.74125
 31
0.0
  0
LINE
  5
1A7
330
198
100
AcDbEntity
  8
AM_9
100
AcDbLine
 10
-1.339242626781215
 20
1.777964754308947
 30
0.0
 11
-0.9420073732187846
 21
1.777964754308947
 31
0.0
  0
LINE
  5
1A8
330
198
100
AcDbEntity
  8
AM_9
100
AcDbLine
 10
-0.9420073732187846
 20
1.777964754308947
 30
0.0
 11
-0.9348731027769304
 21
2.00625
 31
0.0
  0
LINE
  5
1A9
330
198
100
AcDbEntity
  8
AM_9
100
AcDbLine
 10
-1.346376897223069
 20
2.00625
 30
0.0
 11
-1.339242626781215
 21
1.777964754308947
 31
0.0
  0
LINE
  5
1AA
330
198
100
AcDbEntity
  8
AM_5
100
AcDbLine
 10
-0.972475875147652
 20
1.941120087748463
 30
0.0
 11
-0.978722127527731
 21
1.74125
 31
0.0
  0
LINE
  5
1AB
330
198
100
AcDbEntity
  8
AM_5
100
AcDbLine
 10
-0.9348731027769304
 20
2.00625
 30
0.0
 11
-0.972475875147652
 21
1.941120087748463
 31
0.0
  0
LINE
  5
1AC
330
198
100
AcDbEntity
  8
AM_5
100
AcDbLine
 10
-1.344341485751557
 20
1.941120087748463
 30
0.0
 11
-0.9369085142484433
 21
1.941120087748463
 31
0.0
  0
LINE
  5
1AD
330
198
100
AcDbEntity
  8
AM_5
100
AcDbLine
 10
-1.308774124852348
 20
1.941120087748463
 30
0.0
 11
-1.302527872472269
 21
1.74125
 31
0.0
  0
LINE
  5
1AE
330
198
100
AcDbEntity
  8
AM_5
100
AcDbLine
 10
-1.346376897223069
 20
2.00625
 30
0.0
 11
-1.308774124852348
 21
1.941120087748463
 31
0.0
  0
LINE
  5
1AF
330
198
100
AcDbEntity
  8
AM_7
100
AcDbLine
 10
-1.140625
 20
2.41325
 30
0.0
 11
-1.140625
 21
1.70925
 31
0.0
  0
LINE
  5
1B0
330
198
100
AcDbEntity
  8
AM_4
100
AcDbLine
 10
-1.035625
 20
2.21125
 30
0.0
 11
-1.035625
 21
2.24125
 31
0.0
  0
LINE
  5
1B1
330
198
100
AcDbEntity
  8
AM_4
100
AcDbLine
 10
-1.245625
 20
2.24125
 30
0.0
 11
-1.245625
 21
2.21125
 31
0.0
  0
LINE
  5
1B2
330
198
100
AcDbEntity
  8
AM_4
100
AcDbLine
 10
-1.359375
 20
2.10625
 30
0.0
 11
-0.9218749999999999
 21
2.10625
 31
0.0
  0
LINE
  5
1B3
330
198
100
AcDbEntity
  8
AM_4
100
AcDbLine
 10
-0.8880342572295388
 20
2.097182400303386
 30
0.0
 11
-0.9218749999999999
 21
2.10625
 31
0.0
  0
LINE
  5
1B4
330
198
100
AcDbEntity
  8
AM_4
100
AcDbLine
 10
-1.359375
 20
2.10625
 30
0.0
 11
-1.393215742770461
 21
2.097182400303386
 31
0.0
  0
LINE
  5
1B5
330
198
100
AcDbEntity
  8
AM_4
100
AcDbLine
 10
-0.921875
 20
2.00625
 30
0.0
 11
-0.8880342572295388
 21
2.015317599696615
 31
0.0
  0
LINE
  5
1B6
330
198
100
AcDbEntity
  8
AM_4
100
AcDbLine
 10
-1.393215742770461
 20
2.015317599696615
 30
0.0
 11
-1.359375
 21
2.00625
 31
0.0
  0
LINE
  5
1B7
330
198
100
AcDbEntity
  8
AM_4
100
AcDbLine
 10
-1.245625
 20
2.21125
 30
0.0
 11
-1.035625
 21
2.21125
 31
0.0
  0
LINE
  5
1B8
330
198
100
AcDbEntity
  8
AM_4
100
AcDbLine
 10
-1.245625
 20
2.21125
 30
0.0
 11
-1.259445090734898
 21
2.179003121618572
 31
0.0
  0
LINE
  5
1B9
330
198
100
AcDbEntity
  8
AM_4
100
AcDbLine
 10
-1.021804909265102
 20
2.179003121618572
 30
0.0
 11
-1.035625
 21
2.21125
 31
0.0
  0
LINE
  5
1BA
330
198
100
AcDbEntity
  8
AM_4
100
AcDbLine
 10
-1.245625
 20
2.24125
 30
0.0
 11
-1.035625
 21
2.24125
 31
0.0
  0
LINE
  5
1BB
330
198
100
AcDbEntity
  8
AM_4
100
AcDbLine
 10
-1.035625
 20
2.24125
 30
0.0
 11
-1.005625
 21
2.30125
 31
0.0
  0
LINE
  5
1BC
330
198
100
AcDbEntity
  8
AM_4
100
AcDbLine
 10
-1.275625
 20
2.30125
 30
0.0
 11
-1.245625
 21
2.24125
 31
0.0
  0
LINE
  5
1BD
330
198
100
AcDbEntity
  8
AM_4
100
AcDbLine
 10
-1.243302901933188
 20
2.38125
 30
0.0
 11
-1.037947098066812
 21
2.38125
 31
0.0
  0
LINE
  5
1BE
330
198
100
AcDbEntity
  8
AM_4
100
AcDbLine
 10
-1.275625
 20
2.30125
 30
0.0
 11
-1.005625
 21
2.30125
 31
0.0
  0
LINE
  5
1BF
330
198
100
AcDbEntity
  8
AM_4
100
AcDbLine
 10
-1.243302901933188
 20
2.38125
 30
0.0
 11
-1.275625
 21
2.30125
 31
0.0
  0
LINE
  5
1C0
330
198
100
AcDbEntity
  8
AM_4
100
AcDbLine
 10
-1.005625
 20
2.30125
 30
0.0
 11
-1.037947098066812
 21
2.38125
 31
0.0
  0
LINE
  5
1C1
330
198
100
AcDbEntity
  8
AM_4
100
AcDbLine
 10
-1.259445090734898
 20
2.179003121618572
 30
0.0
 11
-1.021804909265102
 21
2.179003121618572
 31
0.0
  0
LINE
  5
1C2
330
198
100
AcDbEntity
  8
AM_4
100
AcDbLine
 10
-1.259445090734898
 20
2.179003121618572
 30
0.0
 11
-1.313159053283016
 21
2.124568198540882
 31
0.0
  0
LINE
  5
1C3
330
198
100
AcDbEntity
  8
AM_4
100
AcDbLine
 10
-0.9680909467169845
 20
2.124568198540882
 30
0.0
 11
-1.021804909265102
 21
2.179003121618572
 31
0.0
  0
LINE
  5
1C4
330
198
100
AcDbEntity
  8
AM_4
100
AcDbLine
 10
-1.313159053283016
 20
2.124568198540882
 30
0.0
 11
-0.9680909467169845
 21
2.124568198540882
 31
0.0
  0
LINE
  5
1C5
330
198
100
AcDbEntity
  8
AM_4
100
AcDbLine
 10
-1.313159053283016
 20
2.124568198540882
 30
0.0
 11
-1.354375
 21
2.10625
 31
0.0
  0
LINE
  5
1C6
330
198
100
AcDbEntity
  8
AM_4
100
AcDbLine
 10
-0.9268749999999999
 20
2.10625
 30
0.0
 11
-0.9680909467169845
 21
2.124568198540882
 31
0.0
  0
LINE
  5
1C7
330
198
100
AcDbEntity
  8
AM_4
100
AcDbLine
 10
-0.8880342572295388
 20
2.097182400303386
 30
0.0
 11
-0.8880342572295388
 21
2.015317599696615
 31
0.0
  0
LWPOLYLINE
  5
1C8
330
198
100
AcDbEntity
  8
AM_4
100
AcDbPolyline
 90
        4
 70
     0
 43
0.0
 10
-0.951181942922154
 20
2.10625
 10
-0.9353950214990002
 20
2.105642585996001
 10
-0.9038038008936625
 20
2.100987183504836
 10
-0.8880342572295388
 20
2.097182400303386
  0
LWPOLYLINE
  5
1C9
330
198
100
AcDbEntity
  8
AM_4
100
AcDbPolyline
 90
        4
 70
     0
 43
0.0
 10
-1.014329628614769
 20
2.097182400303386
 10
-0.9907707985611351
 20
2.102528587191168
 10
-0.9670619614464611
 20
2.105635438185772
 10
-0.951181942922154
 20
2.10625
  0
LWPOLYLINE
  5
1CA
330
198
100
AcDbEntity
  8
AM_4
100
AcDbPolyline
 90
        4
 70
     0
 43
0.0
 10
-0.8880342572295388
 20
2.015317599696615
 10
-0.911593087283173
 20
2.009971412808832
 10
-0.9353019243978469
 20
2.006864561814227
 10
-0.951181942922154
 20
2.00625
  0
LWPOLYLINE
  5
1CB
330
198
100
AcDbEntity
  8
AM_4
100
AcDbPolyline
 90
        4
 70
     0
 43
0.0
 10
-0.951181942922154
 20
2.00625
 10
-0.9669688643453077
 20
2.006857414003999
 10
-0.9827747889542072
 20
2.008646206041016
 10
-1.014329628614769
 20
2.015317599696615
  0
LINE
  5
1CC
330
198
100
AcDbEntity
  8
AM_4
100
AcDbLine
 10
-1.014329628614769
 20
2.097182400303386
 30
0.0
 11
-1.014329628614769
 21
2.015317599696615
 31
0.0
  0
LWPOLYLINE
  5
1CD
330
198
100
AcDbEntity
  8
AM_4
100
AcDbPolyline
 90
        4
 70
     0
 43
0.0
 10
-1.140625
 20
2.10625
 10
-1.092225183944101
 20
2.104832439282863
 10
-1.043825367888202
 20
2.100767587482157
 10
-1.014329628614769
 20
2.097182400303386
  0
LWPOLYLINE
  5
1CE
330
198
100
AcDbEntity
  8
AM_4
100
AcDbPolyline
 90
        5
 70
     0
 43
0.0
 10
-1.266920371385231
 20
2.097182400303386
 10
-1.235550154415046
 20
2.100969184458392
 10
-1.204056614691437
 20
2.10383547505038
 10
-1.172385037048614
 20
2.105635438185772
 10
-1.140625
 20
2.10625
  0
LWPOLYLINE
  5
1CF
330
198
100
AcDbEntity
  8
AM_4
100
AcDbPolyline
 90
        4
 70
     0
 43
0.0
 10
-1.014329628614769
 20
2.015317599696615
 10
-1.043825367888202
 20
2.011732412517844
 10
-1.092082558752246
 20
2.007675828243072
 10
-1.140625
 20
2.00625
  0
LINE
  5
1D0
330
198
100
AcDbEntity
  8
AM_4
100
AcDbLine
 10
-1.266920371385231
 20
2.097182400303386
 30
0.0
 11
-1.266920371385231
 21
2.015317599696615
 31
0.0
  0
LWPOLYLINE
  5
1D1
330
198
100
AcDbEntity
  8
AM_4
100
AcDbPolyline
 90
        4
 70
     0
 43
0.0
 10
-1.330068057077846
 20
2.10625
 10
-1.314281135654692
 20
2.105642585996001
 10
-1.298475211045792
 20
2.103853793958984
 10
-1.266920371385231
 20
2.097182400303386
  0
LWPOLYLINE
  5
1D2
330
198
100
AcDbEntity
  8
AM_4
100
AcDbPolyline
 90
        4
 70
     0
 43
0.0
 10
-1.393215742770461
 20
2.097182400303386
 10
-1.369656912716827
 20
2.102528587191168
 10
-1.345948075602153
 20
2.105635438185772
 10
-1.330068057077846
 20
2.10625
  0
LINE
  5
1D3
330
198
100
AcDbEntity
  8
AM_4
100
AcDbLine
 10
-1.393215742770461
 20
2.097182400303386
 30
0.0
 11
-1.393215742770461
 21
2.015317599696615
 31
0.0
  0
LWPOLYLINE
  5
1D4
330
198
100
AcDbEntity
  8
AM_4
100
AcDbPolyline
 90
        4
 70
     0
 43
0.0
 10
-1.330068057077846
 20
2.00625
 10
-1.345854978501
 20
2.006857414003999
 10
-1.361660903109899
 20
2.008646206041016
 10
-1.393215742770461
 20
2.015317599696615
  0
LWPOLYLINE
  5
1D5
330
198
100
AcDbEntity
  8
AM_4
100
AcDbPolyline
 90
        5
 70
     0
 43
0.0
 10
-1.140625
 20
2.00625
 10
-1.172198842846308
 20
2.006857414003999
 10
-1.203772685692615
 20
2.008643380785034
 10
-1.235381284056983
 20
2.011512816495164
 10
-1.266920371385231
 20
2.015317599696615
  0
LWPOLYLINE
  5
1D6
330
198
100
AcDbEntity
  8
AM_4
100
AcDbPolyline
 90
        4
 70
     0
 43
0.0
 10
-1.266920371385231
 20
2.015317599696615
 10
-1.290479201438865
 20
2.009971412808832
 10
-1.314188038553539
 20
2.006864561814227
 10
-1.330068057077846
 20
2.00625
  0
ENDBLK
  5
19B
330
198
100
AcDbEntity
  8
0
100
AcDbBlockEnd
  0
BLOCK
  5
1D9
330
1D7
100
AcDbEntity
  8
0
100
AcDbBlockBegin
  2
7_069695H_0_in_069695_2
 70
     2
 10
0.0
 20
0.0
 30
0.0
  3
7_069695H_0_in_069695_2
  1

  0
ATTDEF
  5
1DB
330
1D7
100
AcDbEntity
  8
AM_6
100
AcDbText
 10
5.103359375022965
 20
2.375
 30
0.0
 40
0.5
  1
F4S-IP -(Contact Seal)-Housing -Inch
100
AcDbAttributeDefinition
  3

  2
NN
 70
     8
280
     0
  0
ATTDEF
  5
1DC
330
1D7
100
AcDbEntity
  8
AM_6
100
AcDbText
 10
5.103359375022965
 20
1.875
 30
0.0
 40
0.5
  1
Imperial 4 Bolt Square Flange Bearings
100
AcDbAttributeDefinition
  3

  2
NT
 70
     8
280
     0
  0
ATTDEF
  5
1DD
330
1D7
100
AcDbEntity
  8
AM_6
100
AcDbText
 10
5.103359375022965
 20
1.375
 30
0.0
 40
0.5
  1
069695H
100
AcDbAttributeDefinition
  3

  2
NB
 70
     8
280
     0
  0
ATTDEF
  5
1DE
330
1D7
100
AcDbEntity
  8
AM_6
100
AcDbText
 10
5.103359375022965
 20
0.875
 30
0.0
 40
0.5
  1
$PN.H
100
AcDbAttributeDefinition
  3

  2
NBSYN
 70
     8
280
     0
  0
ATTDEF
  5
1DF
330
1D7
100
AcDbEntity
  8
AM_6
100
AcDbText
 10
5.103359375022965
 20
0.375
 30
0.0
 40
0.5
  1
069695
100
AcDbAttributeDefinition
  3

  2
LINA
 70
     8
280
     0
  0
ATTDEF
  5
1E0
330
1D7
100
AcDbEntity
  8
AM_6
100
AcDbText
 10
5.103359375022965
 20
-0.125
 30
0.0
 40
0.5
  1
1-1/4
100
AcDbAttributeDefinition
  3

  2
SS
 70
     8
280
     0
  0
ATTDEF
  5
1E1
330
1D7
100
AcDbEntity
  8
AM_6
100
AcDbText
 10
5.103359375022965
 20
-0.625
 30
0.0
 40
0.5
  1
069695
100
AcDbAttributeDefinition
  3

  2
PN
 70
     8
280
     0
  0
ATTDEF
  5
1E2
330
1D7
100
AcDbEntity
  8
AM_6
100
AcDbText
 10
5.103359375022965
 20
-1.125
 30
0.0
 40
0.5
  1
F4S-IP-104R
100
AcDbAttributeDefinition
  3

  2
DESCRIPTION
 70
     8
280
     0
  0
ATTDEF
  5
1E3
330
1D7
100
AcDbEntity
  8
AM_6
100
AcDbText
 10
5.103359375022965
 20
-1.625
 30
0.0
 40
0.5
  1
Non-Expansion Type
100
AcDbAttributeDefinition
  3

  2
EF
 70
     8
280
     0
  0
ATTDEF
  5
1E4
330
1D7
100
AcDbEntity
  8
AM_6
100
AcDbText
 10
5.103359375022965
 20
-2.125
 30
0.0
 40
0.5
  1
Contact Seal
100
AcDbAttributeDefinition
  3

  2
ST
 70
     8
280
     0
  0
ATTDEF
  5
1E5
330
1D7
100
AcDbEntity
  8
AM_6
100
AcDbText
 10
5.103359375022965
 20
-2.625
 30
0.0
 40
0.5
  1
2-5/8
100
AcDbAttributeDefinition
  3

  2
A
 70
     8
280
     0
  0
ATTDEF
  5
1E6
330
1D7
100
AcDbEntity
  8
AM_6
100
AcDbText
 10
5.103359375022965
 20
-3.125
 30
0.0
 40
0.5
  1
4-3/4
100
AcDbAttributeDefinition
  3

  2
B
 70
     8
280
     0
  0
ATTDEF
  5
1E7
330
1D7
100
AcDbEntity
  8
AM_6
100
AcDbText
 10
5.103359375022965
 20
-3.625
 30
0.0
 40
0.5
  1
2-55/64
100
AcDbAttributeDefinition
  3

  2
C
 70
     8
280
     0
  0
ATTDEF
  5
1E8
330
1D7
100
AcDbEntity
  8
AM_6
100
AcDbText
 10
5.103359375022965
 20
-4.125
 30
0.0
 40
0.5
  1
3-17/32
100
AcDbAttributeDefinition
  3

  2
D
 70
     8
280
     0
  0
ATTDEF
  5
1E9
330
1D7
100
AcDbEntity
  8
AM_6
100
AcDbText
 10
5.103359375022965
 20
-4.625
 30
0.0
 40
0.5
  1
1/2
100
AcDbAttributeDefinition
  3

  2
F
 70
     8
280
     0
  0
ATTDEF
  5
1EA
330
1D7
100
AcDbEntity
  8
AM_6
100
AcDbText
 10
5.103359375022965
 20
-5.125
 30
0.0
 40
0.5
  1
1-5/64
100
AcDbAttributeDefinition
  3

  2
G
 70
     8
280
     0
  0
ATTDEF
  5
1EB
330
1D7
100
AcDbEntity
  8
AM_6
100
AcDbText
 10
5.103359375022965
 20
-5.625
 30
0.0
 40
0.5
  1
1/2
100
AcDbAttributeDefinition
  3

  2
H
 70
     8
280
     0
  0
ATTDEF
  5
1EC
330
1D7
100
AcDbEntity
  8
AM_6
100
AcDbText
 10
5.103359375022965
 20
-6.125
 30
0.0
 40
0.5
  1
3-13/16
100
AcDbAttributeDefinition
  3

  2
J
 70
     8
280
     0
  0
ATTDEF
  5
1ED
330
1D7
100
AcDbEntity
  8
AM_6
100
AcDbText
 10
5.103359375022965
 20
-6.625
 30
0.0
 40
0.5
  1
5
100
AcDbAttributeDefinition
  3

  2
K
 70
     8
280
     0
  0
ATTDEF
  5
1EE
330
1D7
100
AcDbEntity
  8
AM_6
100
AcDbText
 10
5.103359375022965
 20
-7.125
 30
0.0
 40
0.5
  1
2-23/32
100
AcDbAttributeDefinition
  3

  2
L
 70
     8
280
     0
  0
ATTDEF
  5
1EF
330
1D7
100
AcDbEntity
  8
AM_6
100
AcDbText
 10
5.103359375022965
 20
-7.625
 30
0.0
 40
0.5
  1
2-31/64
100
AcDbAttributeDefinition
  3

  2
N
 70
     8
280
     0
  0
ATTDEF
  5
1F0
330
1D7
100
AcDbEntity
  8
AM_6
100
AcDbText
 10
5.103359375022965
 20
-8.125
 30
0.0
 40
0.5
  1
15/64
100
AcDbAttributeDefinition
  3

  2
P
 70
     8
280
     0
  0
ATTDEF
  5
1F1
330
1D7
100
AcDbEntity
  8
AM_6
100
AcDbText
 10
5.103359375022965
 20
-8.625
 30
0.0
 40
0.5
  1
3/16
100
AcDbAttributeDefinition
  3

  2
X
 70
     8
280
     0
  0
ATTDEF
  5
1F2
330
1D7
100
AcDbEntity
  8
AM_6
100
AcDbText
 10
5.103359375022965
 20
-9.125
 30
0.0
 40
0.5
  1
0.020
100
AcDbAttributeDefinition
  3

  2
Y
 70
     8
280
     0
  0
ATTDEF
  5
1F3
330
1D7
100
AcDbEntity
  8
AM_6
100
AcDbText
 10
5.103359375022965
 20
-9.625
 30
0.0
 40
0.5
  1
1-51/64
100
AcDbAttributeDefinition
  3

  2
Z
 70
     8
280
     0
  0
ATTDEF
  5
1F4
330
1D7
100
AcDbEntity
  8
AM_6
100
AcDbText
 10
5.103359375022965
 20
-10.125
 30
0.0
 40
0.5
  1
baldor
100
AcDbAttributeDefinition
  3

  2
COMPANY
 70
     8
280
     0
  0
LINE
  5
1F5
330
1D7
100
AcDbEntity
  8
AM_9
100
AcDbLine
 10
-0.4499999999999999
 20
-2.318263121826255
 30
0.0
 11
-0.4999999999999999
 21
-2.318263121826255
 31
0.0
  0
LINE
  5
1F6
330
1D7
100
AcDbEntity
  8
AM_9
100
AcDbLine
 10
-0.4499999999999999
 20
2.31826312182626
 30
0.0
 11
-0.4999999999999999
 21
2.31826312182626
 31
0.0
  0
LINE
  5
1F7
330
1D7
100
AcDbEntity
  8
AM_9
100
AcDbLine
 10
-0.4499999999999998
 20
2.375
 30
0.0
 11
-0.4500000000000001
 21
1.765600178044747
 31
0.0
  0
LINE
  5
1F8
330
1D7
100
AcDbEntity
  8
AM_9
100
AcDbLine
 10
0.0
 20
1.5748
 30
0.0
 11
-1.78125
 21
1.5748
 31
0.0
  0
LINE
  5
1F9
330
1D7
100
AcDbEntity
  8
AM_9
100
AcDbLine
 10
-1.78125
 20
-1.5748
 30
0.0
 11
0.0
 21
-1.5748
 31
0.0
  0
LINE
  5
1FA
330
1D7
100
AcDbEntity
  8
AM_9
100
AcDbLine
 10
-0.4500000000000001
 20
-1.765600178044748
 30
0.0
 11
-0.4499999999999998
 21
-2.375
 31
0.0
  0
LINE
  5
1FB
330
1D7
100
AcDbEntity
  8
AM_9
100
AcDbLine
 10
-0.4999999999999999
 20
1.765600178044747
 30
0.0
 11
-0.4500000000000001
 21
1.765600178044747
 31
0.0
  0
LINE
  5
1FC
330
1D7
100
AcDbEntity
  8
AM_9
100
AcDbLine
 10
-0.4500000000000001
 20
-1.765600178044748
 30
0.0
 11
-0.4999999999999999
 21
-1.765600178044748
 31
0.0
  0
LINE
  5
1FD
330
1D7
100
AcDbEntity
  8
AM_9
100
AcDbLine
 10
-0.4500000000000001
 20
1.90625
 30
0.0
 11
-0.5000000000000001
 21
1.90625
 31
0.0
  0
LINE
  5
1FE
330
1D7
100
AcDbEntity
  8
AM_9
100
AcDbLine
 10
-0.4999999999999998
 20
-1.90625
 30
0.0
 11
-0.4500000000000001
 21
-1.90625
 31
0.0
  0
LINE
  5
1FF
330
1D7
100
AcDbEntity
  8
AM_9
100
AcDbLine
 10
-0.4999999999999998
 20
-2.015625
 30
0.0
 11
0.0000000000000001
 21
-2.015625
 31
0.0
  0
LINE
  5
200
330
1D7
100
AcDbEntity
  8
AM_9
100
AcDbLine
 10
0.0000000000000001
 20
-1.515625
 30
0.0
 11
-0.4999999999999998
 21
-1.515625
 31
0.0
  0
LINE
  5
201
330
1D7
100
AcDbEntity
  8
AM_9
100
AcDbLine
 10
-0.4999999999999998
 20
1.515625
 30
0.0
 11
0.0000000000000001
 21
1.515625
 31
0.0
  0
LINE
  5
202
330
1D7
100
AcDbEntity
  8
AM_9
100
AcDbLine
 10
0.0000000000000001
 20
2.015625
 30
0.0
 11
-0.4999999999999998
 21
2.015625
 31
0.0
  0
LINE
  5
203
330
1D7
100
AcDbEntity
  8
AM_7
100
AcDbLine
 10
0.1033593750229649
 20
0.0
 30
0.0
 11
-2.991625
 21
0.0
 31
0.0
  0
LINE
  5
204
330
1D7
100
AcDbEntity
  8
AM_7
100
AcDbLine
 10
0.0299999999999999
 20
1.765625
 30
0.0
 11
-0.6300000000000001
 21
1.765625
 31
0.0
  0
LINE
  5
205
330
1D7
100
AcDbEntity
  8
AM_7
100
AcDbLine
 10
0.0299999999999999
 20
-1.765625
 30
0.0
 11
-0.6300000000000001
 21
-1.765625
 31
0.0
  0
LINE
  5
206
330
1D7
100
AcDbEntity
  8
AM_4
100
AcDbLine
 10
-0.740625
 20
2.00625
 30
0.0
 11
-1.540624999848291
 21
2.00625
 31
0.0
  0
LINE
  5
207
330
1D7
100
AcDbEntity
  8
AM_4
100
AcDbLine
 10
-0.640625
 20
1.90625
 30
0.0
 11
-1.640625
 21
1.90625
 31
0.0
  0
ARC
  5
208
330
1D7
100
AcDbEntity
  8
AM_4
100
AcDbCircle
 10
-1.540624999999999
 20
1.906249999999999
 30
0.0
 40
0.1000000000000008
100
AcDbArc
 50
90.0
 51
180.0
  0
ARC
  5
209
330
1D7
100
AcDbEntity
  8
AM_4
100
AcDbCircle
 10
-0.7406250000000003
 20
1.90625
 30
0.0
 40
0.1000000000000003
100
AcDbArc
 50
0.0
 51
90.0
  0
LWPOLYLINE
  5
20A
330
1D7
100
AcDbEntity
  8
AM_4
100
AcDbPolyline
 90
       39
 70
     0
 43
0.0
 10
-0.640625
 20
1.90625
 10
-0.6422901452508554
 20
1.905813259561444
 10
-0.6472591864136914
 20
1.904520645337215
 10
-0.6557967371226961
 20
1.902326248879258
 10
-0.6677198255065075
 20
1.899323133793384
 10
-0.6824545816727939
 20
1.895707740361764
 10
-0.7001788560870029
 20
1.891502542474587
 10
-0.7213907095437839
 20
1.886675902822962
 10
-0.7454754011965964
 20
1.881470772543249
 10
-0.7720650369343687
 20
1.876066678273679
 10
-0.8011486789184156
 20
1.870570296747782
 10
-0.8334632398032061
 20
1.864977115518179
 10
-0.868004885825274
 20
1.859599631413343
 10
-0.9040925493732349
 20
1.854653712242664
 10
-0.9418926796510688
 20
1.85021177102819
 10
-0.982369015648792
 20
1.846304437329398
 10
-1.024093701930822
 20
1.843195216446073
 10
-1.06455793398722
 20
1.841081561771163
 10
-1.105573534265714
 20
1.839841750735677
 10
-1.148114528811243
 20
1.839525051560355
 10
-1.190597493332447
 20
1.840186488535839
 10
-1.230393173503737
 20
1.841698322069311
 10
-1.269572915162154
 20
1.844021861943254
 10
-1.308946919882336
 20
1.84719411532364
 10
-1.347124300308881
 20
1.851062133891798
 10
-1.383257693400725
 20
1.855441398213666
 10
-1.417763645929716
 20
1.860267424745097
 10
-1.451290644922805
 20
1.865557334242862
 10
-1.48266675882293
 20
1.871037580402565
 10
-1.511784106420764
 20
1.876579010319412
 10
-1.538347214012462
 20
1.882012758197716
 10
-1.562814968773752
 20
1.887334840052352
 10
-1.584213737906029
 20
1.892236779818283
 10
-1.601956084495064
 20
1.896474043648605
 10
-1.616488544571273
 20
1.900061887295236
 10
-1.627972537057509
 20
1.902969761062095
 10
-1.635820590130992
 20
1.904995468494658
 10
-1.639415875535946
 20
1.905933209747371
 10
-1.640625
 20
1.90625
  0
LINE
  5
20B
330
1D7
100
AcDbEntity
  8
AM_4
100
AcDbLine
 10
-0.5000000000000001
 20
1.90625
 30
0.0
 11
-0.640625
 21
1.90625
 31
0.0
  0
LINE
  5
20C
330
1D7
100
AcDbEntity
  8
AM_4
100
AcDbLine
 10
-1.640625
 20
1.90625
 30
0.0
 11
-1.673437498393468
 21
1.90625
 31
0.0
  0
LINE
  5
20D
330
1D7
100
AcDbEntity
  8
AM_4
100
AcDbLine
 10
-1.673437498393468
 20
-1.90625
 30
0.0
 11
-0.4999999999999998
 21
-1.90625
 31
0.0
  0
LINE
  5
20E
330
1D7
100
AcDbEntity
  8
AM_4
100
AcDbLine
 10
-1.673437498393468
 20
-1.90625
 30
0.0
 11
-1.673437498393468
 21
1.90625
 31
0.0
  0
LINE
  5
20F
330
1D7
100
AcDbEntity
  8
AM_4
100
AcDbLine
 10
-1.78125
 20
-1.7984375
 30
0.0
 11
-1.78125
 21
1.7984375
 31
0.0
  0
ARC
  5
210
330
1D7
100
AcDbEntity
  8
AM_4
100
AcDbCircle
 10
-1.673437499999999
 20
1.7984375
 30
0.0
 40
0.1078125000000003
100
AcDbArc
 50
89.99999914622627
 51
180.0
  0
ARC
  5
211
330
1D7
100
AcDbEntity
  8
AM_4
100
AcDbCircle
 10
-1.673437499999999
 20
-1.7984375
 30
0.0
 40
0.1078125000000005
100
AcDbArc
 50
180.0
 51
270.0000008537737
  0
LINE
  5
212
330
1D7
100
AcDbEntity
  8
AM_4
100
AcDbLine
 10
-0.45
 20
0.7186411300422179
 30
0.0
 11
-0.4999999999999998
 21
0.7186411300422182
 31
0.0
  0
LINE
  5
213
330
1D7
100
AcDbEntity
  8
AM_4
100
AcDbLine
 10
-0.4999999999999998
 20
-0.7186411300422202
 30
0.0
 11
-0.45
 21
-0.7186411300422204
 31
0.0
  0
LINE
  5
214
330
1D7
100
AcDbEntity
  8
AM_4
100
AcDbLine
 10
-0.4499999999999998
 20
-1.507925611604019
 30
0.0
 11
-0.4999999999999998
 21
-1.507925611604019
 31
0.0
  0
LINE
  5
215
330
1D7
100
AcDbEntity
  8
AM_4
100
AcDbLine
 10
-0.4999999999999998
 20
2.375
 30
0.0
 11
0.0000000000000001
 21
2.375
 31
0.0
  0
LINE
  5
216
330
1D7
100
AcDbEntity
  8
AM_4
100
AcDbLine
 10
-0.4999999999999998
 20
0.7186411300422182
 30
0.0
 11
-0.4999999999999998
 21
2.375
 31
0.0
  0
LINE
  5
217
330
1D7
100
AcDbEntity
  8
AM_4
100
AcDbLine
 10
-0.4499999999999998
 20
1.507925611604008
 30
0.0
 11
-0.4999999999999998
 21
1.507925611604008
 31
0.0
  0
LINE
  5
218
330
1D7
100
AcDbEntity
  8
AM_4
100
AcDbLine
 10
0.0000000000000001
 20
-2.375
 30
0.0
 11
0.0000000000000001
 21
2.375
 31
0.0
  0
LINE
  5
219
330
1D7
100
AcDbEntity
  8
AM_4
100
AcDbLine
 10
-0.4999999999999998
 20
-2.375
 30
0.0
 11
-0.4999999999999998
 21
-0.7186411300422202
 31
0.0
  0
LINE
  5
21A
330
1D7
100
AcDbEntity
  8
AM_4
100
AcDbLine
 10
-0.4999999999999998
 20
-2.375
 30
0.0
 11
0.0000000000000001
 21
-2.375
 31
0.0
  0
LINE
  5
21B
330
1D7
100
AcDbEntity
  8
AM_4
100
AcDbLine
 10
-0.4499999999999998
 20
1.7437166032006
 30
0.0
 11
-0.4999999999999998
 21
1.7437166032006
 31
0.0
  0
LINE
  5
21C
330
1D7
100
AcDbEntity
  8
AM_4
100
AcDbLine
 10
-0.4499999999999998
 20
-1.743716603200595
 30
0.0
 11
-0.4499999999999998
 21
1.7437166032006
 31
0.0
  0
LINE
  5
21D
330
1D7
100
AcDbEntity
  8
AM_4
100
AcDbLine
 10
-0.4999999999999998
 20
-1.743716603200595
 30
0.0
 11
-0.4499999999999998
 21
-1.743716603200595
 31
0.0
  0
LINE
  5
21E
330
1D7
100
AcDbEntity
  8
AM_4
100
AcDbLine
 10
-0.4999999999999998
 20
-1.765624999999999
 30
0.0
 11
0.0000000000000001
 21
-1.765624999999999
 31
0.0
  0
LINE
  5
21F
330
1D7
100
AcDbEntity
  8
AM_4
100
AcDbLine
 10
-0.4999999999999998
 20
1.765625
 30
0.0
 11
0.0000000000000001
 21
1.765625
 31
0.0
  0
ENDBLK
  5
1DA
330
1D7
100
AcDbEntity
  8
0
100
AcDbBlockEnd
  0
ENDSEC
  0
SECTION
  2
ENTITIES
  0
INSERT
  5
6F
330
1F
100
AcDbEntity
  8
0
100
AcDbBlockReference
  2
1_069695_2
 10
0.0
 20
0.0
 30
0.0
  0
POINT
  5
221
330
1F
100
AcDbEntity
  8
ConnectionPoints
100
AcDbPoint
 10
-2.697708333333333
 20
1.026909722222222
 30
0.0000000000000002
  0
POINT
  5
222
330
1F
100
AcDbEntity
  8
ConnectionPoints
100
AcDbPoint
 10
-2.627708333333334
 20
0.0
 30
0.0000000000000002
  0
POINT
  5
223
330
1F
100
AcDbEntity
  8
ConnectionPoints
100
AcDbPoint
 10
-2.859375
 20
0.0
 30
0.0000000000000002
  0
POINT
  5
224
330
1F
100
AcDbEntity
  8
ConnectionPoints
100
AcDbPoint
 10
-2.826708333333333
 20
0.0
 30
0.0000000000000002
  0
POINT
  5
225
330
1F
100
AcDbEntity
  8
ConnectionPoints
100
AcDbPoint
 10
-2.627708333333334
 20
1.026909722222222
 30
0.0000000000000002
  0
POINT
  5
226
330
1F
100
AcDbEntity
  8
ConnectionPoints
100
AcDbPoint
 10
-2.758375
 20
1.026909722222222
 30
0.0000000000000002
  0
POINT
  5
227
330
1F
100
AcDbEntity
  8
ConnectionPoints
100
AcDbPoint
 10
-2.627708333333334
 20
-1.026909722222222
 30
0.0000000000000002
  0
POINT
  5
228
330
1F
100
AcDbEntity
  8
ConnectionPoints
100
AcDbPoint
 10
-2.758375
 20
-1.026909722222222
 30
0.0000000000000002
  0
POINT
  5
229
330
1F
100
AcDbEntity
  8
ConnectionPoints
100
AcDbPoint
 10
-2.627708333333334
 20
0.0
 30
0.0000000000000002
  0
POINT
  5
22A
330
1F
100
AcDbEntity
  8
ConnectionPoints
100
AcDbPoint
 10
-1.140625
 20
2.00625
 30
0.0000000000000001
  0
POINT
  5
22B
330
1F
100
AcDbEntity
  8
ConnectionPoints
100
AcDbPoint
 10
-1.140625
 20
2.00625
 30
0.0000000000000001
  0
POINT
  5
22C
330
1F
100
AcDbEntity
  8
ConnectionPoints
100
AcDbPoint
 10
-2.671875
 20
0.0
 30
0.0000000000000002
  0
POINT
  5
22D
330
1F
100
AcDbEntity
  8
ConnectionPoints
100
AcDbPoint
 10
-2.859375
 20
0.0
 30
0.0000000000000002
  0
ENDSEC
  0
SECTION
  2
OBJECTS
  0
DICTIONARY
  5
C
330
0
100
AcDbDictionary
281
     1
  3
ACAD_DETAILVIEWSTYLE
350
235
  3
ACAD_GROUP
350
D
  3
ACAD_LAYOUT
350
1A
  3
ACAD_MATERIAL
350
43
  3
ACAD_MLEADERSTYLE
350
6B
  3
ACAD_MLINESTYLE
350
17
  3
ACAD_PLOTSETTINGS
350
19
  3
ACAD_PLOTSTYLENAME
350
E
  3
ACAD_SCALELIST
350
47
  3
ACAD_SECTIONVIEWSTYLE
350
236
  3
ACAD_TABLESTYLE
350
69
  3
ACAD_VISUALSTYLE
350
2A
  3
ACDB_RECOMPOSE_DATA
350
232
  3
AcDbVariableDictionary
350
22E
  0
SUN
  5
6D
330
29
100
AcDbSun
 90
        1
290
     0
 63
     7
421
 16777215
 40
1.0
291
     1
 91
  2455826
 92
 54000000
292
     0
 70
     2
 71
   256
280
     1
  0
DICTIONARY
  5
235
102
{ACAD_REACTORS
330
C
102
}
330
C
100
AcDbDictionary
281
     1
  0
DICTIONARY
  5
D
102
{ACAD_REACTORS
330
C
102
}
330
C
100
AcDbDictionary
281
     1
  0
DICTIONARY
  5
1A
102
{ACAD_REACTORS
330
C
102
}
330
C
100
AcDbDictionary
281
     1
  3
Layout1
350
1E
  3
Layout2
350
26
  3
Model
350
22
  0
DICTIONARY
  5
43
102
{ACAD_REACTORS
330
C
102
}
330
C
100
AcDbDictionary
281
     1
  3
ByBlock
350
45
  3
ByLayer
350
44
  3
Global
350
46
  0
DICTIONARY
  5
6B
102
{ACAD_REACTORS
330
C
102
}
330
C
100
AcDbDictionary
281
     1
  3
Standard
350
6C
  0
DICTIONARY
  5
17
102
{ACAD_REACTORS
330
C
102
}
330
C
100
AcDbDictionary
281
     1
  3
Standard
350
18
  0
DICTIONARY
  5
19
102
{ACAD_REACTORS
330
C
102
}
330
C
100
AcDbDictionary
281
     1
  0
ACDBDICTIONARYWDFLT
  5
E
102
{ACAD_REACTORS
330
C
102
}
330
C
100
AcDbDictionary
281
     1
  3
Normal
350
F
100
AcDbDictionaryWithDefault
340
F
  0
DICTIONARY
  5
47
102
{ACAD_REACTORS
330
C
102
}
330
C
100
AcDbDictionary
281
     1
  3
A0
350
48
  3
A1
350
49
  3
A2
350
4A
  3
A3
350
4B
  3
A4
350
4C
  3
A5
350
4D
  3
A6
350
4E
  3
A7
350
4F
  3
A8
350
50
  3
A9
350
51
  3
B0
350
52
  3
B1
350
53
  3
B2
350
54
  3
B3
350
55
  3
B4
350
56
  3
B5
350
57
  3
B6
350
58
  3
B7
350
59
  3
B8
350
5A
  3
B9
350
5B
  3
C0
350
5C
  3
C1
350
5D
  3
C2
350
5E
  3
C3
350
5F
  3
C4
350
60
  3
C5
350
61
  3
C6
350
62
  3
C7
350
63
  3
C8
350
64
  3
C9
350
65
  3
D0
350
66
  3
D1
350
67
  3
D2
350
68
  0
DICTIONARY
  5
236
102
{ACAD_REACTORS
330
C
102
}
330
C
100
AcDbDictionary
281
     1
  0
DICTIONARY
  5
69
102
{ACAD_REACTORS
330
C
102
}
330
C
100
AcDbDictionary
281
     1
  3
Standard
350
6A
  0
DICTIONARY
  5
2A
102
{ACAD_REACTORS
330
C
102
}
330
C
100
AcDbDictionary
281
     1
  3
2dWireframe
350
2F
  3
Basic
350
32
  3
Brighten
350
36
  3
ColorChange
350
3A
  3
Conceptual
350
34
  3
Dim
350
35
  3
EdgeColorOff
350
3D
  3
Facepattern
350
39
  3
Flat
350
2B
  3
FlatWithEdges
350
2C
  3
Gouraud
350
2D
  3
GouraudWithEdges
350
2E
  3
Hidden
350
31
  3
JitterOff
350
3B
  3
Linepattern
350
38
  3
OverhangOff
350
3C
  3
Realistic
350
33
  3
Shaded
350
42
  3
Shaded with edges
350
41
  3
Shades of Gray
350
3E
  3
Sketchy
350
3F
  3
Thicken
350
37
  3
Wireframe
350
30
  3
X-Ray
350
40
  0
XRECORD
  5
232
102
{ACAD_REACTORS
330
C
102
}
330
C
100
AcDbXrecord
280
     1
 90
        1
330
6A
  0
DICTIONARY
  5
22E
102
{ACAD_REACTORS
330
C
102
}
330
C
100
AcDbDictionary
281
     1
  3
CANNOSCALE
350
22F
  3
CMLEADERSTYLE
350
234
  3
CTABLESTYLE
350
233
  0
LAYOUT
  5
1E
102
{ACAD_REACTORS
330
1A
102
}
330
1A
100
AcDbPlotSettings
  1

  2
none_device
  4

  6

 40
0.0
 41
0.0
 42
0.0
 43
0.0
 44
0.0
 45
0.0
 46
0.0
 47
0.0
 48
0.0
 49
0.0
140
0.0
141
0.0
142
1.0
143
1.0
 70
   688
 72
     0
 73
     0
 74
     5
  7

 75
    16
 76
     0
 77
     2
 78
   300
147
1.0
148
0.0
149
0.0
100
AcDbLayout
  1
Layout1
 70
     1
 71
     1
 10
0.0
 20
0.0
 11
12.0
 21
9.0
 12
0.0
 22
0.0
 32
0.0
 14
1.000000000000000E+20
 24
1.000000000000000E+20
 34
1.000000000000000E+20
 15
-1.000000000000000E+20
 25
-1.000000000000000E+20
 35
-1.000000000000000E+20
146
0.0
 13
0.0
 23
0.0
 33
0.0
 16
1.0
 26
0.0
 36
0.0
 17
0.0
 27
1.0
 37
0.0
 76
     0
330
1B
  0
LAYOUT
  5
26
102
{ACAD_REACTORS
330
1A
102
}
330
1A
100
AcDbPlotSettings
  1

  2
none_device
  4

  6

 40
0.0
 41
0.0
 42
0.0
 43
0.0
 44
0.0
 45
0.0
 46
0.0
 47
0.0
 48
0.0
 49
0.0
140
0.0
141
0.0
142
1.0
143
1.0
 70
   688
 72
     0
 73
     0
 74
     5
  7

 75
    16
 76
     0
 77
     2
 78
   300
147
1.0
148
0.0
149
0.0
100
AcDbLayout
  1
Layout2
 70
     1
 71
     2
 10
0.0
 20
0.0
 11
0.0
 21
0.0
 12
0.0
 22
0.0
 32
0.0
 14
0.0
 24
0.0
 34
0.0
 15
0.0
 25
0.0
 35
0.0
146
0.0
 13
0.0
 23
0.0
 33
0.0
 16
1.0
 26
0.0
 36
0.0
 17
0.0
 27
1.0
 37
0.0
 76
     0
330
23
  0
LAYOUT
  5
22
102
{ACAD_REACTORS
330
1A
102
}
330
1A
100
AcDbPlotSettings
  1

  2
none_device
  4
Letter_(8.50_x_11.00_Inches)
  6

 40
6.35
 41
6.35
 42
6.35000508
 43
6.35000508
 44
215.9
 45
279.4
 46
0.0
 47
0.0
 48
0.0
 49
0.0
140
0.0
141
0.0
142
1.0
143
1.0
 70
  1712
 72
     0
 73
     0
 74
     0
  7

 75
     0
 76
     0
 77
     2
 78
   300
147
1.0
148
0.0
149
0.0
100
AcDbLayout
  1
Model
 70
     1
 71
     0
 10
0.0
 20
0.0
 11
12.0
 21
9.0
 12
0.0
 22
0.0
 32
0.0
 14
1.000000000000000E+20
 24
1.000000000000000E+20
 34
1.000000000000000E+20
 15
-1.000000000000000E+20
 25
-1.000000000000000E+20
 35
-1.000000000000000E+20
146
0.0
 13
0.0
 23
0.0
 33
0.0
 16
1.0
 26
0.0
 36
0.0
 17
0.0
 27
1.0
 37
0.0
 76
     0
330
1F
331
29
  0
MATERIAL
  5
45
102
{ACAD_REACTORS
330
43
102
}
330
43
100
AcDbMaterial
  1
ByBlock
 72
     1
 94
      127
  0
MATERIAL
  5
44
102
{ACAD_REACTORS
330
43
102
}
330
43
100
AcDbMaterial
  1
ByLayer
 72
     1
 94
      127
  0
MATERIAL
  5
46
102
{ACAD_REACTORS
330
43
102
}
330
43
100
AcDbMaterial
  1
Global
 72
     1
 94
      127
  0
MLEADERSTYLE
  5
6C
102
{ACAD_REACTORS
330
6B
102
}
330
6B
100
AcDbMLeaderStyle
179
     2
170
     2
171
     1
172
     0
 90
        2
 40
0.0
 41
0.0
173
     1
 91
-1056964608
340
14
 92
       -2
290
     1
 42
0.09
291
     1
 43
0.36
  3
Standard
341
0
 44
0.18
300

342
11
174
     1
178
     6
175
     1
176
     0
 93
-1056964608
 45
0.18
292
     0
297
     0
 46
0.18
343
0
 94
-1056964608
 47
1.0
 49
1.0
140
1.0
293
     1
141
0.0
294
     1
177
     0
142
1.0
295
     0
296
     0
143
0.125
271
     0
272
     9
273
     9
298
     0
  0
MLINESTYLE
  5
18
102
{ACAD_REACTORS
330
17
102
}
330
17
100
AcDbMlineStyle
  2
Standard
 70
     0
  3

 62
   256
 51
90.0
 52
90.0
 71
     2
 49
0.5
 62
   256
  6
BYLAYER
 49
-0.5
 62
   256
  6
BYLAYER
  0
ACDBPLACEHOLDER
  5
F
102
{ACAD_REACTORS
330
E
102
}
330
E
  0
SCALE
  5
48
102
{ACAD_REACTORS
330
47
102
}
330
47
100
AcDbScale
 70
     0
300
1:1
140
1.0
141
1.0
290
     1
  0
SCALE
  5
49
102
{ACAD_REACTORS
330
47
102
}
330
47
100
AcDbScale
 70
     0
300
1:2
140
1.0
141
2.0
290
     0
  0
SCALE
  5
4A
102
{ACAD_REACTORS
330
47
102
}
330
47
100
AcDbScale
 70
     0
300
1:4
140
1.0
141
4.0
290
     0
  0
SCALE
  5
4B
102
{ACAD_REACTORS
330
47
102
}
330
47
100
AcDbScale
 70
     0
300
1:5
140
1.0
141
5.0
290
     0
  0
SCALE
  5
4C
102
{ACAD_REACTORS
330
47
102
}
330
47
100
AcDbScale
 70
     0
300
1:8
140
1.0
141
8.0
290
     0
  0
SCALE
  5
4D
102
{ACAD_REACTORS
330
47
102
}
330
47
100
AcDbScale
 70
     0
300
1:10
140
1.0
141
10.0
290
     0
  0
SCALE
  5
4E
102
{ACAD_REACTORS
330
47
102
}
330
47
100
AcDbScale
 70
     0
300
1:16
140
1.0
141
16.0
290
     0
  0
SCALE
  5
4F
102
{ACAD_REACTORS
330
47
102
}
330
47
100
AcDbScale
 70
     0
300
1:20
140
1.0
141
20.0
290
     0
  0
SCALE
  5
50
102
{ACAD_REACTORS
330
47
102
}
330
47
100
AcDbScale
 70
     0
300
1:30
140
1.0
141
30.0
290
     0
  0
SCALE
  5
51
102
{ACAD_REACTORS
330
47
102
}
330
47
100
AcDbScale
 70
     0
300
1:40
140
1.0
141
40.0
290
     0
  0
SCALE
  5
52
102
{ACAD_REACTORS
330
47
102
}
330
47
100
AcDbScale
 70
     0
300
1:50
140
1.0
141
50.0
290
     0
  0
SCALE
  5
53
102
{ACAD_REACTORS
330
47
102
}
330
47
100
AcDbScale
 70
     0
300
1:100
140
1.0
141
100.0
290
     0
  0
SCALE
  5
54
102
{ACAD_REACTORS
330
47
102
}
330
47
100
AcDbScale
 70
     0
300
2:1
140
2.0
141
1.0
290
     0
  0
SCALE
  5
55
102
{ACAD_REACTORS
330
47
102
}
330
47
100
AcDbScale
 70
     0
300
4:1
140
4.0
141
1.0
290
     0
  0
SCALE
  5
56
102
{ACAD_REACTORS
330
47
102
}
330
47
100
AcDbScale
 70
     0
300
8:1
140
8.0
141
1.0
290
     0
  0
SCALE
  5
57
102
{ACAD_REACTORS
330
47
102
}
330
47
100
AcDbScale
 70
     0
300
10:1
140
10.0
141
1.0
290
     0
  0
SCALE
  5
58
102
{ACAD_REACTORS
330
47
102
}
330
47
100
AcDbScale
 70
     0
300
100:1
140
100.0
141
1.0
290
     0
  0
SCALE
  5
59
102
{ACAD_REACTORS
330
47
102
}
330
47
100
AcDbScale
 70
     0
300
1/128" = 1'-0"
140
0.0078125
141
12.0
290
     0
  0
SCALE
  5
5A
102
{ACAD_REACTORS
330
47
102
}
330
47
100
AcDbScale
 70
     0
300
1/64" = 1'-0"
140
0.015625
141
12.0
290
     0
  0
SCALE
  5
5B
102
{ACAD_REACTORS
330
47
102
}
330
47
100
AcDbScale
 70
     0
300
1/32" = 1'-0"
140
0.03125
141
12.0
290
     0
  0
SCALE
  5
5C
102
{ACAD_REACTORS
330
47
102
}
330
47
100
AcDbScale
 70
     0
300
1/16" = 1'-0"
140
0.0625
141
12.0
290
     0
  0
SCALE
  5
5D
102
{ACAD_REACTORS
330
47
102
}
330
47
100
AcDbScale
 70
     0
300
3/32" = 1'-0"
140
0.09375
141
12.0
290
     0
  0
SCALE
  5
5E
102
{ACAD_REACTORS
330
47
102
}
330
47
100
AcDbScale
 70
     0
300
1/8" = 1'-0"
140
0.125
141
12.0
290
     0
  0
SCALE
  5
5F
102
{ACAD_REACTORS
330
47
102
}
330
47
100
AcDbScale
 70
     0
300
3/16" = 1'-0"
140
0.1875
141
12.0
290
     0
  0
SCALE
  5
60
102
{ACAD_REACTORS
330
47
102
}
330
47
100
AcDbScale
 70
     0
300
1/4" = 1'-0"
140
0.25
141
12.0
290
     0
  0
SCALE
  5
61
102
{ACAD_REACTORS
330
47
102
}
330
47
100
AcDbScale
 70
     0
300
3/8" = 1'-0"
140
0.375
141
12.0
290
     0
  0
SCALE
  5
62
102
{ACAD_REACTORS
330
47
102
}
330
47
100
AcDbScale
 70
     0
300
1/2" = 1'-0"
140
0.5
141
12.0
290
     0
  0
SCALE
  5
63
102
{ACAD_REACTORS
330
47
102
}
330
47
100
AcDbScale
 70
     0
300
3/4" = 1'-0"
140
0.75
141
12.0
290
     0
  0
SCALE
  5
64
102
{ACAD_REACTORS
330
47
102
}
330
47
100
AcDbScale
 70
     0
300
1" = 1'-0"
140
1.0
141
12.0
290
     0
  0
SCALE
  5
65
102
{ACAD_REACTORS
330
47
102
}
330
47
100
AcDbScale
 70
     0
300
1-1/2" = 1'-0"
140
1.5
141
12.0
290
     0
  0
SCALE
  5
66
102
{ACAD_REACTORS
330
47
102
}
330
47
100
AcDbScale
 70
     0
300
3" = 1'-0"
140
3.0
141
12.0
290
     0
  0
SCALE
  5
67
102
{ACAD_REACTORS
330
47
102
}
330
47
100
AcDbScale
 70
     0
300
6" = 1'-0"
140
6.0
141
12.0
290
     0
  0
SCALE
  5
68
102
{ACAD_REACTORS
330
47
102
}
330
47
100
AcDbScale
 70
     0
300
1'-0" = 1'-0"
140
12.0
141
12.0
290
     0
  0
TABLESTYLE
  5
6A
102
{ACAD_REACTORS
330
69
102
}
102
{ACAD_XDICTIONARY
360
230
102
}
330
69
100
AcDbTableStyle
  3
Standard
 70
     0
 71
     0
 40
0.06
 41
0.06
280
     0
281
     0
  7
Standard
140
0.18
170
     2
 62
     0
 63
   257
283
     0
 90
        4
 91
        0
  1

274
    -2
284
     1
 64
     0
275
    -2
285
     1
 65
     0
276
    -2
286
     1
 66
     0
277
    -2
287
     1
 67
     0
278
    -2
288
     1
 68
     0
279
    -2
289
     1
 69
     0
  7
Standard
140
0.25
170
     5
 62
     0
 63
   257
283
     0
 90
        4
 91
        0
  1

274
    -2
284
     1
 64
     0
275
    -2
285
     1
 65
     0
276
    -2
286
     1
 66
     0
277
    -2
287
     1
 67
     0
278
    -2
288
     1
 68
     0
279
    -2
289
     1
 69
     0
  7
Standard
140
0.18
170
     5
 62
     0
 63
   257
283
     0
 90
        4
 91
        0
  1

274
    -2
284
     1
 64
     0
275
    -2
285
     1
 65
     0
276
    -2
286
     1
 66
     0
277
    -2
287
     1
 67
     0
278
    -2
288
     1
 68
     0
279
    -2
289
     1
 69
     0
  0
VISUALSTYLE
  5
2F
102
{ACAD_REACTORS
330
2A
102
}
330
2A
100
AcDbVisualStyle
  2
2dWireframe
 70
     4
177
     3
291
     0
 70
    58
 90
        0
176
     1
 90
        2
176
     1
 90
        0
176
     1
 90
        0
176
     1
 40
0.6
176
     1
 40
30.0
176
     1
 62
     7
420
 16777215
176
     1
 90
        1
176
     1
 90
        4
176
     1
 62
     7
176
     1
 62
   257
176
     1
 90
        1
176
     1
 90
        1
176
     1
 40
1.0
176
     1
 90
        0
176
     1
 62
   257
176
     1
 40
1.0
176
     1
 90
        1
176
     1
 90
        6
176
     1
 90
        2
176
     1
 62
     7
176
     1
 90
        5
176
     1
 90
        0
176
     1
 90
        0
176
     1
290
     0
176
     1
 90
        1
176
     1
 40
0.0
176
     1
 90
        0
176
     1
290
     1
176
     1
290
     1
176
     1
290
     0
176
     1
290
     0
176
     1
290
     0
176
     1
290
     0
176
     1
290
     0
176
     1
290
     0
176
     1
290
     0
176
     1
 90
       50
176
     1
 40
0.0
176
     1
 40
1.0
176
     1
 90
        0
176
     1
 62
    18
420
        0
176
     1
 90
       50
176
     1
 90
        3
176
     1
 62
     5
420
      255
176
     1
290
     0
176
     1
 90
       50
176
     1
 90
       50
176
     1
 90
       50
176
     1
290
     0
176
     1
 90
       50
176
     1
 62
   256
176
     0
 40
1.0
176
     0
 90
        2
176
     1
  1
strokes_ogs.tif
176
     1
290
     0
176
     1
 40
1.0
176
     1
 40
1.0
176
     1
  0
VISUALSTYLE
  5
32
102
{ACAD_REACTORS
330
2A
102
}
330
2A
100
AcDbVisualStyle
  2
Basic
 70
     7
177
     3
291
     1
 70
    58
 90
        1
176
     1
 90
        0
176
     1
 90
        1
176
     1
 90
        0
176
     1
 40
0.6
176
     1
 40
30.0
176
     1
 62
     7
420
 16777215
176
     1
 90
        0
176
     1
 90
        4
176
     1
 62
     7
176
     1
 62
   257
176
     1
 90
        1
176
     1
 90
        1
176
     1
 40
1.0
176
     1
 90
        8
176
     1
 62
     7
176
     1
 40
1.0
176
     1
 90
        1
176
     1
 90
        6
176
     1
 90
        2
176
     1
 62
     7
176
     1
 90
        5
176
     1
 90
        0
176
     1
 90
        0
176
     1
290
     0
176
     1
 90
        1
176
     1
 40
0.0
176
     1
 90
        0
176
     1
290
     0
176
     1
290
     1
176
     1
290
     1
176
     1
290
     0
176
     1
290
     0
176
     1
290
     0
176
     1
290
     0
176
     1
290
     0
176
     1
290
     0
176
     1
 90
       50
176
     1
 40
0.0
176
     1
 40
1.0
176
     1
 90
        0
176
     1
 62
    18
420
        0
176
     1
 90
       50
176
     1
 90
        3
176
     1
 62
     5
420
      255
176
     1
290
     0
176
     1
 90
       50
176
     1
 90
       50
176
     1
 90
       50
176
     1
290
     0
176
     1
 90
       50
176
     1
 62
   256
176
     0
 40
1.0
176
     0
 90
        2
176
     1
  1
strokes_ogs.tif
176
     1
290
     0
176
     1
 40
1.0
176
     1
 40
1.0
176
     1
  0
VISUALSTYLE
  5
36
102
{ACAD_REACTORS
330
2A
102
}
330
2A
100
AcDbVisualStyle
  2
Brighten
 70
    12
177
     3
291
     1
 70
    58
 90
        2
176
     1
 90
        2
176
     1
 90
        0
176
     1
 90
        0
176
     1
 40
0.6
176
     1
 40
30.0
176
     1
 62
     7
420
 16777215
176
     1
 90
        1
176
     1
 90
        4
176
     1
 62
     7
176
     1
 62
   257
176
     1
 90
        1
176
     1
 90
        1
176
     1
 40
1.0
176
     1
 90
        8
176
     1
 62
     7
176
     1
 40
1.0
176
     1
 90
        1
176
     1
 90
        6
176
     1
 90
        2
176
     1
 62
     7
176
     1
 90
        5
176
     1
 90
        0
176
     1
 90
        0
176
     1
290
     0
176
     1
 90
        1
176
     1
 40
50.0
176
     1
 90
        0
176
     1
290
     0
176
     1
290
     1
176
     1
290
     1
176
     1
290
     0
176
     1
290
     0
176
     1
290
     0
176
     1
290
     0
176
     1
290
     0
176
     1
290
     0
176
     1
 90
       50
176
     1
 40
0.0
176
     1
 40
1.0
176
     1
 90
        0
176
     1
 62
    18
420
        0
176
     1
 90
       50
176
     1
 90
        3
176
     1
 62
     5
420
      255
176
     1
290
     0
176
     1
 90
       50
176
     1
 90
       50
176
     1
 90
       50
176
     1
290
     0
176
     1
 90
       50
176
     1
 62
   256
176
     0
 40
1.0
176
     0
 90
        2
176
     1
  1
strokes_ogs.tif
176
     1
290
     0
176
     1
 40
1.0
176
     1
 40
1.0
176
     1
  0
VISUALSTYLE
  5
3A
102
{ACAD_REACTORS
330
2A
102
}
330
2A
100
AcDbVisualStyle
  2
ColorChange
 70
    16
177
     3
291
     1
 70
    58
 90
        2
176
     1
 90
        2
176
     1
 90
        3
176
     1
 90
        0
176
     1
 40
0.6
176
     1
 40
30.0
176
     1
 62
     8
420
  8421504
176
     1
 90
        1
176
     1
 90
        4
176
     1
 62
     7
176
     1
 62
   257
176
     1
 90
        1
176
     1
 90
        1
176
     1
 40
1.0
176
     1
 90
        8
176
     1
 62
     8
420
  8421504
176
     1
 40
1.0
176
     1
 90
        1
176
     1
 90
        6
176
     1
 90
        2
176
     1
 62
     7
176
     1
 90
        5
176
     1
 90
        0
176
     1
 90
        0
176
     1
290
     0
176
     1
 90
        1
176
     1
 40
0.0
176
     1
 90
        0
176
     1
290
     0
176
     1
290
     1
176
     1
290
     1
176
     1
290
     0
176
     1
290
     0
176
     1
290
     0
176
     1
290
     0
176
     1
290
     0
176
     1
290
     0
176
     1
 90
       50
176
     1
 40
0.0
176
     1
 40
1.0
176
     1
 90
        0
176
     1
 62
    18
420
        0
176
     1
 90
       50
176
     1
 90
        3
176
     1
 62
     5
420
      255
176
     1
290
     0
176
     1
 90
       50
176
     1
 90
       50
176
     1
 90
       50
176
     1
290
     0
176
     1
 90
       50
176
     1
 62
   256
176
     0
 40
1.0
176
     0
 90
        2
176
     1
  1
strokes_ogs.tif
176
     1
290
     0
176
     1
 40
1.0
176
     1
 40
1.0
176
     1
  0
VISUALSTYLE
  5
34
102
{ACAD_REACTORS
330
2A
102
}
330
2A
100
AcDbVisualStyle
  2
Conceptual
 70
     9
177
     3
291
     0
 70
    58
 90
        3
176
     1
 90
        2
176
     1
 90
        0
176
     1
 90
        0
176
     1
 40
0.6
176
     1
 40
30.0
176
     1
 62
     7
420
 16777215
176
     1
 90
        2
176
     1
 90
        2
176
     1
 62
     7
176
     1
 62
   257
176
     1
 90
        1
176
     1
 90
        1
176
     1
 40
179.0
176
     1
 90
        8
176
     1
 62
     7
176
     1
 40
1.0
176
     1
 90
        1
176
     1
 90
        6
176
     1
 90
        2
176
     1
 62
     7
176
     1
 90
        3
176
     1
 90
        0
176
     1
 90
        0
176
     1
290
     0
176
     1
 90
        1
176
     1
 40
0.0
176
     1
 90
        0
176
     1
290
     0
176
     1
290
     1
176
     1
290
     1
176
     1
290
     0
176
     1
290
     0
176
     1
290
     0
176
     1
290
     0
176
     1
290
     0
176
     1
290
     0
176
     1
 90
       50
176
     1
 40
0.0
176
     1
 40
1.0
176
     1
 90
        0
176
     1
 62
    18
420
        0
176
     1
 90
       50
176
     1
 90
        3
176
     1
 62
     5
420
      255
176
     1
290
     0
176
     1
 90
       50
176
     1
 90
       50
176
     1
 90
       50
176
     1
290
     0
176
     1
 90
       50
176
     1
 62
   256
176
     0
 40
1.0
176
     0
 90
        2
176
     1
  1
strokes_ogs.tif
176
     1
290
     0
176
     1
 40
1.0
176
     1
 40
1.0
176
     1
  0
VISUALSTYLE
  5
35
102
{ACAD_REACTORS
330
2A
102
}
330
2A
100
AcDbVisualStyle
  2
Dim
 70
    11
177
     3
291
     1
 70
    58
 90
        2
176
     1
 90
        2
176
     1
 90
        0
176
     1
 90
        0
176
     1
 40
0.6
176
     1
 40
30.0
176
     1
 62
     7
420
 16777215
176
     1
 90
        1
176
     1
 90
        4
176
     1
 62
     7
176
     1
 62
   257
176
     1
 90
        1
176
     1
 90
        1
176
     1
 40
1.0
176
     1
 90
        8
176
     1
 62
     7
176
     1
 40
1.0
176
     1
 90
        1
176
     1
 90
        6
176
     1
 90
        2
176
     1
 62
     7
176
     1
 90
        5
176
     1
 90
        0
176
     1
 90
        0
176
     1
290
     0
176
     1
 90
        1
176
     1
 40
-50.0
176
     1
 90
        0
176
     1
290
     0
176
     1
290
     1
176
     1
290
     1
176
     1
290
     0
176
     1
290
     0
176
     1
290
     0
176
     1
290
     0
176
     1
290
     0
176
     1
290
     0
176
     1
 90
       50
176
     1
 40
0.0
176
     1
 40
1.0
176
     1
 90
        0
176
     1
 62
    18
420
        0
176
     1
 90
       50
176
     1
 90
        3
176
     1
 62
     5
420
      255
176
     1
290
     0
176
     1
 90
       50
176
     1
 90
       50
176
     1
 90
       50
176
     1
290
     0
176
     1
 90
       50
176
     1
 62
   256
176
     0
 40
1.0
176
     0
 90
        2
176
     1
  1
strokes_ogs.tif
176
     1
290
     0
176
     1
 40
1.0
176
     1
 40
1.0
176
     1
  0
VISUALSTYLE
  5
3D
102
{ACAD_REACTORS
330
2A
102
}
330
2A
100
AcDbVisualStyle
  2
EdgeColorOff
 70
    22
177
     3
291
     1
 70
    58
 90
        2
176
     0
 90
        2
176
     0
 90
        0
176
     0
 90
        0
176
     0
 40
0.6
176
     0
 40
30.0
176
     0
 62
     7
420
 16777215
176
     0
 90
        1
176
     0
 90
        4
176
     0
 62
     7
176
     0
 62
   257
176
     0
 90
        1
176
     0
 90
        1
176
     0
 40
1.0
176
     0
 90
        8
176
     2
 62
     7
176
     0
 40
1.0
176
     0
 90
        1
176
     0
 90
        6
176
     0
 90
        2
176
     0
 62
     7
176
     0
 90
        5
176
     0
 90
        0
176
     0
 90
        0
176
     0
290
     0
176
     0
 90
        1
176
     0
 40
0.0
176
     0
 90
        0
176
     0
290
     0
176
     0
290
     1
176
     0
290
     1
176
     0
290
     0
176
     0
290
     0
176
     0
290
     0
176
     0
290
     0
176
     0
290
     0
176
     0
290
     0
176
     0
 90
       50
176
     0
 40
0.0
176
     0
 40
1.0
176
     0
 90
        0
176
     0
 62
    18
420
        0
176
     0
 90
       50
176
     0
 90
        3
176
     0
 62
     5
420
      255
176
     0
290
     0
176
     0
 90
       50
176
     0
 90
       50
176
     0
 90
       50
176
     0
290
     0
176
     0
 90
       50
176
     0
 62
   256
176
     0
 40
1.0
176
     0
 90
        2
176
     0
  1
strokes_ogs.tif
176
     0
290
     0
176
     0
 40
1.0
176
     0
 40
1.0
176
     0
  0
VISUALSTYLE
  5
39
102
{ACAD_REACTORS
330
2A
102
}
330
2A
100
AcDbVisualStyle
  2
Facepattern
 70
    15
177
     3
291
     1
 70
    58
 90
        2
176
     1
 90
        2
176
     1
 90
        0
176
     1
 90
        0
176
     1
 40
0.6
176
     1
 40
30.0
176
     1
 62
     7
420
 16777215
176
     1
 90
        1
176
     1
 90
        4
176
     1
 62
     7
176
     1
 62
   257
176
     1
 90
        1
176
     1
 90
        1
176
     1
 40
1.0
176
     1
 90
        8
176
     1
 62
     7
176
     1
 40
1.0
176
     1
 90
        1
176
     1
 90
        6
176
     1
 90
        2
176
     1
 62
     7
176
     1
 90
        5
176
     1
 90
        0
176
     1
 90
        0
176
     1
290
     0
176
     1
 90
        1
176
     1
 40
0.0
176
     1
 90
        0
176
     1
290
     0
176
     1
290
     1
176
     1
290
     1
176
     1
290
     0
176
     1
290
     0
176
     1
290
     0
176
     1
290
     0
176
     1
290
     0
176
     1
290
     0
176
     1
 90
       50
176
     1
 40
0.0
176
     1
 40
1.0
176
     1
 90
        0
176
     1
 62
    18
420
        0
176
     1
 90
       50
176
     1
 90
        3
176
     1
 62
     5
420
      255
176
     1
290
     0
176
     1
 90
       50
176
     1
 90
       50
176
     1
 90
       50
176
     1
290
     0
176
     1
 90
       50
176
     1
 62
   256
176
     0
 40
1.0
176
     0
 90
        2
176
     1
  1
strokes_ogs.tif
176
     1
290
     0
176
     1
 40
1.0
176
     1
 40
1.0
176
     1
  0
VISUALSTYLE
  5
2B
102
{ACAD_REACTORS
330
2A
102
}
330
2A
100
AcDbVisualStyle
  2
Flat
 70
     0
177
     3
291
     1
 70
    58
 90
        2
176
     1
 90
        1
176
     1
 90
        1
176
     1
 90
        2
176
     1
 40
0.6
176
     1
 40
30.0
176
     1
 62
     7
420
 16777215
176
     1
 90
        0
176
     1
 90
        0
176
     1
 62
     7
176
     1
 62
   257
176
     1
 90
        1
176
     1
 90
        1
176
     1
 40
1.0
176
     1
 90
        8
176
     1
 62
     7
176
     1
 40
1.0
176
     1
 90
        1
176
     1
 90
        6
176
     1
 90
        2
176
     1
 62
     7
176
     1
 90
        5
176
     1
 90
        0
176
     1
 90
        0
176
     1
290
     0
176
     1
 90
       13
176
     1
 40
0.0
176
     1
 90
        0
176
     1
290
     0
176
     1
290
     1
176
     1
290
     1
176
     1
290
     0
176
     1
290
     0
176
     1
290
     0
176
     1
290
     0
176
     1
290
     0
176
     1
290
     0
176
     1
 90
       50
176
     1
 40
0.0
176
     1
 40
1.0
176
     1
 90
        0
176
     1
 62
    18
420
        0
176
     1
 90
       50
176
     1
 90
        3
176
     1
 62
     5
420
      255
176
     1
290
     0
176
     1
 90
       50
176
     1
 90
       50
176
     1
 90
       50
176
     1
290
     0
176
     1
 90
       50
176
     1
 62
   256
176
     0
 40
1.0
176
     0
 90
        2
176
     1
  1
strokes_ogs.tif
176
     1
290
     0
176
     1
 40
1.0
176
     1
 40
1.0
176
     1
  0
VISUALSTYLE
  5
2C
102
{ACAD_REACTORS
330
2A
102
}
330
2A
100
AcDbVisualStyle
  2
FlatWithEdges
 70
     1
177
     3
291
     1
 70
    58
 90
        2
176
     1
 90
        1
176
     1
 90
        1
176
     1
 90
        2
176
     1
 40
0.6
176
     1
 40
30.0
176
     1
 62
     7
420
 16777215
176
     1
 90
        1
176
     1
 90
        0
176
     1
 62
     7
176
     1
 62
   257
176
     1
 90
        1
176
     1
 90
        1
176
     1
 40
1.0
176
     1
 90
        0
176
     1
 62
   257
176
     1
 40
1.0
176
     1
 90
        1
176
     1
 90
        6
176
     1
 90
        2
176
     1
 62
     7
176
     1
 90
        5
176
     1
 90
        0
176
     1
 90
        0
176
     1
290
     0
176
     1
 90
       13
176
     1
 40
0.0
176
     1
 90
        0
176
     1
290
     0
176
     1
290
     1
176
     1
290
     1
176
     1
290
     0
176
     1
290
     0
176
     1
290
     0
176
     1
290
     0
176
     1
290
     0
176
     1
290
     0
176
     1
 90
       50
176
     1
 40
0.0
176
     1
 40
1.0
176
     1
 90
        0
176
     1
 62
    18
420
        0
176
     1
 90
       50
176
     1
 90
        3
176
     1
 62
     5
420
      255
176
     1
290
     0
176
     1
 90
       50
176
     1
 90
       50
176
     1
 90
       50
176
     1
290
     0
176
     1
 90
       50
176
     1
 62
   256
176
     0
 40
1.0
176
     0
 90
        2
176
     1
  1
strokes_ogs.tif
176
     1
290
     0
176
     1
 40
1.0
176
     1
 40
1.0
176
     1
  0
VISUALSTYLE
  5
2D
102
{ACAD_REACTORS
330
2A
102
}
330
2A
100
AcDbVisualStyle
  2
Gouraud
 70
     2
177
     3
291
     1
 70
    58
 90
        2
176
     1
 90
        2
176
     1
 90
        1
176
     1
 90
        2
176
     1
 40
0.6
176
     1
 40
30.0
176
     1
 62
     7
420
 16777215
176
     1
 90
        0
176
     1
 90
        0
176
     1
 62
     7
176
     1
 62
   257
176
     1
 90
        1
176
     1
 90
        1
176
     1
 40
1.0
176
     1
 90
        0
176
     1
 62
     7
176
     1
 40
1.0
176
     1
 90
        1
176
     1
 90
        6
176
     1
 90
        2
176
     1
 62
     7
176
     1
 90
        5
176
     1
 90
        0
176
     1
 90
        0
176
     1
290
     0
176
     1
 90
       13
176
     1
 40
0.0
176
     1
 90
        0
176
     1
290
     0
176
     1
290
     1
176
     1
290
     1
176
     1
290
     0
176
     1
290
     0
176
     1
290
     0
176
     1
290
     0
176
     1
290
     0
176
     1
290
     0
176
     1
 90
       50
176
     1
 40
0.0
176
     1
 40
1.0
176
     1
 90
        0
176
     1
 62
    18
420
        0
176
     1
 90
       50
176
     1
 90
        3
176
     1
 62
     5
420
      255
176
     1
290
     0
176
     1
 90
       50
176
     1
 90
       50
176
     1
 90
       50
176
     1
290
     0
176
     1
 90
       50
176
     1
 62
   256
176
     0
 40
1.0
176
     0
 90
        2
176
     1
  1
strokes_ogs.tif
176
     1
290
     0
176
     1
 40
1.0
176
     1
 40
1.0
176
     1
  0
VISUALSTYLE
  5
2E
102
{ACAD_REACTORS
330
2A
102
}
330
2A
100
AcDbVisualStyle
  2
GouraudWithEdges
 70
     3
177
     3
291
     1
 70
    58
 90
        2
176
     1
 90
        2
176
     1
 90
        1
176
     1
 90
        2
176
     1
 40
0.6
176
     1
 40
30.0
176
     1
 62
     7
420
 16777215
176
     1
 90
        1
176
     1
 90
        0
176
     1
 62
     7
176
     1
 62
   257
176
     1
 90
        1
176
     1
 90
        1
176
     1
 40
1.0
176
     1
 90
        0
176
     1
 62
   257
176
     1
 40
1.0
176
     1
 90
        1
176
     1
 90
        6
176
     1
 90
        2
176
     1
 62
     7
176
     1
 90
        5
176
     1
 90
        0
176
     1
 90
        0
176
     1
290
     0
176
     1
 90
       13
176
     1
 40
0.0
176
     1
 90
        0
176
     1
290
     0
176
     1
290
     1
176
     1
290
     1
176
     1
290
     0
176
     1
290
     0
176
     1
290
     0
176
     1
290
     0
176
     1
290
     0
176
     1
290
     0
176
     1
 90
       50
176
     1
 40
0.0
176
     1
 40
1.0
176
     1
 90
        0
176
     1
 62
    18
420
        0
176
     1
 90
       50
176
     1
 90
        3
176
     1
 62
     5
420
      255
176
     1
290
     0
176
     1
 90
       50
176
     1
 90
       50
176
     1
 90
       50
176
     1
290
     0
176
     1
 90
       50
176
     1
 62
   256
176
     0
 40
1.0
176
     0
 90
        2
176
     1
  1
strokes_ogs.tif
176
     1
290
     0
176
     1
 40
1.0
176
     1
 40
1.0
176
     1
  0
VISUALSTYLE
  5
31
102
{ACAD_REACTORS
330
2A
102
}
330
2A
100
AcDbVisualStyle
  2
Hidden
 70
     6
177
     3
291
     0
 70
    58
 90
        1
176
     1
 90
        2
176
     1
 90
        2
176
     1
 90
        0
176
     1
 40
0.6
176
     1
 40
30.0
176
     1
 62
     7
420
 16777215
176
     1
 90
        2
176
     1
 90
        2
176
     1
 62
     7
176
     1
 62
   257
176
     1
 90
        2
176
     1
 90
        1
176
     1
 40
40.0
176
     1
 90
        0
176
     1
 62
   257
176
     1
 40
1.0
176
     1
 90
        1
176
     1
 90
        6
176
     1
 90
        2
176
     1
 62
     7
176
     1
 90
        3
176
     1
 90
        0
176
     1
 90
        0
176
     1
290
     0
176
     1
 90
        1
176
     1
 40
0.0
176
     1
 90
        0
176
     1
290
     0
176
     1
290
     1
176
     1
290
     1
176
     1
290
     0
176
     1
290
     0
176
     1
290
     0
176
     1
290
     0
176
     1
290
     0
176
     1
290
     0
176
     1
 90
       50
176
     1
 40
0.0
176
     1
 40
1.0
176
     1
 90
        0
176
     1
 62
    18
420
        0
176
     1
 90
       50
176
     1
 90
        3
176
     1
 62
     5
420
      255
176
     1
290
     0
176
     1
 90
       50
176
     1
 90
       50
176
     1
 90
       50
176
     1
290
     0
176
     1
 90
       50
176
     1
 62
   256
176
     0
 40
1.0
176
     0
 90
        2
176
     1
  1
strokes_ogs.tif
176
     1
290
     0
176
     1
 40
1.0
176
     1
 40
1.0
176
     1
  0
VISUALSTYLE
  5
3B
102
{ACAD_REACTORS
330
2A
102
}
330
2A
100
AcDbVisualStyle
  2
JitterOff
 70
    20
177
     3
291
     1
 70
    58
 90
        2
176
     0
 90
        2
176
     0
 90
        0
176
     0
 90
        0
176
     0
 40
0.6
176
     0
 40
30.0
176
     0
 62
     7
420
 16777215
176
     0
 90
        1
176
     0
 90
        4
176
     0
 62
     7
176
     0
 62
   257
176
     0
 90
        1
176
     0
 90
        1
176
     0
 40
1.0
176
     0
 90
       10
176
     2
 62
     7
176
     0
 40
1.0
176
     0
 90
        1
176
     0
 90
        6
176
     0
 90
        2
176
     0
 62
     7
176
     0
 90
        5
176
     0
 90
        0
176
     0
 90
        0
176
     0
290
     0
176
     0
 90
        1
176
     0
 40
0.0
176
     0
 90
        0
176
     0
290
     0
176
     0
290
     1
176
     0
290
     1
176
     0
290
     0
176
     0
290
     0
176
     0
290
     0
176
     0
290
     0
176
     0
290
     0
176
     0
290
     0
176
     0
 90
       50
176
     0
 40
0.0
176
     0
 40
1.0
176
     0
 90
        0
176
     0
 62
    18
420
        0
176
     0
 90
       50
176
     0
 90
        3
176
     0
 62
     5
420
      255
176
     0
290
     0
176
     0
 90
       50
176
     0
 90
       50
176
     0
 90
       50
176
     0
290
     0
176
     0
 90
       50
176
     0
 62
   256
176
     0
 40
1.0
176
     0
 90
        2
176
     0
  1
strokes_ogs.tif
176
     0
290
     0
176
     0
 40
1.0
176
     0
 40
1.0
176
     0
  0
VISUALSTYLE
  5
38
102
{ACAD_REACTORS
330
2A
102
}
330
2A
100
AcDbVisualStyle
  2
Linepattern
 70
    14
177
     3
291
     1
 70
    58
 90
        2
176
     1
 90
        2
176
     1
 90
        0
176
     1
 90
        0
176
     1
 40
0.6
176
     1
 40
30.0
176
     1
 62
     7
420
 16777215
176
     1
 90
        1
176
     1
 90
        4
176
     1
 62
     7
176
     1
 62
   257
176
     1
 90
        7
176
     1
 90
        7
176
     1
 40
1.0
176
     1
 90
        8
176
     1
 62
     7
176
     1
 40
1.0
176
     1
 90
        1
176
     1
 90
        6
176
     1
 90
        2
176
     1
 62
     7
176
     1
 90
        5
176
     1
 90
        0
176
     1
 90
        0
176
     1
290
     0
176
     1
 90
        1
176
     1
 40
0.0
176
     1
 90
        0
176
     1
290
     0
176
     1
290
     1
176
     1
290
     1
176
     1
290
     0
176
     1
290
     0
176
     1
290
     0
176
     1
290
     0
176
     1
290
     0
176
     1
290
     0
176
     1
 90
       50
176
     1
 40
0.0
176
     1
 40
1.0
176
     1
 90
        0
176
     1
 62
    18
420
        0
176
     1
 90
       50
176
     1
 90
        3
176
     1
 62
     5
420
      255
176
     1
290
     0
176
     1
 90
       50
176
     1
 90
       50
176
     1
 90
       50
176
     1
290
     0
176
     1
 90
       50
176
     1
 62
   256
176
     0
 40
1.0
176
     0
 90
        2
176
     1
  1
strokes_ogs.tif
176
     1
290
     0
176
     1
 40
1.0
176
     1
 40
1.0
176
     1
  0
VISUALSTYLE
  5
3C
102
{ACAD_REACTORS
330
2A
102
}
330
2A
100
AcDbVisualStyle
  2
OverhangOff
 70
    21
177
     3
291
     1
 70
    58
 90
        2
176
     0
 90
        2
176
     0
 90
        0
176
     0
 90
        0
176
     0
 40
0.6
176
     0
 40
30.0
176
     0
 62
     7
420
 16777215
176
     0
 90
        1
176
     0
 90
        4
176
     0
 62
     7
176
     0
 62
   257
176
     0
 90
        1
176
     0
 90
        1
176
     0
 40
1.0
176
     0
 90
        9
176
     2
 62
     7
176
     0
 40
1.0
176
     0
 90
        1
176
     0
 90
        6
176
     0
 90
        2
176
     0
 62
     7
176
     0
 90
        5
176
     0
 90
        0
176
     0
 90
        0
176
     0
290
     0
176
     0
 90
        1
176
     0
 40
0.0
176
     0
 90
        0
176
     0
290
     0
176
     0
290
     1
176
     0
290
     1
176
     0
290
     0
176
     0
290
     0
176
     0
290
     0
176
     0
290
     0
176
     0
290
     0
176
     0
290
     0
176
     0
 90
       50
176
     0
 40
0.0
176
     0
 40
1.0
176
     0
 90
        0
176
     0
 62
    18
420
        0
176
     0
 90
       50
176
     0
 90
        3
176
     0
 62
     5
420
      255
176
     0
290
     0
176
     0
 90
       50
176
     0
 90
       50
176
     0
 90
       50
176
     0
290
     0
176
     0
 90
       50
176
     0
 62
   256
176
     0
 40
1.0
176
     0
 90
        2
176
     0
  1
strokes_ogs.tif
176
     0
290
     0
176
     0
 40
1.0
176
     0
 40
1.0
176
     0
  0
VISUALSTYLE
  5
33
102
{ACAD_REACTORS
330
2A
102
}
330
2A
100
AcDbVisualStyle
  2
Realistic
 70
     8
177
     3
291
     0
 70
    58
 90
        2
176
     1
 90
        3
176
     1
 90
        0
176
     1
 90
        2
176
     1
 40
0.6
176
     1
 40
30.0
176
     1
 62
     7
420
 16777215
176
     1
 90
        0
176
     1
 90
        0
176
     1
 62
     7
176
     1
 62
   257
176
     1
 90
        1
176
     1
 90
        1
176
     1
 40
1.0
176
     1
 90
        8
176
     1
 62
   257
176
     1
 40
1.0
176
     1
 90
        1
176
     1
 90
        6
176
     1
 90
        2
176
     1
 62
     7
176
     1
 90
        3
176
     1
 90
        0
176
     1
 90
        0
176
     1
290
     0
176
     1
 90
       13
176
     1
 40
0.0
176
     1
 90
        0
176
     1
290
     0
176
     1
290
     1
176
     1
290
     1
176
     1
290
     0
176
     1
290
     0
176
     1
290
     0
176
     1
290
     0
176
     1
290
     0
176
     1
290
     0
176
     1
 90
       50
176
     1
 40
0.0
176
     1
 40
1.0
176
     1
 90
        0
176
     1
 62
    18
420
        0
176
     1
 90
       50
176
     1
 90
        3
176
     1
 62
     5
420
      255
176
     1
290
     0
176
     1
 90
       50
176
     1
 90
       50
176
     1
 90
       50
176
     1
290
     0
176
     1
 90
       50
176
     1
 62
   256
176
     0
 40
1.0
176
     0
 90
        2
176
     1
  1
strokes_ogs.tif
176
     1
290
     0
176
     1
 40
1.0
176
     1
 40
1.0
176
     1
  0
VISUALSTYLE
  5
42
102
{ACAD_REACTORS
330
2A
102
}
330
2A
100
AcDbVisualStyle
  2
Shaded
 70
    27
177
     3
291
     0
 70
    58
 90
        2
176
     1
 90
        2
176
     1
 90
        1
176
     1
 90
        2
176
     1
 40
0.6
176
     1
 40
30.0
176
     1
 62
     7
420
 16777215
176
     1
 90
        0
176
     1
 90
        4
176
     1
 62
     7
176
     1
 62
   257
176
     1
 90
        1
176
     1
 90
        1
176
     1
 40
1.0
176
     1
 90
        8
176
     1
 62
   257
176
     1
 40
1.0
176
     1
 90
        1
176
     1
 90
        6
176
     1
 90
        2
176
     1
 62
     8
420
  7895160
176
     1
 90
        3
176
     1
 90
        0
176
     1
 90
        0
176
     1
290
     0
176
     1
 90
        5
176
     1
 40
0.0
176
     1
 90
        0
176
     1
290
     0
176
     1
290
     1
176
     1
290
     1
176
     1
290
     0
176
     1
290
     0
176
     1
290
     0
176
     1
290
     0
176
     1
290
     0
176
     1
290
     0
176
     1
 90
       50
176
     1
 40
0.0
176
     1
 40
1.0
176
     1
 90
        0
176
     1
 62
    18
420
        0
176
     1
 90
       50
176
     1
 90
        3
176
     1
 62
     5
420
      255
176
     1
290
     0
176
     1
 90
       50
176
     1
 90
       50
176
     1
 90
       50
176
     1
290
     0
176
     1
 90
       50
176
     1
 62
   256
176
     0
 40
1.0
176
     0
 90
        2
176
     1
  1
strokes_ogs.tif
176
     1
290
     0
176
     1
 40
1.0
176
     1
 40
1.0
176
     1
  0
VISUALSTYLE
  5
41
102
{ACAD_REACTORS
330
2A
102
}
330
2A
100
AcDbVisualStyle
  2
Shaded with edges
 70
    26
177
     3
291
     0
 70
    58
 90
        2
176
     1
 90
        2
176
     1
 90
        1
176
     1
 90
        2
176
     1
 40
0.6
176
     1
 40
30.0
176
     1
 62
     7
420
 16777215
176
     1
 90
        1
176
     1
 90
       10
176
     1
 62
     7
176
     1
 62
   257
176
     1
 90
        2
176
     1
 90
        1
176
     1
 40
1.0
176
     1
 90
        8
176
     1
 62
   257
176
     1
 40
1.0
176
     1
 90
        1
176
     1
 90
        6
176
     1
 90
        2
176
     1
 62
     7
176
     1
 90
        3
176
     1
 90
        0
176
     1
 90
        0
176
     1
290
     0
176
     1
 90
        5
176
     1
 40
0.0
176
     1
 90
        0
176
     1
290
     0
176
     1
290
     1
176
     1
290
     1
176
     1
290
     0
176
     1
290
     0
176
     1
290
     0
176
     1
290
     0
176
     1
290
     0
176
     1
290
     0
176
     1
 90
       50
176
     1
 40
0.0
176
     1
 40
1.0
176
     1
 90
        0
176
     1
 62
    18
420
        0
176
     1
 90
       50
176
     1
 90
        3
176
     1
 62
     5
420
      255
176
     1
290
     0
176
     1
 90
       50
176
     1
 90
       50
176
     1
 90
       50
176
     1
290
     0
176
     1
 90
       50
176
     1
 62
   256
176
     0
 40
1.0
176
     0
 90
        2
176
     1
  1
strokes_ogs.tif
176
     1
290
     0
176
     1
 40
1.0
176
     1
 40
1.0
176
     1
  0
VISUALSTYLE
  5
3E
102
{ACAD_REACTORS
330
2A
102
}
330
2A
100
AcDbVisualStyle
  2
Shades of Gray
 70
    23
177
     3
291
     0
 70
    58
 90
        2
176
     1
 90
        2
176
     1
 90
        3
176
     1
 90
        0
176
     1
 40
0.6
176
     1
 40
30.0
176
     1
 62
     7
420
 16777215
176
     1
 90
        2
176
     1
 90
        2
176
     1
 62
     7
176
     1
 62
     7
176
     1
 90
        1
176
     1
 90
        1
176
     1
 40
40.0
176
     1
 90
        8
176
     1
 62
     7
176
     1
 40
1.0
176
     1
 90
        1
176
     1
 90
        6
176
     1
 90
        2
176
     1
 62
     7
176
     1
 90
        3
176
     1
 90
        0
176
     1
 90
        0
176
     1
290
     0
176
     1
 90
        1
176
     1
 40
0.0
176
     1
 90
        0
176
     1
290
     0
176
     1
290
     1
176
     1
290
     1
176
     1
290
     0
176
     1
290
     0
176
     1
290
     0
176
     1
290
     0
176
     1
290
     0
176
     1
290
     0
176
     1
 90
       50
176
     1
 40
0.0
176
     1
 40
1.0
176
     1
 90
        0
176
     1
 62
    18
420
        0
176
     1
 90
       50
176
     1
 90
        3
176
     1
 62
     5
420
      255
176
     1
290
     0
176
     1
 90
       50
176
     1
 90
       50
176
     1
 90
       50
176
     1
290
     0
176
     1
 90
       50
176
     1
 62
   256
176
     0
 40
1.0
176
     0
 90
        2
176
     1
  1
strokes_ogs.tif
176
     1
290
     0
176
     1
 40
1.0
176
     1
 40
1.0
176
     1
  0
VISUALSTYLE
  5
3F
102
{ACAD_REACTORS
330
2A
102
}
330
2A
100
AcDbVisualStyle
  2
Sketchy
 70
    24
177
     3
291
     0
 70
    58
 90
        1
176
     1
 90
        2
176
     1
 90
        2
176
     1
 90
        0
176
     1
 40
0.6
176
     1
 40
30.0
176
     1
 62
     7
420
 16777215
176
     1
 90
        2
176
     1
 90
        2
176
     1
 62
     7
176
     1
 62
     7
176
     1
 90
        1
176
     1
 90
        1
176
     1
 40
40.0
176
     1
 90
       11
176
     1
 62
     7
176
     1
 40
1.0
176
     1
 90
        1
176
     1
 90
        6
176
     1
 90
        2
176
     1
 62
     7
176
     1
 90
        6
176
     1
 90
        0
176
     1
 90
        0
176
     1
290
     0
176
     1
 90
        1
176
     1
 40
0.0
176
     1
 90
        0
176
     1
290
     0
176
     1
290
     1
176
     1
290
     1
176
     1
290
     0
176
     1
290
     0
176
     1
290
     0
176
     1
290
     0
176
     1
290
     0
176
     1
290
     0
176
     1
 90
       50
176
     1
 40
0.0
176
     1
 40
1.0
176
     1
 90
        0
176
     1
 62
    18
420
        0
176
     1
 90
       50
176
     1
 90
        3
176
     1
 62
     5
420
      255
176
     1
290
     0
176
     1
 90
       50
176
     1
 90
       50
176
     1
 90
       50
176
     1
290
     0
176
     1
 90
       50
176
     1
 62
   256
176
     0
 40
1.0
176
     0
 90
        2
176
     1
  1
strokes_ogs.tif
176
     1
290
     0
176
     1
 40
1.0
176
     1
 40
1.0
176
     1
  0
VISUALSTYLE
  5
37
102
{ACAD_REACTORS
330
2A
102
}
330
2A
100
AcDbVisualStyle
  2
Thicken
 70
    13
177
     3
291
     1
 70
    58
 90
        2
176
     1
 90
        2
176
     1
 90
        0
176
     1
 90
        0
176
     1
 40
0.6
176
     1
 40
30.0
176
     1
 62
     7
420
 16777215
176
     1
 90
        1
176
     1
 90
        4
176
     1
 62
     7
176
     1
 62
   257
176
     1
 90
        1
176
     1
 90
        1
176
     1
 40
1.0
176
     1
 90
       12
176
     1
 62
     7
176
     1
 40
1.0
176
     1
 90
        1
176
     1
 90
        6
176
     1
 90
        2
176
     1
 62
     7
176
     1
 90
        5
176
     1
 90
        0
176
     1
 90
        0
176
     1
290
     0
176
     1
 90
        1
176
     1
 40
0.0
176
     1
 90
        0
176
     1
290
     0
176
     1
290
     1
176
     1
290
     1
176
     1
290
     0
176
     1
290
     0
176
     1
290
     0
176
     1
290
     0
176
     1
290
     0
176
     1
290
     0
176
     1
 90
       50
176
     1
 40
0.0
176
     1
 40
1.0
176
     1
 90
        0
176
     1
 62
    18
420
        0
176
     1
 90
       50
176
     1
 90
        3
176
     1
 62
     5
420
      255
176
     1
290
     0
176
     1
 90
       50
176
     1
 90
       50
176
     1
 90
       50
176
     1
290
     0
176
     1
 90
       50
176
     1
 62
   256
176
     0
 40
1.0
176
     0
 90
        2
176
     1
  1
strokes_ogs.tif
176
     1
290
     0
176
     1
 40
1.0
176
     1
 40
1.0
176
     1
  0
VISUALSTYLE
  5
30
102
{ACAD_REACTORS
330
2A
102
}
330
2A
100
AcDbVisualStyle
  2
Wireframe
 70
     5
177
     3
291
     0
 70
    58
 90
        0
176
     1
 90
        2
176
     1
 90
        0
176
     1
 90
        0
176
     1
 40
0.6
176
     1
 40
30.0
176
     1
 62
     7
420
 16777215
176
     1
 90
        1
176
     1
 90
        4
176
     1
 62
     7
176
     1
 62
   257
176
     1
 90
        1
176
     1
 90
        1
176
     1
 40
1.0
176
     1
 90
        0
176
     1
 62
   257
176
     1
 40
1.0
176
     1
 90
        1
176
     1
 90
        6
176
     1
 90
        2
176
     1
 62
     7
176
     1
 90
        3
176
     1
 90
        0
176
     1
 90
        0
176
     1
290
     0
176
     1
 90
        1
176
     1
 40
0.0
176
     1
 90
        0
176
     1
290
     0
176
     1
290
     1
176
     1
290
     1
176
     1
290
     0
176
     1
290
     0
176
     1
290
     0
176
     1
290
     0
176
     1
290
     0
176
     1
290
     0
176
     1
 90
       50
176
     1
 40
0.0
176
     1
 40
1.0
176
     1
 90
        0
176
     1
 62
    18
420
        0
176
     1
 90
       50
176
     1
 90
        3
176
     1
 62
     5
420
      255
176
     1
290
     0
176
     1
 90
       50
176
     1
 90
       50
176
     1
 90
       50
176
     1
290
     0
176
     1
 90
       50
176
     1
 62
   256
176
     0
 40
1.0
176
     0
 90
        2
176
     1
  1
strokes_ogs.tif
176
     1
290
     0
176
     1
 40
1.0
176
     1
 40
1.0
176
     1
  0
VISUALSTYLE
  5
40
102
{ACAD_REACTORS
330
2A
102
}
330
2A
100
AcDbVisualStyle
  2
X-Ray
 70
    25
177
     3
291
     0
 70
    58
 90
        2
176
     1
 90
        2
176
     1
 90
        1
176
     1
 90
        1
176
     1
 40
0.5
176
     1
 40
30.0
176
     1
 62
     7
420
 16777215
176
     1
 90
        1
176
     1
 90
        0
176
     1
 62
     7
176
     1
 62
   257
176
     1
 90
        1
176
     1
 90
        1
176
     1
 40
1.0
176
     1
 90
        8
176
     1
 62
     7
176
     1
 40
1.0
176
     1
 90
        1
176
     1
 90
        6
176
     1
 90
        2
176
     1
 62
     7
176
     1
 90
        3
176
     1
 90
        0
176
     1
 90
        0
176
     1
290
     0
176
     1
 90
       13
176
     1
 40
0.0
176
     1
 90
        0
176
     1
290
     0
176
     1
290
     1
176
     1
290
     1
176
     1
290
     0
176
     1
290
     0
176
     1
290
     0
176
     1
290
     0
176
     1
290
     0
176
     1
290
     0
176
     1
 90
       50
176
     1
 40
0.0
176
     1
 40
1.0
176
     1
 90
        0
176
     1
 62
    18
420
        0
176
     1
 90
       50
176
     1
 90
        3
176
     1
 62
     5
420
      255
176
     1
290
     0
176
     1
 90
       50
176
     1
 90
       50
176
     1
 90
       50
176
     1
290
     0
176
     1
 90
       50
176
     1
 62
   256
176
     0
 40
1.0
176
     0
 90
        2
176
     1
  1
strokes_ogs.tif
176
     1
290
     0
176
     1
 40
1.0
176
     1
 40
1.0
176
     1
  0
DICTIONARYVAR
  5
22F
102
{ACAD_REACTORS
330
22E
102
}
330
22E
100
DictionaryVariables
280
     0
  1
1:1
  0
DICTIONARYVAR
  5
234
102
{ACAD_REACTORS
330
22E
102
}
330
22E
100
DictionaryVariables
280
     0
  1
Standard
  0
DICTIONARYVAR
  5
233
102
{ACAD_REACTORS
330
22E
102
}
330
22E
100
DictionaryVariables
280
     0
  1
Standard
  0
DICTIONARY
  5
230
330
6A
100
AcDbDictionary
280
     1
281
     1
  3
ACAD_ROUNDTRIP_2008_TABLESTYLE_CELLSTYLEMAP
360
231
  0
CELLSTYLEMAP
  5
231
102
{ACAD_REACTORS
330
230
102
}
330
230
100
AcDbCellStyleMap
 90
        3
300
CELLSTYLE
  1
TABLEFORMAT_BEGIN
 90
        5
170
     1
 91
        0
 92
    32768
 62
   257
 93
        1
300
CONTENTFORMAT
  1
CONTENTFORMAT_BEGIN
 90
        0
 91
        0
 92
        4
 93
        0
300

 40
0.0
140
1.0
 94
        5
 62
     0
340
11
144
0.25
309
CONTENTFORMAT_END
171
     1
301
MARGIN
  1
CELLMARGIN_BEGIN
 40
0.06
 40
0.06
 40
0.06
 40
0.06
 40
0.06
 40
0.06
309
CELLMARGIN_END
 94
        6
 95
        1
302
GRIDFORMAT
  1
GRIDFORMAT_BEGIN
 90
        0
 91
        1
 62
     0
 92
       -2
340
14
 93
        0
 40
0.045
309
GRIDFORMAT_END
 95
        2
302
GRIDFORMAT
  1
GRIDFORMAT_BEGIN
 90
        0
 91
        1
 62
     0
 92
       -2
340
14
 93
        0
 40
0.045
309
GRIDFORMAT_END
 95
        4
302
GRIDFORMAT
  1
GRIDFORMAT_BEGIN
 90
        0
 91
        1
 62
     0
 92
       -2
340
14
 93
        0
 40
0.045
309
GRIDFORMAT_END
 95
        8
302
GRIDFORMAT
  1
GRIDFORMAT_BEGIN
 90
        0
 91
        1
 62
     0
 92
       -2
340
14
 93
        0
 40
0.045
309
GRIDFORMAT_END
 95
       16
302
GRIDFORMAT
  1
GRIDFORMAT_BEGIN
 90
        0
 91
        1
 62
     0
 92
       -2
340
14
 93
        0
 40
0.045
309
GRIDFORMAT_END
 95
       32
302
GRIDFORMAT
  1
GRIDFORMAT_BEGIN
 90
        0
 91
        1
 62
     0
 92
       -2
340
14
 93
        0
 40
0.045
309
GRIDFORMAT_END
309
TABLEFORMAT_END
  1
CELLSTYLE_BEGIN
 90
        1
 91
        1
300
_TITLE
309
CELLSTYLE_END
300
CELLSTYLE
  1
TABLEFORMAT_BEGIN
 90
        5
170
     1
 91
        0
 92
        0
 62
   257
 93
        1
300
CONTENTFORMAT
  1
CONTENTFORMAT_BEGIN
 90
        0
 91
        0
 92
        4
 93
        0
300

 40
0.0
140
1.0
 94
        5
 62
     0
340
11
144
0.18
309
CONTENTFORMAT_END
171
     1
301
MARGIN
  1
CELLMARGIN_BEGIN
 40
0.06
 40
0.06
 40
0.06
 40
0.06
 40
0.06
 40
0.06
309
CELLMARGIN_END
 94
        6
 95
        1
302
GRIDFORMAT
  1
GRIDFORMAT_BEGIN
 90
        0
 91
        1
 62
     0
 92
       -2
340
14
 93
        0
 40
0.045
309
GRIDFORMAT_END
 95
        2
302
GRIDFORMAT
  1
GRIDFORMAT_BEGIN
 90
        0
 91
        1
 62
     0
 92
       -2
340
14
 93
        0
 40
0.045
309
GRIDFORMAT_END
 95
        4
302
GRIDFORMAT
  1
GRIDFORMAT_BEGIN
 90
        0
 91
        1
 62
     0
 92
       -2
340
14
 93
        0
 40
0.045
309
GRIDFORMAT_END
 95
        8
302
GRIDFORMAT
  1
GRIDFORMAT_BEGIN
 90
        0
 91
        1
 62
     0
 92
       -2
340
14
 93
        0
 40
0.045
309
GRIDFORMAT_END
 95
       16
302
GRIDFORMAT
  1
GRIDFORMAT_BEGIN
 90
        0
 91
        1
 62
     0
 92
       -2
340
14
 93
        0
 40
0.045
309
GRIDFORMAT_END
 95
       32
302
GRIDFORMAT
  1
GRIDFORMAT_BEGIN
 90
        0
 91
        1
 62
     0
 92
       -2
340
14
 93
        0
 40
0.045
309
GRIDFORMAT_END
309
TABLEFORMAT_END
  1
CELLSTYLE_BEGIN
 90
        2
 91
        1
300
_HEADER
309
CELLSTYLE_END
300
CELLSTYLE
  1
TABLEFORMAT_BEGIN
 90
        5
170
     1
 91
        0
 92
        0
 62
   257
 93
        1
300
CONTENTFORMAT
  1
CONTENTFORMAT_BEGIN
 90
        0
 91
        0
 92
        4
 93
        0
300

 40
0.0
140
1.0
 94
        2
 62
     0
340
11
144
0.18
309
CONTENTFORMAT_END
171
     1
301
MARGIN
  1
CELLMARGIN_BEGIN
 40
0.06
 40
0.06
 40
0.06
 40
0.06
 40
0.06
 40
0.06
309
CELLMARGIN_END
 94
        6
 95
        1
302
GRIDFORMAT
  1
GRIDFORMAT_BEGIN
 90
        0
 91
        1
 62
     0
 92
       -2
340
14
 93
        0
 40
0.045
309
GRIDFORMAT_END
 95
        2
302
GRIDFORMAT
  1
GRIDFORMAT_BEGIN
 90
        0
 91
        1
 62
     0
 92
       -2
340
14
 93
        0
 40
0.045
309
GRIDFORMAT_END
 95
        4
302
GRIDFORMAT
  1
GRIDFORMAT_BEGIN
 90
        0
 91
        1
 62
     0
 92
       -2
340
14
 93
        0
 40
0.045
309
GRIDFORMAT_END
 95
        8
302
GRIDFORMAT
  1
GRIDFORMAT_BEGIN
 90
        0
 91
        1
 62
     0
 92
       -2
340
14
 93
        0
 40
0.045
309
GRIDFORMAT_END
 95
       16
302
GRIDFORMAT
  1
GRIDFORMAT_BEGIN
 90
        0
 91
        1
 62
     0
 92
       -2
340
14
 93
        0
 40
0.045
309
GRIDFORMAT_END
 95
       32
302
GRIDFORMAT
  1
GRIDFORMAT_BEGIN
 90
        0
 91
        1
 62
     0
 92
       -2
340
14
 93
        0
 40
0.045
309
GRIDFORMAT_END
309
TABLEFORMAT_END
  1
CELLSTYLE_BEGIN
 90
        3
 91
        2
300
_DATA
309
CELLSTYLE_END
  0
ENDSEC
  0
EOF