0
SECTION
  2
HEADER
  9
$ACADVER
  1
AC1027
  9
$ACADMAINTVER
 70
     8
  9
$DWGCODEPAGE
  3
ANSI_1252
  9
$REQUIREDVERSIONS
160
                 0
  9
$COMMENTS
  1
File was created by Cadenas
  9
$CUSTOMPROPERTYTAG
  1
NN
  9
$CUSTOMPROPERTY
  1
Imperial - IP Flange - Round Labyrinth Seal
  9
$CUSTOMPROPERTYTAG
  1
NT
  9
$CUSTOMPROPERTY
  1
Imperial 3 & 4 Bolt Round Flange Bearings
  9
$CUSTOMPROPERTYTAG
  1
NB
  9
$CUSTOMPROPERTY
  1
069688
  9
$CUSTOMPROPERTYTAG
  1
NBSYN
  9
$CUSTOMPROPERTY
  1
$PN.
  9
$CUSTOMPROPERTYTAG
  1
LINA
  9
$CUSTOMPROPERTY
  1
069688
  9
$CUSTOMPROPERTYTAG
  1
SS
  9
$CUSTOMPROPERTY
  1
2-1/2
  9
$CUSTOMPROPERTYTAG
  1
PN
  9
$CUSTOMPROPERTY
  1
069688
  9
$CUSTOMPROPERTYTAG
  1
DESCRIPTION
  9
$CUSTOMPROPERTY
  1
F4R-IP-208LE
  9
$CUSTOMPROPERTYTAG
  1
EF
  9
$CUSTOMPROPERTY
  1
Expansion Type
  9
$CUSTOMPROPERTYTAG
  1
ST
  9
$CUSTOMPROPERTY
  1
Labyrinth Seal
  9
$CUSTOMPROPERTYTAG
  1
A
  9
$CUSTOMPROPERTY
  1
3-27/64
  9
$CUSTOMPROPERTYTAG
  1
B
  9
$CUSTOMPROPERTY
  1
7-3/4
  9
$CUSTOMPROPERTYTAG
  1
C
  9
$CUSTOMPROPERTY
  1
3-47/64
  9
$CUSTOMPROPERTYTAG
  1
D
  9
$CUSTOMPROPERTY
  1
4-49/64
  9
$CUSTOMPROPERTYTAG
  1
DD
  9
$CUSTOMPROPERTY
  1
6-3/4
  9
$CUSTOMPROPERTYTAG
  1
E
  9
$CUSTOMPROPERTY
  1
2-3/8
  9
$CUSTOMPROPERTYTAG
  1
F
  9
$CUSTOMPROPERTY
  1
5/8
  9
$CUSTOMPROPERTYTAG
  1
H
  9
$CUSTOMPROPERTY
  1
41/64
  9
$CUSTOMPROPERTYTAG
  1
J
  9
$CUSTOMPROPERTY
  1
5-3/8
  9
$CUSTOMPROPERTYTAG
  1
L
  9
$CUSTOMPROPERTY
  1
3-7/8
  9
$CUSTOMPROPERTYTAG
  1
P
  9
$CUSTOMPROPERTY
  1
5/16
  9
$CUSTOMPROPERTYTAG
  1
X
  9
$CUSTOMPROPERTY
  1
1/4
  9
$CUSTOMPROPERTYTAG
  1
Y
  9
$CUSTOMPROPERTY
  1
0.025
  9
$CUSTOMPROPERTYTAG
  1
Z
  9
$CUSTOMPROPERTY
  1
2-15/16
  9
$CUSTOMPROPERTYTAG
  1
COMPANY
  9
$CUSTOMPROPERTY
  1
baldor
  9
$INSBASE
 10
0.0
 20
0.0
 30
0.0
  9
$EXTMIN
 10
1.000000000000000E+20
 20
1.000000000000000E+20
 30
1.000000000000000E+20
  9
$EXTMAX
 10
-1.000000000000000E+20
 20
-1.000000000000000E+20
 30
-1.000000000000000E+20
  9
$LIMMIN
 10
0.0
 20
0.0
  9
$LIMMAX
 10
12.0
 20
9.0
  9
$ORTHOMODE
 70
     0
  9
$REGENMODE
 70
     1
  9
$FILLMODE
 70
     1
  9
$QTEXTMODE
 70
     0
  9
$MIRRTEXT
 70
     1
  9
$LTSCALE
 40
1.0
  9
$ATTMODE
 70
     1
  9
$TEXTSIZE
 40
0.2
  9
$TRACEWID
 40
0.05
  9
$TEXTSTYLE
  7
Standard
  9
$CLAYER
  8
0
  9
$CELTYPE
  6
ByLayer
  9
$CECOLOR
 62
   256
  9
$CELTSCALE
 40
1.0
  9
$DISPSILH
 70
     0
  9
$DIMSCALE
 40
1.0
  9
$DIMASZ
 40
0.18
  9
$DIMEXO
 40
0.0625
  9
$DIMDLI
 40
0.38
  9
$DIMRND
 40
0.0
  9
$DIMDLE
 40
0.0
  9
$DIMEXE
 40
0.18
  9
$DIMTP
 40
0.0
  9
$DIMTM
 40
0.0
  9
$DIMTXT
 40
0.18
  9
$DIMCEN
 40
0.09
  9
$DIMTSZ
 40
0.0
  9
$DIMTOL
 70
     0
  9
$DIMLIM
 70
     0
  9
$DIMTIH
 70
     1
  9
$DIMTOH
 70
     1
  9
$DIMSE1
 70
     0
  9
$DIMSE2
 70
     0
  9
$DIMTAD
 70
     0
  9
$DIMZIN
 70
     0
  9
$DIMBLK
  1

  9
$DIMASO
 70
     1
  9
$DIMSHO
 70
     1
  9
$DIMPOST
  1

  9
$DIMAPOST
  1

  9
$DIMALT
 70
     0
  9
$DIMALTD
 70
     2
  9
$DIMALTF
 40
25.4
  9
$DIMLFAC
 40
1.0
  9
$DIMTOFL
 70
     0
  9
$DIMTVP
 40
0.0
  9
$DIMTIX
 70
     0
  9
$DIMSOXD
 70
     0
  9
$DIMSAH
 70
     0
  9
$DIMBLK1
  1

  9
$DIMBLK2
  1

  9
$DIMSTYLE
  2
Standard
  9
$DIMCLRD
 70
     0
  9
$DIMCLRE
 70
     0
  9
$DIMCLRT
 70
     0
  9
$DIMTFAC
 40
1.0
  9
$DIMGAP
 40
0.09
  9
$DIMJUST
 70
     0
  9
$DIMSD1
 70
     0
  9
$DIMSD2
 70
     0
  9
$DIMTOLJ
 70
     1
  9
$DIMTZIN
 70
     0
  9
$DIMALTZ
 70
     0
  9
$DIMALTTZ
 70
     0
  9
$DIMUPT
 70
     0
  9
$DIMDEC
 70
     4
  9
$DIMTDEC
 70
     4
  9
$DIMALTU
 70
     2
  9
$DIMALTTD
 70
     2
  9
$DIMTXSTY
  7
Standard
  9
$DIMAUNIT
 70
     0
  9
$DIMADEC
 70
     0
  9
$DIMALTRND
 40
0.0
  9
$DIMAZIN
 70
     0
  9
$DIMDSEP
 70
    46
  9
$DIMATFIT
 70
     3
  9
$DIMFRAC
 70
     0
  9
$DIMLDRBLK
  1

  9
$DIMLUNIT
 70
     2
  9
$DIMLWD
 70
    -2
  9
$DIMLWE
 70
    -2
  9
$DIMTMOVE
 70
     0
  9
$DIMFXL
 40
1.0
  9
$DIMFXLON
 70
     0
  9
$DIMJOGANG
 40
0.7853981633974483
  9
$DIMTFILL
 70
     0
  9
$DIMTFILLCLR
 70
     0
  9
$DIMARCSYM
 70
     0
  9
$DIMLTYPE
  6

  9
$DIMLTEX1
  6

  9
$DIMLTEX2
  6

  9
$DIMTXTDIRECTION
 70
     0
  9
$LUNITS
 70
     2
  9
$LUPREC
 70
     4
  9
$SKETCHINC
 40
0.1
  9
$FILLETRAD
 40
0.5
  9
$AUNITS
 70
     0
  9
$AUPREC
 70
     0
  9
$MENU
  1
.
  9
$ELEVATION
 40
0.0
  9
$PELEVATION
 40
0.0
  9
$THICKNESS
 40
0.0
  9
$LIMCHECK
 70
     0
  9
$CHAMFERA
 40
0.0
  9
$CHAMFERB
 40
0.0
  9
$CHAMFERC
 40
0.0
  9
$CHAMFERD
 40
0.0
  9
$SKPOLY
 70
     0
  9
$TDCREATE
 40
2458168.990821401
  9
$TDUCREATE
 40
2458168.949154734
  9
$TDUPDATE
 40
2458168.990821401
  9
$TDUUPDATE
 40
2458168.949154734
  9
$TDINDWG
 40
0.0000000116
  9
$TDUSRTIMER
 40
0.0000000116
  9
$USRTIMER
 70
     1
  9
$ANGBASE
 50
0.0
  9
$ANGDIR
 70
     0
  9
$PDMODE
 70
     0
  9
$PDSIZE
 40
0.0
  9
$PLINEWID
 40
0.0
  9
$SPLFRAME
 70
     0
  9
$SPLINETYPE
 70
     6
  9
$SPLINESEGS
 70
     8
  9
$HANDSEED
  5
24E
  9
$SURFTAB1
 70
     6
  9
$SURFTAB2
 70
     6
  9
$SURFTYPE
 70
     6
  9
$SURFU
 70
     6
  9
$SURFV
 70
     6
  9
$UCSBASE
  2

  9
$UCSNAME
  2

  9
$UCSORG
 10
0.0
 20
0.0
 30
0.0
  9
$UCSXDIR
 10
1.0
 20
0.0
 30
0.0
  9
$UCSYDIR
 10
0.0
 20
1.0
 30
0.0
  9
$UCSORTHOREF
  2

  9
$UCSORTHOVIEW
 70
     0
  9
$UCSORGTOP
 10
0.0
 20
0.0
 30
0.0
  9
$UCSORGBOTTOM
 10
0.0
 20
0.0
 30
0.0
  9
$UCSORGLEFT
 10
0.0
 20
0.0
 30
0.0
  9
$UCSORGRIGHT
 10
0.0
 20
0.0
 30
0.0
  9
$UCSORGFRONT
 10
0.0
 20
0.0
 30
0.0
  9
$UCSORGBACK
 10
0.0
 20
0.0
 30
0.0
  9
$PUCSBASE
  2

  9
$PUCSNAME
  2

  9
$PUCSORG
 10
0.0
 20
0.0
 30
0.0
  9
$PUCSXDIR
 10
1.0
 20
0.0
 30
0.0
  9
$PUCSYDIR
 10
0.0
 20
1.0
 30
0.0
  9
$PUCSORTHOREF
  2

  9
$PUCSORTHOVIEW
 70
     0
  9
$PUCSORGTOP
 10
0.0
 20
0.0
 30
0.0
  9
$PUCSORGBOTTOM
 10
0.0
 20
0.0
 30
0.0
  9
$PUCSORGLEFT
 10
0.0
 20
0.0
 30
0.0
  9
$PUCSORGRIGHT
 10
0.0
 20
0.0
 30
0.0
  9
$PUCSORGFRONT
 10
0.0
 20
0.0
 30
0.0
  9
$PUCSORGBACK
 10
0.0
 20
0.0
 30
0.0
  9
$USERI1
 70
     0
  9
$USERI2
 70
     0
  9
$USERI3
 70
     0
  9
$USERI4
 70
     0
  9
$USERI5
 70
     0
  9
$USERR1
 40
0.0
  9
$USERR2
 40
0.0
  9
$USERR3
 40
0.0
  9
$USERR4
 40
0.0
  9
$USERR5
 40
0.0
  9
$WORLDVIEW
 70
     1
  9
$SHADEDGE
 70
     3
  9
$SHADEDIF
 70
    70
  9
$TILEMODE
 70
     1
  9
$MAXACTVP
 70
    64
  9
$PINSBASE
 10
0.0
 20
0.0
 30
0.0
  9
$PLIMCHECK
 70
     0
  9
$PEXTMIN
 10
1.000000000000000E+20
 20
1.000000000000000E+20
 30
1.000000000000000E+20
  9
$PEXTMAX
 10
-1.000000000000000E+20
 20
-1.000000000000000E+20
 30
-1.000000000000000E+20
  9
$PLIMMIN
 10
0.0
 20
0.0
  9
$PLIMMAX
 10
12.0
 20
9.0
  9
$UNITMODE
 70
     0
  9
$VISRETAIN
 70
     1
  9
$PLINEGEN
 70
     0
  9
$PSLTSCALE
 70
     1
  9
$TREEDEPTH
 70
  3020
  9
$CMLSTYLE
  2
Standard
  9
$CMLJUST
 70
     0
  9
$CMLSCALE
 40
1.0
  9
$PROXYGRAPHICS
 70
     1
  9
$MEASUREMENT
 70
     0
  9
$CELWEIGHT
370
    -1
  9
$ENDCAPS
280
     0
  9
$JOINSTYLE
280
     0
  9
$LWDISPLAY
290
     0
  9
$INSUNITS
 70
     1
  9
$HYPERLINKBASE
  1

  9
$STYLESHEET
  1

  9
$XEDIT
290
     1
  9
$CEPSNTYPE
380
     0
  9
$PSTYLEMODE
290
     1
  9
$FINGERPRINTGUID
  2
{DA4F1952-27CB-4CD6-9E66-A35525CF2E09}
  9
$VERSIONGUID
  2
{FAEB1C32-E019-11D5-929B-00C0DF256EC4}
  9
$EXTNAMES
290
     1
  9
$PSVPSCALE
 40
0.0
  9
$OLESTARTUP
290
     0
  9
$SORTENTS
280
   127
  9
$INDEXCTL
280
     0
  9
$HIDETEXT
280
     1
  9
$XCLIPFRAME
280
     2
  9
$HALOGAP
280
     0
  9
$OBSCOLOR
 70
   257
  9
$OBSLTYPE
280
     0
  9
$INTERSECTIONDISPLAY
280
     0
  9
$INTERSECTIONCOLOR
 70
   257
  9
$DIMASSOC
280
     2
  9
$PROJECTNAME
  1

  9
$CAMERADISPLAY
290
     0
  9
$LENSLENGTH
 40
50.0
  9
$CAMERAHEIGHT
 40
0.0
  9
$STEPSPERSEC
 40
2.0
  9
$STEPSIZE
 40
6.0
  9
$3DDWFPREC
 40
2.0
  9
$PSOLWIDTH
 40
0.25
  9
$PSOLHEIGHT
 40
4.0
  9
$LOFTANG1
 40
1.570796326794897
  9
$LOFTANG2
 40
1.570796326794897
  9
$LOFTMAG1
 40
0.0
  9
$LOFTMAG2
 40
0.0
  9
$LOFTPARAM
 70
     7
  9
$LOFTNORMALS
280
     1
  9
$LATITUDE
 40
37.795
  9
$LONGITUDE
 40
-122.394
  9
$NORTHDIRECTION
 40
0.0
  9
$TIMEZONE
 70
 -8000
  9
$LIGHTGLYPHDISPLAY
280
     1
  9
$TILEMODELIGHTSYNCH
280
     1
  9
$CMATERIAL
347
44
  9
$SOLIDHIST
280
     0
  9
$SHOWHIST
280
     1
  9
$DWFFRAME
280
     2
  9
$DGNFRAME
280
     2
  9
$REALWORLDSCALE
290
     1
  9
$INTERFERECOLOR
 62
   256
  9
$CSHADOW
280
     0
  9
$SHADOWPLANELOCATION
 40
0.0
  0
ENDSEC
  0
SECTION
  2
CLASSES
  0
CLASS
  1
ACDBDICTIONARYWDFLT
  2
AcDbDictionaryWithDefault
  3
ObjectDBX Classes
 90
        0
 91
        4
280
     0
281
     0
  0
CLASS
  1
VISUALSTYLE
  2
AcDbVisualStyle
  3
ObjectDBX Classes
 90
     4095
 91
        4
280
     0
281
     0
  0
CLASS
  1
MATERIAL
  2
AcDbMaterial
  3
ObjectDBX Classes
 90
     1153
 91
        4
280
     0
281
     0
  0
CLASS
  1
SCALE
  2
AcDbScale
  3
ObjectDBX Classes
 90
     1153
 91
        4
280
     0
281
     0
  0
CLASS
  1
TABLESTYLE
  2
AcDbTableStyle
  3
ObjectDBX Classes
 90
     4095
 91
        4
280
     0
281
     0
  0
CLASS
  1
MLEADERSTYLE
  2
AcDbMLeaderStyle
  3
ACDB_MLEADERSTYLE_CLASS
 90
     4095
 91
        4
280
     0
281
     0
  0
CLASS
  1
SUN
  2
AcDbSun
  3
SCENEOE
 90
     1153
 91
        4
280
     0
281
     0
  0
CLASS
  1
DICTIONARYVAR
  2
AcDbDictionaryVar
  3
ObjectDBX Classes
 90
        0
 91
        4
280
     0
281
     0
  0
CLASS
  1
CELLSTYLEMAP
  2
AcDbCellStyleMap
  3
ObjectDBX Classes
 90
     1152
 91
        4
280
     0
281
     0
  0
ENDSEC
  0
SECTION
  2
TABLES
  0
TABLE
  2
VPORT
  5
8
330
0
100
AcDbSymbolTable
 70
     1
  0
VPORT
  5
29
330
8
100
AcDbSymbolTableRecord
100
AcDbViewportTableRecord
  2
*Active
 70
     0
 10
0.0
 20
0.0
 11
1.0
 21
1.0
 12
-1.799765624999999
 22
0.078125
 13
0.0
 23
0.0
 14
0.5
 24
0.5
 15
0.5
 25
0.5
 16
0.0
 26
0.0
 36
1.0
 17
0.0
 27
0.0
 37
0.0
 40
8.064375
 41
0.4893873517786564
 42
50.0
 43
0.0
 44
0.0
 50
0.0
 51
0.0
 71
     0
 72
   100
 73
     1
 74
     3
 75
     0
 76
     0
 77
     0
 78
     0
281
     0
 65
     1
110
0.0
120
0.0
130
0.0
111
1.0
121
0.0
131
0.0
112
0.0
122
1.0
132
0.0
 79
     0
146
0.0
348
2F
 60
     3
 61
     5
292
     1
282
     1
141
0.0
142
0.0
 63
   250
361
6D
  0
ENDTAB
  0
TABLE
  2
LTYPE
  5
5
330
0
100
AcDbSymbolTable
 70
     3
  0
LTYPE
  5
14
330
5
100
AcDbSymbolTableRecord
100
AcDbLinetypeTableRecord
  2
ByBlock
 70
     0
  3

 72
    65
 73
     0
 40
0.0
  0
LTYPE
  5
15
330
5
100
AcDbSymbolTableRecord
100
AcDbLinetypeTableRecord
  2
ByLayer
 70
     0
  3

 72
    65
 73
     0
 40
0.0
  0
LTYPE
  5
16
330
5
100
AcDbSymbolTableRecord
100
AcDbLinetypeTableRecord
  2
Continuous
 70
     0
  3
Solid line
 72
    65
 73
     0
 40
0.0
  0
LTYPE
  5
9C
330
5
100
AcDbSymbolTableRecord
100
AcDbLinetypeTableRecord
  2
Dashed
 70
     0
  3

 72
    65
 73
     2
 40
2.0
 49
1.0
 74
     0
 49
-1.0
 74
     0
  0
LTYPE
  5
181
330
5
100
AcDbSymbolTableRecord
100
AcDbLinetypeTableRecord
  2
Center
 70
     0
  3

 72
    65
 73
     4
 40
1.5
 49
0.45
 74
     0
 49
-0.5
 74
     0
 49
0.05
 74
     0
 49
-0.5
 74
     0
  0
ENDTAB
  0
TABLE
  2
LAYER
  5
2
330
0
100
AcDbSymbolTable
 70
     7
  0
LAYER
  5
10
330
2
100
AcDbSymbolTableRecord
100
AcDbLayerTableRecord
  2
0
 70
     0
 62
     7
  6
Continuous
370
    -3
390
F
347
46
348
0
  0
LAYER
  5
72
330
2
100
AcDbSymbolTableRecord
100
AcDbLayerTableRecord
  2
AM_6
 70
     0
 62
    -2
  6
Continuous
370
    35
390
F
347
46
348
0
  0
LAYER
  5
9D
330
2
100
AcDbSymbolTableRecord
100
AcDbLayerTableRecord
  2
AM_9
 70
     0
 62
     6
  6
Dashed
370
    25
390
F
347
46
348
0
  0
LAYER
  5
AB
330
2
100
AcDbSymbolTableRecord
100
AcDbLayerTableRecord
  2
AM_5
 70
     0
 62
     3
  6
Continuous
370
    25
390
F
347
46
348
0
  0
LAYER
  5
AF
330
2
100
AcDbSymbolTableRecord
100
AcDbLayerTableRecord
  2
AM_4
 70
     0
 62
     7
  6
Continuous
370
    50
390
F
347
46
348
0
  0
LAYER
  5
182
330
2
100
AcDbSymbolTableRecord
100
AcDbLayerTableRecord
  2
AM_7
 70
     0
 62
     7
  6
Center
370
    25
390
F
347
46
348
0
  0
LAYER
  5
237
330
2
100
AcDbSymbolTableRecord
100
AcDbLayerTableRecord
  2
ConnectionPoints
 70
     0
 62
     7
  6
Continuous
370
    50
390
F
347
46
348
0
  0
ENDTAB
  0
TABLE
  2
STYLE
  5
3
330
0
100
AcDbSymbolTable
 70
     1
  0
STYLE
  5
11
330
3
100
AcDbSymbolTableRecord
100
AcDbTextStyleTableRecord
  2
Standard
 70
     0
 40
0.0
 41
1.0
 50
0.0
 71
     0
 42
0.2
  3
txt
  4

  0
ENDTAB
  0
TABLE
  2
VIEW
  5
6
330
0
100
AcDbSymbolTable
 70
     0
  0
ENDTAB
  0
TABLE
  2
UCS
  5
7
330
0
100
AcDbSymbolTable
 70
     0
  0
ENDTAB
  0
TABLE
  2
APPID
  5
9
330
0
100
AcDbSymbolTable
 70
     1
  0
APPID
  5
12
330
9
100
AcDbSymbolTableRecord
100
AcDbRegAppTableRecord
  2
ACAD
 70
     0
  0
ENDTAB
  0
TABLE
  2
DIMSTYLE
  5
A
330
0
100
AcDbSymbolTable
 70
     1
100
AcDbDimStyleTable
  0
DIMSTYLE
105
27
330
A
100
AcDbSymbolTableRecord
100
AcDbDimStyleTableRecord
  2
Standard
 70
     0
178
     0
340
11
  0
ENDTAB
  0
TABLE
  2
BLOCK_RECORD
  5
1
330
0
100
AcDbSymbolTable
 70
     8
  0
BLOCK_RECORD
  5
1F
330
1
100
AcDbSymbolTableRecord
100
AcDbBlockTableRecord
  2
*Model_Space
340
22
 70
     0
280
     1
281
     0
  0
BLOCK_RECORD
  5
1B
330
1
100
AcDbSymbolTableRecord
100
AcDbBlockTableRecord
  2
*Paper_Space
340
1E
 70
     0
280
     1
281
     0
  0
BLOCK_RECORD
  5
23
330
1
100
AcDbSymbolTableRecord
100
AcDbBlockTableRecord
  2
*Paper_Space0
340
26
 70
     0
280
     1
281
     0
  0
BLOCK_RECORD
  5
6E
330
1
100
AcDbSymbolTableRecord
100
AcDbBlockTableRecord
  2
1_069688_2
340
0
102
{BLKREFS
331
6F
102
}
 70
     0
280
     1
281
     0
  0
BLOCK_RECORD
  5
8C
330
1
100
AcDbSymbolTableRecord
100
AcDbBlockTableRecord
  2
2_ASME_B18_3_10_1_0_in_069688_2
340
0
102
{BLKREFS
331
8D
102
}
 70
     0
280
     1
281
     0
  0
BLOCK_RECORD
  5
B6
330
1
100
AcDbSymbolTableRecord
100
AcDbBlockTableRecord
  2
3_ASME_B18_3_10_2_0_in_069688_2
340
0
102
{BLKREFS
331
B7
102
}
 70
     0
280
     1
281
     0
  0
BLOCK_RECORD
  5
DE
330
1
100
AcDbSymbolTableRecord
100
AcDbBlockTableRecord
  2
4_070896LW_0_in_069688_2
340
0
102
{BLKREFS
331
DF
102
}
 70
     0
280
     1
281
     0
  0
BLOCK_RECORD
  5
115
330
1
100
AcDbSymbolTableRecord
100
AcDbBlockTableRecord
  2
5_070928I_0_in_069688_2
340
0
102
{BLKREFS
331
116
102
}
 70
     0
280
     1
281
     0
  0
BLOCK_RECORD
  5
196
330
1
100
AcDbSymbolTableRecord
100
AcDbBlockTableRecord
  2
6_405015E_Inch_0_in_069688_2
340
0
102
{BLKREFS
331
197
102
}
 70
     0
280
     1
281
     0
  0
BLOCK_RECORD
  5
1D4
330
1
100
AcDbSymbolTableRecord
100
AcDbBlockTableRecord
  2
7_069688H_0_in_069688_2
340
0
102
{BLKREFS
331
1D5
102
}
 70
     0
280
     1
281
     0
  0
ENDTAB
  0
ENDSEC
  0
SECTION
  2
BLOCKS
  0
BLOCK
  5
20
330
1F
100
AcDbEntity
  8
0
100
AcDbBlockBegin
  2
*Model_Space
 70
     0
 10
0.0
 20
0.0
 30
0.0
  3
*Model_Space
  1

  0
ENDBLK
  5
21
330
1F
100
AcDbEntity
  8
0
100
AcDbBlockEnd
  0
BLOCK
  5
1C
330
1B
100
AcDbEntity
 67
     1
  8
0
100
AcDbBlockBegin
  2
*Paper_Space
 70
     0
 10
0.0
 20
0.0
 30
0.0
  3
*Paper_Space
  1

  0
ENDBLK
  5
1D
330
1B
100
AcDbEntity
 67
     1
  8
0
100
AcDbBlockEnd
  0
BLOCK
  5
24
330
23
100
AcDbEntity
  8
0
100
AcDbBlockBegin
  2
*Paper_Space0
 70
     0
 10
0.0
 20
0.0
 30
0.0
  3
*Paper_Space0
  1

  0
ENDBLK
  5
25
330
23
100
AcDbEntity
  8
0
100
AcDbBlockEnd
  0
BLOCK
  5
70
330
6E
100
AcDbEntity
  8
0
100
AcDbBlockBegin
  2
1_069688_2
 70
     2
 10
0.0
 20
0.0
 30
0.0
  3
1_069688_2
  1

  0
ATTDEF
  5
73
330
6E
100
AcDbEntity
  8
AM_6
100
AcDbText
 10
5.13484375
 20
4.03125
 30
0.0
 40
0.5
  1
Imperial - IP Flange - Round Labyrinth Seal
100
AcDbAttributeDefinition
  3

  2
NN
 70
     8
280
     0
  0
ATTDEF
  5
74
330
6E
100
AcDbEntity
  8
AM_6
100
AcDbText
 10
5.13484375
 20
3.53125
 30
0.0
 40
0.5
  1
Imperial 3 & 4 Bolt Round Flange Bearings
100
AcDbAttributeDefinition
  3

  2
NT
 70
     8
280
     0
  0
ATTDEF
  5
75
330
6E
100
AcDbEntity
  8
AM_6
100
AcDbText
 10
5.13484375
 20
3.03125
 30
0.0
 40
0.5
  1
069688
100
AcDbAttributeDefinition
  3

  2
NB
 70
     8
280
     0
  0
ATTDEF
  5
76
330
6E
100
AcDbEntity
  8
AM_6
100
AcDbText
 10
5.13484375
 20
2.53125
 30
0.0
 40
0.5
  1
$PN.
100
AcDbAttributeDefinition
  3

  2
NBSYN
 70
     8
280
     0
  0
ATTDEF
  5
77
330
6E
100
AcDbEntity
  8
AM_6
100
AcDbText
 10
5.13484375
 20
2.03125
 30
0.0
 40
0.5
  1
069688
100
AcDbAttributeDefinition
  3

  2
LINA
 70
     8
280
     0
  0
ATTDEF
  5
78
330
6E
100
AcDbEntity
  8
AM_6
100
AcDbText
 10
5.13484375
 20
1.53125
 30
0.0
 40
0.5
  1
2-1/2
100
AcDbAttributeDefinition
  3

  2
SS
 70
     8
280
     0
  0
ATTDEF
  5
79
330
6E
100
AcDbEntity
  8
AM_6
100
AcDbText
 10
5.13484375
 20
1.03125
 30
0.0
 40
0.5
  1
069688
100
AcDbAttributeDefinition
  3

  2
PN
 70
     8
280
     0
  0
ATTDEF
  5
7A
330
6E
100
AcDbEntity
  8
AM_6
100
AcDbText
 10
5.13484375
 20
0.53125
 30
0.0
 40
0.5
  1
F4R-IP-208LE
100
AcDbAttributeDefinition
  3

  2
DESCRIPTION
 70
     8
280
     0
  0
ATTDEF
  5
7B
330
6E
100
AcDbEntity
  8
AM_6
100
AcDbText
 10
5.13484375
 20
0.03125
 30
0.0
 40
0.5
  1
Expansion Type
100
AcDbAttributeDefinition
  3

  2
EF
 70
     8
280
     0
  0
ATTDEF
  5
7C
330
6E
100
AcDbEntity
  8
AM_6
100
AcDbText
 10
5.13484375
 20
-0.46875
 30
0.0
 40
0.5
  1
Labyrinth Seal
100
AcDbAttributeDefinition
  3

  2
ST
 70
     8
280
     0
  0
ATTDEF
  5
7D
330
6E
100
AcDbEntity
  8
AM_6
100
AcDbText
 10
5.13484375
 20
-0.96875
 30
0.0
 40
0.5
  1
3-27/64
100
AcDbAttributeDefinition
  3

  2
A
 70
     8
280
     0
  0
ATTDEF
  5
7E
330
6E
100
AcDbEntity
  8
AM_6
100
AcDbText
 10
5.13484375
 20
-1.46875
 30
0.0
 40
0.5
  1
7-3/4
100
AcDbAttributeDefinition
  3

  2
B
 70
     8
280
     0
  0
ATTDEF
  5
7F
330
6E
100
AcDbEntity
  8
AM_6
100
AcDbText
 10
5.13484375
 20
-1.96875
 30
0.0
 40
0.5
  1
3-47/64
100
AcDbAttributeDefinition
  3

  2
C
 70
     8
280
     0
  0
ATTDEF
  5
80
330
6E
100
AcDbEntity
  8
AM_6
100
AcDbText
 10
5.13484375
 20
-2.46875
 30
0.0
 40
0.5
  1
4-49/64
100
AcDbAttributeDefinition
  3

  2
D
 70
     8
280
     0
  0
ATTDEF
  5
81
330
6E
100
AcDbEntity
  8
AM_6
100
AcDbText
 10
5.13484375
 20
-2.96875
 30
0.0
 40
0.5
  1
6-3/4
100
AcDbAttributeDefinition
  3

  2
DD
 70
     8
280
     0
  0
ATTDEF
  5
82
330
6E
100
AcDbEntity
  8
AM_6
100
AcDbText
 10
5.13484375
 20
-3.46875
 30
0.0
 40
0.5
  1
2-3/8
100
AcDbAttributeDefinition
  3

  2
E
 70
     8
280
     0
  0
ATTDEF
  5
83
330
6E
100
AcDbEntity
  8
AM_6
100
AcDbText
 10
5.13484375
 20
-3.96875
 30
0.0
 40
0.5
  1
5/8
100
AcDbAttributeDefinition
  3

  2
F
 70
     8
280
     0
  0
ATTDEF
  5
84
330
6E
100
AcDbEntity
  8
AM_6
100
AcDbText
 10
5.13484375
 20
-4.46875
 30
0.0
 40
0.5
  1
41/64
100
AcDbAttributeDefinition
  3

  2
H
 70
     8
280
     0
  0
ATTDEF
  5
85
330
6E
100
AcDbEntity
  8
AM_6
100
AcDbText
 10
5.13484375
 20
-4.96875
 30
0.0
 40
0.5
  1
5-3/8
100
AcDbAttributeDefinition
  3

  2
J
 70
     8
280
     0
  0
ATTDEF
  5
86
330
6E
100
AcDbEntity
  8
AM_6
100
AcDbText
 10
5.13484375
 20
-5.46875
 30
0.0
 40
0.5
  1
3-7/8
100
AcDbAttributeDefinition
  3

  2
L
 70
     8
280
     0
  0
ATTDEF
  5
87
330
6E
100
AcDbEntity
  8
AM_6
100
AcDbText
 10
5.13484375
 20
-5.96875
 30
0.0
 40
0.5
  1
5/16
100
AcDbAttributeDefinition
  3

  2
P
 70
     8
280
     0
  0
ATTDEF
  5
88
330
6E
100
AcDbEntity
  8
AM_6
100
AcDbText
 10
5.13484375
 20
-6.46875
 30
0.0
 40
0.5
  1
1/4
100
AcDbAttributeDefinition
  3

  2
X
 70
     8
280
     0
  0
ATTDEF
  5
89
330
6E
100
AcDbEntity
  8
AM_6
100
AcDbText
 10
5.13484375
 20
-6.96875
 30
0.0
 40
0.5
  1
0.025
100
AcDbAttributeDefinition
  3

  2
Y
 70
     8
280
     0
  0
ATTDEF
  5
8A
330
6E
100
AcDbEntity
  8
AM_6
100
AcDbText
 10
5.13484375
 20
-7.46875
 30
0.0
 40
0.5
  1
2-15/16
100
AcDbAttributeDefinition
  3

  2
Z
 70
     8
280
     0
  0
ATTDEF
  5
8B
330
6E
100
AcDbEntity
  8
AM_6
100
AcDbText
 10
5.13484375
 20
-7.96875
 30
0.0
 40
0.5
  1
baldor
100
AcDbAttributeDefinition
  3

  2
COMPANY
 70
     8
280
     0
  0
INSERT
  5
8D
330
6E
100
AcDbEntity
  8
0
100
AcDbBlockReference
  2
2_ASME_B18_3_10_1_0_in_069688_2
 10
0.0
 20
0.0
 30
0.0
  0
INSERT
  5
B7
330
6E
100
AcDbEntity
  8
0
100
AcDbBlockReference
  2
3_ASME_B18_3_10_2_0_in_069688_2
 10
0.0
 20
0.0
 30
0.0
  0
INSERT
  5
DF
330
6E
100
AcDbEntity
  8
0
100
AcDbBlockReference
  2
4_070896LW_0_in_069688_2
 10
0.0
 20
0.0
 30
0.0
  0
INSERT
  5
116
330
6E
100
AcDbEntity
  8
0
100
AcDbBlockReference
  2
5_070928I_0_in_069688_2
 10
0.0
 20
0.0
 30
0.0
  0
INSERT
  5
197
330
6E
100
AcDbEntity
  8
0
100
AcDbBlockReference
  2
6_405015E_Inch_0_in_069688_2
 10
0.0
 20
0.0
 30
0.0
  0
INSERT
  5
1D5
330
6E
100
AcDbEntity
  8
0
100
AcDbBlockReference
  2
7_069688H_0_in_069688_2
 10
0.0
 20
0.0
 30
0.0
  0
ENDBLK
  5
71
330
6E
100
AcDbEntity
  8
0
100
AcDbBlockEnd
  0
BLOCK
  5
8E
330
8C
100
AcDbEntity
  8
0
100
AcDbBlockBegin
  2
2_ASME_B18_3_10_1_0_in_069688_2
 70
     2
 10
0.0
 20
0.0
 30
0.0
  3
2_ASME_B18_3_10_1_0_in_069688_2
  1

  0
ATTDEF
  5
90
330
8C
100
AcDbEntity
  8
AM_6
100
AcDbText
 10
2.516958333333334
 20
-0.9955560700984593
 30
0.0
 40
0.5
  1
ANSI/ASME B18.3-1998
100
AcDbAttributeDefinition
  3

  2
NN
 70
     8
280
     0
  0
ATTDEF
  5
91
330
8C
100
AcDbEntity
  8
AM_6
100
AcDbText
 10
2.516958333333334
 20
-1.495556070098459
 30
0.0
 40
0.5
  1
Socket Button Head Cap Screws
100
AcDbAttributeDefinition
  3

  2
NT
 70
     8
280
     0
  0
ATTDEF
  5
92
330
8C
100
AcDbEntity
  8
AM_6
100
AcDbText
 10
2.516958333333334
 20
-1.995556070098459
 30
0.0
 40
0.5
  1
ASME B18.3-10
100
AcDbAttributeDefinition
  3

  2
NB
 70
     8
280
     0
  0
ATTDEF
  5
93
330
8C
100
AcDbEntity
  8
AM_6
100
AcDbText
 10
2.516958333333334
 20
-2.495556070098459
 30
0.0
 40
0.5
  1
ASME B18.3-$NS.
100
AcDbAttributeDefinition
  3

  2
NBSYN
 70
     8
280
     0
  0
ATTDEF
  5
94
330
8C
100
AcDbEntity
  8
AM_6
100
AcDbText
 10
2.516958333333334
 20
-2.995556070098459
 30
0.0
 40
0.5
  1
ASME B18.3-10
100
AcDbAttributeDefinition
  3

  2
LINA
 70
     8
280
     0
  0
ATTDEF
  5
95
330
8C
100
AcDbEntity
  8
AM_6
100
AcDbText
 10
2.516958333333334
 20
-3.495556070098459
 30
0.0
 40
0.5
  1
10
100
AcDbAttributeDefinition
  3

  2
NS
 70
     8
280
     0
  0
ATTDEF
  5
96
330
8C
100
AcDbEntity
  8
AM_6
100
AcDbText
 10
2.516958333333334
 20
-3.995556070098459
 30
0.0
 40
0.5
  1
0.361
100
AcDbAttributeDefinition
  3

  2
A
 70
     8
280
     0
  0
ATTDEF
  5
97
330
8C
100
AcDbEntity
  8
AM_6
100
AcDbText
 10
2.516958333333334
 20
-4.495556070098459
 30
0.0
 40
0.5
  1
0.101
100
AcDbAttributeDefinition
  3

  2
H
 70
     8
280
     0
  0
ATTDEF
  5
98
330
8C
100
AcDbEntity
  8
AM_6
100
AcDbText
 10
2.516958333333334
 20
-4.995556070098459
 30
0.0
 40
0.5
  1
0.800
100
AcDbAttributeDefinition
  3

  2
L
 70
     8
280
     0
  0
ATTDEF
  5
99
330
8C
100
AcDbEntity
  8
AM_6
100
AcDbText
 10
2.516958333333334
 20
-5.495556070098459
 30
0.0
 40
0.5
  1
0.020
100
AcDbAttributeDefinition
  3

  2
S
 70
     8
280
     0
  0
ATTDEF
  5
9A
330
8C
100
AcDbEntity
  8
AM_6
100
AcDbText
 10
2.516958333333334
 20
-5.995556070098459
 30
0.0
 40
0.5
  1
0.125000
100
AcDbAttributeDefinition
  3

  2
J
 70
     8
280
     0
  0
ATTDEF
  5
9B
330
8C
100
AcDbEntity
  8
AM_6
100
AcDbText
 10
2.516958333333334
 20
-6.495556070098459
 30
0.0
 40
0.5
  1
baldor
100
AcDbAttributeDefinition
  3

  2
COMPANY
 70
     8
280
     0
  0
LINE
  5
9E
330
8C
100
AcDbEntity
  8
AM_9
100
AcDbLine
 10
-3.323041666666666
 20
-1.24576576207661
 30
0.0
 11
-3.384041666666666
 21
-1.24576576207661
 31
0.0
  0
LINE
  5
9F
330
8C
100
AcDbEntity
  8
AM_9
100
AcDbLine
 10
-3.323041666666666
 20
-1.194734725768627
 30
0.0
 11
-3.384041666666666
 21
-1.194734725768627
 31
0.0
  0
LINE
  5
A0
330
8C
100
AcDbEntity
  8
AM_9
100
AcDbLine
 10
-3.323041666666666
 20
-1.106346378120308
 30
0.0
 11
-3.384041666666666
 21
-1.106346378120308
 31
0.0
  0
LINE
  5
A1
330
8C
100
AcDbEntity
  8
AM_9
100
AcDbLine
 10
-3.323041666666666
 20
-1.125025033790476
 30
0.0
 11
-3.384041666666666
 21
-1.125025033790476
 31
0.0
  0
LINE
  5
A2
330
8C
100
AcDbEntity
  8
AM_9
100
AcDbLine
 10
-3.323041666666666
 20
-1.227087106406442
 30
0.0
 11
-3.384041666666666
 21
-1.227087106406442
 31
0.0
  0
LINE
  5
A3
330
8C
100
AcDbEntity
  8
AM_9
100
AcDbLine
 10
-3.323041666666666
 20
-1.157377414428292
 30
0.0
 11
-3.384041666666666
 21
-1.157377414428292
 31
0.0
  0
LINE
  5
A4
330
8C
100
AcDbEntity
  8
AM_9
100
AcDbLine
 10
-3.323041666666666
 20
-1.106346378120308
 30
0.0
 11
-3.323041666666666
 21
-1.24576576207661
 31
0.0
  0
LINE
  5
A5
330
8C
100
AcDbEntity
  8
AM_9
100
AcDbLine
 10
-2.483041666666666
 20
-1.099656070098459
 30
0.0
 11
-2.483041666666666
 21
-1.252456070098459
 31
0.0
  0
LINE
  5
A6
330
8C
100
AcDbEntity
  8
AM_9
100
AcDbLine
 10
-2.483041666666666
 20
-1.099656070098459
 30
0.0
 11
-2.501641666666666
 21
-1.081056070098459
 31
0.0
  0
LINE
  5
A7
330
8C
100
AcDbEntity
  8
AM_9
100
AcDbLine
 10
-2.501641666666666
 20
-1.271056070098459
 30
0.0
 11
-2.483041666666666
 21
-1.252456070098459
 31
0.0
  0
LINE
  5
A8
330
8C
100
AcDbEntity
  8
AM_9
100
AcDbLine
 10
-2.501641666666666
 20
-1.081056070098459
 30
0.0
 11
-2.501641666666666
 21
-1.271056070098459
 31
0.0
  0
LINE
  5
A9
330
8C
100
AcDbEntity
  8
AM_9
100
AcDbLine
 10
-3.283041666666666
 20
-1.271056070098459
 30
0.0
 11
-2.501641666666666
 21
-1.271056070098459
 31
0.0
  0
LINE
  5
AA
330
8C
100
AcDbEntity
  8
AM_9
100
AcDbLine
 10
-2.501641666666666
 20
-1.081056070098459
 30
0.0
 11
-3.283041666666666
 21
-1.081056070098459
 31
0.0
  0
LINE
  5
AC
330
8C
100
AcDbEntity
  8
AM_5
100
AcDbLine
 10
-3.203041666666666
 20
-1.252456070098459
 30
0.0
 11
-3.235257811687447
 21
-1.271056070098459
 31
0.0
  0
LINE
  5
AD
330
8C
100
AcDbEntity
  8
AM_5
100
AcDbLine
 10
-3.203041666666666
 20
-1.081056075735466
 30
0.0
 11
-3.203041666666666
 21
-1.271056079694346
 31
0.0
  0
LINE
  5
AE
330
8C
100
AcDbEntity
  8
AM_5
100
AcDbLine
 10
-3.203041666666666
 20
-1.099656070098459
 30
0.0
 11
-3.235257811687447
 21
-1.081056070098459
 31
0.0
  0
LINE
  5
B0
330
8C
100
AcDbEntity
  8
AM_4
100
AcDbLine
 10
-3.303041666666666
 20
-1.356556070098459
 30
0.0
 11
-3.283041666666666
 21
-1.356556070098459
 31
0.0
  0
LINE
  5
B1
330
8C
100
AcDbEntity
  8
AM_4
100
AcDbLine
 10
-3.283041666666666
 20
-0.9955560700984593
 30
0.0
 11
-3.303041666666666
 21
-0.9955560700984593
 31
0.0
  0
LINE
  5
B2
330
8C
100
AcDbEntity
  8
AM_4
100
AcDbLine
 10
-3.384041666666666
 20
-1.076556070098459
 30
0.0
 11
-3.384041666666666
 21
-1.275556070098459
 31
0.0
  0
LINE
  5
B3
330
8C
100
AcDbEntity
  8
AM_4
100
AcDbLine
 10
-3.303041666666666
 20
-0.9955560700984593
 30
0.0
 11
-3.303041666666666
 21
-1.356556070098459
 31
0.0
  0
ARC
  5
B4
330
8C
100
AcDbEntity
  8
AM_4
100
AcDbCircle
 10
-3.303041666666666
 20
-1.275556070098459
 30
0.0
 40
0.081
100
AcDbArc
 50
179.9999991462263
 51
270.0
  0
ARC
  5
B5
330
8C
100
AcDbEntity
  8
AM_4
100
AcDbCircle
 10
-3.303041666666666
 20
-1.076556070098459
 30
0.0
 40
0.0809999999999996
100
AcDbArc
 50
90.0
 51
179.9999991462263
  0
ENDBLK
  5
8F
330
8C
100
AcDbEntity
  8
0
100
AcDbBlockEnd
  0
BLOCK
  5
B8
330
B6
100
AcDbEntity
  8
0
100
AcDbBlockBegin
  2
3_ASME_B18_3_10_2_0_in_069688_2
 70
     2
 10
0.0
 20
0.0
 30
0.0
  3
3_ASME_B18_3_10_2_0_in_069688_2
  1

  0
ATTDEF
  5
BA
330
B6
100
AcDbEntity
  8
AM_6
100
AcDbText
 10
2.516958333333334
 20
1.356556070098459
 30
0.0
 40
0.5
  1
ANSI/ASME B18.3-1998
100
AcDbAttributeDefinition
  3

  2
NN
 70
     8
280
     0
  0
ATTDEF
  5
BB
330
B6
100
AcDbEntity
  8
AM_6
100
AcDbText
 10
2.516958333333334
 20
0.8565560700984591
 30
0.0
 40
0.5
  1
Socket Button Head Cap Screws
100
AcDbAttributeDefinition
  3

  2
NT
 70
     8
280
     0
  0
ATTDEF
  5
BC
330
B6
100
AcDbEntity
  8
AM_6
100
AcDbText
 10
2.516958333333334
 20
0.3565560700984591
 30
0.0
 40
0.5
  1
ASME B18.3-10
100
AcDbAttributeDefinition
  3

  2
NB
 70
     8
280
     0
  0
ATTDEF
  5
BD
330
B6
100
AcDbEntity
  8
AM_6
100
AcDbText
 10
2.516958333333334
 20
-0.1434439299015409
 30
0.0
 40
0.5
  1
ASME B18.3-$NS.
100
AcDbAttributeDefinition
  3

  2
NBSYN
 70
     8
280
     0
  0
ATTDEF
  5
BE
330
B6
100
AcDbEntity
  8
AM_6
100
AcDbText
 10
2.516958333333334
 20
-0.6434439299015409
 30
0.0
 40
0.5
  1
ASME B18.3-10
100
AcDbAttributeDefinition
  3

  2
LINA
 70
     8
280
     0
  0
ATTDEF
  5
BF
330
B6
100
AcDbEntity
  8
AM_6
100
AcDbText
 10
2.516958333333334
 20
-1.143443929901541
 30
0.0
 40
0.5
  1
10
100
AcDbAttributeDefinition
  3

  2
NS
 70
     8
280
     0
  0
ATTDEF
  5
C0
330
B6
100
AcDbEntity
  8
AM_6
100
AcDbText
 10
2.516958333333334
 20
-1.643443929901541
 30
0.0
 40
0.5
  1
0.361
100
AcDbAttributeDefinition
  3

  2
A
 70
     8
280
     0
  0
ATTDEF
  5
C1
330
B6
100
AcDbEntity
  8
AM_6
100
AcDbText
 10
2.516958333333334
 20
-2.143443929901541
 30
0.0
 40
0.5
  1
0.101
100
AcDbAttributeDefinition
  3

  2
H
 70
     8
280
     0
  0
ATTDEF
  5
C2
330
B6
100
AcDbEntity
  8
AM_6
100
AcDbText
 10
2.516958333333334
 20
-2.643443929901541
 30
0.0
 40
0.5
  1
0.800
100
AcDbAttributeDefinition
  3

  2
L
 70
     8
280
     0
  0
ATTDEF
  5
C3
330
B6
100
AcDbEntity
  8
AM_6
100
AcDbText
 10
2.516958333333334
 20
-3.143443929901541
 30
0.0
 40
0.5
  1
0.020
100
AcDbAttributeDefinition
  3

  2
S
 70
     8
280
     0
  0
ATTDEF
  5
C4
330
B6
100
AcDbEntity
  8
AM_6
100
AcDbText
 10
2.516958333333334
 20
-3.643443929901541
 30
0.0
 40
0.5
  1
0.125000
100
AcDbAttributeDefinition
  3

  2
J
 70
     8
280
     0
  0
ATTDEF
  5
C5
330
B6
100
AcDbEntity
  8
AM_6
100
AcDbText
 10
2.516958333333334
 20
-4.143443929901541
 30
0.0
 40
0.5
  1
baldor
100
AcDbAttributeDefinition
  3

  2
COMPANY
 70
     8
280
     0
  0
LINE
  5
C6
330
B6
100
AcDbEntity
  8
AM_9
100
AcDbLine
 10
-3.323041666666666
 20
1.106346378120308
 30
0.0
 11
-3.384041666666666
 21
1.106346378120308
 31
0.0
  0
LINE
  5
C7
330
B6
100
AcDbEntity
  8
AM_9
100
AcDbLine
 10
-3.323041666666666
 20
1.157377414428292
 30
0.0
 11
-3.384041666666666
 21
1.157377414428292
 31
0.0
  0
LINE
  5
C8
330
B6
100
AcDbEntity
  8
AM_9
100
AcDbLine
 10
-3.323041666666666
 20
1.24576576207661
 30
0.0
 11
-3.384041666666666
 21
1.24576576207661
 31
0.0
  0
LINE
  5
C9
330
B6
100
AcDbEntity
  8
AM_9
100
AcDbLine
 10
-3.323041666666666
 20
1.227087106406442
 30
0.0
 11
-3.384041666666666
 21
1.227087106406442
 31
0.0
  0
LINE
  5
CA
330
B6
100
AcDbEntity
  8
AM_9
100
AcDbLine
 10
-3.323041666666666
 20
1.125025033790476
 30
0.0
 11
-3.384041666666666
 21
1.125025033790476
 31
0.0
  0
LINE
  5
CB
330
B6
100
AcDbEntity
  8
AM_9
100
AcDbLine
 10
-3.323041666666666
 20
1.194734725768627
 30
0.0
 11
-3.384041666666666
 21
1.194734725768627
 31
0.0
  0
LINE
  5
CC
330
B6
100
AcDbEntity
  8
AM_9
100
AcDbLine
 10
-3.323041666666666
 20
1.24576576207661
 30
0.0
 11
-3.323041666666666
 21
1.106346378120308
 31
0.0
  0
LINE
  5
CD
330
B6
100
AcDbEntity
  8
AM_9
100
AcDbLine
 10
-2.483041666666666
 20
1.252456070098459
 30
0.0
 11
-2.483041666666666
 21
1.099656070098459
 31
0.0
  0
LINE
  5
CE
330
B6
100
AcDbEntity
  8
AM_9
100
AcDbLine
 10
-2.483041666666666
 20
1.252456070098459
 30
0.0
 11
-2.501641666666666
 21
1.271056070098459
 31
0.0
  0
LINE
  5
CF
330
B6
100
AcDbEntity
  8
AM_9
100
AcDbLine
 10
-2.501641666666666
 20
1.081056070098459
 30
0.0
 11
-2.483041666666666
 21
1.099656070098459
 31
0.0
  0
LINE
  5
D0
330
B6
100
AcDbEntity
  8
AM_9
100
AcDbLine
 10
-2.501641666666666
 20
1.271056070098459
 30
0.0
 11
-2.501641666666666
 21
1.081056070098459
 31
0.0
  0
LINE
  5
D1
330
B6
100
AcDbEntity
  8
AM_9
100
AcDbLine
 10
-3.283041666666666
 20
1.081056070098459
 30
0.0
 11
-2.501641666666666
 21
1.081056070098459
 31
0.0
  0
LINE
  5
D2
330
B6
100
AcDbEntity
  8
AM_9
100
AcDbLine
 10
-2.501641666666666
 20
1.271056070098459
 30
0.0
 11
-3.283041666666666
 21
1.271056070098459
 31
0.0
  0
LINE
  5
D3
330
B6
100
AcDbEntity
  8
AM_9
100
AcDbLine
 10
-3.303041666666666
 20
0.9955560700984593
 30
0.0
 11
-3.283041666666666
 21
0.9955560700984593
 31
0.0
  0
LINE
  5
D4
330
B6
100
AcDbEntity
  8
AM_9
100
AcDbLine
 10
-3.384041666666666
 20
1.275556070098459
 30
0.0
 11
-3.384041666666666
 21
1.076556070098459
 31
0.0
  0
LINE
  5
D5
330
B6
100
AcDbEntity
  8
AM_9
100
AcDbLine
 10
-3.303041666666666
 20
1.315789473684211
 30
0.0
 11
-3.303041666666666
 21
0.9955560700984593
 31
0.0
  0
ARC
  5
D6
330
B6
100
AcDbEntity
  8
AM_9
100
AcDbCircle
 10
-3.303041666666666
 20
1.076556070098459
 30
0.0
 40
0.081
100
AcDbArc
 50
179.9999991462263
 51
270.0
  0
ARC
  5
D7
330
B6
100
AcDbEntity
  8
AM_9
100
AcDbCircle
 10
-3.303041666666663
 20
1.275556070098459
 30
0.0
 40
0.0810000000000027
100
AcDbArc
 50
150.2175137134503
 51
180.0
  0
LINE
  5
D8
330
B6
100
AcDbEntity
  8
AM_5
100
AcDbLine
 10
-3.203041666666666
 20
1.099656070098459
 30
0.0
 11
-3.235257811687448
 21
1.081056070098459
 31
0.0
  0
LINE
  5
D9
330
B6
100
AcDbEntity
  8
AM_5
100
AcDbLine
 10
-3.203041666666666
 20
1.271056079694347
 30
0.0
 11
-3.203041666666666
 21
1.081056070098459
 31
0.0
  0
LINE
  5
DA
330
B6
100
AcDbEntity
  8
AM_5
100
AcDbLine
 10
-3.203041666666666
 20
1.252456070098459
 30
0.0
 11
-3.235257811687447
 21
1.271056070098459
 31
0.0
  0
LINE
  5
DB
330
B6
100
AcDbEntity
  8
AM_4
100
AcDbLine
 10
-3.283041666666666
 20
1.356556070098459
 30
0.0
 11
-3.303041666666666
 21
1.356556070098459
 31
0.0
  0
ARC
  5
DC
330
B6
100
AcDbEntity
  8
AM_4
100
AcDbCircle
 10
-3.303041666666664
 20
1.275556070098457
 30
0.0
 40
0.0810000000000024
100
AcDbArc
 50
90.0
 51
150.2175137134487
  0
LINE
  5
DD
330
B6
100
AcDbEntity
  8
AM_4
100
AcDbLine
 10
-3.303041666666666
 20
1.356556070098459
 30
0.0
 11
-3.303041666666666
 21
1.315789473684211
 31
0.0
  0
ENDBLK
  5
B9
330
B6
100
AcDbEntity
  8
0
100
AcDbBlockEnd
  0
BLOCK
  5
E0
330
DE
100
AcDbEntity
  8
0
100
AcDbBlockBegin
  2
4_070896LW_0_in_069688_2
 70
     2
 10
0.0
 20
0.0
 30
0.0
  3
4_070896LW_0_in_069688_2
  1

  0
ATTDEF
  5
E2
330
DE
100
AcDbEntity
  8
AM_6
100
AcDbText
 10
2.156958333333334
 20
1.9375
 30
0.0
 40
0.5
  1
Imperial Insert Lockwasher -Inch
100
AcDbAttributeDefinition
  3

  2
NN
 70
     8
280
     0
  0
ATTDEF
  5
E3
330
DE
100
AcDbEntity
  8
AM_6
100
AcDbText
 10
2.156958333333334
 20
1.4375
 30
0.0
 40
0.5
  1
Imperial Bearings
100
AcDbAttributeDefinition
  3

  2
NT
 70
     8
280
     0
  0
ATTDEF
  5
E4
330
DE
100
AcDbEntity
  8
AM_6
100
AcDbText
 10
2.156958333333334
 20
0.9375
 30
0.0
 40
0.5
  1
070896LW
100
AcDbAttributeDefinition
  3

  2
NB
 70
     8
280
     0
  0
ATTDEF
  5
E5
330
DE
100
AcDbEntity
  8
AM_6
100
AcDbText
 10
2.156958333333334
 20
0.4375
 30
0.0
 40
0.5
  1
$PN.LW
100
AcDbAttributeDefinition
  3

  2
NBSYN
 70
     8
280
     0
  0
ATTDEF
  5
E6
330
DE
100
AcDbEntity
  8
AM_6
100
AcDbText
 10
2.156958333333334
 20
-0.0625
 30
0.0
 40
0.5
  1
070896
100
AcDbAttributeDefinition
  3

  2
LINA
 70
     8
280
     0
  0
ATTDEF
  5
E7
330
DE
100
AcDbEntity
  8
AM_6
100
AcDbText
 10
2.156958333333334
 20
-0.5625
 30
0.0
 40
0.5
  1
2-1/2
100
AcDbAttributeDefinition
  3

  2
SS
 70
     8
280
     0
  0
ATTDEF
  5
E8
330
DE
100
AcDbEntity
  8
AM_6
100
AcDbText
 10
2.156958333333334
 20
-1.0625
 30
0.0
 40
0.5
  1
2.500000
100
AcDbAttributeDefinition
  3

  2
SS1
 70
     8
280
     0
  0
ATTDEF
  5
E9
330
DE
100
AcDbEntity
  8
AM_6
100
AcDbText
 10
2.156958333333334
 20
-1.5625
 30
0.0
 40
0.5
  1
070896
100
AcDbAttributeDefinition
  3

  2
PN
 70
     8
280
     0
  0
ATTDEF
  5
EA
330
DE
100
AcDbEntity
  8
AM_6
100
AcDbText
 10
2.156958333333334
 20
-2.0625
 30
0.0
 40
0.5
  1
INS-IP-208R
100
AcDbAttributeDefinition
  3

  2
DESCRIPTION
 70
     8
280
     0
  0
ATTDEF
  5
EB
330
DE
100
AcDbEntity
  8
AM_6
100
AcDbText
 10
2.156958333333334
 20
-2.5625
 30
0.0
 40
0.5
  1
4.7241
100
AcDbAttributeDefinition
  3

  2
A
 70
     8
280
     0
  0
ATTDEF
  5
EC
330
DE
100
AcDbEntity
  8
AM_6
100
AcDbText
 10
2.156958333333334
 20
-3.0625
 30
0.0
 40
0.5
  1
1-9/32
100
AcDbAttributeDefinition
  3

  2
B
 70
     8
280
     0
  0
ATTDEF
  5
ED
330
DE
100
AcDbEntity
  8
AM_6
100
AcDbText
 10
2.156958333333334
 20
-3.5625
 30
0.0
 40
0.5
  1
3-27/64
100
AcDbAttributeDefinition
  3

  2
C
 70
     8
280
     0
  0
ATTDEF
  5
EE
330
DE
100
AcDbEntity
  8
AM_6
100
AcDbText
 10
2.156958333333334
 20
-4.0625
 30
0.0
 40
0.5
  1
1.208
100
AcDbAttributeDefinition
  3

  2
D
 70
     8
280
     0
  0
ATTDEF
  5
EF
330
DE
100
AcDbEntity
  8
AM_6
100
AcDbText
 10
2.156958333333334
 20
-4.5625
 30
0.0
 40
0.5
  1
3-7/8
100
AcDbAttributeDefinition
  3

  2
E
 70
     8
280
     0
  0
ATTDEF
  5
F0
330
DE
100
AcDbEntity
  8
AM_6
100
AcDbText
 10
2.156958333333334
 20
-5.0625
 30
0.0
 40
0.5
  1
0.1900
100
AcDbAttributeDefinition
  3

  2
NDM
 70
     8
280
     0
  0
ATTDEF
  5
F1
330
DE
100
AcDbEntity
  8
AM_6
100
AcDbText
 10
2.156958333333334
 20
-5.5625
 30
0.0
 40
0.5
  1
0.1450
100
AcDbAttributeDefinition
  3

  2
KDM
 70
     8
280
     0
  0
ATTDEF
  5
F2
330
DE
100
AcDbEntity
  8
AM_6
100
AcDbText
 10
2.156958333333334
 20
-6.0625
 30
0.0
 40
0.5
  1
3.35
100
AcDbAttributeDefinition
  3

  2
AL
 70
     8
280
     0
  0
ATTDEF
  5
F3
330
DE
100
AcDbEntity
  8
AM_6
100
AcDbText
 10
2.156958333333334
 20
-6.5625
 30
0.0
 40
0.5
  1
0.50
100
AcDbAttributeDefinition
  3

  2
BL
 70
     8
280
     0
  0
ATTDEF
  5
F4
330
DE
100
AcDbEntity
  8
AM_6
100
AcDbText
 10
2.156958333333334
 20
-7.0625
 30
0.0
 40
0.5
  1
0.07
100
AcDbAttributeDefinition
  3

  2
CL
 70
     8
280
     0
  0
ATTDEF
  5
F5
330
DE
100
AcDbEntity
  8
AM_6
100
AcDbText
 10
2.156958333333334
 20
-7.5625
 30
0.0
 40
0.5
  1
0.44
100
AcDbAttributeDefinition
  3

  2
DL
 70
     8
280
     0
  0
ATTDEF
  5
F6
330
DE
100
AcDbEntity
  8
AM_6
100
AcDbText
 10
2.156958333333334
 20
-8.0625
 30
0.0
 40
0.5
  1
baldor
100
AcDbAttributeDefinition
  3

  2
COMPANY
 70
     8
280
     0
  0
LINE
  5
F7
330
DE
100
AcDbEntity
  8
AM_9
100
AcDbLine
 10
-3.213041666666666
 20
0.3994376905167098
 30
0.0
 11
-3.283041666666666
 21
0.3994376905167098
 31
0.0
  0
LINE
  5
F8
330
DE
100
AcDbEntity
  8
AM_9
100
AcDbLine
 10
-2.843041666666666
 20
0.385768557737969
 30
0.0
 11
-3.213041666666666
 21
0.385768557737969
 31
0.0
  0
LINE
  5
F9
330
DE
100
AcDbEntity
  8
AM_9
100
AcDbLine
 10
-3.283041666666666
 20
-1.269174812818349
 30
0.0
 11
-3.213041666666666
 21
-1.269174812818349
 31
0.0
  0
LINE
  5
FA
330
DE
100
AcDbEntity
  8
AM_9
100
AcDbLine
 10
-2.843041666666666
 20
0.3604715679262206
 30
0.0
 11
-3.283041666666666
 21
0.3604715679262206
 31
0.0
  0
LINE
  5
FB
330
DE
100
AcDbEntity
  8
AM_9
100
AcDbLine
 10
-2.843041666666666
 20
0.3604715679262206
 30
0.0
 11
-2.843041666666666
 21
0.6167384408657908
 31
0.0
  0
LINE
  5
FC
330
DE
100
AcDbEntity
  8
AM_9
100
AcDbLine
 10
-3.213041666666666
 20
0.6167384408657908
 30
0.0
 11
-2.843041666666666
 21
0.6167384408657908
 31
0.0
  0
LINE
  5
FD
330
DE
100
AcDbEntity
  8
AM_9
100
AcDbLine
 10
-2.843041666666666
 20
0.5914414510540428
 30
0.0
 11
-3.283041666666666
 21
0.5914414510540428
 31
0.0
  0
LINE
  5
FE
330
DE
100
AcDbEntity
  8
AM_9
100
AcDbLine
 10
-3.213041666666666
 20
0.630407573644532
 30
0.0
 11
-3.283041666666666
 21
0.630407573644532
 31
0.0
  0
LINE
  5
FF
330
DE
100
AcDbEntity
  8
AM_9
100
AcDbLine
 10
-3.213041666666666
 20
1.348007965406408
 30
0.0
 11
-3.283041666666666
 21
1.348007965406408
 31
0.0
  0
LINE
  5
100
330
DE
100
AcDbEntity
  8
AM_9
100
AcDbLine
 10
-3.213041666666666
 20
-1.348007965406408
 30
0.0
 11
-3.283041666666666
 21
-1.348007965406408
 31
0.0
  0
LINE
  5
101
330
DE
100
AcDbEntity
  8
AM_9
100
AcDbLine
 10
-3.213041666666666
 20
1.663194444444444
 30
0.0
 11
-3.283041666666666
 21
1.663194444444444
 31
0.0
  0
LINE
  5
102
330
DE
100
AcDbEntity
  8
AM_9
100
AcDbLine
 10
-3.213041666666666
 20
1.758233242988709
 30
0.0
 11
-3.283041666666666
 21
1.758233242988709
 31
0.0
  0
LINE
  5
103
330
DE
100
AcDbEntity
  8
AM_9
100
AcDbLine
 10
-3.213041666666666
 20
-1.663194444444444
 30
0.0
 11
-3.283041666666666
 21
-1.663194444444444
 31
0.0
  0
LINE
  5
104
330
DE
100
AcDbEntity
  8
AM_9
100
AcDbLine
 10
-3.283041666666666
 20
-1.758233242988709
 30
0.0
 11
-3.213041666666666
 21
-1.758233242988709
 31
0.0
  0
LINE
  5
105
330
DE
100
AcDbEntity
  8
AM_9
100
AcDbLine
 10
-3.213041666666666
 20
1.020360717645074
 30
0.0
 11
-3.283041666666666
 21
1.020360717645074
 31
0.0
  0
LINE
  5
106
330
DE
100
AcDbEntity
  8
AM_9
100
AcDbLine
 10
-3.213041666666666
 20
-1.020360717645074
 30
0.0
 11
-3.283041666666666
 21
-1.020360717645074
 31
0.0
  0
LINE
  5
107
330
DE
100
AcDbEntity
  8
AM_9
100
AcDbLine
 10
-3.213041666666666
 20
0.88601042921963
 30
0.0
 11
-3.283041666666666
 21
0.8860104292196302
 31
0.0
  0
LINE
  5
108
330
DE
100
AcDbEntity
  8
AM_9
100
AcDbLine
 10
-3.213041666666666
 20
-0.8860104292196291
 30
0.0
 11
-3.283041666666666
 21
-0.8860104292196291
 31
0.0
  0
LINE
  5
109
330
DE
100
AcDbEntity
  8
AM_9
100
AcDbLine
 10
-3.213041666666666
 20
1.243231214311181
 30
0.0
 11
-3.283041666666666
 21
1.243231214311181
 31
0.0
  0
LINE
  5
10A
330
DE
100
AcDbEntity
  8
AM_9
100
AcDbLine
 10
-3.213041666666666
 20
1.108880925885737
 30
0.0
 11
-3.283041666666666
 21
1.108880925885737
 31
0.0
  0
LINE
  5
10B
330
DE
100
AcDbEntity
  8
AM_9
100
AcDbLine
 10
-3.213041666666666
 20
1.271083507131789
 30
0.0
 11
-3.283041666666666
 21
1.271083507131789
 31
0.0
  0
LINE
  5
10C
330
DE
100
AcDbEntity
  8
AM_9
100
AcDbLine
 10
-3.213041666666666
 20
-1.108880925885737
 30
0.0
 11
-3.283041666666666
 21
-1.108880925885737
 31
0.0
  0
LINE
  5
10D
330
DE
100
AcDbEntity
  8
AM_9
100
AcDbLine
 10
-3.213041666666666
 20
-1.243231214311181
 30
0.0
 11
-3.283041666666666
 21
-1.243231214311181
 31
0.0
  0
LINE
  5
10E
330
DE
100
AcDbEntity
  8
AM_9
100
AcDbLine
 10
-3.283041666666666
 20
-1.271083507131788
 30
0.0
 11
-3.213041666666666
 21
-1.271083507131788
 31
0.0
  0
LINE
  5
10F
330
DE
100
AcDbEntity
  8
AM_9
100
AcDbLine
 10
-3.213041666666666
 20
0.0950000000000005
 30
0.0
 11
-3.283041666666666
 21
0.0950000000000005
 31
0.0
  0
LINE
  5
110
330
DE
100
AcDbEntity
  8
AM_9
100
AcDbLine
 10
-3.213041666666666
 20
-0.0949999999999993
 30
0.0
 11
-3.283041666666666
 21
-0.0949999999999993
 31
0.0
  0
LINE
  5
111
330
DE
100
AcDbEntity
  8
AM_4
100
AcDbLine
 10
-3.213041666666666
 20
1.9375
 30
0.0
 11
-3.283041666666666
 21
1.9375
 31
0.0
  0
LINE
  5
112
330
DE
100
AcDbEntity
  8
AM_4
100
AcDbLine
 10
-3.283041666666666
 20
-1.9375
 30
0.0
 11
-3.213041666666666
 21
-1.9375
 31
0.0
  0
LINE
  5
113
330
DE
100
AcDbEntity
  8
AM_4
100
AcDbLine
 10
-3.283041666666666
 20
1.9375
 30
0.0
 11
-3.283041666666666
 21
-1.9375
 31
0.0
  0
LINE
  5
114
330
DE
100
AcDbEntity
  8
AM_4
100
AcDbLine
 10
-3.213041666666666
 20
1.9375
 30
0.0
 11
-3.213041666666666
 21
-1.9375
 31
0.0
  0
ENDBLK
  5
E1
330
DE
100
AcDbEntity
  8
0
100
AcDbBlockEnd
  0
BLOCK
  5
117
330
115
100
AcDbEntity
  8
0
100
AcDbBlockBegin
  2
5_070928I_0_in_069688_2
 70
     2
 10
0.0
 20
0.0
 30
0.0
  3
5_070928I_0_in_069688_2
  1

  0
ATTDEF
  5
119
330
115
100
AcDbEntity
  8
AM_6
100
AcDbText
 10
5.13484375
 20
2.36205
 30
0.0
 40
0.5
  1
Imperial Insert -Inch
100
AcDbAttributeDefinition
  3

  2
NN
 70
     8
280
     0
  0
ATTDEF
  5
11A
330
115
100
AcDbEntity
  8
AM_6
100
AcDbText
 10
5.13484375
 20
1.86205
 30
0.0
 40
0.5
  1
Imperial Bearings
100
AcDbAttributeDefinition
  3

  2
NT
 70
     8
280
     0
  0
ATTDEF
  5
11B
330
115
100
AcDbEntity
  8
AM_6
100
AcDbText
 10
5.13484375
 20
1.36205
 30
0.0
 40
0.5
  1
070928I
100
AcDbAttributeDefinition
  3

  2
NB
 70
     8
280
     0
  0
ATTDEF
  5
11C
330
115
100
AcDbEntity
  8
AM_6
100
AcDbText
 10
5.13484375
 20
0.86205
 30
0.0
 40
0.5
  1
$PN.I
100
AcDbAttributeDefinition
  3

  2
NBSYN
 70
     8
280
     0
  0
ATTDEF
  5
11D
330
115
100
AcDbEntity
  8
AM_6
100
AcDbText
 10
5.13484375
 20
0.36205
 30
0.0
 40
0.5
  1
070928
100
AcDbAttributeDefinition
  3

  2
LINA
 70
     8
280
     0
  0
ATTDEF
  5
11E
330
115
100
AcDbEntity
  8
AM_6
100
AcDbText
 10
5.13484375
 20
-0.13795
 30
0.0
 40
0.5
  1
2-1/2
100
AcDbAttributeDefinition
  3

  2
SS
 70
     8
280
     0
  0
ATTDEF
  5
11F
330
115
100
AcDbEntity
  8
AM_6
100
AcDbText
 10
5.13484375
 20
-0.63795
 30
0.0
 40
0.5
  1
2.500000
100
AcDbAttributeDefinition
  3

  2
SS1
 70
     8
280
     0
  0
ATTDEF
  5
120
330
115
100
AcDbEntity
  8
AM_6
100
AcDbText
 10
5.13484375
 20
-1.13795
 30
0.0
 40
0.5
  1
070928
100
AcDbAttributeDefinition
  3

  2
PN
 70
     8
280
     0
  0
ATTDEF
  5
121
330
115
100
AcDbEntity
  8
AM_6
100
AcDbText
 10
5.13484375
 20
-1.63795
 30
0.0
 40
0.5
  1
INS-IP-208L
100
AcDbAttributeDefinition
  3

  2
DESCRIPTION
 70
     8
280
     0
  0
ATTDEF
  5
122
330
115
100
AcDbEntity
  8
AM_6
100
AcDbText
 10
5.13484375
 20
-2.13795
 30
0.0
 40
0.5
  1
Labyrinth Seal
100
AcDbAttributeDefinition
  3

  2
ST
 70
     8
280
     0
  0
ATTDEF
  5
123
330
115
100
AcDbEntity
  8
AM_6
100
AcDbText
 10
5.13484375
 20
-2.63795
 30
0.0
 40
0.5
  1
4.7241
100
AcDbAttributeDefinition
  3

  2
A
 70
     8
280
     0
  0
ATTDEF
  5
124
330
115
100
AcDbEntity
  8
AM_6
100
AcDbText
 10
5.13484375
 20
-3.13795
 30
0.0
 40
0.5
  1
1-9/32
100
AcDbAttributeDefinition
  3

  2
B
 70
     8
280
     0
  0
ATTDEF
  5
125
330
115
100
AcDbEntity
  8
AM_6
100
AcDbText
 10
5.13484375
 20
-3.63795
 30
0.0
 40
0.5
  1
3-27/64
100
AcDbAttributeDefinition
  3

  2
C
 70
     8
280
     0
  0
ATTDEF
  5
126
330
115
100
AcDbEntity
  8
AM_6
100
AcDbText
 10
5.13484375
 20
-4.13795
 30
0.0
 40
0.5
  1
1.208
100
AcDbAttributeDefinition
  3

  2
D
 70
     8
280
     0
  0
ATTDEF
  5
127
330
115
100
AcDbEntity
  8
AM_6
100
AcDbText
 10
5.13484375
 20
-4.63795
 30
0.0
 40
0.5
  1
3-7/8
100
AcDbAttributeDefinition
  3

  2
E
 70
     8
280
     0
  0
ATTDEF
  5
128
330
115
100
AcDbEntity
  8
AM_6
100
AcDbText
 10
5.13484375
 20
-5.13795
 30
0.0
 40
0.5
  1
0.1900
100
AcDbAttributeDefinition
  3

  2
NDM
 70
     8
280
     0
  0
ATTDEF
  5
129
330
115
100
AcDbEntity
  8
AM_6
100
AcDbText
 10
5.13484375
 20
-5.63795
 30
0.0
 40
0.5
  1
0.101
100
AcDbAttributeDefinition
  3

  2
H
 70
     8
280
     0
  0
ATTDEF
  5
12A
330
115
100
AcDbEntity
  8
AM_6
100
AcDbText
 10
5.13484375
 20
-6.13795
 30
0.0
 40
0.5
  1
0.1450
100
AcDbAttributeDefinition
  3

  2
KDM
 70
     8
280
     0
  0
ATTDEF
  5
12B
330
115
100
AcDbEntity
  8
AM_6
100
AcDbText
 10
5.13484375
 20
-6.63795
 30
0.0
 40
0.5
  1
3.35
100
AcDbAttributeDefinition
  3

  2
AL
 70
     8
280
     0
  0
ATTDEF
  5
12C
330
115
100
AcDbEntity
  8
AM_6
100
AcDbText
 10
5.13484375
 20
-7.13795
 30
0.0
 40
0.5
  1
0.50
100
AcDbAttributeDefinition
  3

  2
BL
 70
     8
280
     0
  0
ATTDEF
  5
12D
330
115
100
AcDbEntity
  8
AM_6
100
AcDbText
 10
5.13484375
 20
-7.63795
 30
0.0
 40
0.5
  1
0.07
100
AcDbAttributeDefinition
  3

  2
CL
 70
     8
280
     0
  0
ATTDEF
  5
12E
330
115
100
AcDbEntity
  8
AM_6
100
AcDbText
 10
5.13484375
 20
-8.13795
 30
0.0
 40
0.5
  1
0.44
100
AcDbAttributeDefinition
  3

  2
DL
 70
     8
280
     0
  0
ATTDEF
  5
12F
330
115
100
AcDbEntity
  8
AM_6
100
AcDbText
 10
5.13484375
 20
-8.63795
 30
0.0
 40
0.5
  1
0.8000
100
AcDbAttributeDefinition
  3

  2
LL
 70
     8
280
     0
  0
ATTDEF
  5
130
330
115
100
AcDbEntity
  8
AM_6
100
AcDbText
 10
5.13484375
 20
-9.13795
 30
0.0
 40
0.5
  1
0.025
100
AcDbAttributeDefinition
  3

  2
Y
 70
     8
280
     0
  0
ATTDEF
  5
131
330
115
100
AcDbEntity
  8
AM_6
100
AcDbText
 10
5.13484375
 20
-9.63795
 30
0.0
 40
0.5
  1
0.025000
100
AcDbAttributeDefinition
  3

  2
Y1
 70
     8
280
     0
  0
ATTDEF
  5
132
330
115
100
AcDbEntity
  8
AM_6
100
AcDbText
 10
5.13484375
 20
-10.13795
 30
0.0
 40
0.5
  1
2-15/16
100
AcDbAttributeDefinition
  3

  2
Z
 70
     8
280
     0
  0
ATTDEF
  5
133
330
115
100
AcDbEntity
  8
AM_6
100
AcDbText
 10
5.13484375
 20
-10.63795
 30
0.0
 40
0.5
  1
2.937500
100
AcDbAttributeDefinition
  3

  2
Z1
 70
     8
280
     0
  0
ATTDEF
  5
134
330
115
100
AcDbEntity
  8
AM_6
100
AcDbText
 10
5.13484375
 20
-11.13795
 30
0.0
 40
0.5
  1
baldor
100
AcDbAttributeDefinition
  3

  2
COMPANY
 70
     8
280
     0
  0
LINE
  5
135
330
115
100
AcDbEntity
  8
AM_9
100
AcDbLine
 10
-0.6298750000000003
 20
0.3871031552319377
 30
0.0
 11
-3.213041666666667
 21
0.3871031552319377
 31
0.0
  0
LINE
  5
136
330
115
100
AcDbEntity
  8
AM_9
100
AcDbLine
 10
-0.6298750000000003
 20
0.6180730383597595
 30
0.0
 11
-3.213041666666667
 21
0.6180730383597595
 31
0.0
  0
LINE
  5
137
330
115
100
AcDbEntity
  8
AM_9
100
AcDbLine
 10
-2.373041666666666
 20
1.176056070098459
 30
0.0
 11
-2.406825656499996
 21
1.248506070098459
 31
0.0
  0
LINE
  5
138
330
115
100
AcDbEntity
  8
AM_9
100
AcDbLine
 10
-2.406825656499996
 20
1.10360607009846
 30
0.0
 11
-2.373041666666666
 21
1.176056070098459
 31
0.0
  0
LINE
  5
139
330
115
100
AcDbEntity
  8
AM_9
100
AcDbLine
 10
-2.406825656499996
 20
1.10360607009846
 30
0.0
 11
-2.406825656499996
 21
1.248506070098459
 31
0.0
  0
LINE
  5
13A
330
115
100
AcDbEntity
  8
AM_9
100
AcDbLine
 10
-2.406825656499996
 20
1.248506070098459
 30
0.0
 11
-3.190491666666667
 21
1.248506070098459
 31
0.0
  0
LINE
  5
13B
330
115
100
AcDbEntity
  8
AM_9
100
AcDbLine
 10
-3.190491666666667
 20
1.10360607009846
 30
0.0
 11
-2.406825656499996
 21
1.10360607009846
 31
0.0
  0
LINE
  5
13C
330
115
100
AcDbEntity
  8
AM_9
100
AcDbLine
 10
-3.190491666666667
 20
1.10360607009846
 30
0.0
 11
-3.190491666666667
 21
1.248506070098459
 31
0.0
  0
LINE
  5
13D
330
115
100
AcDbEntity
  8
AM_9
100
AcDbLine
 10
-3.190491666666667
 20
1.248506070098459
 30
0.0
 11
-3.213041666666666
 21
1.271056070098459
 31
0.0
  0
LINE
  5
13E
330
115
100
AcDbEntity
  8
AM_9
100
AcDbLine
 10
-3.213041666666666
 20
1.081056070098459
 30
0.0
 11
-3.190491666666667
 21
1.10360607009846
 31
0.0
  0
LINE
  5
13F
330
115
100
AcDbEntity
  8
AM_9
100
AcDbLine
 10
-2.773041666666667
 20
-1.675
 30
0.0
 11
-3.213041666666666
 21
-1.675
 31
0.0
  0
LINE
  5
140
330
115
100
AcDbEntity
  8
AM_9
100
AcDbLine
 10
-2.773041666666667
 20
1.675
 30
0.0
 11
-3.213041666666666
 21
1.675
 31
0.0
  0
LINE
  5
141
330
115
100
AcDbEntity
  8
AM_9
100
AcDbLine
 10
-2.773041666666667
 20
-1.675
 30
0.0
 11
-2.773041666666667
 21
-1.936796904548048
 31
0.0
  0
LINE
  5
142
330
115
100
AcDbEntity
  8
AM_9
100
AcDbLine
 10
-2.773041666666667
 20
1.936796904548048
 30
0.0
 11
-2.773041666666667
 21
1.675
 31
0.0
  0
LINE
  5
143
330
115
100
AcDbEntity
  8
AM_9
100
AcDbLine
 10
-3.190491666666656
 20
-1.248506070098459
 30
0.0
 11
-2.406825656500016
 21
-1.248506070098459
 31
0.0
  0
LINE
  5
144
330
115
100
AcDbEntity
  8
AM_9
100
AcDbLine
 10
-2.406825656500016
 20
-1.10360607009846
 30
0.0
 11
-3.190491666666656
 21
-1.10360607009846
 31
0.0
  0
LINE
  5
145
330
115
100
AcDbEntity
  8
AM_9
100
AcDbLine
 10
-2.373041666666668
 20
-1.176056070098459
 30
0.0
 11
-2.406825656500016
 21
-1.10360607009846
 31
0.0
  0
LINE
  5
146
330
115
100
AcDbEntity
  8
AM_9
100
AcDbLine
 10
-2.406825656500016
 20
-1.248506070098459
 30
0.0
 11
-2.373041666666668
 21
-1.176056070098459
 31
0.0
  0
LINE
  5
147
330
115
100
AcDbEntity
  8
AM_9
100
AcDbLine
 10
-2.406825656500016
 20
-1.10360607009846
 30
0.0
 11
-2.406825656500016
 21
-1.248506070098459
 31
0.0
  0
LINE
  5
148
330
115
100
AcDbEntity
  8
AM_9
100
AcDbLine
 10
-3.190491666666656
 20
-1.103606070098459
 30
0.0
 11
-3.213041666666675
 21
-1.081056070098459
 31
0.0
  0
LINE
  5
149
330
115
100
AcDbEntity
  8
AM_9
100
AcDbLine
 10
-3.213041666666675
 20
-1.271056070098459
 30
0.0
 11
-3.190491666666656
 21
-1.248506070098459
 31
0.0
  0
LINE
  5
14A
330
115
100
AcDbEntity
  8
AM_9
100
AcDbLine
 10
-3.190491666666656
 20
-1.103606070098459
 30
0.0
 11
-3.190491666666656
 21
-1.248506070098459
 31
0.0
  0
LINE
  5
14B
330
115
100
AcDbEntity
  8
AM_9
100
AcDbLine
 10
-0.6298750000000003
 20
0.5914414510540424
 30
0.0
 11
-3.484375
 21
0.5914414510540424
 31
0.0
  0
LINE
  5
14C
330
115
100
AcDbEntity
  8
AM_9
100
AcDbLine
 10
-3.484375
 20
0.3604715679262208
 30
0.0
 11
-0.6298750000000003
 21
0.3604715679262208
 31
0.0
  0
LINE
  5
14D
330
115
100
AcDbEntity
  8
AM_9
100
AcDbLine
 10
-0.6298750000000003
 20
1.25
 30
0.0
 11
-3.484375
 21
1.25
 31
0.0
  0
LINE
  5
14E
330
115
100
AcDbEntity
  8
AM_9
100
AcDbLine
 10
-3.484375
 20
-1.25
 30
0.0
 11
-0.6298750000000003
 21
-1.25
 31
0.0
  0
LINE
  5
14F
330
115
100
AcDbEntity
  8
AM_9
100
AcDbLine
 10
-0.0625000000000002
 20
1.315789473684211
 30
0.0
 11
-0.6298750000000003
 21
1.315789473684211
 31
0.0
  0
LINE
  5
150
330
115
100
AcDbEntity
  8
AM_9
100
AcDbLine
 10
-0.6298750000000003
 20
-1.315789473684211
 30
0.0
 11
-0.0625000000000002
 21
-1.315789473684211
 31
0.0
  0
LINE
  5
151
330
115
100
AcDbEntity
  8
AM_9
100
AcDbLine
 10
-3.484375
 20
0.6167384408657909
 30
0.0
 11
-3.213041666666666
 21
0.616738440865791
 31
0.0
  0
LINE
  5
152
330
115
100
AcDbEntity
  8
AM_9
100
AcDbLine
 10
-3.213041666666666
 20
0.3857685577379693
 30
0.0
 11
-3.484375
 21
0.3857685577379692
 31
0.0
  0
LINE
  5
153
330
115
100
AcDbEntity
  8
AM_9
100
AcDbLine
 10
-3.213041666666666
 20
1.315789473684211
 30
0.0
 11
-3.283041666666666
 21
1.315789473684211
 31
0.0
  0
LINE
  5
154
330
115
100
AcDbEntity
  8
AM_9
100
AcDbLine
 10
-3.373342969897161
 20
-1.315789473684211
 30
0.0
 11
-3.213041666666666
 21
-1.315789473684211
 31
0.0
  0
LINE
  5
155
330
115
100
AcDbEntity
  8
AM_9
100
AcDbLine
 10
-0.0625000000000002
 20
-1.46875
 30
0.0
 11
-0.0625000000000002
 21
1.46875
 31
0.0
  0
LINE
  5
156
330
115
100
AcDbEntity
  8
AM_9
100
AcDbLine
 10
-0.0374999999999998
 20
1.46875
 30
0.0
 11
-0.0625000000000002
 21
1.46875
 31
0.0
  0
LINE
  5
157
330
115
100
AcDbEntity
  8
AM_9
100
AcDbLine
 10
-0.0625000000000002
 20
-1.46875
 30
0.0
 11
-0.0374999999999998
 21
-1.46875
 31
0.0
  0
LINE
  5
158
330
115
100
AcDbEntity
  8
AM_9
100
AcDbLine
 10
-0.0375000000000004
 20
-1.594284188595369
 30
0.0
 11
-0.0375000000000004
 21
1.594284188595369
 31
0.0
  0
ARC
  5
159
330
115
100
AcDbEntity
  8
AM_9
100
AcDbCircle
 10
-0.075160256410257
 20
1.594284188034188
 30
0.0
 40
0.0376602564102564
100
AcDbArc
 50
0.0
 51
90.0
  0
ARC
  5
15A
330
115
100
AcDbEntity
  8
AM_9
100
AcDbCircle
 10
-0.075160256410257
 20
-1.594284188034188
 30
0.0
 40
0.0376602564102562
100
AcDbArc
 50
270.0
 51
0.0
  0
LINE
  5
15B
330
115
100
AcDbEntity
  8
AM_9
100
AcDbLine
 10
-0.0751602564102573
 20
-1.631944444444444
 30
0.0
 11
-0.0751602564102573
 21
1.631944444444444
 31
0.0
  0
LINE
  5
15C
330
115
100
AcDbEntity
  8
AM_9
100
AcDbLine
 10
-0.0751602564102573
 20
1.631944444444444
 30
0.0
 11
-0.373625
 21
1.631944444444444
 31
0.0
  0
LINE
  5
15D
330
115
100
AcDbEntity
  8
AM_9
100
AcDbLine
 10
-0.373625
 20
-1.631944444444444
 30
0.0
 11
-0.0751602564102573
 21
-1.631944444444444
 31
0.0
  0
LINE
  5
15E
330
115
100
AcDbEntity
  8
AM_9
100
AcDbLine
 10
-2.375
 20
-1.966765059866146
 30
0.0
 11
-1.911125
 21
-1.982963931814132
 31
0.0
  0
LINE
  5
15F
330
115
100
AcDbEntity
  8
AM_9
100
AcDbLine
 10
-1.911125
 20
1.982963931814132
 30
0.0
 11
-2.375
 21
1.966765059866146
 31
0.0
  0
LINE
  5
160
330
115
100
AcDbEntity
  8
AM_9
100
AcDbLine
 10
-0.3736250000000006
 20
-1.956368966601195
 30
0.0
 11
-0.3736250000000006
 21
1.956368966601195
 31
0.0
  0
ARC
  5
161
330
115
100
AcDbEntity
  8
AM_9
100
AcDbCircle
 10
-0.4736250000000029
 20
1.956368966601195
 30
0.0
 40
0.1000000000000023
100
AcDbArc
 50
0.0
 51
59.99999999999903
  0
ARC
  5
162
330
115
100
AcDbEntity
  8
AM_9
100
AcDbCircle
 10
-0.4736250000000032
 20
-1.956368966601194
 30
0.0
 40
0.1000000000000026
100
AcDbArc
 50
300.000000000001
 51
0.0000008537736463
  0
LINE
  5
163
330
115
100
AcDbEntity
  8
AM_9
100
AcDbLine
 10
-0.4236250000000003
 20
-2.04297150697964
 30
0.0
 11
-0.4236250000000003
 21
2.04297150697964
 31
0.0
  0
LINE
  5
164
330
115
100
AcDbEntity
  8
AM_9
100
AcDbLine
 10
-0.4236250000000003
 20
2.04297150697964
 30
0.0
 11
-0.6298750000000003
 21
2.16205
 31
0.0
  0
LINE
  5
165
330
115
100
AcDbEntity
  8
AM_9
100
AcDbLine
 10
-0.6298750000000003
 20
-2.16205
 30
0.0
 11
-0.4236250000000003
 21
-2.04297150697964
 31
0.0
  0
LINE
  5
166
330
115
100
AcDbEntity
  8
AM_9
100
AcDbLine
 10
-1.23351349838004
 20
2.297987499999999
 30
0.0
 11
-1.307486501619961
 21
2.297987499999999
 31
0.0
  0
LINE
  5
167
330
115
100
AcDbEntity
  8
AM_9
100
AcDbLine
 10
-1.307486501619961
 20
-2.297987499999999
 30
0.0
 11
-1.23351349838004
 21
-2.297987499999999
 31
0.0
  0
LINE
  5
168
330
115
100
AcDbEntity
  8
AM_9
100
AcDbLine
 10
-0.6798750000000001
 20
2.36205
 30
0.0
 11
-1.196526996760079
 21
2.36205
 31
0.0
  0
LINE
  5
169
330
115
100
AcDbEntity
  8
AM_9
100
AcDbLine
 10
-1.196526996760079
 20
-2.36205
 30
0.0
 11
-0.6798750000000001
 21
-2.36205
 31
0.0
  0
LINE
  5
16A
330
115
100
AcDbEntity
  8
AM_9
100
AcDbLine
 10
-0.6298750000000003
 20
-2.31205
 30
0.0
 11
-0.6298750000000003
 21
2.31205
 31
0.0
  0
LINE
  5
16B
330
115
100
AcDbEntity
  8
AM_9
100
AcDbLine
 10
-0.6798750000000001
 20
-2.36205
 30
0.0
 11
-0.6798750000000001
 21
2.36205
 31
0.0
  0
ARC
  5
16C
330
115
100
AcDbEntity
  8
AM_9
100
AcDbCircle
 10
-0.679875
 20
2.31205
 30
0.0
 40
0.0499999999999997
100
AcDbArc
 50
0.0
 51
90.0
  0
ARC
  5
16D
330
115
100
AcDbEntity
  8
AM_9
100
AcDbCircle
 10
-0.6798750000000006
 20
-2.31205
 30
0.0
 40
0.0500000000000003
100
AcDbArc
 50
270.0
 51
0.0
  0
LINE
  5
16E
330
115
100
AcDbEntity
  8
AM_9
100
AcDbLine
 10
-1.911125
 20
-2.31205
 30
0.0
 11
-1.911125
 21
2.31205
 31
0.0
  0
ARC
  5
16F
330
115
100
AcDbEntity
  8
AM_9
100
AcDbCircle
 10
-1.861125000000001
 20
2.312050000000001
 30
0.0
 40
0.0499999999999994
100
AcDbArc
 50
90.0
 51
180.0
  0
ARC
  5
170
330
115
100
AcDbEntity
  8
AM_9
100
AcDbCircle
 10
-1.861125000000001
 20
-2.312050000000001
 30
0.0
 40
0.0499999999999994
100
AcDbArc
 50
180.0
 51
270.0
  0
LINE
  5
171
330
115
100
AcDbEntity
  8
AM_9
100
AcDbLine
 10
-1.307486501619961
 20
-2.2979875
 30
0.0
 11
-1.307486501619961
 21
2.2979875
 31
0.0
  0
LINE
  5
172
330
115
100
AcDbEntity
  8
AM_9
100
AcDbLine
 10
-1.307486501619961
 20
2.2979875
 30
0.0
 11
-1.344473003239921
 21
2.36205
 31
0.0
  0
LINE
  5
173
330
115
100
AcDbEntity
  8
AM_9
100
AcDbLine
 10
-1.344473003239921
 20
-2.36205
 30
0.0
 11
-1.307486501619961
 21
-2.2979875
 31
0.0
  0
LINE
  5
174
330
115
100
AcDbEntity
  8
AM_9
100
AcDbLine
 10
-1.196526996760079
 20
-2.36205
 30
0.0
 11
-1.196526996760079
 21
2.36205
 31
0.0
  0
LINE
  5
175
330
115
100
AcDbEntity
  8
AM_9
100
AcDbLine
 10
-1.23351349838004
 20
-2.2979875
 30
0.0
 11
-1.23351349838004
 21
2.297987499999999
 31
0.0
  0
LINE
  5
176
330
115
100
AcDbEntity
  8
AM_9
100
AcDbLine
 10
-1.23351349838004
 20
-2.2979875
 30
0.0
 11
-1.196526996760079
 21
-2.36205
 31
0.0
  0
LINE
  5
177
330
115
100
AcDbEntity
  8
AM_9
100
AcDbLine
 10
-1.196526996760079
 20
2.36205
 30
0.0
 11
-1.23351349838004
 21
2.297987499999999
 31
0.0
  0
LINE
  5
178
330
115
100
AcDbEntity
  8
AM_9
100
AcDbLine
 10
-1.344473003239921
 20
-2.36205
 30
0.0
 11
-1.344473003239921
 21
2.36205
 31
0.0
  0
LINE
  5
179
330
115
100
AcDbEntity
  8
AM_9
100
AcDbLine
 10
-1.861125000000001
 20
-2.36205
 30
0.0
 11
-1.861125000000001
 21
2.36205
 31
0.0
  0
LINE
  5
17A
330
115
100
AcDbEntity
  8
AM_9
100
AcDbLine
 10
-1.344473003239921
 20
2.36205
 30
0.0
 11
-1.861125000000001
 21
2.36205
 31
0.0
  0
LINE
  5
17B
330
115
100
AcDbEntity
  8
AM_9
100
AcDbLine
 10
-1.861125000000001
 20
-2.36205
 30
0.0
 11
-1.344473003239921
 21
-2.36205
 31
0.0
  0
LINE
  5
17C
330
115
100
AcDbEntity
  8
AM_5
100
AcDbLine
 10
-2.453041666666667
 20
1.176056070098459
 30
0.0
 11
-2.440022418096441
 21
1.176056070098459
 31
0.0
  0
LINE
  5
17D
330
115
100
AcDbEntity
  8
AM_5
100
AcDbLine
 10
-2.453041666666665
 20
-1.248506070098459
 30
0.0
 11
-2.453041666666665
 21
-1.271056070098459
 31
0.0
  0
LINE
  5
17E
330
115
100
AcDbEntity
  8
AM_5
100
AcDbLine
 10
-2.453041666666665
 20
-1.271056070098459
 30
0.0
 11
-2.440022418096443
 21
-1.248506070098459
 31
0.0
  0
LINE
  5
17F
330
115
100
AcDbEntity
  8
AM_5
100
AcDbLine
 10
-2.453041666666665
 20
-1.10360607009846
 30
0.0
 11
-2.453041666666665
 21
-1.081056070098459
 31
0.0
  0
LINE
  5
180
330
115
100
AcDbEntity
  8
AM_5
100
AcDbLine
 10
-2.453041666666665
 20
-1.081056070098459
 30
0.0
 11
-2.440022418096443
 21
-1.10360607009846
 31
0.0
  0
LINE
  5
183
330
115
100
AcDbEntity
  8
AM_7
100
AcDbLine
 10
0.1348437500000002
 20
0.0
 30
0.0
 11
-3.65671875
 21
0.0
 31
0.0
  0
LINE
  5
184
330
115
100
AcDbEntity
  8
AM_7
100
AcDbLine
 10
-2.331041666666667
 20
1.176056070098459
 30
0.0
 11
-3.429091666666666
 21
1.176056070098459
 31
0.0
  0
LINE
  5
185
330
115
100
AcDbEntity
  8
AM_7
100
AcDbLine
 10
-2.331041666666668
 20
-1.176056070098459
 30
0.0
 11
-3.429091666666666
 21
-1.176056070098459
 31
0.0
  0
LINE
  5
186
330
115
100
AcDbEntity
  8
AM_4
100
AcDbLine
 10
-3.283041666666666
 20
1.315789473684211
 30
0.0
 11
-3.484375
 21
1.315789473684211
 31
0.0
  0
LINE
  5
187
330
115
100
AcDbEntity
  8
AM_4
100
AcDbLine
 10
-3.484375
 20
-1.315789473684211
 30
0.0
 11
-3.373342969897161
 21
-1.315789473684211
 31
0.0
  0
LINE
  5
188
330
115
100
AcDbEntity
  8
AM_4
100
AcDbLine
 10
-3.484375
 20
-1.315789473684211
 30
0.0
 11
-3.484375
 21
1.315789473684211
 31
0.0
  0
LINE
  5
189
330
115
100
AcDbEntity
  8
AM_4
100
AcDbLine
 10
-2.773041666666667
 20
-0.2500000000000002
 30
0.0
 11
-3.213041666666666
 21
-0.2500000000000003
 31
0.0
  0
LWPOLYLINE
  5
18A
330
115
100
AcDbEntity
  8
AM_4
100
AcDbPolyline
 90
        6
 70
     0
 43
0.0
 10
-3.213041666666666
 20
-1.872601248772838
 10
-3.21252019195521
 20
-1.879867372732115
 10
-3.207270342911153
 20
-1.896125634158655
 10
-3.196940153523579
 20
-1.909675532953301
 10
-3.182782780662395
 20
-1.918936899520132
 10
-3.164786641501792
 20
-1.92300256426945
  0
LWPOLYLINE
  5
18B
330
115
100
AcDbEntity
  8
AM_4
100
AcDbPolyline
 90
        6
 70
     0
 43
0.0
 10
-3.164786641501792
 20
1.92300256426945
 10
-3.181123431399271
 20
1.919620734453007
 10
-3.195428446599464
 20
1.911025717757306
 10
-3.206151718338507
 20
1.898151270809368
 10
-3.212100489563238
 20
1.882342142040245
 10
-3.213041666666666
 20
1.872601248772838
  0
LINE
  5
18C
330
115
100
AcDbEntity
  8
AM_4
100
AcDbLine
 10
-3.213041666666666
 20
0.2499999999999997
 30
0.0
 11
-2.773041666666667
 21
0.2499999999999997
 31
0.0
  0
LINE
  5
18D
330
115
100
AcDbEntity
  8
AM_4
100
AcDbLine
 10
-3.164786641501792
 20
0.2499999999999995
 30
0.0
 11
-3.164786641501792
 21
1.92300256426945
 31
0.0
  0
LINE
  5
18E
330
115
100
AcDbEntity
  8
AM_4
100
AcDbLine
 10
-2.773041666666667
 20
0.2499999999999997
 30
0.0
 11
-2.773041666666667
 21
-0.2500000000000002
 31
0.0
  0
LINE
  5
18F
330
115
100
AcDbEntity
  8
AM_4
100
AcDbLine
 10
-3.164786641501792
 20
-1.92300256426945
 30
0.0
 11
-3.164786641501792
 21
-0.2500000000000006
 31
0.0
  0
LINE
  5
190
330
115
100
AcDbEntity
  8
AM_4
100
AcDbLine
 10
-3.164786641501792
 20
-1.92300256426945
 30
0.0
 11
-2.773041666666667
 21
-1.936796904548048
 31
0.0
  0
LINE
  5
191
330
115
100
AcDbEntity
  8
AM_4
100
AcDbLine
 10
-2.773041666666667
 20
-1.936796904548048
 30
0.0
 11
-2.773041666666667
 21
-1.952865138576368
 31
0.0
  0
LINE
  5
192
330
115
100
AcDbEntity
  8
AM_4
100
AcDbLine
 10
-2.773041666666667
 20
1.936796904548048
 30
0.0
 11
-3.164786641501792
 21
1.92300256426945
 31
0.0
  0
LINE
  5
193
330
115
100
AcDbEntity
  8
AM_4
100
AcDbLine
 10
-2.773041666666667
 20
-1.952865138576368
 30
0.0
 11
-2.375
 21
-1.966765059866146
 31
0.0
  0
LINE
  5
194
330
115
100
AcDbEntity
  8
AM_4
100
AcDbLine
 10
-2.375
 20
1.966765059866146
 30
0.0
 11
-2.773041666666667
 21
1.952865138576368
 31
0.0
  0
LINE
  5
195
330
115
100
AcDbEntity
  8
AM_4
100
AcDbLine
 10
-2.773041666666667
 20
1.952865138576368
 30
0.0
 11
-2.773041666666667
 21
1.936796904548048
 31
0.0
  0
ENDBLK
  5
118
330
115
100
AcDbEntity
  8
0
100
AcDbBlockEnd
  0
BLOCK
  5
198
330
196
100
AcDbEntity
  8
0
100
AcDbBlockBegin
  2
6_405015E_Inch_0_in_069688_2
 70
     2
 10
0.0
 20
0.0
 30
0.0
  3
6_405015E_Inch_0_in_069688_2
  1

  0
ATTDEF
  5
19A
330
196
100
AcDbEntity
  8
AM_6
100
AcDbText
 10
3.744778242770461
 20
3.1625
 30
0.0
 40
0.5
  1
405015E -Inch
100
AcDbAttributeDefinition
  3

  2
NN
 70
     8
280
     0
  0
ATTDEF
  5
19B
330
196
100
AcDbEntity
  8
AM_6
100
AcDbText
 10
3.744778242770461
 20
2.6625
 30
0.0
 40
0.5
  1
Grease Fitting
100
AcDbAttributeDefinition
  3

  2
NT
 70
     8
280
     0
  0
ATTDEF
  5
19C
330
196
100
AcDbEntity
  8
AM_6
100
AcDbText
 10
3.744778242770461
 20
2.1625
 30
0.0
 40
0.5
  1
405015E-Inch
100
AcDbAttributeDefinition
  3

  2
NB
 70
     8
280
     0
  0
ATTDEF
  5
19D
330
196
100
AcDbEntity
  8
AM_6
100
AcDbText
 10
3.744778242770461
 20
1.6625
 30
0.0
 40
0.5
  1
$MN.-Inch
100
AcDbAttributeDefinition
  3

  2
NBSYN
 70
     8
280
     0
  0
ATTDEF
  5
19E
330
196
100
AcDbEntity
  8
AM_6
100
AcDbText
 10
3.744778242770461
 20
1.1625
 30
0.0
 40
0.5
  1
405015E
100
AcDbAttributeDefinition
  3

  2
LINA
 70
     8
280
     0
  0
ATTDEF
  5
19F
330
196
100
AcDbEntity
  8
AM_6
100
AcDbText
 10
3.744778242770461
 20
0.6625000000000001
 30
0.0
 40
0.5
  1
405015E
100
AcDbAttributeDefinition
  3

  2
MN
 70
     8
280
     0
  0
ATTDEF
  5
1A0
330
196
100
AcDbEntity
  8
AM_6
100
AcDbText
 10
3.744778242770461
 20
0.1625000000000001
 30
0.0
 40
0.5
  1
1/8 x 27PTF
100
AcDbAttributeDefinition
  3

  2
T
 70
     8
280
     0
  0
ATTDEF
  5
1A1
330
196
100
AcDbEntity
  8
AM_6
100
AcDbText
 10
3.744778242770461
 20
-0.3374999999999999
 30
0.0
 40
0.5
  1
baldor
100
AcDbAttributeDefinition
  3

  2
COMPANY
 70
     8
280
     0
  0
LINE
  5
1A2
330
196
100
AcDbEntity
  8
AM_9
100
AcDbLine
 10
-1.669715372472269
 20
2.5225
 30
0.0
 11
-1.345909627527731
 21
2.5225
 31
0.0
  0
LINE
  5
1A3
330
196
100
AcDbEntity
  8
AM_9
100
AcDbLine
 10
-1.345909627527731
 20
2.5225
 30
0.0
 11
-1.309194873218785
 21
2.559214754308947
 31
0.0
  0
LINE
  5
1A4
330
196
100
AcDbEntity
  8
AM_9
100
AcDbLine
 10
-1.706430126781215
 20
2.559214754308947
 30
0.0
 11
-1.669715372472269
 21
2.5225
 31
0.0
  0
LINE
  5
1A5
330
196
100
AcDbEntity
  8
AM_9
100
AcDbLine
 10
-1.706430126781215
 20
2.559214754308947
 30
0.0
 11
-1.309194873218785
 21
2.559214754308947
 31
0.0
  0
LINE
  5
1A6
330
196
100
AcDbEntity
  8
AM_9
100
AcDbLine
 10
-1.309194873218785
 20
2.559214754308947
 30
0.0
 11
-1.30206060277693
 21
2.7875
 31
0.0
  0
LINE
  5
1A7
330
196
100
AcDbEntity
  8
AM_9
100
AcDbLine
 10
-1.71356439722307
 20
2.7875
 30
0.0
 11
-1.706430126781215
 21
2.559214754308947
 31
0.0
  0
LINE
  5
1A8
330
196
100
AcDbEntity
  8
AM_5
100
AcDbLine
 10
-1.339663375147652
 20
2.722370087748463
 30
0.0
 11
-1.345909627527731
 21
2.5225
 31
0.0
  0
LINE
  5
1A9
330
196
100
AcDbEntity
  8
AM_5
100
AcDbLine
 10
-1.302060602776931
 20
2.7875
 30
0.0
 11
-1.339663375147652
 21
2.722370087748463
 31
0.0
  0
LINE
  5
1AA
330
196
100
AcDbEntity
  8
AM_5
100
AcDbLine
 10
-1.711528985751557
 20
2.722370087748463
 30
0.0
 11
-1.304096014248443
 21
2.722370087748463
 31
0.0
  0
LINE
  5
1AB
330
196
100
AcDbEntity
  8
AM_5
100
AcDbLine
 10
-1.675961624852348
 20
2.722370087748463
 30
0.0
 11
-1.669715372472269
 21
2.5225
 31
0.0
  0
LINE
  5
1AC
330
196
100
AcDbEntity
  8
AM_5
100
AcDbLine
 10
-1.713564397223069
 20
2.7875
 30
0.0
 11
-1.675961624852348
 21
2.722370087748463
 31
0.0
  0
LINE
  5
1AD
330
196
100
AcDbEntity
  8
AM_4
100
AcDbLine
 10
-1.4028125
 20
2.992500000000001
 30
0.0
 11
-1.4028125
 21
3.0225
 31
0.0
  0
LINE
  5
1AE
330
196
100
AcDbEntity
  8
AM_4
100
AcDbLine
 10
-1.6128125
 20
3.0225
 30
0.0
 11
-1.6128125
 21
2.992500000000001
 31
0.0
  0
LINE
  5
1AF
330
196
100
AcDbEntity
  8
AM_4
100
AcDbLine
 10
-1.7265625
 20
2.8875
 30
0.0
 11
-1.2890625
 21
2.8875
 31
0.0
  0
LINE
  5
1B0
330
196
100
AcDbEntity
  8
AM_4
100
AcDbLine
 10
-1.255221757229539
 20
2.878432400303386
 30
0.0
 11
-1.2890625
 21
2.8875
 31
0.0
  0
LINE
  5
1B1
330
196
100
AcDbEntity
  8
AM_4
100
AcDbLine
 10
-1.7265625
 20
2.8875
 30
0.0
 11
-1.760403242770461
 21
2.878432400303386
 31
0.0
  0
LINE
  5
1B2
330
196
100
AcDbEntity
  8
AM_4
100
AcDbLine
 10
-1.2890625
 20
2.7875
 30
0.0
 11
-1.255221757229539
 21
2.796567599696615
 31
0.0
  0
LINE
  5
1B3
330
196
100
AcDbEntity
  8
AM_4
100
AcDbLine
 10
-1.760403242770461
 20
2.796567599696615
 30
0.0
 11
-1.7265625
 21
2.7875
 31
0.0
  0
LINE
  5
1B4
330
196
100
AcDbEntity
  8
AM_4
100
AcDbLine
 10
-1.6128125
 20
2.992500000000001
 30
0.0
 11
-1.4028125
 21
2.992500000000001
 31
0.0
  0
LINE
  5
1B5
330
196
100
AcDbEntity
  8
AM_4
100
AcDbLine
 10
-1.6128125
 20
2.992500000000001
 30
0.0
 11
-1.626632590734897
 21
2.960253121618572
 31
0.0
  0
LINE
  5
1B6
330
196
100
AcDbEntity
  8
AM_4
100
AcDbLine
 10
-1.388992409265102
 20
2.960253121618572
 30
0.0
 11
-1.4028125
 21
2.992500000000001
 31
0.0
  0
LINE
  5
1B7
330
196
100
AcDbEntity
  8
AM_4
100
AcDbLine
 10
-1.6128125
 20
3.0225
 30
0.0
 11
-1.4028125
 21
3.0225
 31
0.0
  0
LINE
  5
1B8
330
196
100
AcDbEntity
  8
AM_4
100
AcDbLine
 10
-1.4028125
 20
3.0225
 30
0.0
 11
-1.3728125
 21
3.0825
 31
0.0
  0
LINE
  5
1B9
330
196
100
AcDbEntity
  8
AM_4
100
AcDbLine
 10
-1.6428125
 20
3.0825
 30
0.0
 11
-1.6128125
 21
3.0225
 31
0.0
  0
LINE
  5
1BA
330
196
100
AcDbEntity
  8
AM_4
100
AcDbLine
 10
-1.610490401933187
 20
3.1625
 30
0.0
 11
-1.405134598066813
 21
3.1625
 31
0.0
  0
LINE
  5
1BB
330
196
100
AcDbEntity
  8
AM_4
100
AcDbLine
 10
-1.6428125
 20
3.0825
 30
0.0
 11
-1.3728125
 21
3.0825
 31
0.0
  0
LINE
  5
1BC
330
196
100
AcDbEntity
  8
AM_4
100
AcDbLine
 10
-1.610490401933187
 20
3.1625
 30
0.0
 11
-1.6428125
 21
3.0825
 31
0.0
  0
LINE
  5
1BD
330
196
100
AcDbEntity
  8
AM_4
100
AcDbLine
 10
-1.3728125
 20
3.0825
 30
0.0
 11
-1.405134598066813
 21
3.1625
 31
0.0
  0
LINE
  5
1BE
330
196
100
AcDbEntity
  8
AM_4
100
AcDbLine
 10
-1.626632590734897
 20
2.960253121618572
 30
0.0
 11
-1.388992409265102
 21
2.960253121618572
 31
0.0
  0
LINE
  5
1BF
330
196
100
AcDbEntity
  8
AM_4
100
AcDbLine
 10
-1.626632590734898
 20
2.960253121618572
 30
0.0
 11
-1.680346553283015
 21
2.905818198540882
 31
0.0
  0
LINE
  5
1C0
330
196
100
AcDbEntity
  8
AM_4
100
AcDbLine
 10
-1.335278446716984
 20
2.905818198540882
 30
0.0
 11
-1.388992409265102
 21
2.960253121618572
 31
0.0
  0
LINE
  5
1C1
330
196
100
AcDbEntity
  8
AM_4
100
AcDbLine
 10
-1.680346553283015
 20
2.905818198540882
 30
0.0
 11
-1.335278446716984
 21
2.905818198540882
 31
0.0
  0
LINE
  5
1C2
330
196
100
AcDbEntity
  8
AM_4
100
AcDbLine
 10
-1.680346553283015
 20
2.905818198540882
 30
0.0
 11
-1.7215625
 21
2.8875
 31
0.0
  0
LINE
  5
1C3
330
196
100
AcDbEntity
  8
AM_4
100
AcDbLine
 10
-1.2940625
 20
2.8875
 30
0.0
 11
-1.335278446716984
 21
2.905818198540882
 31
0.0
  0
LINE
  5
1C4
330
196
100
AcDbEntity
  8
AM_4
100
AcDbLine
 10
-1.255221757229539
 20
2.878432400303386
 30
0.0
 11
-1.255221757229539
 21
2.796567599696615
 31
0.0
  0
LWPOLYLINE
  5
1C5
330
196
100
AcDbEntity
  8
AM_4
100
AcDbPolyline
 90
        3
 70
     0
 43
0.0
 10
-1.318369442922154
 20
2.8875
 10
-1.286795600075846
 20
2.885106619214965
 10
-1.255221757229539
 20
2.878432400303386
  0
LWPOLYLINE
  5
1C6
330
196
100
AcDbEntity
  8
AM_4
100
AcDbPolyline
 90
        3
 70
     0
 43
0.0
 10
-1.255221757229539
 20
2.796567599696615
 10
-1.286653635576436
 20
2.78991452494962
 10
-1.318369442922154
 20
2.7875
  0
LWPOLYLINE
  5
1C7
330
196
100
AcDbEntity
  8
AM_4
100
AcDbPolyline
 90
        3
 70
     0
 43
0.0
 10
-1.760403242770461
 20
2.878432400303386
 10
-1.728971364423564
 20
2.88508547505038
 10
-1.697255557077846
 20
2.8875
  0
LINE
  5
1C8
330
196
100
AcDbEntity
  8
AM_4
100
AcDbLine
 10
-1.760403242770461
 20
2.878432400303386
 30
0.0
 11
-1.760403242770461
 21
2.796567599696615
 31
0.0
  0
LWPOLYLINE
  5
1C9
330
196
100
AcDbEntity
  8
AM_4
100
AcDbPolyline
 90
        3
 70
     0
 43
0.0
 10
-1.697255557077846
 20
2.7875
 10
-1.728829399924154
 20
2.789893380785035
 10
-1.760403242770461
 20
2.796567599696615
  0
LWPOLYLINE
  5
1CA
330
196
100
AcDbEntity
  8
AM_4
100
AcDbPolyline
 90
        3
 70
     0
 43
0.0
 10
-1.63410787138523
 20
2.796567599696615
 10
-1.665539749732128
 20
2.78991452494962
 10
-1.697255557077846
 20
2.7875
  0
LWPOLYLINE
  5
1CB
330
196
100
AcDbEntity
  8
AM_4
100
AcDbPolyline
 90
        3
 70
     0
 43
0.0
 10
-1.697255557077846
 20
2.8875
 10
-1.665681714231538
 20
2.885106619214965
 10
-1.63410787138523
 20
2.878432400303386
  0
LWPOLYLINE
  5
1CC
330
196
100
AcDbEntity
  8
AM_4
100
AcDbPolyline
 90
        3
 70
     0
 43
0.0
 10
-1.318369442922154
 20
2.7875
 10
-1.349943285768462
 20
2.789893380785035
 10
-1.381517128614769
 20
2.796567599696615
  0
LWPOLYLINE
  5
1CD
330
196
100
AcDbEntity
  8
AM_4
100
AcDbPolyline
 90
        3
 70
     0
 43
0.0
 10
-1.381517128614769
 20
2.878432400303386
 10
-1.350085250267872
 20
2.88508547505038
 10
-1.318369442922154
 20
2.8875
  0
LINE
  5
1CE
330
196
100
AcDbEntity
  8
AM_4
100
AcDbLine
 10
-1.381517128614769
 20
2.878432400303386
 30
0.0
 11
-1.381517128614769
 21
2.796567599696615
 31
0.0
  0
LWPOLYLINE
  5
1CF
330
196
100
AcDbEntity
  8
AM_4
100
AcDbPolyline
 90
        4
 70
     0
 43
0.0
 10
-1.5078125
 20
2.8875
 10
-1.459412683944101
 20
2.886082439282863
 10
-1.411012867888202
 20
2.882017587482157
 10
-1.381517128614769
 20
2.878432400303386
  0
LWPOLYLINE
  5
1D0
330
196
100
AcDbEntity
  8
AM_4
100
AcDbPolyline
 90
        3
 70
     0
 43
0.0
 10
-1.63410787138523
 20
2.878432400303386
 10
-1.571244114691437
 20
2.88508547505038
 10
-1.5078125
 20
2.8875
  0
LINE
  5
1D1
330
196
100
AcDbEntity
  8
AM_4
100
AcDbLine
 10
-1.63410787138523
 20
2.878432400303386
 30
0.0
 11
-1.63410787138523
 21
2.796567599696615
 31
0.0
  0
LWPOLYLINE
  5
1D2
330
196
100
AcDbEntity
  8
AM_4
100
AcDbPolyline
 90
        3
 70
     0
 43
0.0
 10
-1.5078125
 20
2.7875
 10
-1.570960185692615
 20
2.789893380785035
 10
-1.63410787138523
 20
2.796567599696615
  0
LWPOLYLINE
  5
1D3
330
196
100
AcDbEntity
  8
AM_4
100
AcDbPolyline
 90
        4
 70
     0
 43
0.0
 10
-1.381517128614769
 20
2.796567599696615
 10
-1.411012867888202
 20
2.792982412517844
 10
-1.459270058752246
 20
2.788925828243072
 10
-1.5078125
 20
2.7875
  0
ENDBLK
  5
199
330
196
100
AcDbEntity
  8
0
100
AcDbBlockEnd
  0
BLOCK
  5
1D6
330
1D4
100
AcDbEntity
  8
0
100
AcDbBlockBegin
  2
7_069688H_0_in_069688_2
 70
     2
 10
0.0
 20
0.0
 30
0.0
  3
7_069688H_0_in_069688_2
  1

  0
ATTDEF
  5
1D8
330
1D4
100
AcDbEntity
  8
AM_6
100
AcDbText
 10
5.0336328125
 20
4.03125
 30
0.0
 40
0.5
  1
F3&4R-IP -(Labyrinth Seal)-Housing -Inch
100
AcDbAttributeDefinition
  3

  2
NN
 70
     8
280
     0
  0
ATTDEF
  5
1D9
330
1D4
100
AcDbEntity
  8
AM_6
100
AcDbText
 10
5.0336328125
 20
3.53125
 30
0.0
 40
0.5
  1
Imperial 3 & 4 Bolt Round Flange Bearings
100
AcDbAttributeDefinition
  3

  2
NT
 70
     8
280
     0
  0
ATTDEF
  5
1DA
330
1D4
100
AcDbEntity
  8
AM_6
100
AcDbText
 10
5.0336328125
 20
3.03125
 30
0.0
 40
0.5
  1
069688H
100
AcDbAttributeDefinition
  3

  2
NB
 70
     8
280
     0
  0
ATTDEF
  5
1DB
330
1D4
100
AcDbEntity
  8
AM_6
100
AcDbText
 10
5.0336328125
 20
2.53125
 30
0.0
 40
0.5
  1
$PN.H
100
AcDbAttributeDefinition
  3

  2
NBSYN
 70
     8
280
     0
  0
ATTDEF
  5
1DC
330
1D4
100
AcDbEntity
  8
AM_6
100
AcDbText
 10
5.0336328125
 20
2.03125
 30
0.0
 40
0.5
  1
069688
100
AcDbAttributeDefinition
  3

  2
LINA
 70
     8
280
     0
  0
ATTDEF
  5
1DD
330
1D4
100
AcDbEntity
  8
AM_6
100
AcDbText
 10
5.0336328125
 20
1.53125
 30
0.0
 40
0.5
  1
2-1/2
100
AcDbAttributeDefinition
  3

  2
SS
 70
     8
280
     0
  0
ATTDEF
  5
1DE
330
1D4
100
AcDbEntity
  8
AM_6
100
AcDbText
 10
5.0336328125
 20
1.03125
 30
0.0
 40
0.5
  1
069688
100
AcDbAttributeDefinition
  3

  2
PN
 70
     8
280
     0
  0
ATTDEF
  5
1DF
330
1D4
100
AcDbEntity
  8
AM_6
100
AcDbText
 10
5.0336328125
 20
0.53125
 30
0.0
 40
0.5
  1
F4R-IP-208LE
100
AcDbAttributeDefinition
  3

  2
DESCRIPTION
 70
     8
280
     0
  0
ATTDEF
  5
1E0
330
1D4
100
AcDbEntity
  8
AM_6
100
AcDbText
 10
5.0336328125
 20
0.03125
 30
0.0
 40
0.5
  1
Expansion Type
100
AcDbAttributeDefinition
  3

  2
EF
 70
     8
280
     0
  0
ATTDEF
  5
1E1
330
1D4
100
AcDbEntity
  8
AM_6
100
AcDbText
 10
5.0336328125
 20
-0.46875
 30
0.0
 40
0.5
  1
Labyrinth Seal
100
AcDbAttributeDefinition
  3

  2
ST
 70
     8
280
     0
  0
ATTDEF
  5
1E2
330
1D4
100
AcDbEntity
  8
AM_6
100
AcDbText
 10
5.0336328125
 20
-0.96875
 30
0.0
 40
0.5
  1
3-27/64
100
AcDbAttributeDefinition
  3

  2
A
 70
     8
280
     0
  0
ATTDEF
  5
1E3
330
1D4
100
AcDbEntity
  8
AM_6
100
AcDbText
 10
5.0336328125
 20
-1.46875
 30
0.0
 40
0.5
  1
7-3/4
100
AcDbAttributeDefinition
  3

  2
B
 70
     8
280
     0
  0
ATTDEF
  5
1E4
330
1D4
100
AcDbEntity
  8
AM_6
100
AcDbText
 10
5.0336328125
 20
-1.96875
 30
0.0
 40
0.5
  1
3-47/64
100
AcDbAttributeDefinition
  3

  2
C
 70
     8
280
     0
  0
ATTDEF
  5
1E5
330
1D4
100
AcDbEntity
  8
AM_6
100
AcDbText
 10
5.0336328125
 20
-2.46875
 30
0.0
 40
0.5
  1
4-49/64
100
AcDbAttributeDefinition
  3

  2
D
 70
     8
280
     0
  0
ATTDEF
  5
1E6
330
1D4
100
AcDbEntity
  8
AM_6
100
AcDbText
 10
5.0336328125
 20
-2.96875
 30
0.0
 40
0.5
  1
6-3/4
100
AcDbAttributeDefinition
  3

  2
DD
 70
     8
280
     0
  0
ATTDEF
  5
1E7
330
1D4
100
AcDbEntity
  8
AM_6
100
AcDbText
 10
5.0336328125
 20
-3.46875
 30
0.0
 40
0.5
  1
2-3/8
100
AcDbAttributeDefinition
  3

  2
E
 70
     8
280
     0
  0
ATTDEF
  5
1E8
330
1D4
100
AcDbEntity
  8
AM_6
100
AcDbText
 10
5.0336328125
 20
-3.96875
 30
0.0
 40
0.5
  1
5/8
100
AcDbAttributeDefinition
  3

  2
F
 70
     8
280
     0
  0
ATTDEF
  5
1E9
330
1D4
100
AcDbEntity
  8
AM_6
100
AcDbText
 10
5.0336328125
 20
-4.46875
 30
0.0
 40
0.5
  1
41/64
100
AcDbAttributeDefinition
  3

  2
H
 70
     8
280
     0
  0
ATTDEF
  5
1EA
330
1D4
100
AcDbEntity
  8
AM_6
100
AcDbText
 10
5.0336328125
 20
-4.96875
 30
0.0
 40
0.5
  1
5-3/8
100
AcDbAttributeDefinition
  3

  2
J
 70
     8
280
     0
  0
ATTDEF
  5
1EB
330
1D4
100
AcDbEntity
  8
AM_6
100
AcDbText
 10
5.0336328125
 20
-5.46875
 30
0.0
 40
0.5
  1
3-7/8
100
AcDbAttributeDefinition
  3

  2
L
 70
     8
280
     0
  0
ATTDEF
  5
1EC
330
1D4
100
AcDbEntity
  8
AM_6
100
AcDbText
 10
5.0336328125
 20
-5.96875
 30
0.0
 40
0.5
  1
5/16
100
AcDbAttributeDefinition
  3

  2
P
 70
     8
280
     0
  0
ATTDEF
  5
1ED
330
1D4
100
AcDbEntity
  8
AM_6
100
AcDbText
 10
5.0336328125
 20
-6.46875
 30
0.0
 40
0.5
  1
1/4
100
AcDbAttributeDefinition
  3

  2
X
 70
     8
280
     0
  0
ATTDEF
  5
1EE
330
1D4
100
AcDbEntity
  8
AM_6
100
AcDbText
 10
5.0336328125
 20
-6.96875
 30
0.0
 40
0.5
  1
0.025
100
AcDbAttributeDefinition
  3

  2
Y
 70
     8
280
     0
  0
ATTDEF
  5
1EF
330
1D4
100
AcDbEntity
  8
AM_6
100
AcDbText
 10
5.0336328125
 20
-7.46875
 30
0.0
 40
0.5
  1
2-15/16
100
AcDbAttributeDefinition
  3

  2
Z
 70
     8
280
     0
  0
ATTDEF
  5
1F0
330
1D4
100
AcDbEntity
  8
AM_6
100
AcDbText
 10
5.0336328125
 20
-7.96875
 30
0.0
 40
0.5
  1
baldor
100
AcDbAttributeDefinition
  3

  2
COMPANY
 70
     8
280
     0
  0
LINE
  5
1F1
330
1D4
100
AcDbEntity
  8
AM_9
100
AcDbLine
 10
-0.5765625
 20
3.71875
 30
0.0
 11
0.0
 21
3.71875
 31
0.0
  0
LINE
  5
1F2
330
1D4
100
AcDbEntity
  8
AM_9
100
AcDbLine
 10
-0.5765624999999999
 20
-2.473874691832143
 30
0.0
 11
-0.6406249999999998
 21
-2.473874691832143
 31
0.0
  0
LINE
  5
1F3
330
1D4
100
AcDbEntity
  8
AM_9
100
AcDbLine
 10
-0.5765624999999999
 20
-2.450703547506671
 30
0.0
 11
-0.6406249999999998
 21
-2.450703547506671
 31
0.0
  0
LINE
  5
1F4
330
1D4
100
AcDbEntity
  8
AM_9
100
AcDbLine
 10
-0.5765624999999999
 20
2.473874691832142
 30
0.0
 11
-0.6406249999999998
 21
2.473874691832142
 31
0.0
  0
LINE
  5
1F5
330
1D4
100
AcDbEntity
  8
AM_9
100
AcDbLine
 10
-0.6406249999999998
 20
2.450703547506669
 30
0.0
 11
-0.5765624999999999
 21
2.450703547506669
 31
0.0
  0
LINE
  5
1F6
330
1D4
100
AcDbEntity
  8
AM_9
100
AcDbLine
 10
-0.5765624999999999
 20
-2.461478968763305
 30
0.0
 11
-0.640625
 21
-2.461478968763305
 31
0.0
  0
LINE
  5
1F7
330
1D4
100
AcDbEntity
  8
AM_9
100
AcDbLine
 10
-0.640625
 20
-2.6875
 30
0.0
 11
-0.5765625
 21
-2.6875
 31
0.0
  0
LINE
  5
1F8
330
1D4
100
AcDbEntity
  8
AM_9
100
AcDbLine
 10
-0.5765624999999999
 20
2.461478968763303
 30
0.0
 11
-0.640625
 21
2.461478968763303
 31
0.0
  0
LINE
  5
1F9
330
1D4
100
AcDbEntity
  8
AM_9
100
AcDbLine
 10
-0.5765625
 20
2.6875
 30
0.0
 11
-0.6406249999999998
 21
2.6875
 31
0.0
  0
LINE
  5
1FA
330
1D4
100
AcDbEntity
  8
AM_9
100
AcDbLine
 10
-2.375
 20
-2.36205
 30
0.0
 11
-0.0640625
 21
-2.36205
 31
0.0
  0
LINE
  5
1FB
330
1D4
100
AcDbEntity
  8
AM_9
100
AcDbLine
 10
-0.0640625
 20
2.36205
 30
0.0
 11
-2.375
 21
2.36205
 31
0.0
  0
LINE
  5
1FC
330
1D4
100
AcDbEntity
  8
AM_9
100
AcDbLine
 10
-0.0640625
 20
-2.559523809523809
 30
0.0
 11
0.0
 21
-2.559523809523809
 31
0.0
  0
LINE
  5
1FD
330
1D4
100
AcDbEntity
  8
AM_9
100
AcDbLine
 10
0.0
 20
2.559523809523809
 30
0.0
 11
-0.0640625
 21
2.559523809523809
 31
0.0
  0
LINE
  5
1FE
330
1D4
100
AcDbEntity
  8
AM_9
100
AcDbLine
 10
-0.0640625
 20
2.559523809523809
 30
0.0
 11
-0.0640625
 21
-2.559523809523809
 31
0.0
  0
LINE
  5
1FF
330
1D4
100
AcDbEntity
  8
AM_9
100
AcDbLine
 10
-0.6406249999999998
 20
2.073985386504598
 30
0.0
 11
0.0000000000000001
 21
2.073985386504598
 31
0.0
  0
LINE
  5
200
330
1D4
100
AcDbEntity
  8
AM_9
100
AcDbLine
 10
0.0000000000000001
 20
2.698985386504598
 30
0.0
 11
-0.6406249999999998
 21
2.698985386504598
 31
0.0
  0
LINE
  5
201
330
1D4
100
AcDbEntity
  8
AM_9
100
AcDbLine
 10
-0.6406249999999998
 20
-2.698985386504598
 30
0.0
 11
0.0000000000000001
 21
-2.698985386504598
 31
0.0
  0
LINE
  5
202
330
1D4
100
AcDbEntity
  8
AM_9
100
AcDbLine
 10
0.0000000000000001
 20
-2.073985386504598
 30
0.0
 11
-0.6406249999999998
 21
-2.073985386504598
 31
0.0
  0
LINE
  5
203
330
1D4
100
AcDbEntity
  8
AM_7
100
AcDbLine
 10
0.0336328124999999
 20
2.386485386504598
 30
0.0
 11
-0.7062890625000003
 21
2.386485386504598
 31
0.0
  0
LINE
  5
204
330
1D4
100
AcDbEntity
  8
AM_7
100
AcDbLine
 10
0.0336328124999999
 20
-2.386485386504598
 30
0.0
 11
-0.7062890625000003
 21
-2.386485386504598
 31
0.0
  0
LINE
  5
205
330
1D4
100
AcDbEntity
  8
AM_7
100
AcDbLine
 10
0.0336328125
 20
4.03125
 30
0.0
 11
-0.7062890625000001
 21
4.03125
 31
0.0
  0
LINE
  5
206
330
1D4
100
AcDbEntity
  8
AM_7
100
AcDbLine
 10
-1.5078125
 20
3.1945
 30
0.0
 11
-1.5078125
 21
2.2625
 31
0.0
  0
LINE
  5
207
330
1D4
100
AcDbEntity
  8
AM_4
100
AcDbLine
 10
-1.907812499999999
 20
2.7875
 30
0.0
 11
-1.107812500274201
 21
2.7875
 31
0.0
  0
ARC
  5
208
330
1D4
100
AcDbEntity
  8
AM_4
100
AcDbCircle
 10
-1.1078125
 20
2.6875
 30
0.0
 40
0.0999999999999999
100
AcDbArc
 50
0.0
 51
90.0
  0
ARC
  5
209
330
1D4
100
AcDbEntity
  8
AM_4
100
AcDbCircle
 10
-1.907812500000001
 20
2.6875
 30
0.0
 40
0.0999999999999992
100
AcDbArc
 50
90.0
 51
180.0
  0
LINE
  5
20A
330
1D4
100
AcDbEntity
  8
AM_4
100
AcDbLine
 10
-2.0078125
 20
2.6875
 30
0.0
 11
-1.0078125
 21
2.6875
 31
0.0
  0
LINE
  5
20B
330
1D4
100
AcDbEntity
  8
AM_4
100
AcDbLine
 10
-2.3109375
 20
-2.6875
 30
0.0
 11
-0.640625
 21
-2.6875
 31
0.0
  0
LWPOLYLINE
  5
20C
330
1D4
100
AcDbEntity
  8
AM_4
100
AcDbPolyline
 90
       38
 70
     0
 43
0.0
 10
-2.0078125
 20
2.6875
 10
-2.006115796954505
 20
2.687184348656161
 10
-2.001050858161007
 20
2.686250235544218
 10
-1.992347483015295
 20
2.684665319195668
 10
-1.980185564267495
 20
2.682497448618631
 10
-1.965138725333625
 20
2.679888449941015
 10
-1.9470255056107
 20
2.676857171067889
 10
-1.925321457479791
 20
2.673381678177226
 10
-1.900665124259427
 20
2.669642192202453
 10
-1.873723884396238
 20
2.665811009656916
 10
-1.844280743141743
 20
2.661929211801638
 10
-1.811582183548947
 20
2.657994529887765
 10
-1.776670452787481
 20
2.654230745202285
 10
-1.740565429901874
 20
2.650817629222066
 10
-1.702815039342919
 20
2.647769295152088
 10
-1.662489480858544
 20
2.645106263220312
 10
-1.620989841107946
 20
2.643003095068234
 10
-1.58033305382502
 20
2.641575551642049
 10
-1.539164095318169
 20
2.640764883992703
 10
-1.496536412710109
 20
2.640604161931167
 10
-1.453993411848977
 20
2.641127173054984
 10
-1.413576107850425
 20
2.642260812965195
 10
-1.373806620092116
 20
2.64397689586159
 10
-1.333857356900195
 20
2.646303402921959
 10
-1.295160304711428
 20
2.649127631157293
 10
-1.258785307782316
 20
2.652296014254611
 10
-1.224104022482172
 20
2.655776110709538
 10
-1.190454561388833
 20
2.659581645021816
 10
-1.159062156987357
 20
2.663509536636097
 10
-1.130497814620512
 20
2.66740010212885
 10
-1.104533954235402
 20
2.671196330387194
 10
-1.080727684733523
 20
2.674893827295064
 10
-1.06003610405641
 20
2.678275555420732
 10
-1.043059148389107
 20
2.681165825449227
 10
-1.029299959947833
 20
2.6835853817211
 10
-1.018613721294941
 20
2.685510905735359
 10
-1.011536264261733
 20
2.686809697793751
 10
-1.0078125
 20
2.6875
  0
LINE
  5
20D
330
1D4
100
AcDbEntity
  8
AM_4
100
AcDbLine
 10
-0.6406249999999998
 20
2.6875
 30
0.0
 11
-1.0078125
 21
2.6875
 31
0.0
  0
LINE
  5
20E
330
1D4
100
AcDbEntity
  8
AM_4
100
AcDbLine
 10
-2.0078125
 20
2.6875
 30
0.0
 11
-2.3109375
 21
2.6875
 31
0.0
  0
LINE
  5
20F
330
1D4
100
AcDbEntity
  8
AM_4
100
AcDbLine
 10
-2.3109375
 20
2.277055031998971
 30
0.0
 11
-0.6406249999999998
 21
2.277055031998971
 31
0.0
  0
LINE
  5
210
330
1D4
100
AcDbEntity
  8
AM_4
100
AcDbLine
 10
-2.3109375
 20
-2.277055029678744
 30
0.0
 11
-0.6406249999999998
 21
-2.277055029678744
 31
0.0
  0
LWPOLYLINE
  5
211
330
1D4
100
AcDbEntity
  8
AM_4
100
AcDbPolyline
 90
        3
 70
     0
 43
0.0
 10
-2.3109375
 20
2.277055031998971
 10
-2.311174554734435
 20
2.276942364245876
 10
-2.33457599688122
 20
2.262025650215912
  0
ARC
  5
212
330
1D4
100
AcDbEntity
  8
AM_4
100
AcDbCircle
 10
-2.3109375
 20
2.623437500000001
 30
0.0
 40
0.0640624999999999
100
AcDbArc
 50
90.0
 51
180.0
  0
LINE
  5
213
330
1D4
100
AcDbEntity
  8
AM_4
100
AcDbLine
 10
-2.3109375
 20
2.6875
 30
0.0
 11
-2.3109375
 21
2.277055031998971
 31
0.0
  0
LINE
  5
214
330
1D4
100
AcDbEntity
  8
AM_4
100
AcDbLine
 10
-2.375
 20
2.623437500000001
 30
0.0
 11
-2.375
 21
-2.623437500000001
 31
0.0
  0
LWPOLYLINE
  5
215
330
1D4
100
AcDbEntity
  8
AM_4
100
AcDbPolyline
 90
        3
 70
     0
 43
0.0
 10
-2.334576058787955
 20
-2.262025600262344
 10
-2.311174554734299
 20
-2.276942364245829
 10
-2.3109375
 20
-2.277055029678741
  0
LINE
  5
216
330
1D4
100
AcDbEntity
  8
AM_4
100
AcDbLine
 10
-2.3109375
 20
-2.277055029678744
 30
0.0
 11
-2.3109375
 21
-2.6875
 31
0.0
  0
ARC
  5
217
330
1D4
100
AcDbEntity
  8
AM_4
100
AcDbCircle
 10
-2.3109375
 20
-2.623437500000001
 30
0.0
 40
0.0640624999999999
100
AcDbArc
 50
180.0
 51
270.0
  0
LINE
  5
218
330
1D4
100
AcDbEntity
  8
AM_4
100
AcDbLine
 10
-2.33457599688122
 20
2.262025650215912
 30
0.0
 11
-0.6406249999999998
 21
2.262025650215912
 31
0.0
  0
LWPOLYLINE
  5
219
330
1D4
100
AcDbEntity
  8
AM_4
100
AcDbPolyline
 90
        7
 70
     0
 43
0.0
 10
-2.375
 20
2.125456046285727
 10
-2.373157547624324
 20
2.164182737615625
 10
-2.369646510682818
 20
2.188881310828485
 10
-2.363552473785151
 20
2.213402616301472
 10
-2.357553059601724
 20
2.229532392631018
 10
-2.349330357338979
 20
2.245013407904197
 10
-2.33457599688122
 20
2.262025650215912
  0
LINE
  5
21A
330
1D4
100
AcDbEntity
  8
AM_4
100
AcDbLine
 10
-2.334576058787955
 20
-2.262025600262344
 30
0.0
 11
-0.6406249999999998
 21
-2.262025600262344
 31
0.0
  0
LWPOLYLINE
  5
21B
330
1D4
100
AcDbEntity
  8
AM_4
100
AcDbPolyline
 90
        6
 70
     0
 43
0.0
 10
-2.334576058787955
 20
-2.262025600262344
 10
-2.344906524197132
 20
-2.251356591053641
 10
-2.352748535008762
 20
-2.23925005513705
 10
-2.364554010287594
 20
-2.21011561047031
 10
-2.371256680927402
 20
-2.17931277017099
 10
-2.375
 20
-2.125456046285729
  0
LINE
  5
21C
330
1D4
100
AcDbEntity
  8
AM_4
100
AcDbLine
 10
-2.334576058787955
 20
1.442781324442235
 30
0.0
 11
-0.6406249999999998
 21
1.442781324442235
 31
0.0
  0
LINE
  5
21D
330
1D4
100
AcDbEntity
  8
AM_4
100
AcDbLine
 10
-2.334575996881222
 20
-1.442781291828098
 30
0.0
 11
-0.6406249999999998
 21
-1.442781291828098
 31
0.0
  0
LINE
  5
21E
330
1D4
100
AcDbEntity
  8
AM_4
100
AcDbLine
 10
-0.5765624999999998
 20
1.078785213254217
 30
0.0
 11
-0.6406249999999998
 21
1.078785213254217
 31
0.0
  0
LINE
  5
21F
330
1D4
100
AcDbEntity
  8
AM_4
100
AcDbLine
 10
-2.3109375
 20
1.427472115949989
 30
0.0
 11
-0.6406249999999998
 21
1.427472115949989
 31
0.0
  0
LINE
  5
220
330
1D4
100
AcDbEntity
  8
AM_4
100
AcDbLine
 10
-2.3109375
 20
-1.42747211224884
 30
0.0
 11
-0.6406249999999998
 21
-1.42747211224884
 31
0.0
  0
LINE
  5
221
330
1D4
100
AcDbEntity
  8
AM_4
100
AcDbLine
 10
-0.5765624999999998
 20
-1.078785213254218
 30
0.0
 11
-0.6406249999999998
 21
-1.078785213254218
 31
0.0
  0
LWPOLYLINE
  5
222
330
1D4
100
AcDbEntity
  8
AM_4
100
AcDbPolyline
 90
        3
 70
     0
 43
0.0
 10
-2.334576058787955
 20
1.442781324442235
 10
-2.311174554734285
 20
1.427650994623062
 10
-2.3109375
 20
1.427472115949991
  0
LWPOLYLINE
  5
223
330
1D4
100
AcDbEntity
  8
AM_4
100
AcDbPolyline
 90
        6
 70
     0
 43
0.0
 10
-2.334576058787955
 20
1.442781324442235
 10
-2.344727621847303
 20
1.449658836348181
 10
-2.352748535008761
 20
1.457808961470833
 10
-2.364554010287593
 20
1.477498989374639
 10
-2.371256680927402
 20
1.498900146092282
 10
-2.375
 20
1.537810427755546
  0
LWPOLYLINE
  5
224
330
1D4
100
AcDbEntity
  8
AM_4
100
AcDbPolyline
 90
        7
 70
     0
 43
0.0
 10
-2.375
 20
-1.537810427755546
 10
-2.373157547624088
 20
-1.509636819446508
 10
-2.369645668343916
 20
-1.492253144433077
 10
-2.363552473784662
 20
-1.475250935755148
 10
-2.357581890487364
 20
-1.464394831100982
 10
-2.349330357338368
 20
-1.453976260962968
 10
-2.334575996881222
 20
-1.442781291828098
  0
LWPOLYLINE
  5
225
330
1D4
100
AcDbEntity
  8
AM_4
100
AcDbPolyline
 90
        3
 70
     0
 43
0.0
 10
-2.3109375
 20
-1.42747211224884
 10
-2.311174554734439
 20
-1.427650994622965
 10
-2.334575996881222
 20
-1.442781291828098
  0
LINE
  5
226
330
1D4
100
AcDbEntity
  8
AM_4
100
AcDbLine
 10
-2.3109375
 20
1.427472115949989
 30
0.0
 11
-2.3109375
 21
-1.42747211224884
 31
0.0
  0
LINE
  5
227
330
1D4
100
AcDbEntity
  8
AM_4
100
AcDbLine
 10
-0.5765624999999998
 20
-1.203705152002886
 30
0.0
 11
-0.6406249999999998
 21
-1.203705152002886
 31
0.0
  0
LWPOLYLINE
  5
228
330
1D4
100
AcDbEntity
  8
AM_4
100
AcDbPolyline
 90
        6
 70
     0
 43
0.0
 10
-0.5765624999999991
 20
-2.213236443487035
 10
-0.5967881105251917
 20
-2.210376930355365
 10
-0.6147288991008201
 20
-2.202229471713272
 10
-0.6289360762658474
 20
-2.189514333723364
 10
-0.6380863303828056
 20
-2.172880455235062
 10
-0.6406249999999998
 20
-2.15726786112373
  0
LINE
  5
229
330
1D4
100
AcDbEntity
  8
AM_4
100
AcDbLine
 10
-0.6406249999999998
 20
-1.078785213254218
 30
0.0
 11
-0.6406249999999998
 21
-3.141566488914232
 31
0.0
  0
LWPOLYLINE
  5
22A
330
1D4
100
AcDbEntity
  8
AM_4
100
AcDbPolyline
 90
        7
 70
     0
 43
0.0
 10
-0.6406249999999998
 20
-3.141566488914232
 10
-0.6404975261490665
 20
-3.144040197512927
 10
-0.6349550778079674
 20
-3.157696607407229
 10
-0.6217657205283846
 20
-3.169345460617622
 10
-0.6032287113998622
 20
-3.177203284705771
 10
-0.5824815157332681
 20
-3.180588667685567
 10
-0.5765624999999998
 20
-3.180756112187928
  0
LINE
  5
22B
330
1D4
100
AcDbEntity
  8
AM_4
100
AcDbLine
 10
-0.5765624999999998
 20
1.203705152002885
 30
0.0
 11
-0.6406249999999998
 21
1.203705152002885
 31
0.0
  0
LWPOLYLINE
  5
22C
330
1D4
100
AcDbEntity
  8
AM_4
100
AcDbPolyline
 90
        6
 70
     0
 43
0.0
 10
-0.5765624999999998
 20
3.180756112187928
 10
-0.5967881105251918
 20
3.178753859537523
 10
-0.6147288991008201
 20
3.173048947579078
 10
-0.6289360762658474
 20
3.164145712109168
 10
-0.6380863303828056
 20
3.152498545001995
 10
-0.6406249999999998
 20
3.141566488914231
  0
LINE
  5
22D
330
1D4
100
AcDbEntity
  8
AM_4
100
AcDbLine
 10
-0.6406249999999998
 20
3.141566488914231
 30
0.0
 11
-0.6406249999999998
 21
1.078785213254217
 31
0.0
  0
LWPOLYLINE
  5
22E
330
1D4
100
AcDbEntity
  8
AM_4
100
AcDbPolyline
 90
        7
 70
     0
 43
0.0
 10
-0.6406249999999998
 20
2.15726786112373
 10
-0.6404975261490665
 20
2.160800683128218
 10
-0.6349550778079676
 20
2.180304057698017
 10
-0.6217657205283844
 20
2.196940344191272
 10
-0.6032287113998621
 20
2.208162480000093
 10
-0.5824815157332682
 20
2.212997307954747
 10
-0.5765624999999998
 20
2.213236443487034
  0
LINE
  5
22F
330
1D4
100
AcDbEntity
  8
AM_4
100
AcDbLine
 10
-0.5765624999999998
 20
2.213236443487034
 30
0.0
 11
-0.5765624999999991
 21
-2.213236443487035
 31
0.0
  0
LINE
  5
230
330
1D4
100
AcDbEntity
  8
AM_4
100
AcDbLine
 10
-0.5765625
 20
3.865915697674419
 30
0.0
 11
0.0
 21
3.865915697674417
 31
0.0
  0
LINE
  5
231
330
1D4
100
AcDbEntity
  8
AM_4
100
AcDbLine
 10
-0.5765625
 20
3.865915697674419
 30
0.0
 11
-0.5765624999999998
 21
3.180756112187928
 31
0.0
  0
LINE
  5
232
330
1D4
100
AcDbEntity
  8
AM_4
100
AcDbLine
 10
-0.5765624999999998
 20
3.180756112187928
 30
0.0
 11
-0.5765624999999998
 21
2.213236443487034
 31
0.0
  0
LINE
  5
233
330
1D4
100
AcDbEntity
  8
AM_4
100
AcDbLine
 10
-0.5765624999999991
 20
-2.213236443487035
 30
0.0
 11
-0.5765624999999998
 21
-3.180756112187928
 31
0.0
  0
LINE
  5
234
330
1D4
100
AcDbEntity
  8
AM_4
100
AcDbLine
 10
-0.5765624999999998
 20
-3.180756112187928
 30
0.0
 11
-0.5765624999999992
 21
-3.875
 31
0.0
  0
LINE
  5
235
330
1D4
100
AcDbEntity
  8
AM_4
100
AcDbLine
 10
0.0
 20
3.865915697674417
 30
0.0
 11
0.0
 21
-3.875
 31
0.0
  0
LINE
  5
236
330
1D4
100
AcDbEntity
  8
AM_4
100
AcDbLine
 10
-0.5765624999999992
 20
-3.875
 30
0.0
 11
0.0
 21
-3.875
 31
0.0
  0
ENDBLK
  5
1D7
330
1D4
100
AcDbEntity
  8
0
100
AcDbBlockEnd
  0
ENDSEC
  0
SECTION
  2
ENTITIES
  0
INSERT
  5
6F
330
1F
100
AcDbEntity
  8
0
100
AcDbBlockReference
  2
1_069688_2
 10
0.0
 20
0.0
 30
0.0
  0
POINT
  5
238
330
1F
100
AcDbEntity
  8
ConnectionPoints
100
AcDbPoint
 10
-3.283041666666666
 20
1.176056070098459
 30
-1.176056070098459
  0
POINT
  5
239
330
1F
100
AcDbEntity
  8
ConnectionPoints
100
AcDbPoint
 10
-3.213041666666666
 20
0.0
 30
0.0000000000000002
  0
POINT
  5
23A
330
1F
100
AcDbEntity
  8
ConnectionPoints
100
AcDbPoint
 10
-3.484375
 20
0.0
 30
0.0000000000000002
  0
POINT
  5
23B
330
1F
100
AcDbEntity
  8
ConnectionPoints
100
AcDbPoint
 10
-3.412041666666667
 20
0.0
 30
0.0000000000000002
  0
POINT
  5
23C
330
1F
100
AcDbEntity
  8
ConnectionPoints
100
AcDbPoint
 10
-3.213041666666666
 20
1.176056070098459
 30
-1.176056070098459
  0
POINT
  5
23D
330
1F
100
AcDbEntity
  8
ConnectionPoints
100
AcDbPoint
 10
-3.383375
 20
1.176056070098459
 30
-1.176056070098459
  0
POINT
  5
23E
330
1F
100
AcDbEntity
  8
ConnectionPoints
100
AcDbPoint
 10
-3.213041666666666
 20
-1.176056070098459
 30
1.176056070098459
  0
POINT
  5
23F
330
1F
100
AcDbEntity
  8
ConnectionPoints
100
AcDbPoint
 10
-3.383375
 20
-1.176056070098459
 30
1.176056070098459
  0
POINT
  5
240
330
1F
100
AcDbEntity
  8
ConnectionPoints
100
AcDbPoint
 10
-3.213041666666666
 20
0.0
 30
0.0000000000000002
  0
POINT
  5
241
330
1F
100
AcDbEntity
  8
ConnectionPoints
100
AcDbPoint
 10
-1.5078125
 20
2.7875
 30
0.0000000000000001
  0
POINT
  5
242
330
1F
100
AcDbEntity
  8
ConnectionPoints
100
AcDbPoint
 10
-1.5078125
 20
2.7875
 30
0.0000000000000001
  0
POINT
  5
243
330
1F
100
AcDbEntity
  8
ConnectionPoints
100
AcDbPoint
 10
-3.484375
 20
0.0
 30
0.0000000000000002
  0
POINT
  5
244
330
1F
100
AcDbEntity
  8
ConnectionPoints
100
AcDbPoint
 10
-3.734375
 20
0.0
 30
0.0000000000000002
  0
ENDSEC
  0
SECTION
  2
OBJECTS
  0
DICTIONARY
  5
C
330
0
100
AcDbDictionary
281
     1
  3
ACAD_DETAILVIEWSTYLE
350
24C
  3
ACAD_GROUP
350
D
  3
ACAD_LAYOUT
350
1A
  3
ACAD_MATERIAL
350
43
  3
ACAD_MLEADERSTYLE
350
6B
  3
ACAD_MLINESTYLE
350
17
  3
ACAD_PLOTSETTINGS
350
19
  3
ACAD_PLOTSTYLENAME
350
E
  3
ACAD_SCALELIST
350
47
  3
ACAD_SECTIONVIEWSTYLE
350
24D
  3
ACAD_TABLESTYLE
350
69
  3
ACAD_VISUALSTYLE
350
2A
  3
ACDB_RECOMPOSE_DATA
350
249
  3
AcDbVariableDictionary
350
245
  0
SUN
  5
6D
330
29
100
AcDbSun
 90
        1
290
     0
 63
     7
421
 16777215
 40
1.0
291
     1
 91
  2455826
 92
 54000000
292
     0
 70
     2
 71
   256
280
     1
  0
DICTIONARY
  5
24C
102
{ACAD_REACTORS
330
C
102
}
330
C
100
AcDbDictionary
281
     1
  0
DICTIONARY
  5
D
102
{ACAD_REACTORS
330
C
102
}
330
C
100
AcDbDictionary
281
     1
  0
DICTIONARY
  5
1A
102
{ACAD_REACTORS
330
C
102
}
330
C
100
AcDbDictionary
281
     1
  3
Layout1
350
1E
  3
Layout2
350
26
  3
Model
350
22
  0
DICTIONARY
  5
43
102
{ACAD_REACTORS
330
C
102
}
330
C
100
AcDbDictionary
281
     1
  3
ByBlock
350
45
  3
ByLayer
350
44
  3
Global
350
46
  0
DICTIONARY
  5
6B
102
{ACAD_REACTORS
330
C
102
}
330
C
100
AcDbDictionary
281
     1
  3
Standard
350
6C
  0
DICTIONARY
  5
17
102
{ACAD_REACTORS
330
C
102
}
330
C
100
AcDbDictionary
281
     1
  3
Standard
350
18
  0
DICTIONARY
  5
19
102
{ACAD_REACTORS
330
C
102
}
330
C
100
AcDbDictionary
281
     1
  0
ACDBDICTIONARYWDFLT
  5
E
102
{ACAD_REACTORS
330
C
102
}
330
C
100
AcDbDictionary
281
     1
  3
Normal
350
F
100
AcDbDictionaryWithDefault
340
F
  0
DICTIONARY
  5
47
102
{ACAD_REACTORS
330
C
102
}
330
C
100
AcDbDictionary
281
     1
  3
A0
350
48
  3
A1
350
49
  3
A2
350
4A
  3
A3
350
4B
  3
A4
350
4C
  3
A5
350
4D
  3
A6
350
4E
  3
A7
350
4F
  3
A8
350
50
  3
A9
350
51
  3
B0
350
52
  3
B1
350
53
  3
B2
350
54
  3
B3
350
55
  3
B4
350
56
  3
B5
350
57
  3
B6
350
58
  3
B7
350
59
  3
B8
350
5A
  3
B9
350
5B
  3
C0
350
5C
  3
C1
350
5D
  3
C2
350
5E
  3
C3
350
5F
  3
C4
350
60
  3
C5
350
61
  3
C6
350
62
  3
C7
350
63
  3
C8
350
64
  3
C9
350
65
  3
D0
350
66
  3
D1
350
67
  3
D2
350
68
  0
DICTIONARY
  5
24D
102
{ACAD_REACTORS
330
C
102
}
330
C
100
AcDbDictionary
281
     1
  0
DICTIONARY
  5
69
102
{ACAD_REACTORS
330
C
102
}
330
C
100
AcDbDictionary
281
     1
  3
Standard
350
6A
  0
DICTIONARY
  5
2A
102
{ACAD_REACTORS
330
C
102
}
330
C
100
AcDbDictionary
281
     1
  3
2dWireframe
350
2F
  3
Basic
350
32
  3
Brighten
350
36
  3
ColorChange
350
3A
  3
Conceptual
350
34
  3
Dim
350
35
  3
EdgeColorOff
350
3D
  3
Facepattern
350
39
  3
Flat
350
2B
  3
FlatWithEdges
350
2C
  3
Gouraud
350
2D
  3
GouraudWithEdges
350
2E
  3
Hidden
350
31
  3
JitterOff
350
3B
  3
Linepattern
350
38
  3
OverhangOff
350
3C
  3
Realistic
350
33
  3
Shaded
350
42
  3
Shaded with edges
350
41
  3
Shades of Gray
350
3E
  3
Sketchy
350
3F
  3
Thicken
350
37
  3
Wireframe
350
30
  3
X-Ray
350
40
  0
XRECORD
  5
249
102
{ACAD_REACTORS
330
C
102
}
330
C
100
AcDbXrecord
280
     1
 90
        1
330
6A
  0
DICTIONARY
  5
245
102
{ACAD_REACTORS
330
C
102
}
330
C
100
AcDbDictionary
281
     1
  3
CANNOSCALE
350
246
  3
CMLEADERSTYLE
350
24B
  3
CTABLESTYLE
350
24A
  0
LAYOUT
  5
1E
102
{ACAD_REACTORS
330
1A
102
}
330
1A
100
AcDbPlotSettings
  1

  2
none_device
  4

  6

 40
0.0
 41
0.0
 42
0.0
 43
0.0
 44
0.0
 45
0.0
 46
0.0
 47
0.0
 48
0.0
 49
0.0
140
0.0
141
0.0
142
1.0
143
1.0
 70
   688
 72
     0
 73
     0
 74
     5
  7

 75
    16
 76
     0
 77
     2
 78
   300
147
1.0
148
0.0
149
0.0
100
AcDbLayout
  1
Layout1
 70
     1
 71
     1
 10
0.0
 20
0.0
 11
12.0
 21
9.0
 12
0.0
 22
0.0
 32
0.0
 14
1.000000000000000E+20
 24
1.000000000000000E+20
 34
1.000000000000000E+20
 15
-1.000000000000000E+20
 25
-1.000000000000000E+20
 35
-1.000000000000000E+20
146
0.0
 13
0.0
 23
0.0
 33
0.0
 16
1.0
 26
0.0
 36
0.0
 17
0.0
 27
1.0
 37
0.0
 76
     0
330
1B
  0
LAYOUT
  5
26
102
{ACAD_REACTORS
330
1A
102
}
330
1A
100
AcDbPlotSettings
  1

  2
none_device
  4

  6

 40
0.0
 41
0.0
 42
0.0
 43
0.0
 44
0.0
 45
0.0
 46
0.0
 47
0.0
 48
0.0
 49
0.0
140
0.0
141
0.0
142
1.0
143
1.0
 70
   688
 72
     0
 73
     0
 74
     5
  7

 75
    16
 76
     0
 77
     2
 78
   300
147
1.0
148
0.0
149
0.0
100
AcDbLayout
  1
Layout2
 70
     1
 71
     2
 10
0.0
 20
0.0
 11
0.0
 21
0.0
 12
0.0
 22
0.0
 32
0.0
 14
0.0
 24
0.0
 34
0.0
 15
0.0
 25
0.0
 35
0.0
146
0.0
 13
0.0
 23
0.0
 33
0.0
 16
1.0
 26
0.0
 36
0.0
 17
0.0
 27
1.0
 37
0.0
 76
     0
330
23
  0
LAYOUT
  5
22
102
{ACAD_REACTORS
330
1A
102
}
330
1A
100
AcDbPlotSettings
  1

  2
none_device
  4
Letter_(8.50_x_11.00_Inches)
  6

 40
6.35
 41
6.35
 42
6.35000508
 43
6.35000508
 44
215.9
 45
279.4
 46
0.0
 47
0.0
 48
0.0
 49
0.0
140
0.0
141
0.0
142
1.0
143
1.0
 70
  1712
 72
     0
 73
     0
 74
     0
  7

 75
     0
 76
     0
 77
     2
 78
   300
147
1.0
148
0.0
149
0.0
100
AcDbLayout
  1
Model
 70
     1
 71
     0
 10
0.0
 20
0.0
 11
12.0
 21
9.0
 12
0.0
 22
0.0
 32
0.0
 14
1.000000000000000E+20
 24
1.000000000000000E+20
 34
1.000000000000000E+20
 15
-1.000000000000000E+20
 25
-1.000000000000000E+20
 35
-1.000000000000000E+20
146
0.0
 13
0.0
 23
0.0
 33
0.0
 16
1.0
 26
0.0
 36
0.0
 17
0.0
 27
1.0
 37
0.0
 76
     0
330
1F
331
29
  0
MATERIAL
  5
45
102
{ACAD_REACTORS
330
43
102
}
330
43
100
AcDbMaterial
  1
ByBlock
 72
     1
 94
      127
  0
MATERIAL
  5
44
102
{ACAD_REACTORS
330
43
102
}
330
43
100
AcDbMaterial
  1
ByLayer
 72
     1
 94
      127
  0
MATERIAL
  5
46
102
{ACAD_REACTORS
330
43
102
}
330
43
100
AcDbMaterial
  1
Global
 72
     1
 94
      127
  0
MLEADERSTYLE
  5
6C
102
{ACAD_REACTORS
330
6B
102
}
330
6B
100
AcDbMLeaderStyle
179
     2
170
     2
171
     1
172
     0
 90
        2
 40
0.0
 41
0.0
173
     1
 91
-1056964608
340
14
 92
       -2
290
     1
 42
0.09
291
     1
 43
0.36
  3
Standard
341
0
 44
0.18
300

342
11
174
     1
178
     6
175
     1
176
     0
 93
-1056964608
 45
0.18
292
     0
297
     0
 46
0.18
343
0
 94
-1056964608
 47
1.0
 49
1.0
140
1.0
293
     1
141
0.0
294
     1
177
     0
142
1.0
295
     0
296
     0
143
0.125
271
     0
272
     9
273
     9
298
     0
  0
MLINESTYLE
  5
18
102
{ACAD_REACTORS
330
17
102
}
330
17
100
AcDbMlineStyle
  2
Standard
 70
     0
  3

 62
   256
 51
90.0
 52
90.0
 71
     2
 49
0.5
 62
   256
  6
BYLAYER
 49
-0.5
 62
   256
  6
BYLAYER
  0
ACDBPLACEHOLDER
  5
F
102
{ACAD_REACTORS
330
E
102
}
330
E
  0
SCALE
  5
48
102
{ACAD_REACTORS
330
47
102
}
330
47
100
AcDbScale
 70
     0
300
1:1
140
1.0
141
1.0
290
     1
  0
SCALE
  5
49
102
{ACAD_REACTORS
330
47
102
}
330
47
100
AcDbScale
 70
     0
300
1:2
140
1.0
141
2.0
290
     0
  0
SCALE
  5
4A
102
{ACAD_REACTORS
330
47
102
}
330
47
100
AcDbScale
 70
     0
300
1:4
140
1.0
141
4.0
290
     0
  0
SCALE
  5
4B
102
{ACAD_REACTORS
330
47
102
}
330
47
100
AcDbScale
 70
     0
300
1:5
140
1.0
141
5.0
290
     0
  0
SCALE
  5
4C
102
{ACAD_REACTORS
330
47
102
}
330
47
100
AcDbScale
 70
     0
300
1:8
140
1.0
141
8.0
290
     0
  0
SCALE
  5
4D
102
{ACAD_REACTORS
330
47
102
}
330
47
100
AcDbScale
 70
     0
300
1:10
140
1.0
141
10.0
290
     0
  0
SCALE
  5
4E
102
{ACAD_REACTORS
330
47
102
}
330
47
100
AcDbScale
 70
     0
300
1:16
140
1.0
141
16.0
290
     0
  0
SCALE
  5
4F
102
{ACAD_REACTORS
330
47
102
}
330
47
100
AcDbScale
 70
     0
300
1:20
140
1.0
141
20.0
290
     0
  0
SCALE
  5
50
102
{ACAD_REACTORS
330
47
102
}
330
47
100
AcDbScale
 70
     0
300
1:30
140
1.0
141
30.0
290
     0
  0
SCALE
  5
51
102
{ACAD_REACTORS
330
47
102
}
330
47
100
AcDbScale
 70
     0
300
1:40
140
1.0
141
40.0
290
     0
  0
SCALE
  5
52
102
{ACAD_REACTORS
330
47
102
}
330
47
100
AcDbScale
 70
     0
300
1:50
140
1.0
141
50.0
290
     0
  0
SCALE
  5
53
102
{ACAD_REACTORS
330
47
102
}
330
47
100
AcDbScale
 70
     0
300
1:100
140
1.0
141
100.0
290
     0
  0
SCALE
  5
54
102
{ACAD_REACTORS
330
47
102
}
330
47
100
AcDbScale
 70
     0
300
2:1
140
2.0
141
1.0
290
     0
  0
SCALE
  5
55
102
{ACAD_REACTORS
330
47
102
}
330
47
100
AcDbScale
 70
     0
300
4:1
140
4.0
141
1.0
290
     0
  0
SCALE
  5
56
102
{ACAD_REACTORS
330
47
102
}
330
47
100
AcDbScale
 70
     0
300
8:1
140
8.0
141
1.0
290
     0
  0
SCALE
  5
57
102
{ACAD_REACTORS
330
47
102
}
330
47
100
AcDbScale
 70
     0
300
10:1
140
10.0
141
1.0
290
     0
  0
SCALE
  5
58
102
{ACAD_REACTORS
330
47
102
}
330
47
100
AcDbScale
 70
     0
300
100:1
140
100.0
141
1.0
290
     0
  0
SCALE
  5
59
102
{ACAD_REACTORS
330
47
102
}
330
47
100
AcDbScale
 70
     0
300
1/128" = 1'-0"
140
0.0078125
141
12.0
290
     0
  0
SCALE
  5
5A
102
{ACAD_REACTORS
330
47
102
}
330
47
100
AcDbScale
 70
     0
300
1/64" = 1'-0"
140
0.015625
141
12.0
290
     0
  0
SCALE
  5
5B
102
{ACAD_REACTORS
330
47
102
}
330
47
100
AcDbScale
 70
     0
300
1/32" = 1'-0"
140
0.03125
141
12.0
290
     0
  0
SCALE
  5
5C
102
{ACAD_REACTORS
330
47
102
}
330
47
100
AcDbScale
 70
     0
300
1/16" = 1'-0"
140
0.0625
141
12.0
290
     0
  0
SCALE
  5
5D
102
{ACAD_REACTORS
330
47
102
}
330
47
100
AcDbScale
 70
     0
300
3/32" = 1'-0"
140
0.09375
141
12.0
290
     0
  0
SCALE
  5
5E
102
{ACAD_REACTORS
330
47
102
}
330
47
100
AcDbScale
 70
     0
300
1/8" = 1'-0"
140
0.125
141
12.0
290
     0
  0
SCALE
  5
5F
102
{ACAD_REACTORS
330
47
102
}
330
47
100
AcDbScale
 70
     0
300
3/16" = 1'-0"
140
0.1875
141
12.0
290
     0
  0
SCALE
  5
60
102
{ACAD_REACTORS
330
47
102
}
330
47
100
AcDbScale
 70
     0
300
1/4" = 1'-0"
140
0.25
141
12.0
290
     0
  0
SCALE
  5
61
102
{ACAD_REACTORS
330
47
102
}
330
47
100
AcDbScale
 70
     0
300
3/8" = 1'-0"
140
0.375
141
12.0
290
     0
  0
SCALE
  5
62
102
{ACAD_REACTORS
330
47
102
}
330
47
100
AcDbScale
 70
     0
300
1/2" = 1'-0"
140
0.5
141
12.0
290
     0
  0
SCALE
  5
63
102
{ACAD_REACTORS
330
47
102
}
330
47
100
AcDbScale
 70
     0
300
3/4" = 1'-0"
140
0.75
141
12.0
290
     0
  0
SCALE
  5
64
102
{ACAD_REACTORS
330
47
102
}
330
47
100
AcDbScale
 70
     0
300
1" = 1'-0"
140
1.0
141
12.0
290
     0
  0
SCALE
  5
65
102
{ACAD_REACTORS
330
47
102
}
330
47
100
AcDbScale
 70
     0
300
1-1/2" = 1'-0"
140
1.5
141
12.0
290
     0
  0
SCALE
  5
66
102
{ACAD_REACTORS
330
47
102
}
330
47
100
AcDbScale
 70
     0
300
3" = 1'-0"
140
3.0
141
12.0
290
     0
  0
SCALE
  5
67
102
{ACAD_REACTORS
330
47
102
}
330
47
100
AcDbScale
 70
     0
300
6" = 1'-0"
140
6.0
141
12.0
290
     0
  0
SCALE
  5
68
102
{ACAD_REACTORS
330
47
102
}
330
47
100
AcDbScale
 70
     0
300
1'-0" = 1'-0"
140
12.0
141
12.0
290
     0
  0
TABLESTYLE
  5
6A
102
{ACAD_REACTORS
330
69
102
}
102
{ACAD_XDICTIONARY
360
247
102
}
330
69
100
AcDbTableStyle
  3
Standard
 70
     0
 71
     0
 40
0.06
 41
0.06
280
     0
281
     0
  7
Standard
140
0.18
170
     2
 62
     0
 63
   257
283
     0
 90
        4
 91
        0
  1

274
    -2
284
     1
 64
     0
275
    -2
285
     1
 65
     0
276
    -2
286
     1
 66
     0
277
    -2
287
     1
 67
     0
278
    -2
288
     1
 68
     0
279
    -2
289
     1
 69
     0
  7
Standard
140
0.25
170
     5
 62
     0
 63
   257
283
     0
 90
        4
 91
        0
  1

274
    -2
284
     1
 64
     0
275
    -2
285
     1
 65
     0
276
    -2
286
     1
 66
     0
277
    -2
287
     1
 67
     0
278
    -2
288
     1
 68
     0
279
    -2
289
     1
 69
     0
  7
Standard
140
0.18
170
     5
 62
     0
 63
   257
283
     0
 90
        4
 91
        0
  1

274
    -2
284
     1
 64
     0
275
    -2
285
     1
 65
     0
276
    -2
286
     1
 66
     0
277
    -2
287
     1
 67
     0
278
    -2
288
     1
 68
     0
279
    -2
289
     1
 69
     0
  0
VISUALSTYLE
  5
2F
102
{ACAD_REACTORS
330
2A
102
}
330
2A
100
AcDbVisualStyle
  2
2dWireframe
 70
     4
177
     3
291
     0
 70
    58
 90
        0
176
     1
 90
        2
176
     1
 90
        0
176
     1
 90
        0
176
     1
 40
0.6
176
     1
 40
30.0
176
     1
 62
     7
420
 16777215
176
     1
 90
        1
176
     1
 90
        4
176
     1
 62
     7
176
     1
 62
   257
176
     1
 90
        1
176
     1
 90
        1
176
     1
 40
1.0
176
     1
 90
        0
176
     1
 62
   257
176
     1
 40
1.0
176
     1
 90
        1
176
     1
 90
        6
176
     1
 90
        2
176
     1
 62
     7
176
     1
 90
        5
176
     1
 90
        0
176
     1
 90
        0
176
     1
290
     0
176
     1
 90
        1
176
     1
 40
0.0
176
     1
 90
        0
176
     1
290
     1
176
     1
290
     1
176
     1
290
     0
176
     1
290
     0
176
     1
290
     0
176
     1
290
     0
176
     1
290
     0
176
     1
290
     0
176
     1
290
     0
176
     1
 90
       50
176
     1
 40
0.0
176
     1
 40
1.0
176
     1
 90
        0
176
     1
 62
    18
420
        0
176
     1
 90
       50
176
     1
 90
        3
176
     1
 62
     5
420
      255
176
     1
290
     0
176
     1
 90
       50
176
     1
 90
       50
176
     1
 90
       50
176
     1
290
     0
176
     1
 90
       50
176
     1
 62
   256
176
     0
 40
1.0
176
     0
 90
        2
176
     1
  1
strokes_ogs.tif
176
     1
290
     0
176
     1
 40
1.0
176
     1
 40
1.0
176
     1
  0
VISUALSTYLE
  5
32
102
{ACAD_REACTORS
330
2A
102
}
330
2A
100
AcDbVisualStyle
  2
Basic
 70
     7
177
     3
291
     1
 70
    58
 90
        1
176
     1
 90
        0
176
     1
 90
        1
176
     1
 90
        0
176
     1
 40
0.6
176
     1
 40
30.0
176
     1
 62
     7
420
 16777215
176
     1
 90
        0
176
     1
 90
        4
176
     1
 62
     7
176
     1
 62
   257
176
     1
 90
        1
176
     1
 90
        1
176
     1
 40
1.0
176
     1
 90
        8
176
     1
 62
     7
176
     1
 40
1.0
176
     1
 90
        1
176
     1
 90
        6
176
     1
 90
        2
176
     1
 62
     7
176
     1
 90
        5
176
     1
 90
        0
176
     1
 90
        0
176
     1
290
     0
176
     1
 90
        1
176
     1
 40
0.0
176
     1
 90
        0
176
     1
290
     0
176
     1
290
     1
176
     1
290
     1
176
     1
290
     0
176
     1
290
     0
176
     1
290
     0
176
     1
290
     0
176
     1
290
     0
176
     1
290
     0
176
     1
 90
       50
176
     1
 40
0.0
176
     1
 40
1.0
176
     1
 90
        0
176
     1
 62
    18
420
        0
176
     1
 90
       50
176
     1
 90
        3
176
     1
 62
     5
420
      255
176
     1
290
     0
176
     1
 90
       50
176
     1
 90
       50
176
     1
 90
       50
176
     1
290
     0
176
     1
 90
       50
176
     1
 62
   256
176
     0
 40
1.0
176
     0
 90
        2
176
     1
  1
strokes_ogs.tif
176
     1
290
     0
176
     1
 40
1.0
176
     1
 40
1.0
176
     1
  0
VISUALSTYLE
  5
36
102
{ACAD_REACTORS
330
2A
102
}
330
2A
100
AcDbVisualStyle
  2
Brighten
 70
    12
177
     3
291
     1
 70
    58
 90
        2
176
     1
 90
        2
176
     1
 90
        0
176
     1
 90
        0
176
     1
 40
0.6
176
     1
 40
30.0
176
     1
 62
     7
420
 16777215
176
     1
 90
        1
176
     1
 90
        4
176
     1
 62
     7
176
     1
 62
   257
176
     1
 90
        1
176
     1
 90
        1
176
     1
 40
1.0
176
     1
 90
        8
176
     1
 62
     7
176
     1
 40
1.0
176
     1
 90
        1
176
     1
 90
        6
176
     1
 90
        2
176
     1
 62
     7
176
     1
 90
        5
176
     1
 90
        0
176
     1
 90
        0
176
     1
290
     0
176
     1
 90
        1
176
     1
 40
50.0
176
     1
 90
        0
176
     1
290
     0
176
     1
290
     1
176
     1
290
     1
176
     1
290
     0
176
     1
290
     0
176
     1
290
     0
176
     1
290
     0
176
     1
290
     0
176
     1
290
     0
176
     1
 90
       50
176
     1
 40
0.0
176
     1
 40
1.0
176
     1
 90
        0
176
     1
 62
    18
420
        0
176
     1
 90
       50
176
     1
 90
        3
176
     1
 62
     5
420
      255
176
     1
290
     0
176
     1
 90
       50
176
     1
 90
       50
176
     1
 90
       50
176
     1
290
     0
176
     1
 90
       50
176
     1
 62
   256
176
     0
 40
1.0
176
     0
 90
        2
176
     1
  1
strokes_ogs.tif
176
     1
290
     0
176
     1
 40
1.0
176
     1
 40
1.0
176
     1
  0
VISUALSTYLE
  5
3A
102
{ACAD_REACTORS
330
2A
102
}
330
2A
100
AcDbVisualStyle
  2
ColorChange
 70
    16
177
     3
291
     1
 70
    58
 90
        2
176
     1
 90
        2
176
     1
 90
        3
176
     1
 90
        0
176
     1
 40
0.6
176
     1
 40
30.0
176
     1
 62
     8
420
  8421504
176
     1
 90
        1
176
     1
 90
        4
176
     1
 62
     7
176
     1
 62
   257
176
     1
 90
        1
176
     1
 90
        1
176
     1
 40
1.0
176
     1
 90
        8
176
     1
 62
     8
420
  8421504
176
     1
 40
1.0
176
     1
 90
        1
176
     1
 90
        6
176
     1
 90
        2
176
     1
 62
     7
176
     1
 90
        5
176
     1
 90
        0
176
     1
 90
        0
176
     1
290
     0
176
     1
 90
        1
176
     1
 40
0.0
176
     1
 90
        0
176
     1
290
     0
176
     1
290
     1
176
     1
290
     1
176
     1
290
     0
176
     1
290
     0
176
     1
290
     0
176
     1
290
     0
176
     1
290
     0
176
     1
290
     0
176
     1
 90
       50
176
     1
 40
0.0
176
     1
 40
1.0
176
     1
 90
        0
176
     1
 62
    18
420
        0
176
     1
 90
       50
176
     1
 90
        3
176
     1
 62
     5
420
      255
176
     1
290
     0
176
     1
 90
       50
176
     1
 90
       50
176
     1
 90
       50
176
     1
290
     0
176
     1
 90
       50
176
     1
 62
   256
176
     0
 40
1.0
176
     0
 90
        2
176
     1
  1
strokes_ogs.tif
176
     1
290
     0
176
     1
 40
1.0
176
     1
 40
1.0
176
     1
  0
VISUALSTYLE
  5
34
102
{ACAD_REACTORS
330
2A
102
}
330
2A
100
AcDbVisualStyle
  2
Conceptual
 70
     9
177
     3
291
     0
 70
    58
 90
        3
176
     1
 90
        2
176
     1
 90
        0
176
     1
 90
        0
176
     1
 40
0.6
176
     1
 40
30.0
176
     1
 62
     7
420
 16777215
176
     1
 90
        2
176
     1
 90
        2
176
     1
 62
     7
176
     1
 62
   257
176
     1
 90
        1
176
     1
 90
        1
176
     1
 40
179.0
176
     1
 90
        8
176
     1
 62
     7
176
     1
 40
1.0
176
     1
 90
        1
176
     1
 90
        6
176
     1
 90
        2
176
     1
 62
     7
176
     1
 90
        3
176
     1
 90
        0
176
     1
 90
        0
176
     1
290
     0
176
     1
 90
        1
176
     1
 40
0.0
176
     1
 90
        0
176
     1
290
     0
176
     1
290
     1
176
     1
290
     1
176
     1
290
     0
176
     1
290
     0
176
     1
290
     0
176
     1
290
     0
176
     1
290
     0
176
     1
290
     0
176
     1
 90
       50
176
     1
 40
0.0
176
     1
 40
1.0
176
     1
 90
        0
176
     1
 62
    18
420
        0
176
     1
 90
       50
176
     1
 90
        3
176
     1
 62
     5
420
      255
176
     1
290
     0
176
     1
 90
       50
176
     1
 90
       50
176
     1
 90
       50
176
     1
290
     0
176
     1
 90
       50
176
     1
 62
   256
176
     0
 40
1.0
176
     0
 90
        2
176
     1
  1
strokes_ogs.tif
176
     1
290
     0
176
     1
 40
1.0
176
     1
 40
1.0
176
     1
  0
VISUALSTYLE
  5
35
102
{ACAD_REACTORS
330
2A
102
}
330
2A
100
AcDbVisualStyle
  2
Dim
 70
    11
177
     3
291
     1
 70
    58
 90
        2
176
     1
 90
        2
176
     1
 90
        0
176
     1
 90
        0
176
     1
 40
0.6
176
     1
 40
30.0
176
     1
 62
     7
420
 16777215
176
     1
 90
        1
176
     1
 90
        4
176
     1
 62
     7
176
     1
 62
   257
176
     1
 90
        1
176
     1
 90
        1
176
     1
 40
1.0
176
     1
 90
        8
176
     1
 62
     7
176
     1
 40
1.0
176
     1
 90
        1
176
     1
 90
        6
176
     1
 90
        2
176
     1
 62
     7
176
     1
 90
        5
176
     1
 90
        0
176
     1
 90
        0
176
     1
290
     0
176
     1
 90
        1
176
     1
 40
-50.0
176
     1
 90
        0
176
     1
290
     0
176
     1
290
     1
176
     1
290
     1
176
     1
290
     0
176
     1
290
     0
176
     1
290
     0
176
     1
290
     0
176
     1
290
     0
176
     1
290
     0
176
     1
 90
       50
176
     1
 40
0.0
176
     1
 40
1.0
176
     1
 90
        0
176
     1
 62
    18
420
        0
176
     1
 90
       50
176
     1
 90
        3
176
     1
 62
     5
420
      255
176
     1
290
     0
176
     1
 90
       50
176
     1
 90
       50
176
     1
 90
       50
176
     1
290
     0
176
     1
 90
       50
176
     1
 62
   256
176
     0
 40
1.0
176
     0
 90
        2
176
     1
  1
strokes_ogs.tif
176
     1
290
     0
176
     1
 40
1.0
176
     1
 40
1.0
176
     1
  0
VISUALSTYLE
  5
3D
102
{ACAD_REACTORS
330
2A
102
}
330
2A
100
AcDbVisualStyle
  2
EdgeColorOff
 70
    22
177
     3
291
     1
 70
    58
 90
        2
176
     0
 90
        2
176
     0
 90
        0
176
     0
 90
        0
176
     0
 40
0.6
176
     0
 40
30.0
176
     0
 62
     7
420
 16777215
176
     0
 90
        1
176
     0
 90
        4
176
     0
 62
     7
176
     0
 62
   257
176
     0
 90
        1
176
     0
 90
        1
176
     0
 40
1.0
176
     0
 90
        8
176
     2
 62
     7
176
     0
 40
1.0
176
     0
 90
        1
176
     0
 90
        6
176
     0
 90
        2
176
     0
 62
     7
176
     0
 90
        5
176
     0
 90
        0
176
     0
 90
        0
176
     0
290
     0
176
     0
 90
        1
176
     0
 40
0.0
176
     0
 90
        0
176
     0
290
     0
176
     0
290
     1
176
     0
290
     1
176
     0
290
     0
176
     0
290
     0
176
     0
290
     0
176
     0
290
     0
176
     0
290
     0
176
     0
290
     0
176
     0
 90
       50
176
     0
 40
0.0
176
     0
 40
1.0
176
     0
 90
        0
176
     0
 62
    18
420
        0
176
     0
 90
       50
176
     0
 90
        3
176
     0
 62
     5
420
      255
176
     0
290
     0
176
     0
 90
       50
176
     0
 90
       50
176
     0
 90
       50
176
     0
290
     0
176
     0
 90
       50
176
     0
 62
   256
176
     0
 40
1.0
176
     0
 90
        2
176
     0
  1
strokes_ogs.tif
176
     0
290
     0
176
     0
 40
1.0
176
     0
 40
1.0
176
     0
  0
VISUALSTYLE
  5
39
102
{ACAD_REACTORS
330
2A
102
}
330
2A
100
AcDbVisualStyle
  2
Facepattern
 70
    15
177
     3
291
     1
 70
    58
 90
        2
176
     1
 90
        2
176
     1
 90
        0
176
     1
 90
        0
176
     1
 40
0.6
176
     1
 40
30.0
176
     1
 62
     7
420
 16777215
176
     1
 90
        1
176
     1
 90
        4
176
     1
 62
     7
176
     1
 62
   257
176
     1
 90
        1
176
     1
 90
        1
176
     1
 40
1.0
176
     1
 90
        8
176
     1
 62
     7
176
     1
 40
1.0
176
     1
 90
        1
176
     1
 90
        6
176
     1
 90
        2
176
     1
 62
     7
176
     1
 90
        5
176
     1
 90
        0
176
     1
 90
        0
176
     1
290
     0
176
     1
 90
        1
176
     1
 40
0.0
176
     1
 90
        0
176
     1
290
     0
176
     1
290
     1
176
     1
290
     1
176
     1
290
     0
176
     1
290
     0
176
     1
290
     0
176
     1
290
     0
176
     1
290
     0
176
     1
290
     0
176
     1
 90
       50
176
     1
 40
0.0
176
     1
 40
1.0
176
     1
 90
        0
176
     1
 62
    18
420
        0
176
     1
 90
       50
176
     1
 90
        3
176
     1
 62
     5
420
      255
176
     1
290
     0
176
     1
 90
       50
176
     1
 90
       50
176
     1
 90
       50
176
     1
290
     0
176
     1
 90
       50
176
     1
 62
   256
176
     0
 40
1.0
176
     0
 90
        2
176
     1
  1
strokes_ogs.tif
176
     1
290
     0
176
     1
 40
1.0
176
     1
 40
1.0
176
     1
  0
VISUALSTYLE
  5
2B
102
{ACAD_REACTORS
330
2A
102
}
330
2A
100
AcDbVisualStyle
  2
Flat
 70
     0
177
     3
291
     1
 70
    58
 90
        2
176
     1
 90
        1
176
     1
 90
        1
176
     1
 90
        2
176
     1
 40
0.6
176
     1
 40
30.0
176
     1
 62
     7
420
 16777215
176
     1
 90
        0
176
     1
 90
        0
176
     1
 62
     7
176
     1
 62
   257
176
     1
 90
        1
176
     1
 90
        1
176
     1
 40
1.0
176
     1
 90
        8
176
     1
 62
     7
176
     1
 40
1.0
176
     1
 90
        1
176
     1
 90
        6
176
     1
 90
        2
176
     1
 62
     7
176
     1
 90
        5
176
     1
 90
        0
176
     1
 90
        0
176
     1
290
     0
176
     1
 90
       13
176
     1
 40
0.0
176
     1
 90
        0
176
     1
290
     0
176
     1
290
     1
176
     1
290
     1
176
     1
290
     0
176
     1
290
     0
176
     1
290
     0
176
     1
290
     0
176
     1
290
     0
176
     1
290
     0
176
     1
 90
       50
176
     1
 40
0.0
176
     1
 40
1.0
176
     1
 90
        0
176
     1
 62
    18
420
        0
176
     1
 90
       50
176
     1
 90
        3
176
     1
 62
     5
420
      255
176
     1
290
     0
176
     1
 90
       50
176
     1
 90
       50
176
     1
 90
       50
176
     1
290
     0
176
     1
 90
       50
176
     1
 62
   256
176
     0
 40
1.0
176
     0
 90
        2
176
     1
  1
strokes_ogs.tif
176
     1
290
     0
176
     1
 40
1.0
176
     1
 40
1.0
176
     1
  0
VISUALSTYLE
  5
2C
102
{ACAD_REACTORS
330
2A
102
}
330
2A
100
AcDbVisualStyle
  2
FlatWithEdges
 70
     1
177
     3
291
     1
 70
    58
 90
        2
176
     1
 90
        1
176
     1
 90
        1
176
     1
 90
        2
176
     1
 40
0.6
176
     1
 40
30.0
176
     1
 62
     7
420
 16777215
176
     1
 90
        1
176
     1
 90
        0
176
     1
 62
     7
176
     1
 62
   257
176
     1
 90
        1
176
     1
 90
        1
176
     1
 40
1.0
176
     1
 90
        0
176
     1
 62
   257
176
     1
 40
1.0
176
     1
 90
        1
176
     1
 90
        6
176
     1
 90
        2
176
     1
 62
     7
176
     1
 90
        5
176
     1
 90
        0
176
     1
 90
        0
176
     1
290
     0
176
     1
 90
       13
176
     1
 40
0.0
176
     1
 90
        0
176
     1
290
     0
176
     1
290
     1
176
     1
290
     1
176
     1
290
     0
176
     1
290
     0
176
     1
290
     0
176
     1
290
     0
176
     1
290
     0
176
     1
290
     0
176
     1
 90
       50
176
     1
 40
0.0
176
     1
 40
1.0
176
     1
 90
        0
176
     1
 62
    18
420
        0
176
     1
 90
       50
176
     1
 90
        3
176
     1
 62
     5
420
      255
176
     1
290
     0
176
     1
 90
       50
176
     1
 90
       50
176
     1
 90
       50
176
     1
290
     0
176
     1
 90
       50
176
     1
 62
   256
176
     0
 40
1.0
176
     0
 90
        2
176
     1
  1
strokes_ogs.tif
176
     1
290
     0
176
     1
 40
1.0
176
     1
 40
1.0
176
     1
  0
VISUALSTYLE
  5
2D
102
{ACAD_REACTORS
330
2A
102
}
330
2A
100
AcDbVisualStyle
  2
Gouraud
 70
     2
177
     3
291
     1
 70
    58
 90
        2
176
     1
 90
        2
176
     1
 90
        1
176
     1
 90
        2
176
     1
 40
0.6
176
     1
 40
30.0
176
     1
 62
     7
420
 16777215
176
     1
 90
        0
176
     1
 90
        0
176
     1
 62
     7
176
     1
 62
   257
176
     1
 90
        1
176
     1
 90
        1
176
     1
 40
1.0
176
     1
 90
        0
176
     1
 62
     7
176
     1
 40
1.0
176
     1
 90
        1
176
     1
 90
        6
176
     1
 90
        2
176
     1
 62
     7
176
     1
 90
        5
176
     1
 90
        0
176
     1
 90
        0
176
     1
290
     0
176
     1
 90
       13
176
     1
 40
0.0
176
     1
 90
        0
176
     1
290
     0
176
     1
290
     1
176
     1
290
     1
176
     1
290
     0
176
     1
290
     0
176
     1
290
     0
176
     1
290
     0
176
     1
290
     0
176
     1
290
     0
176
     1
 90
       50
176
     1
 40
0.0
176
     1
 40
1.0
176
     1
 90
        0
176
     1
 62
    18
420
        0
176
     1
 90
       50
176
     1
 90
        3
176
     1
 62
     5
420
      255
176
     1
290
     0
176
     1
 90
       50
176
     1
 90
       50
176
     1
 90
       50
176
     1
290
     0
176
     1
 90
       50
176
     1
 62
   256
176
     0
 40
1.0
176
     0
 90
        2
176
     1
  1
strokes_ogs.tif
176
     1
290
     0
176
     1
 40
1.0
176
     1
 40
1.0
176
     1
  0
VISUALSTYLE
  5
2E
102
{ACAD_REACTORS
330
2A
102
}
330
2A
100
AcDbVisualStyle
  2
GouraudWithEdges
 70
     3
177
     3
291
     1
 70
    58
 90
        2
176
     1
 90
        2
176
     1
 90
        1
176
     1
 90
        2
176
     1
 40
0.6
176
     1
 40
30.0
176
     1
 62
     7
420
 16777215
176
     1
 90
        1
176
     1
 90
        0
176
     1
 62
     7
176
     1
 62
   257
176
     1
 90
        1
176
     1
 90
        1
176
     1
 40
1.0
176
     1
 90
        0
176
     1
 62
   257
176
     1
 40
1.0
176
     1
 90
        1
176
     1
 90
        6
176
     1
 90
        2
176
     1
 62
     7
176
     1
 90
        5
176
     1
 90
        0
176
     1
 90
        0
176
     1
290
     0
176
     1
 90
       13
176
     1
 40
0.0
176
     1
 90
        0
176
     1
290
     0
176
     1
290
     1
176
     1
290
     1
176
     1
290
     0
176
     1
290
     0
176
     1
290
     0
176
     1
290
     0
176
     1
290
     0
176
     1
290
     0
176
     1
 90
       50
176
     1
 40
0.0
176
     1
 40
1.0
176
     1
 90
        0
176
     1
 62
    18
420
        0
176
     1
 90
       50
176
     1
 90
        3
176
     1
 62
     5
420
      255
176
     1
290
     0
176
     1
 90
       50
176
     1
 90
       50
176
     1
 90
       50
176
     1
290
     0
176
     1
 90
       50
176
     1
 62
   256
176
     0
 40
1.0
176
     0
 90
        2
176
     1
  1
strokes_ogs.tif
176
     1
290
     0
176
     1
 40
1.0
176
     1
 40
1.0
176
     1
  0
VISUALSTYLE
  5
31
102
{ACAD_REACTORS
330
2A
102
}
330
2A
100
AcDbVisualStyle
  2
Hidden
 70
     6
177
     3
291
     0
 70
    58
 90
        1
176
     1
 90
        2
176
     1
 90
        2
176
     1
 90
        0
176
     1
 40
0.6
176
     1
 40
30.0
176
     1
 62
     7
420
 16777215
176
     1
 90
        2
176
     1
 90
        2
176
     1
 62
     7
176
     1
 62
   257
176
     1
 90
        2
176
     1
 90
        1
176
     1
 40
40.0
176
     1
 90
        0
176
     1
 62
   257
176
     1
 40
1.0
176
     1
 90
        1
176
     1
 90
        6
176
     1
 90
        2
176
     1
 62
     7
176
     1
 90
        3
176
     1
 90
        0
176
     1
 90
        0
176
     1
290
     0
176
     1
 90
        1
176
     1
 40
0.0
176
     1
 90
        0
176
     1
290
     0
176
     1
290
     1
176
     1
290
     1
176
     1
290
     0
176
     1
290
     0
176
     1
290
     0
176
     1
290
     0
176
     1
290
     0
176
     1
290
     0
176
     1
 90
       50
176
     1
 40
0.0
176
     1
 40
1.0
176
     1
 90
        0
176
     1
 62
    18
420
        0
176
     1
 90
       50
176
     1
 90
        3
176
     1
 62
     5
420
      255
176
     1
290
     0
176
     1
 90
       50
176
     1
 90
       50
176
     1
 90
       50
176
     1
290
     0
176
     1
 90
       50
176
     1
 62
   256
176
     0
 40
1.0
176
     0
 90
        2
176
     1
  1
strokes_ogs.tif
176
     1
290
     0
176
     1
 40
1.0
176
     1
 40
1.0
176
     1
  0
VISUALSTYLE
  5
3B
102
{ACAD_REACTORS
330
2A
102
}
330
2A
100
AcDbVisualStyle
  2
JitterOff
 70
    20
177
     3
291
     1
 70
    58
 90
        2
176
     0
 90
        2
176
     0
 90
        0
176
     0
 90
        0
176
     0
 40
0.6
176
     0
 40
30.0
176
     0
 62
     7
420
 16777215
176
     0
 90
        1
176
     0
 90
        4
176
     0
 62
     7
176
     0
 62
   257
176
     0
 90
        1
176
     0
 90
        1
176
     0
 40
1.0
176
     0
 90
       10
176
     2
 62
     7
176
     0
 40
1.0
176
     0
 90
        1
176
     0
 90
        6
176
     0
 90
        2
176
     0
 62
     7
176
     0
 90
        5
176
     0
 90
        0
176
     0
 90
        0
176
     0
290
     0
176
     0
 90
        1
176
     0
 40
0.0
176
     0
 90
        0
176
     0
290
     0
176
     0
290
     1
176
     0
290
     1
176
     0
290
     0
176
     0
290
     0
176
     0
290
     0
176
     0
290
     0
176
     0
290
     0
176
     0
290
     0
176
     0
 90
       50
176
     0
 40
0.0
176
     0
 40
1.0
176
     0
 90
        0
176
     0
 62
    18
420
        0
176
     0
 90
       50
176
     0
 90
        3
176
     0
 62
     5
420
      255
176
     0
290
     0
176
     0
 90
       50
176
     0
 90
       50
176
     0
 90
       50
176
     0
290
     0
176
     0
 90
       50
176
     0
 62
   256
176
     0
 40
1.0
176
     0
 90
        2
176
     0
  1
strokes_ogs.tif
176
     0
290
     0
176
     0
 40
1.0
176
     0
 40
1.0
176
     0
  0
VISUALSTYLE
  5
38
102
{ACAD_REACTORS
330
2A
102
}
330
2A
100
AcDbVisualStyle
  2
Linepattern
 70
    14
177
     3
291
     1
 70
    58
 90
        2
176
     1
 90
        2
176
     1
 90
        0
176
     1
 90
        0
176
     1
 40
0.6
176
     1
 40
30.0
176
     1
 62
     7
420
 16777215
176
     1
 90
        1
176
     1
 90
        4
176
     1
 62
     7
176
     1
 62
   257
176
     1
 90
        7
176
     1
 90
        7
176
     1
 40
1.0
176
     1
 90
        8
176
     1
 62
     7
176
     1
 40
1.0
176
     1
 90
        1
176
     1
 90
        6
176
     1
 90
        2
176
     1
 62
     7
176
     1
 90
        5
176
     1
 90
        0
176
     1
 90
        0
176
     1
290
     0
176
     1
 90
        1
176
     1
 40
0.0
176
     1
 90
        0
176
     1
290
     0
176
     1
290
     1
176
     1
290
     1
176
     1
290
     0
176
     1
290
     0
176
     1
290
     0
176
     1
290
     0
176
     1
290
     0
176
     1
290
     0
176
     1
 90
       50
176
     1
 40
0.0
176
     1
 40
1.0
176
     1
 90
        0
176
     1
 62
    18
420
        0
176
     1
 90
       50
176
     1
 90
        3
176
     1
 62
     5
420
      255
176
     1
290
     0
176
     1
 90
       50
176
     1
 90
       50
176
     1
 90
       50
176
     1
290
     0
176
     1
 90
       50
176
     1
 62
   256
176
     0
 40
1.0
176
     0
 90
        2
176
     1
  1
strokes_ogs.tif
176
     1
290
     0
176
     1
 40
1.0
176
     1
 40
1.0
176
     1
  0
VISUALSTYLE
  5
3C
102
{ACAD_REACTORS
330
2A
102
}
330
2A
100
AcDbVisualStyle
  2
OverhangOff
 70
    21
177
     3
291
     1
 70
    58
 90
        2
176
     0
 90
        2
176
     0
 90
        0
176
     0
 90
        0
176
     0
 40
0.6
176
     0
 40
30.0
176
     0
 62
     7
420
 16777215
176
     0
 90
        1
176
     0
 90
        4
176
     0
 62
     7
176
     0
 62
   257
176
     0
 90
        1
176
     0
 90
        1
176
     0
 40
1.0
176
     0
 90
        9
176
     2
 62
     7
176
     0
 40
1.0
176
     0
 90
        1
176
     0
 90
        6
176
     0
 90
        2
176
     0
 62
     7
176
     0
 90
        5
176
     0
 90
        0
176
     0
 90
        0
176
     0
290
     0
176
     0
 90
        1
176
     0
 40
0.0
176
     0
 90
        0
176
     0
290
     0
176
     0
290
     1
176
     0
290
     1
176
     0
290
     0
176
     0
290
     0
176
     0
290
     0
176
     0
290
     0
176
     0
290
     0
176
     0
290
     0
176
     0
 90
       50
176
     0
 40
0.0
176
     0
 40
1.0
176
     0
 90
        0
176
     0
 62
    18
420
        0
176
     0
 90
       50
176
     0
 90
        3
176
     0
 62
     5
420
      255
176
     0
290
     0
176
     0
 90
       50
176
     0
 90
       50
176
     0
 90
       50
176
     0
290
     0
176
     0
 90
       50
176
     0
 62
   256
176
     0
 40
1.0
176
     0
 90
        2
176
     0
  1
strokes_ogs.tif
176
     0
290
     0
176
     0
 40
1.0
176
     0
 40
1.0
176
     0
  0
VISUALSTYLE
  5
33
102
{ACAD_REACTORS
330
2A
102
}
330
2A
100
AcDbVisualStyle
  2
Realistic
 70
     8
177
     3
291
     0
 70
    58
 90
        2
176
     1
 90
        3
176
     1
 90
        0
176
     1
 90
        2
176
     1
 40
0.6
176
     1
 40
30.0
176
     1
 62
     7
420
 16777215
176
     1
 90
        0
176
     1
 90
        0
176
     1
 62
     7
176
     1
 62
   257
176
     1
 90
        1
176
     1
 90
        1
176
     1
 40
1.0
176
     1
 90
        8
176
     1
 62
   257
176
     1
 40
1.0
176
     1
 90
        1
176
     1
 90
        6
176
     1
 90
        2
176
     1
 62
     7
176
     1
 90
        3
176
     1
 90
        0
176
     1
 90
        0
176
     1
290
     0
176
     1
 90
       13
176
     1
 40
0.0
176
     1
 90
        0
176
     1
290
     0
176
     1
290
     1
176
     1
290
     1
176
     1
290
     0
176
     1
290
     0
176
     1
290
     0
176
     1
290
     0
176
     1
290
     0
176
     1
290
     0
176
     1
 90
       50
176
     1
 40
0.0
176
     1
 40
1.0
176
     1
 90
        0
176
     1
 62
    18
420
        0
176
     1
 90
       50
176
     1
 90
        3
176
     1
 62
     5
420
      255
176
     1
290
     0
176
     1
 90
       50
176
     1
 90
       50
176
     1
 90
       50
176
     1
290
     0
176
     1
 90
       50
176
     1
 62
   256
176
     0
 40
1.0
176
     0
 90
        2
176
     1
  1
strokes_ogs.tif
176
     1
290
     0
176
     1
 40
1.0
176
     1
 40
1.0
176
     1
  0
VISUALSTYLE
  5
42
102
{ACAD_REACTORS
330
2A
102
}
330
2A
100
AcDbVisualStyle
  2
Shaded
 70
    27
177
     3
291
     0
 70
    58
 90
        2
176
     1
 90
        2
176
     1
 90
        1
176
     1
 90
        2
176
     1
 40
0.6
176
     1
 40
30.0
176
     1
 62
     7
420
 16777215
176
     1
 90
        0
176
     1
 90
        4
176
     1
 62
     7
176
     1
 62
   257
176
     1
 90
        1
176
     1
 90
        1
176
     1
 40
1.0
176
     1
 90
        8
176
     1
 62
   257
176
     1
 40
1.0
176
     1
 90
        1
176
     1
 90
        6
176
     1
 90
        2
176
     1
 62
     8
420
  7895160
176
     1
 90
        3
176
     1
 90
        0
176
     1
 90
        0
176
     1
290
     0
176
     1
 90
        5
176
     1
 40
0.0
176
     1
 90
        0
176
     1
290
     0
176
     1
290
     1
176
     1
290
     1
176
     1
290
     0
176
     1
290
     0
176
     1
290
     0
176
     1
290
     0
176
     1
290
     0
176
     1
290
     0
176
     1
 90
       50
176
     1
 40
0.0
176
     1
 40
1.0
176
     1
 90
        0
176
     1
 62
    18
420
        0
176
     1
 90
       50
176
     1
 90
        3
176
     1
 62
     5
420
      255
176
     1
290
     0
176
     1
 90
       50
176
     1
 90
       50
176
     1
 90
       50
176
     1
290
     0
176
     1
 90
       50
176
     1
 62
   256
176
     0
 40
1.0
176
     0
 90
        2
176
     1
  1
strokes_ogs.tif
176
     1
290
     0
176
     1
 40
1.0
176
     1
 40
1.0
176
     1
  0
VISUALSTYLE
  5
41
102
{ACAD_REACTORS
330
2A
102
}
330
2A
100
AcDbVisualStyle
  2
Shaded with edges
 70
    26
177
     3
291
     0
 70
    58
 90
        2
176
     1
 90
        2
176
     1
 90
        1
176
     1
 90
        2
176
     1
 40
0.6
176
     1
 40
30.0
176
     1
 62
     7
420
 16777215
176
     1
 90
        1
176
     1
 90
       10
176
     1
 62
     7
176
     1
 62
   257
176
     1
 90
        2
176
     1
 90
        1
176
     1
 40
1.0
176
     1
 90
        8
176
     1
 62
   257
176
     1
 40
1.0
176
     1
 90
        1
176
     1
 90
        6
176
     1
 90
        2
176
     1
 62
     7
176
     1
 90
        3
176
     1
 90
        0
176
     1
 90
        0
176
     1
290
     0
176
     1
 90
        5
176
     1
 40
0.0
176
     1
 90
        0
176
     1
290
     0
176
     1
290
     1
176
     1
290
     1
176
     1
290
     0
176
     1
290
     0
176
     1
290
     0
176
     1
290
     0
176
     1
290
     0
176
     1
290
     0
176
     1
 90
       50
176
     1
 40
0.0
176
     1
 40
1.0
176
     1
 90
        0
176
     1
 62
    18
420
        0
176
     1
 90
       50
176
     1
 90
        3
176
     1
 62
     5
420
      255
176
     1
290
     0
176
     1
 90
       50
176
     1
 90
       50
176
     1
 90
       50
176
     1
290
     0
176
     1
 90
       50
176
     1
 62
   256
176
     0
 40
1.0
176
     0
 90
        2
176
     1
  1
strokes_ogs.tif
176
     1
290
     0
176
     1
 40
1.0
176
     1
 40
1.0
176
     1
  0
VISUALSTYLE
  5
3E
102
{ACAD_REACTORS
330
2A
102
}
330
2A
100
AcDbVisualStyle
  2
Shades of Gray
 70
    23
177
     3
291
     0
 70
    58
 90
        2
176
     1
 90
        2
176
     1
 90
        3
176
     1
 90
        0
176
     1
 40
0.6
176
     1
 40
30.0
176
     1
 62
     7
420
 16777215
176
     1
 90
        2
176
     1
 90
        2
176
     1
 62
     7
176
     1
 62
     7
176
     1
 90
        1
176
     1
 90
        1
176
     1
 40
40.0
176
     1
 90
        8
176
     1
 62
     7
176
     1
 40
1.0
176
     1
 90
        1
176
     1
 90
        6
176
     1
 90
        2
176
     1
 62
     7
176
     1
 90
        3
176
     1
 90
        0
176
     1
 90
        0
176
     1
290
     0
176
     1
 90
        1
176
     1
 40
0.0
176
     1
 90
        0
176
     1
290
     0
176
     1
290
     1
176
     1
290
     1
176
     1
290
     0
176
     1
290
     0
176
     1
290
     0
176
     1
290
     0
176
     1
290
     0
176
     1
290
     0
176
     1
 90
       50
176
     1
 40
0.0
176
     1
 40
1.0
176
     1
 90
        0
176
     1
 62
    18
420
        0
176
     1
 90
       50
176
     1
 90
        3
176
     1
 62
     5
420
      255
176
     1
290
     0
176
     1
 90
       50
176
     1
 90
       50
176
     1
 90
       50
176
     1
290
     0
176
     1
 90
       50
176
     1
 62
   256
176
     0
 40
1.0
176
     0
 90
        2
176
     1
  1
strokes_ogs.tif
176
     1
290
     0
176
     1
 40
1.0
176
     1
 40
1.0
176
     1
  0
VISUALSTYLE
  5
3F
102
{ACAD_REACTORS
330
2A
102
}
330
2A
100
AcDbVisualStyle
  2
Sketchy
 70
    24
177
     3
291
     0
 70
    58
 90
        1
176
     1
 90
        2
176
     1
 90
        2
176
     1
 90
        0
176
     1
 40
0.6
176
     1
 40
30.0
176
     1
 62
     7
420
 16777215
176
     1
 90
        2
176
     1
 90
        2
176
     1
 62
     7
176
     1
 62
     7
176
     1
 90
        1
176
     1
 90
        1
176
     1
 40
40.0
176
     1
 90
       11
176
     1
 62
     7
176
     1
 40
1.0
176
     1
 90
        1
176
     1
 90
        6
176
     1
 90
        2
176
     1
 62
     7
176
     1
 90
        6
176
     1
 90
        0
176
     1
 90
        0
176
     1
290
     0
176
     1
 90
        1
176
     1
 40
0.0
176
     1
 90
        0
176
     1
290
     0
176
     1
290
     1
176
     1
290
     1
176
     1
290
     0
176
     1
290
     0
176
     1
290
     0
176
     1
290
     0
176
     1
290
     0
176
     1
290
     0
176
     1
 90
       50
176
     1
 40
0.0
176
     1
 40
1.0
176
     1
 90
        0
176
     1
 62
    18
420
        0
176
     1
 90
       50
176
     1
 90
        3
176
     1
 62
     5
420
      255
176
     1
290
     0
176
     1
 90
       50
176
     1
 90
       50
176
     1
 90
       50
176
     1
290
     0
176
     1
 90
       50
176
     1
 62
   256
176
     0
 40
1.0
176
     0
 90
        2
176
     1
  1
strokes_ogs.tif
176
     1
290
     0
176
     1
 40
1.0
176
     1
 40
1.0
176
     1
  0
VISUALSTYLE
  5
37
102
{ACAD_REACTORS
330
2A
102
}
330
2A
100
AcDbVisualStyle
  2
Thicken
 70
    13
177
     3
291
     1
 70
    58
 90
        2
176
     1
 90
        2
176
     1
 90
        0
176
     1
 90
        0
176
     1
 40
0.6
176
     1
 40
30.0
176
     1
 62
     7
420
 16777215
176
     1
 90
        1
176
     1
 90
        4
176
     1
 62
     7
176
     1
 62
   257
176
     1
 90
        1
176
     1
 90
        1
176
     1
 40
1.0
176
     1
 90
       12
176
     1
 62
     7
176
     1
 40
1.0
176
     1
 90
        1
176
     1
 90
        6
176
     1
 90
        2
176
     1
 62
     7
176
     1
 90
        5
176
     1
 90
        0
176
     1
 90
        0
176
     1
290
     0
176
     1
 90
        1
176
     1
 40
0.0
176
     1
 90
        0
176
     1
290
     0
176
     1
290
     1
176
     1
290
     1
176
     1
290
     0
176
     1
290
     0
176
     1
290
     0
176
     1
290
     0
176
     1
290
     0
176
     1
290
     0
176
     1
 90
       50
176
     1
 40
0.0
176
     1
 40
1.0
176
     1
 90
        0
176
     1
 62
    18
420
        0
176
     1
 90
       50
176
     1
 90
        3
176
     1
 62
     5
420
      255
176
     1
290
     0
176
     1
 90
       50
176
     1
 90
       50
176
     1
 90
       50
176
     1
290
     0
176
     1
 90
       50
176
     1
 62
   256
176
     0
 40
1.0
176
     0
 90
        2
176
     1
  1
strokes_ogs.tif
176
     1
290
     0
176
     1
 40
1.0
176
     1
 40
1.0
176
     1
  0
VISUALSTYLE
  5
30
102
{ACAD_REACTORS
330
2A
102
}
330
2A
100
AcDbVisualStyle
  2
Wireframe
 70
     5
177
     3
291
     0
 70
    58
 90
        0
176
     1
 90
        2
176
     1
 90
        0
176
     1
 90
        0
176
     1
 40
0.6
176
     1
 40
30.0
176
     1
 62
     7
420
 16777215
176
     1
 90
        1
176
     1
 90
        4
176
     1
 62
     7
176
     1
 62
   257
176
     1
 90
        1
176
     1
 90
        1
176
     1
 40
1.0
176
     1
 90
        0
176
     1
 62
   257
176
     1
 40
1.0
176
     1
 90
        1
176
     1
 90
        6
176
     1
 90
        2
176
     1
 62
     7
176
     1
 90
        3
176
     1
 90
        0
176
     1
 90
        0
176
     1
290
     0
176
     1
 90
        1
176
     1
 40
0.0
176
     1
 90
        0
176
     1
290
     0
176
     1
290
     1
176
     1
290
     1
176
     1
290
     0
176
     1
290
     0
176
     1
290
     0
176
     1
290
     0
176
     1
290
     0
176
     1
290
     0
176
     1
 90
       50
176
     1
 40
0.0
176
     1
 40
1.0
176
     1
 90
        0
176
     1
 62
    18
420
        0
176
     1
 90
       50
176
     1
 90
        3
176
     1
 62
     5
420
      255
176
     1
290
     0
176
     1
 90
       50
176
     1
 90
       50
176
     1
 90
       50
176
     1
290
     0
176
     1
 90
       50
176
     1
 62
   256
176
     0
 40
1.0
176
     0
 90
        2
176
     1
  1
strokes_ogs.tif
176
     1
290
     0
176
     1
 40
1.0
176
     1
 40
1.0
176
     1
  0
VISUALSTYLE
  5
40
102
{ACAD_REACTORS
330
2A
102
}
330
2A
100
AcDbVisualStyle
  2
X-Ray
 70
    25
177
     3
291
     0
 70
    58
 90
        2
176
     1
 90
        2
176
     1
 90
        1
176
     1
 90
        1
176
     1
 40
0.5
176
     1
 40
30.0
176
     1
 62
     7
420
 16777215
176
     1
 90
        1
176
     1
 90
        0
176
     1
 62
     7
176
     1
 62
   257
176
     1
 90
        1
176
     1
 90
        1
176
     1
 40
1.0
176
     1
 90
        8
176
     1
 62
     7
176
     1
 40
1.0
176
     1
 90
        1
176
     1
 90
        6
176
     1
 90
        2
176
     1
 62
     7
176
     1
 90
        3
176
     1
 90
        0
176
     1
 90
        0
176
     1
290
     0
176
     1
 90
       13
176
     1
 40
0.0
176
     1
 90
        0
176
     1
290
     0
176
     1
290
     1
176
     1
290
     1
176
     1
290
     0
176
     1
290
     0
176
     1
290
     0
176
     1
290
     0
176
     1
290
     0
176
     1
290
     0
176
     1
 90
       50
176
     1
 40
0.0
176
     1
 40
1.0
176
     1
 90
        0
176
     1
 62
    18
420
        0
176
     1
 90
       50
176
     1
 90
        3
176
     1
 62
     5
420
      255
176
     1
290
     0
176
     1
 90
       50
176
     1
 90
       50
176
     1
 90
       50
176
     1
290
     0
176
     1
 90
       50
176
     1
 62
   256
176
     0
 40
1.0
176
     0
 90
        2
176
     1
  1
strokes_ogs.tif
176
     1
290
     0
176
     1
 40
1.0
176
     1
 40
1.0
176
     1
  0
DICTIONARYVAR
  5
246
102
{ACAD_REACTORS
330
245
102
}
330
245
100
DictionaryVariables
280
     0
  1
1:1
  0
DICTIONARYVAR
  5
24B
102
{ACAD_REACTORS
330
245
102
}
330
245
100
DictionaryVariables
280
     0
  1
Standard
  0
DICTIONARYVAR
  5
24A
102
{ACAD_REACTORS
330
245
102
}
330
245
100
DictionaryVariables
280
     0
  1
Standard
  0
DICTIONARY
  5
247
330
6A
100
AcDbDictionary
280
     1
281
     1
  3
ACAD_ROUNDTRIP_2008_TABLESTYLE_CELLSTYLEMAP
360
248
  0
CELLSTYLEMAP
  5
248
102
{ACAD_REACTORS
330
247
102
}
330
247
100
AcDbCellStyleMap
 90
        3
300
CELLSTYLE
  1
TABLEFORMAT_BEGIN
 90
        5
170
     1
 91
        0
 92
    32768
 62
   257
 93
        1
300
CONTENTFORMAT
  1
CONTENTFORMAT_BEGIN
 90
        0
 91
        0
 92
        4
 93
        0
300

 40
0.0
140
1.0
 94
        5
 62
     0
340
11
144
0.25
309
CONTENTFORMAT_END
171
     1
301
MARGIN
  1
CELLMARGIN_BEGIN
 40
0.06
 40
0.06
 40
0.06
 40
0.06
 40
0.06
 40
0.06
309
CELLMARGIN_END
 94
        6
 95
        1
302
GRIDFORMAT
  1
GRIDFORMAT_BEGIN
 90
        0
 91
        1
 62
     0
 92
       -2
340
14
 93
        0
 40
0.045
309
GRIDFORMAT_END
 95
        2
302
GRIDFORMAT
  1
GRIDFORMAT_BEGIN
 90
        0
 91
        1
 62
     0
 92
       -2
340
14
 93
        0
 40
0.045
309
GRIDFORMAT_END
 95
        4
302
GRIDFORMAT
  1
GRIDFORMAT_BEGIN
 90
        0
 91
        1
 62
     0
 92
       -2
340
14
 93
        0
 40
0.045
309
GRIDFORMAT_END
 95
        8
302
GRIDFORMAT
  1
GRIDFORMAT_BEGIN
 90
        0
 91
        1
 62
     0
 92
       -2
340
14
 93
        0
 40
0.045
309
GRIDFORMAT_END
 95
       16
302
GRIDFORMAT
  1
GRIDFORMAT_BEGIN
 90
        0
 91
        1
 62
     0
 92
       -2
340
14
 93
        0
 40
0.045
309
GRIDFORMAT_END
 95
       32
302
GRIDFORMAT
  1
GRIDFORMAT_BEGIN
 90
        0
 91
        1
 62
     0
 92
       -2
340
14
 93
        0
 40
0.045
309
GRIDFORMAT_END
309
TABLEFORMAT_END
  1
CELLSTYLE_BEGIN
 90
        1
 91
        1
300
_TITLE
309
CELLSTYLE_END
300
CELLSTYLE
  1
TABLEFORMAT_BEGIN
 90
        5
170
     1
 91
        0
 92
        0
 62
   257
 93
        1
300
CONTENTFORMAT
  1
CONTENTFORMAT_BEGIN
 90
        0
 91
        0
 92
        4
 93
        0
300

 40
0.0
140
1.0
 94
        5
 62
     0
340
11
144
0.18
309
CONTENTFORMAT_END
171
     1
301
MARGIN
  1
CELLMARGIN_BEGIN
 40
0.06
 40
0.06
 40
0.06
 40
0.06
 40
0.06
 40
0.06
309
CELLMARGIN_END
 94
        6
 95
        1
302
GRIDFORMAT
  1
GRIDFORMAT_BEGIN
 90
        0
 91
        1
 62
     0
 92
       -2
340
14
 93
        0
 40
0.045
309
GRIDFORMAT_END
 95
        2
302
GRIDFORMAT
  1
GRIDFORMAT_BEGIN
 90
        0
 91
        1
 62
     0
 92
       -2
340
14
 93
        0
 40
0.045
309
GRIDFORMAT_END
 95
        4
302
GRIDFORMAT
  1
GRIDFORMAT_BEGIN
 90
        0
 91
        1
 62
     0
 92
       -2
340
14
 93
        0
 40
0.045
309
GRIDFORMAT_END
 95
        8
302
GRIDFORMAT
  1
GRIDFORMAT_BEGIN
 90
        0
 91
        1
 62
     0
 92
       -2
340
14
 93
        0
 40
0.045
309
GRIDFORMAT_END
 95
       16
302
GRIDFORMAT
  1
GRIDFORMAT_BEGIN
 90
        0
 91
        1
 62
     0
 92
       -2
340
14
 93
        0
 40
0.045
309
GRIDFORMAT_END
 95
       32
302
GRIDFORMAT
  1
GRIDFORMAT_BEGIN
 90
        0
 91
        1
 62
     0
 92
       -2
340
14
 93
        0
 40
0.045
309
GRIDFORMAT_END
309
TABLEFORMAT_END
  1
CELLSTYLE_BEGIN
 90
        2
 91
        1
300
_HEADER
309
CELLSTYLE_END
300
CELLSTYLE
  1
TABLEFORMAT_BEGIN
 90
        5
170
     1
 91
        0
 92
        0
 62
   257
 93
        1
300
CONTENTFORMAT
  1
CONTENTFORMAT_BEGIN
 90
        0
 91
        0
 92
        4
 93
        0
300

 40
0.0
140
1.0
 94
        2
 62
     0
340
11
144
0.18
309
CONTENTFORMAT_END
171
     1
301
MARGIN
  1
CELLMARGIN_BEGIN
 40
0.06
 40
0.06
 40
0.06
 40
0.06
 40
0.06
 40
0.06
309
CELLMARGIN_END
 94
        6
 95
        1
302
GRIDFORMAT
  1
GRIDFORMAT_BEGIN
 90
        0
 91
        1
 62
     0
 92
       -2
340
14
 93
        0
 40
0.045
309
GRIDFORMAT_END
 95
        2
302
GRIDFORMAT
  1
GRIDFORMAT_BEGIN
 90
        0
 91
        1
 62
     0
 92
       -2
340
14
 93
        0
 40
0.045
309
GRIDFORMAT_END
 95
        4
302
GRIDFORMAT
  1
GRIDFORMAT_BEGIN
 90
        0
 91
        1
 62
     0
 92
       -2
340
14
 93
        0
 40
0.045
309
GRIDFORMAT_END
 95
        8
302
GRIDFORMAT
  1
GRIDFORMAT_BEGIN
 90
        0
 91
        1
 62
     0
 92
       -2
340
14
 93
        0
 40
0.045
309
GRIDFORMAT_END
 95
       16
302
GRIDFORMAT
  1
GRIDFORMAT_BEGIN
 90
        0
 91
        1
 62
     0
 92
       -2
340
14
 93
        0
 40
0.045
309
GRIDFORMAT_END
 95
       32
302
GRIDFORMAT
  1
GRIDFORMAT_BEGIN
 90
        0
 91
        1
 62
     0
 92
       -2
340
14
 93
        0
 40
0.045
309
GRIDFORMAT_END
309
TABLEFORMAT_END
  1
CELLSTYLE_BEGIN
 90
        3
 91
        2
300
_DATA
309
CELLSTYLE_END
  0
ENDSEC
  0
EOF