0
SECTION
  2
HEADER
  9
$ACADVER
  1
AC1027
  9
$ACADMAINTVER
 70
     8
  9
$DWGCODEPAGE
  3
ANSI_1252
  9
$REQUIREDVERSIONS
160
                 0
  9
$COMMENTS
  1
File was created by Cadenas
  9
$CUSTOMPROPERTYTAG
  1
NN
  9
$CUSTOMPROPERTY
  1
Imperial - IP Flange - Round Labyrinth Seal
  9
$CUSTOMPROPERTYTAG
  1
NT
  9
$CUSTOMPROPERTY
  1
Imperial 3 & 4 Bolt Round Flange Bearings
  9
$CUSTOMPROPERTYTAG
  1
NB
  9
$CUSTOMPROPERTY
  1
069681
  9
$CUSTOMPROPERTYTAG
  1
NBSYN
  9
$CUSTOMPROPERTY
  1
$PN.
  9
$CUSTOMPROPERTYTAG
  1
LINA
  9
$CUSTOMPROPERTY
  1
069681
  9
$CUSTOMPROPERTYTAG
  1
SS
  9
$CUSTOMPROPERTY
  1
1-7/8
  9
$CUSTOMPROPERTYTAG
  1
PN
  9
$CUSTOMPROPERTY
  1
069681
  9
$CUSTOMPROPERTYTAG
  1
DESCRIPTION
  9
$CUSTOMPROPERTY
  1
F4R-IP-114LE
  9
$CUSTOMPROPERTYTAG
  1
EF
  9
$CUSTOMPROPERTY
  1
Expansion Type
  9
$CUSTOMPROPERTYTAG
  1
ST
  9
$CUSTOMPROPERTY
  1
Labyrinth Seal
  9
$CUSTOMPROPERTYTAG
  1
A
  9
$CUSTOMPROPERTY
  1
2-55/64
  9
$CUSTOMPROPERTYTAG
  1
B
  9
$CUSTOMPROPERTY
  1
6-11/16
  9
$CUSTOMPROPERTYTAG
  1
C
  9
$CUSTOMPROPERTY
  1
3-5/32
  9
$CUSTOMPROPERTYTAG
  1
D
  9
$CUSTOMPROPERTY
  1
4-1/16
  9
$CUSTOMPROPERTYTAG
  1
DD
  9
$CUSTOMPROPERTY
  1
5-3/4
  9
$CUSTOMPROPERTYTAG
  1
E
  9
$CUSTOMPROPERTY
  1
1-59/64
  9
$CUSTOMPROPERTYTAG
  1
F
  9
$CUSTOMPROPERTY
  1
1/2
  9
$CUSTOMPROPERTYTAG
  1
H
  9
$CUSTOMPROPERTY
  1
9/16
  9
$CUSTOMPROPERTYTAG
  1
J
  9
$CUSTOMPROPERTY
  1
4-1/2
  9
$CUSTOMPROPERTYTAG
  1
L
  9
$CUSTOMPROPERTY
  1
3-9/32
  9
$CUSTOMPROPERTYTAG
  1
P
  9
$CUSTOMPROPERTY
  1
19/64
  9
$CUSTOMPROPERTYTAG
  1
X
  9
$CUSTOMPROPERTY
  1
1/4
  9
$CUSTOMPROPERTYTAG
  1
Y
  9
$CUSTOMPROPERTY
  1
0.020
  9
$CUSTOMPROPERTYTAG
  1
Z
  9
$CUSTOMPROPERTY
  1
2-19/64
  9
$CUSTOMPROPERTYTAG
  1
COMPANY
  9
$CUSTOMPROPERTY
  1
baldor
  9
$INSBASE
 10
0.0
 20
0.0
 30
0.0
  9
$EXTMIN
 10
1.000000000000000E+20
 20
1.000000000000000E+20
 30
1.000000000000000E+20
  9
$EXTMAX
 10
-1.000000000000000E+20
 20
-1.000000000000000E+20
 30
-1.000000000000000E+20
  9
$LIMMIN
 10
0.0
 20
0.0
  9
$LIMMAX
 10
12.0
 20
9.0
  9
$ORTHOMODE
 70
     0
  9
$REGENMODE
 70
     1
  9
$FILLMODE
 70
     1
  9
$QTEXTMODE
 70
     0
  9
$MIRRTEXT
 70
     1
  9
$LTSCALE
 40
1.0
  9
$ATTMODE
 70
     1
  9
$TEXTSIZE
 40
0.2
  9
$TRACEWID
 40
0.05
  9
$TEXTSTYLE
  7
Standard
  9
$CLAYER
  8
0
  9
$CELTYPE
  6
ByLayer
  9
$CECOLOR
 62
   256
  9
$CELTSCALE
 40
1.0
  9
$DISPSILH
 70
     0
  9
$DIMSCALE
 40
1.0
  9
$DIMASZ
 40
0.18
  9
$DIMEXO
 40
0.0625
  9
$DIMDLI
 40
0.38
  9
$DIMRND
 40
0.0
  9
$DIMDLE
 40
0.0
  9
$DIMEXE
 40
0.18
  9
$DIMTP
 40
0.0
  9
$DIMTM
 40
0.0
  9
$DIMTXT
 40
0.18
  9
$DIMCEN
 40
0.09
  9
$DIMTSZ
 40
0.0
  9
$DIMTOL
 70
     0
  9
$DIMLIM
 70
     0
  9
$DIMTIH
 70
     1
  9
$DIMTOH
 70
     1
  9
$DIMSE1
 70
     0
  9
$DIMSE2
 70
     0
  9
$DIMTAD
 70
     0
  9
$DIMZIN
 70
     0
  9
$DIMBLK
  1

  9
$DIMASO
 70
     1
  9
$DIMSHO
 70
     1
  9
$DIMPOST
  1

  9
$DIMAPOST
  1

  9
$DIMALT
 70
     0
  9
$DIMALTD
 70
     2
  9
$DIMALTF
 40
25.4
  9
$DIMLFAC
 40
1.0
  9
$DIMTOFL
 70
     0
  9
$DIMTVP
 40
0.0
  9
$DIMTIX
 70
     0
  9
$DIMSOXD
 70
     0
  9
$DIMSAH
 70
     0
  9
$DIMBLK1
  1

  9
$DIMBLK2
  1

  9
$DIMSTYLE
  2
Standard
  9
$DIMCLRD
 70
     0
  9
$DIMCLRE
 70
     0
  9
$DIMCLRT
 70
     0
  9
$DIMTFAC
 40
1.0
  9
$DIMGAP
 40
0.09
  9
$DIMJUST
 70
     0
  9
$DIMSD1
 70
     0
  9
$DIMSD2
 70
     0
  9
$DIMTOLJ
 70
     1
  9
$DIMTZIN
 70
     0
  9
$DIMALTZ
 70
     0
  9
$DIMALTTZ
 70
     0
  9
$DIMUPT
 70
     0
  9
$DIMDEC
 70
     4
  9
$DIMTDEC
 70
     4
  9
$DIMALTU
 70
     2
  9
$DIMALTTD
 70
     2
  9
$DIMTXSTY
  7
Standard
  9
$DIMAUNIT
 70
     0
  9
$DIMADEC
 70
     0
  9
$DIMALTRND
 40
0.0
  9
$DIMAZIN
 70
     0
  9
$DIMDSEP
 70
    46
  9
$DIMATFIT
 70
     3
  9
$DIMFRAC
 70
     0
  9
$DIMLDRBLK
  1

  9
$DIMLUNIT
 70
     2
  9
$DIMLWD
 70
    -2
  9
$DIMLWE
 70
    -2
  9
$DIMTMOVE
 70
     0
  9
$DIMFXL
 40
1.0
  9
$DIMFXLON
 70
     0
  9
$DIMJOGANG
 40
0.7853981633974483
  9
$DIMTFILL
 70
     0
  9
$DIMTFILLCLR
 70
     0
  9
$DIMARCSYM
 70
     0
  9
$DIMLTYPE
  6

  9
$DIMLTEX1
  6

  9
$DIMLTEX2
  6

  9
$DIMTXTDIRECTION
 70
     0
  9
$LUNITS
 70
     2
  9
$LUPREC
 70
     4
  9
$SKETCHINC
 40
0.1
  9
$FILLETRAD
 40
0.5
  9
$AUNITS
 70
     0
  9
$AUPREC
 70
     0
  9
$MENU
  1
.
  9
$ELEVATION
 40
0.0
  9
$PELEVATION
 40
0.0
  9
$THICKNESS
 40
0.0
  9
$LIMCHECK
 70
     0
  9
$CHAMFERA
 40
0.0
  9
$CHAMFERB
 40
0.0
  9
$CHAMFERC
 40
0.0
  9
$CHAMFERD
 40
0.0
  9
$SKPOLY
 70
     0
  9
$TDCREATE
 40
2458168.963480961
  9
$TDUCREATE
 40
2458168.921814294
  9
$TDUPDATE
 40
2458168.963481146
  9
$TDUUPDATE
 40
2458168.921814479
  9
$TDINDWG
 40
0.0000000116
  9
$TDUSRTIMER
 40
0.0000000116
  9
$USRTIMER
 70
     1
  9
$ANGBASE
 50
0.0
  9
$ANGDIR
 70
     0
  9
$PDMODE
 70
     0
  9
$PDSIZE
 40
0.0
  9
$PLINEWID
 40
0.0
  9
$SPLFRAME
 70
     0
  9
$SPLINETYPE
 70
     6
  9
$SPLINESEGS
 70
     8
  9
$HANDSEED
  5
24E
  9
$SURFTAB1
 70
     6
  9
$SURFTAB2
 70
     6
  9
$SURFTYPE
 70
     6
  9
$SURFU
 70
     6
  9
$SURFV
 70
     6
  9
$UCSBASE
  2

  9
$UCSNAME
  2

  9
$UCSORG
 10
0.0
 20
0.0
 30
0.0
  9
$UCSXDIR
 10
1.0
 20
0.0
 30
0.0
  9
$UCSYDIR
 10
0.0
 20
1.0
 30
0.0
  9
$UCSORTHOREF
  2

  9
$UCSORTHOVIEW
 70
     0
  9
$UCSORGTOP
 10
0.0
 20
0.0
 30
0.0
  9
$UCSORGBOTTOM
 10
0.0
 20
0.0
 30
0.0
  9
$UCSORGLEFT
 10
0.0
 20
0.0
 30
0.0
  9
$UCSORGRIGHT
 10
0.0
 20
0.0
 30
0.0
  9
$UCSORGFRONT
 10
0.0
 20
0.0
 30
0.0
  9
$UCSORGBACK
 10
0.0
 20
0.0
 30
0.0
  9
$PUCSBASE
  2

  9
$PUCSNAME
  2

  9
$PUCSORG
 10
0.0
 20
0.0
 30
0.0
  9
$PUCSXDIR
 10
1.0
 20
0.0
 30
0.0
  9
$PUCSYDIR
 10
0.0
 20
1.0
 30
0.0
  9
$PUCSORTHOREF
  2

  9
$PUCSORTHOVIEW
 70
     0
  9
$PUCSORGTOP
 10
0.0
 20
0.0
 30
0.0
  9
$PUCSORGBOTTOM
 10
0.0
 20
0.0
 30
0.0
  9
$PUCSORGLEFT
 10
0.0
 20
0.0
 30
0.0
  9
$PUCSORGRIGHT
 10
0.0
 20
0.0
 30
0.0
  9
$PUCSORGFRONT
 10
0.0
 20
0.0
 30
0.0
  9
$PUCSORGBACK
 10
0.0
 20
0.0
 30
0.0
  9
$USERI1
 70
     0
  9
$USERI2
 70
     0
  9
$USERI3
 70
     0
  9
$USERI4
 70
     0
  9
$USERI5
 70
     0
  9
$USERR1
 40
0.0
  9
$USERR2
 40
0.0
  9
$USERR3
 40
0.0
  9
$USERR4
 40
0.0
  9
$USERR5
 40
0.0
  9
$WORLDVIEW
 70
     1
  9
$SHADEDGE
 70
     3
  9
$SHADEDIF
 70
    70
  9
$TILEMODE
 70
     1
  9
$MAXACTVP
 70
    64
  9
$PINSBASE
 10
0.0
 20
0.0
 30
0.0
  9
$PLIMCHECK
 70
     0
  9
$PEXTMIN
 10
1.000000000000000E+20
 20
1.000000000000000E+20
 30
1.000000000000000E+20
  9
$PEXTMAX
 10
-1.000000000000000E+20
 20
-1.000000000000000E+20
 30
-1.000000000000000E+20
  9
$PLIMMIN
 10
0.0
 20
0.0
  9
$PLIMMAX
 10
12.0
 20
9.0
  9
$UNITMODE
 70
     0
  9
$VISRETAIN
 70
     1
  9
$PLINEGEN
 70
     0
  9
$PSLTSCALE
 70
     1
  9
$TREEDEPTH
 70
  3020
  9
$CMLSTYLE
  2
Standard
  9
$CMLJUST
 70
     0
  9
$CMLSCALE
 40
1.0
  9
$PROXYGRAPHICS
 70
     1
  9
$MEASUREMENT
 70
     0
  9
$CELWEIGHT
370
    -1
  9
$ENDCAPS
280
     0
  9
$JOINSTYLE
280
     0
  9
$LWDISPLAY
290
     0
  9
$INSUNITS
 70
     1
  9
$HYPERLINKBASE
  1

  9
$STYLESHEET
  1

  9
$XEDIT
290
     1
  9
$CEPSNTYPE
380
     0
  9
$PSTYLEMODE
290
     1
  9
$FINGERPRINTGUID
  2
{8BA68B96-FCE3-4A42-A8C4-CC0FDF68FE78}
  9
$VERSIONGUID
  2
{FAEB1C32-E019-11D5-929B-00C0DF256EC4}
  9
$EXTNAMES
290
     1
  9
$PSVPSCALE
 40
0.0
  9
$OLESTARTUP
290
     0
  9
$SORTENTS
280
   127
  9
$INDEXCTL
280
     0
  9
$HIDETEXT
280
     1
  9
$XCLIPFRAME
280
     2
  9
$HALOGAP
280
     0
  9
$OBSCOLOR
 70
   257
  9
$OBSLTYPE
280
     0
  9
$INTERSECTIONDISPLAY
280
     0
  9
$INTERSECTIONCOLOR
 70
   257
  9
$DIMASSOC
280
     2
  9
$PROJECTNAME
  1

  9
$CAMERADISPLAY
290
     0
  9
$LENSLENGTH
 40
50.0
  9
$CAMERAHEIGHT
 40
0.0
  9
$STEPSPERSEC
 40
2.0
  9
$STEPSIZE
 40
6.0
  9
$3DDWFPREC
 40
2.0
  9
$PSOLWIDTH
 40
0.25
  9
$PSOLHEIGHT
 40
4.0
  9
$LOFTANG1
 40
1.570796326794897
  9
$LOFTANG2
 40
1.570796326794897
  9
$LOFTMAG1
 40
0.0
  9
$LOFTMAG2
 40
0.0
  9
$LOFTPARAM
 70
     7
  9
$LOFTNORMALS
280
     1
  9
$LATITUDE
 40
37.795
  9
$LONGITUDE
 40
-122.394
  9
$NORTHDIRECTION
 40
0.0
  9
$TIMEZONE
 70
 -8000
  9
$LIGHTGLYPHDISPLAY
280
     1
  9
$TILEMODELIGHTSYNCH
280
     1
  9
$CMATERIAL
347
44
  9
$SOLIDHIST
280
     0
  9
$SHOWHIST
280
     1
  9
$DWFFRAME
280
     2
  9
$DGNFRAME
280
     2
  9
$REALWORLDSCALE
290
     1
  9
$INTERFERECOLOR
 62
   256
  9
$CSHADOW
280
     0
  9
$SHADOWPLANELOCATION
 40
0.0
  0
ENDSEC
  0
SECTION
  2
CLASSES
  0
CLASS
  1
ACDBDICTIONARYWDFLT
  2
AcDbDictionaryWithDefault
  3
ObjectDBX Classes
 90
        0
 91
        4
280
     0
281
     0
  0
CLASS
  1
VISUALSTYLE
  2
AcDbVisualStyle
  3
ObjectDBX Classes
 90
     4095
 91
        4
280
     0
281
     0
  0
CLASS
  1
MATERIAL
  2
AcDbMaterial
  3
ObjectDBX Classes
 90
     1153
 91
        4
280
     0
281
     0
  0
CLASS
  1
SCALE
  2
AcDbScale
  3
ObjectDBX Classes
 90
     1153
 91
        4
280
     0
281
     0
  0
CLASS
  1
TABLESTYLE
  2
AcDbTableStyle
  3
ObjectDBX Classes
 90
     4095
 91
        4
280
     0
281
     0
  0
CLASS
  1
MLEADERSTYLE
  2
AcDbMLeaderStyle
  3
ACDB_MLEADERSTYLE_CLASS
 90
     4095
 91
        4
280
     0
281
     0
  0
CLASS
  1
SUN
  2
AcDbSun
  3
SCENEOE
 90
     1153
 91
        4
280
     0
281
     0
  0
CLASS
  1
DICTIONARYVAR
  2
AcDbDictionaryVar
  3
ObjectDBX Classes
 90
        0
 91
        4
280
     0
281
     0
  0
CLASS
  1
CELLSTYLEMAP
  2
AcDbCellStyleMap
  3
ObjectDBX Classes
 90
     1152
 91
        4
280
     0
281
     0
  0
ENDSEC
  0
SECTION
  2
TABLES
  0
TABLE
  2
VPORT
  5
8
330
0
100
AcDbSymbolTable
 70
     1
  0
VPORT
  5
29
330
8
100
AcDbSymbolTableRecord
100
AcDbViewportTableRecord
  2
*Active
 70
     0
 10
0.0
 20
0.0
 11
1.0
 21
1.0
 12
-1.519578124999999
 22
0.0625
 13
0.0
 23
0.0
 14
0.5
 24
0.5
 15
0.5
 25
0.5
 16
0.0
 26
0.0
 36
1.0
 17
0.0
 27
0.0
 37
0.0
 40
6.94875
 41
0.4804908256880737
 42
50.0
 43
0.0
 44
0.0
 50
0.0
 51
0.0
 71
     0
 72
   100
 73
     1
 74
     3
 75
     0
 76
     0
 77
     0
 78
     0
281
     0
 65
     1
110
0.0
120
0.0
130
0.0
111
1.0
121
0.0
131
0.0
112
0.0
122
1.0
132
0.0
 79
     0
146
0.0
348
2F
 60
     3
 61
     5
292
     1
282
     1
141
0.0
142
0.0
 63
   250
361
6D
  0
ENDTAB
  0
TABLE
  2
LTYPE
  5
5
330
0
100
AcDbSymbolTable
 70
     3
  0
LTYPE
  5
14
330
5
100
AcDbSymbolTableRecord
100
AcDbLinetypeTableRecord
  2
ByBlock
 70
     0
  3

 72
    65
 73
     0
 40
0.0
  0
LTYPE
  5
15
330
5
100
AcDbSymbolTableRecord
100
AcDbLinetypeTableRecord
  2
ByLayer
 70
     0
  3

 72
    65
 73
     0
 40
0.0
  0
LTYPE
  5
16
330
5
100
AcDbSymbolTableRecord
100
AcDbLinetypeTableRecord
  2
Continuous
 70
     0
  3
Solid line
 72
    65
 73
     0
 40
0.0
  0
LTYPE
  5
9C
330
5
100
AcDbSymbolTableRecord
100
AcDbLinetypeTableRecord
  2
Dashed
 70
     0
  3

 72
    65
 73
     2
 40
2.0
 49
1.0
 74
     0
 49
-1.0
 74
     0
  0
LTYPE
  5
181
330
5
100
AcDbSymbolTableRecord
100
AcDbLinetypeTableRecord
  2
Center
 70
     0
  3

 72
    65
 73
     4
 40
1.5
 49
0.45
 74
     0
 49
-0.5
 74
     0
 49
0.05
 74
     0
 49
-0.5
 74
     0
  0
ENDTAB
  0
TABLE
  2
LAYER
  5
2
330
0
100
AcDbSymbolTable
 70
     7
  0
LAYER
  5
10
330
2
100
AcDbSymbolTableRecord
100
AcDbLayerTableRecord
  2
0
 70
     0
 62
     7
  6
Continuous
370
    -3
390
F
347
46
348
0
  0
LAYER
  5
72
330
2
100
AcDbSymbolTableRecord
100
AcDbLayerTableRecord
  2
AM_6
 70
     0
 62
    -2
  6
Continuous
370
    35
390
F
347
46
348
0
  0
LAYER
  5
9D
330
2
100
AcDbSymbolTableRecord
100
AcDbLayerTableRecord
  2
AM_9
 70
     0
 62
     6
  6
Dashed
370
    25
390
F
347
46
348
0
  0
LAYER
  5
AB
330
2
100
AcDbSymbolTableRecord
100
AcDbLayerTableRecord
  2
AM_5
 70
     0
 62
     3
  6
Continuous
370
    25
390
F
347
46
348
0
  0
LAYER
  5
AF
330
2
100
AcDbSymbolTableRecord
100
AcDbLayerTableRecord
  2
AM_4
 70
     0
 62
     7
  6
Continuous
370
    50
390
F
347
46
348
0
  0
LAYER
  5
182
330
2
100
AcDbSymbolTableRecord
100
AcDbLayerTableRecord
  2
AM_7
 70
     0
 62
     7
  6
Center
370
    25
390
F
347
46
348
0
  0
LAYER
  5
237
330
2
100
AcDbSymbolTableRecord
100
AcDbLayerTableRecord
  2
ConnectionPoints
 70
     0
 62
     7
  6
Continuous
370
    50
390
F
347
46
348
0
  0
ENDTAB
  0
TABLE
  2
STYLE
  5
3
330
0
100
AcDbSymbolTable
 70
     1
  0
STYLE
  5
11
330
3
100
AcDbSymbolTableRecord
100
AcDbTextStyleTableRecord
  2
Standard
 70
     0
 40
0.0
 41
1.0
 50
0.0
 71
     0
 42
0.2
  3
txt
  4

  0
ENDTAB
  0
TABLE
  2
VIEW
  5
6
330
0
100
AcDbSymbolTable
 70
     0
  0
ENDTAB
  0
TABLE
  2
UCS
  5
7
330
0
100
AcDbSymbolTable
 70
     0
  0
ENDTAB
  0
TABLE
  2
APPID
  5
9
330
0
100
AcDbSymbolTable
 70
     1
  0
APPID
  5
12
330
9
100
AcDbSymbolTableRecord
100
AcDbRegAppTableRecord
  2
ACAD
 70
     0
  0
ENDTAB
  0
TABLE
  2
DIMSTYLE
  5
A
330
0
100
AcDbSymbolTable
 70
     1
100
AcDbDimStyleTable
  0
DIMSTYLE
105
27
330
A
100
AcDbSymbolTableRecord
100
AcDbDimStyleTableRecord
  2
Standard
 70
     0
178
     0
340
11
  0
ENDTAB
  0
TABLE
  2
BLOCK_RECORD
  5
1
330
0
100
AcDbSymbolTable
 70
     8
  0
BLOCK_RECORD
  5
1F
330
1
100
AcDbSymbolTableRecord
100
AcDbBlockTableRecord
  2
*Model_Space
340
22
 70
     0
280
     1
281
     0
  0
BLOCK_RECORD
  5
1B
330
1
100
AcDbSymbolTableRecord
100
AcDbBlockTableRecord
  2
*Paper_Space
340
1E
 70
     0
280
     1
281
     0
  0
BLOCK_RECORD
  5
23
330
1
100
AcDbSymbolTableRecord
100
AcDbBlockTableRecord
  2
*Paper_Space0
340
26
 70
     0
280
     1
281
     0
  0
BLOCK_RECORD
  5
6E
330
1
100
AcDbSymbolTableRecord
100
AcDbBlockTableRecord
  2
1_069681_2
340
0
102
{BLKREFS
331
6F
102
}
 70
     0
280
     1
281
     0
  0
BLOCK_RECORD
  5
8C
330
1
100
AcDbSymbolTableRecord
100
AcDbBlockTableRecord
  2
2_ASME_B18_3_10_1_0_in_069681_2
340
0
102
{BLKREFS
331
8D
102
}
 70
     0
280
     1
281
     0
  0
BLOCK_RECORD
  5
B6
330
1
100
AcDbSymbolTableRecord
100
AcDbBlockTableRecord
  2
3_ASME_B18_3_10_2_0_in_069681_2
340
0
102
{BLKREFS
331
B7
102
}
 70
     0
280
     1
281
     0
  0
BLOCK_RECORD
  5
DD
330
1
100
AcDbSymbolTableRecord
100
AcDbBlockTableRecord
  2
4_070889LW_0_in_069681_2
340
0
102
{BLKREFS
331
DE
102
}
 70
     0
280
     1
281
     0
  0
BLOCK_RECORD
  5
115
330
1
100
AcDbSymbolTableRecord
100
AcDbBlockTableRecord
  2
5_070921I_0_in_069681_2
340
0
102
{BLKREFS
331
116
102
}
 70
     0
280
     1
281
     0
  0
BLOCK_RECORD
  5
196
330
1
100
AcDbSymbolTableRecord
100
AcDbBlockTableRecord
  2
6_405015E_Inch_0_in_069681_2
340
0
102
{BLKREFS
331
197
102
}
 70
     0
280
     1
281
     0
  0
BLOCK_RECORD
  5
1D4
330
1
100
AcDbSymbolTableRecord
100
AcDbBlockTableRecord
  2
7_069681H_0_in_069681_2
340
0
102
{BLKREFS
331
1D5
102
}
 70
     0
280
     1
281
     0
  0
ENDTAB
  0
ENDSEC
  0
SECTION
  2
BLOCKS
  0
BLOCK
  5
20
330
1F
100
AcDbEntity
  8
0
100
AcDbBlockBegin
  2
*Model_Space
 70
     0
 10
0.0
 20
0.0
 30
0.0
  3
*Model_Space
  1

  0
ENDBLK
  5
21
330
1F
100
AcDbEntity
  8
0
100
AcDbBlockEnd
  0
BLOCK
  5
1C
330
1B
100
AcDbEntity
 67
     1
  8
0
100
AcDbBlockBegin
  2
*Paper_Space
 70
     0
 10
0.0
 20
0.0
 30
0.0
  3
*Paper_Space
  1

  0
ENDBLK
  5
1D
330
1B
100
AcDbEntity
 67
     1
  8
0
100
AcDbBlockEnd
  0
BLOCK
  5
24
330
23
100
AcDbEntity
  8
0
100
AcDbBlockBegin
  2
*Paper_Space0
 70
     0
 10
0.0
 20
0.0
 30
0.0
  3
*Paper_Space0
  1

  0
ENDBLK
  5
25
330
23
100
AcDbEntity
  8
0
100
AcDbBlockEnd
  0
BLOCK
  5
70
330
6E
100
AcDbEntity
  8
0
100
AcDbBlockBegin
  2
1_069681_2
 70
     2
 10
0.0
 20
0.0
 30
0.0
  3
1_069681_2
  1

  0
ATTDEF
  5
73
330
6E
100
AcDbEntity
  8
AM_6
100
AcDbText
 10
5.11709375
 20
3.46875
 30
0.0
 40
0.5
  1
Imperial - IP Flange - Round Labyrinth Seal
100
AcDbAttributeDefinition
  3

  2
NN
 70
     8
280
     0
  0
ATTDEF
  5
74
330
6E
100
AcDbEntity
  8
AM_6
100
AcDbText
 10
5.11709375
 20
2.96875
 30
0.0
 40
0.5
  1
Imperial 3 & 4 Bolt Round Flange Bearings
100
AcDbAttributeDefinition
  3

  2
NT
 70
     8
280
     0
  0
ATTDEF
  5
75
330
6E
100
AcDbEntity
  8
AM_6
100
AcDbText
 10
5.11709375
 20
2.46875
 30
0.0
 40
0.5
  1
069681
100
AcDbAttributeDefinition
  3

  2
NB
 70
     8
280
     0
  0
ATTDEF
  5
76
330
6E
100
AcDbEntity
  8
AM_6
100
AcDbText
 10
5.11709375
 20
1.96875
 30
0.0
 40
0.5
  1
$PN.
100
AcDbAttributeDefinition
  3

  2
NBSYN
 70
     8
280
     0
  0
ATTDEF
  5
77
330
6E
100
AcDbEntity
  8
AM_6
100
AcDbText
 10
5.11709375
 20
1.46875
 30
0.0
 40
0.5
  1
069681
100
AcDbAttributeDefinition
  3

  2
LINA
 70
     8
280
     0
  0
ATTDEF
  5
78
330
6E
100
AcDbEntity
  8
AM_6
100
AcDbText
 10
5.11709375
 20
0.96875
 30
0.0
 40
0.5
  1
1-7/8
100
AcDbAttributeDefinition
  3

  2
SS
 70
     8
280
     0
  0
ATTDEF
  5
79
330
6E
100
AcDbEntity
  8
AM_6
100
AcDbText
 10
5.11709375
 20
0.46875
 30
0.0
 40
0.5
  1
069681
100
AcDbAttributeDefinition
  3

  2
PN
 70
     8
280
     0
  0
ATTDEF
  5
7A
330
6E
100
AcDbEntity
  8
AM_6
100
AcDbText
 10
5.11709375
 20
-0.03125
 30
0.0
 40
0.5
  1
F4R-IP-114LE
100
AcDbAttributeDefinition
  3

  2
DESCRIPTION
 70
     8
280
     0
  0
ATTDEF
  5
7B
330
6E
100
AcDbEntity
  8
AM_6
100
AcDbText
 10
5.11709375
 20
-0.53125
 30
0.0
 40
0.5
  1
Expansion Type
100
AcDbAttributeDefinition
  3

  2
EF
 70
     8
280
     0
  0
ATTDEF
  5
7C
330
6E
100
AcDbEntity
  8
AM_6
100
AcDbText
 10
5.11709375
 20
-1.03125
 30
0.0
 40
0.5
  1
Labyrinth Seal
100
AcDbAttributeDefinition
  3

  2
ST
 70
     8
280
     0
  0
ATTDEF
  5
7D
330
6E
100
AcDbEntity
  8
AM_6
100
AcDbText
 10
5.11709375
 20
-1.53125
 30
0.0
 40
0.5
  1
2-55/64
100
AcDbAttributeDefinition
  3

  2
A
 70
     8
280
     0
  0
ATTDEF
  5
7E
330
6E
100
AcDbEntity
  8
AM_6
100
AcDbText
 10
5.11709375
 20
-2.03125
 30
0.0
 40
0.5
  1
6-11/16
100
AcDbAttributeDefinition
  3

  2
B
 70
     8
280
     0
  0
ATTDEF
  5
7F
330
6E
100
AcDbEntity
  8
AM_6
100
AcDbText
 10
5.11709375
 20
-2.53125
 30
0.0
 40
0.5
  1
3-5/32
100
AcDbAttributeDefinition
  3

  2
C
 70
     8
280
     0
  0
ATTDEF
  5
80
330
6E
100
AcDbEntity
  8
AM_6
100
AcDbText
 10
5.11709375
 20
-3.03125
 30
0.0
 40
0.5
  1
4-1/16
100
AcDbAttributeDefinition
  3

  2
D
 70
     8
280
     0
  0
ATTDEF
  5
81
330
6E
100
AcDbEntity
  8
AM_6
100
AcDbText
 10
5.11709375
 20
-3.53125
 30
0.0
 40
0.5
  1
5-3/4
100
AcDbAttributeDefinition
  3

  2
DD
 70
     8
280
     0
  0
ATTDEF
  5
82
330
6E
100
AcDbEntity
  8
AM_6
100
AcDbText
 10
5.11709375
 20
-4.03125
 30
0.0
 40
0.5
  1
1-59/64
100
AcDbAttributeDefinition
  3

  2
E
 70
     8
280
     0
  0
ATTDEF
  5
83
330
6E
100
AcDbEntity
  8
AM_6
100
AcDbText
 10
5.11709375
 20
-4.53125
 30
0.0
 40
0.5
  1
1/2
100
AcDbAttributeDefinition
  3

  2
F
 70
     8
280
     0
  0
ATTDEF
  5
84
330
6E
100
AcDbEntity
  8
AM_6
100
AcDbText
 10
5.11709375
 20
-5.03125
 30
0.0
 40
0.5
  1
9/16
100
AcDbAttributeDefinition
  3

  2
H
 70
     8
280
     0
  0
ATTDEF
  5
85
330
6E
100
AcDbEntity
  8
AM_6
100
AcDbText
 10
5.11709375
 20
-5.53125
 30
0.0
 40
0.5
  1
4-1/2
100
AcDbAttributeDefinition
  3

  2
J
 70
     8
280
     0
  0
ATTDEF
  5
86
330
6E
100
AcDbEntity
  8
AM_6
100
AcDbText
 10
5.11709375
 20
-6.03125
 30
0.0
 40
0.5
  1
3-9/32
100
AcDbAttributeDefinition
  3

  2
L
 70
     8
280
     0
  0
ATTDEF
  5
87
330
6E
100
AcDbEntity
  8
AM_6
100
AcDbText
 10
5.11709375
 20
-6.53125
 30
0.0
 40
0.5
  1
19/64
100
AcDbAttributeDefinition
  3

  2
P
 70
     8
280
     0
  0
ATTDEF
  5
88
330
6E
100
AcDbEntity
  8
AM_6
100
AcDbText
 10
5.11709375
 20
-7.03125
 30
0.0
 40
0.5
  1
1/4
100
AcDbAttributeDefinition
  3

  2
X
 70
     8
280
     0
  0
ATTDEF
  5
89
330
6E
100
AcDbEntity
  8
AM_6
100
AcDbText
 10
5.11709375
 20
-7.53125
 30
0.0
 40
0.5
  1
0.020
100
AcDbAttributeDefinition
  3

  2
Y
 70
     8
280
     0
  0
ATTDEF
  5
8A
330
6E
100
AcDbEntity
  8
AM_6
100
AcDbText
 10
5.11709375
 20
-8.03125
 30
0.0
 40
0.5
  1
2-19/64
100
AcDbAttributeDefinition
  3

  2
Z
 70
     8
280
     0
  0
ATTDEF
  5
8B
330
6E
100
AcDbEntity
  8
AM_6
100
AcDbText
 10
5.11709375
 20
-8.53125
 30
0.0
 40
0.5
  1
baldor
100
AcDbAttributeDefinition
  3

  2
COMPANY
 70
     8
280
     0
  0
INSERT
  5
8D
330
6E
100
AcDbEntity
  8
0
100
AcDbBlockReference
  2
2_ASME_B18_3_10_1_0_in_069681_2
 10
0.0
 20
0.0
 30
0.0
  0
INSERT
  5
B7
330
6E
100
AcDbEntity
  8
0
100
AcDbBlockReference
  2
3_ASME_B18_3_10_2_0_in_069681_2
 10
0.0
 20
0.0
 30
0.0
  0
INSERT
  5
DE
330
6E
100
AcDbEntity
  8
0
100
AcDbBlockReference
  2
4_070889LW_0_in_069681_2
 10
0.0
 20
0.0
 30
0.0
  0
INSERT
  5
116
330
6E
100
AcDbEntity
  8
0
100
AcDbBlockReference
  2
5_070921I_0_in_069681_2
 10
0.0
 20
0.0
 30
0.0
  0
INSERT
  5
197
330
6E
100
AcDbEntity
  8
0
100
AcDbBlockReference
  2
6_405015E_Inch_0_in_069681_2
 10
0.0
 20
0.0
 30
0.0
  0
INSERT
  5
1D5
330
6E
100
AcDbEntity
  8
0
100
AcDbBlockReference
  2
7_069681H_0_in_069681_2
 10
0.0
 20
0.0
 30
0.0
  0
ENDBLK
  5
71
330
6E
100
AcDbEntity
  8
0
100
AcDbBlockEnd
  0
BLOCK
  5
8E
330
8C
100
AcDbEntity
  8
0
100
AcDbBlockBegin
  2
2_ASME_B18_3_10_1_0_in_069681_2
 70
     2
 10
0.0
 20
0.0
 30
0.0
  3
2_ASME_B18_3_10_1_0_in_069681_2
  1

  0
ATTDEF
  5
90
330
8C
100
AcDbEntity
  8
AM_6
100
AcDbText
 10
3.056583333333334
 20
-0.7678333133100834
 30
0.0
 40
0.5
  1
ANSI/ASME B18.3-1998
100
AcDbAttributeDefinition
  3

  2
NN
 70
     8
280
     0
  0
ATTDEF
  5
91
330
8C
100
AcDbEntity
  8
AM_6
100
AcDbText
 10
3.056583333333334
 20
-1.267833313310083
 30
0.0
 40
0.5
  1
Socket Button Head Cap Screws
100
AcDbAttributeDefinition
  3

  2
NT
 70
     8
280
     0
  0
ATTDEF
  5
92
330
8C
100
AcDbEntity
  8
AM_6
100
AcDbText
 10
3.056583333333334
 20
-1.767833313310083
 30
0.0
 40
0.5
  1
ASME B18.3-10
100
AcDbAttributeDefinition
  3

  2
NB
 70
     8
280
     0
  0
ATTDEF
  5
93
330
8C
100
AcDbEntity
  8
AM_6
100
AcDbText
 10
3.056583333333334
 20
-2.267833313310083
 30
0.0
 40
0.5
  1
ASME B18.3-$NS.
100
AcDbAttributeDefinition
  3

  2
NBSYN
 70
     8
280
     0
  0
ATTDEF
  5
94
330
8C
100
AcDbEntity
  8
AM_6
100
AcDbText
 10
3.056583333333334
 20
-2.767833313310083
 30
0.0
 40
0.5
  1
ASME B18.3-10
100
AcDbAttributeDefinition
  3

  2
LINA
 70
     8
280
     0
  0
ATTDEF
  5
95
330
8C
100
AcDbEntity
  8
AM_6
100
AcDbText
 10
3.056583333333334
 20
-3.267833313310083
 30
0.0
 40
0.5
  1
10
100
AcDbAttributeDefinition
  3

  2
NS
 70
     8
280
     0
  0
ATTDEF
  5
96
330
8C
100
AcDbEntity
  8
AM_6
100
AcDbText
 10
3.056583333333334
 20
-3.767833313310083
 30
0.0
 40
0.5
  1
0.361
100
AcDbAttributeDefinition
  3

  2
A
 70
     8
280
     0
  0
ATTDEF
  5
97
330
8C
100
AcDbEntity
  8
AM_6
100
AcDbText
 10
3.056583333333334
 20
-4.267833313310083
 30
0.0
 40
0.5
  1
0.101
100
AcDbAttributeDefinition
  3

  2
H
 70
     8
280
     0
  0
ATTDEF
  5
98
330
8C
100
AcDbEntity
  8
AM_6
100
AcDbText
 10
3.056583333333334
 20
-4.767833313310083
 30
0.0
 40
0.5
  1
0.800
100
AcDbAttributeDefinition
  3

  2
L
 70
     8
280
     0
  0
ATTDEF
  5
99
330
8C
100
AcDbEntity
  8
AM_6
100
AcDbText
 10
3.056583333333334
 20
-5.267833313310083
 30
0.0
 40
0.5
  1
0.020
100
AcDbAttributeDefinition
  3

  2
S
 70
     8
280
     0
  0
ATTDEF
  5
9A
330
8C
100
AcDbEntity
  8
AM_6
100
AcDbText
 10
3.056583333333334
 20
-5.767833313310083
 30
0.0
 40
0.5
  1
0.125000
100
AcDbAttributeDefinition
  3

  2
J
 70
     8
280
     0
  0
ATTDEF
  5
9B
330
8C
100
AcDbEntity
  8
AM_6
100
AcDbText
 10
3.056583333333334
 20
-6.267833313310083
 30
0.0
 40
0.5
  1
baldor
100
AcDbAttributeDefinition
  3

  2
COMPANY
 70
     8
280
     0
  0
LINE
  5
9E
330
8C
100
AcDbEntity
  8
AM_9
100
AcDbLine
 10
-2.783416666666666
 20
-1.018043005288234
 30
0.0
 11
-2.844416666666666
 21
-1.018043005288234
 31
0.0
  0
LINE
  5
9F
330
8C
100
AcDbEntity
  8
AM_9
100
AcDbLine
 10
-2.783416666666666
 20
-0.9670119689802512
 30
0.0
 11
-2.844416666666666
 21
-0.9670119689802512
 31
0.0
  0
LINE
  5
A0
330
8C
100
AcDbEntity
  8
AM_9
100
AcDbLine
 10
-2.783416666666666
 20
-0.8786236213319328
 30
0.0
 11
-2.844416666666666
 21
-0.8786236213319328
 31
0.0
  0
LINE
  5
A1
330
8C
100
AcDbEntity
  8
AM_9
100
AcDbLine
 10
-2.783416666666666
 20
-0.8973022770021005
 30
0.0
 11
-2.844416666666666
 21
-0.8973022770021005
 31
0.0
  0
LINE
  5
A2
330
8C
100
AcDbEntity
  8
AM_9
100
AcDbLine
 10
-2.783416666666666
 20
-0.9993643496180663
 30
0.0
 11
-2.844416666666666
 21
-0.9993643496180663
 31
0.0
  0
LINE
  5
A3
330
8C
100
AcDbEntity
  8
AM_9
100
AcDbLine
 10
-2.783416666666666
 20
-0.8786236213319328
 30
0.0
 11
-2.783416666666666
 21
-1.018043005288234
 31
0.0
  0
LINE
  5
A4
330
8C
100
AcDbEntity
  8
AM_9
100
AcDbLine
 10
-2.783416666666666
 20
-0.9296546576399157
 30
0.0
 11
-2.844416666666666
 21
-0.9296546576399157
 31
0.0
  0
LINE
  5
A5
330
8C
100
AcDbEntity
  8
AM_9
100
AcDbLine
 10
-2.743416666666666
 20
-1.043333313310083
 30
0.0
 11
-1.962016666666666
 21
-1.043333313310083
 31
0.0
  0
LINE
  5
A6
330
8C
100
AcDbEntity
  8
AM_9
100
AcDbLine
 10
-1.962016666666666
 20
-0.8533333133100833
 30
0.0
 11
-2.743416666666666
 21
-0.8533333133100833
 31
0.0
  0
LINE
  5
A7
330
8C
100
AcDbEntity
  8
AM_9
100
AcDbLine
 10
-1.943416666666666
 20
-0.8719333133100834
 30
0.0
 11
-1.943416666666666
 21
-1.024733313310084
 31
0.0
  0
LINE
  5
A8
330
8C
100
AcDbEntity
  8
AM_9
100
AcDbLine
 10
-1.962016666666666
 20
-0.8533333133100836
 30
0.0
 11
-1.962016666666666
 21
-1.043333313310083
 31
0.0
  0
LINE
  5
A9
330
8C
100
AcDbEntity
  8
AM_9
100
AcDbLine
 10
-1.943416666666666
 20
-0.8719333133100834
 30
0.0
 11
-1.962016666666666
 21
-0.8533333133100836
 31
0.0
  0
LINE
  5
AA
330
8C
100
AcDbEntity
  8
AM_9
100
AcDbLine
 10
-1.962016666666666
 20
-1.043333313310083
 30
0.0
 11
-1.943416666666666
 21
-1.024733313310084
 31
0.0
  0
LINE
  5
AC
330
8C
100
AcDbEntity
  8
AM_5
100
AcDbLine
 10
-2.663416666666667
 20
-1.024733313310084
 30
0.0
 11
-2.695632811687447
 21
-1.043333313310083
 31
0.0
  0
LINE
  5
AD
330
8C
100
AcDbEntity
  8
AM_5
100
AcDbLine
 10
-2.663416666666667
 20
-0.8533333198732578
 30
0.0
 11
-2.663416666666667
 21
-1.043333325242503
 31
0.0
  0
LINE
  5
AE
330
8C
100
AcDbEntity
  8
AM_5
100
AcDbLine
 10
-2.663416666666667
 20
-0.8719333133100834
 30
0.0
 11
-2.695632811687447
 21
-0.8533333133100833
 31
0.0
  0
LINE
  5
B0
330
8C
100
AcDbEntity
  8
AM_4
100
AcDbLine
 10
-2.844416666666666
 20
-0.8488333133100835
 30
0.0
 11
-2.844416666666666
 21
-1.047833313310083
 31
0.0
  0
ARC
  5
B1
330
8C
100
AcDbEntity
  8
AM_4
100
AcDbCircle
 10
-2.763416666666665
 20
-1.047833313310083
 30
0.0
 40
0.0810000000000008
100
AcDbArc
 50
180.0
 51
270.0
  0
ARC
  5
B2
330
8C
100
AcDbEntity
  8
AM_4
100
AcDbCircle
 10
-2.763416666666665
 20
-0.8488333133100843
 30
0.0
 40
0.0810000000000008
100
AcDbArc
 50
90.0
 51
180.0
  0
LINE
  5
B3
330
8C
100
AcDbEntity
  8
AM_4
100
AcDbLine
 10
-2.763416666666666
 20
-0.7678333133100834
 30
0.0
 11
-2.763416666666666
 21
-1.128833313310083
 31
0.0
  0
LINE
  5
B4
330
8C
100
AcDbEntity
  8
AM_4
100
AcDbLine
 10
-2.763416666666666
 20
-1.128833313310083
 30
0.0
 11
-2.743416666666666
 21
-1.128833313310083
 31
0.0
  0
LINE
  5
B5
330
8C
100
AcDbEntity
  8
AM_4
100
AcDbLine
 10
-2.743416666666666
 20
-0.7678333133100834
 30
0.0
 11
-2.763416666666666
 21
-0.7678333133100834
 31
0.0
  0
ENDBLK
  5
8F
330
8C
100
AcDbEntity
  8
0
100
AcDbBlockEnd
  0
BLOCK
  5
B8
330
B6
100
AcDbEntity
  8
0
100
AcDbBlockBegin
  2
3_ASME_B18_3_10_2_0_in_069681_2
 70
     2
 10
0.0
 20
0.0
 30
0.0
  3
3_ASME_B18_3_10_2_0_in_069681_2
  1

  0
ATTDEF
  5
BA
330
B6
100
AcDbEntity
  8
AM_6
100
AcDbText
 10
3.056583333333334
 20
1.128833313310083
 30
0.0
 40
0.5
  1
ANSI/ASME B18.3-1998
100
AcDbAttributeDefinition
  3

  2
NN
 70
     8
280
     0
  0
ATTDEF
  5
BB
330
B6
100
AcDbEntity
  8
AM_6
100
AcDbText
 10
3.056583333333334
 20
0.6288333133100834
 30
0.0
 40
0.5
  1
Socket Button Head Cap Screws
100
AcDbAttributeDefinition
  3

  2
NT
 70
     8
280
     0
  0
ATTDEF
  5
BC
330
B6
100
AcDbEntity
  8
AM_6
100
AcDbText
 10
3.056583333333334
 20
0.1288333133100834
 30
0.0
 40
0.5
  1
ASME B18.3-10
100
AcDbAttributeDefinition
  3

  2
NB
 70
     8
280
     0
  0
ATTDEF
  5
BD
330
B6
100
AcDbEntity
  8
AM_6
100
AcDbText
 10
3.056583333333334
 20
-0.3711666866899166
 30
0.0
 40
0.5
  1
ASME B18.3-$NS.
100
AcDbAttributeDefinition
  3

  2
NBSYN
 70
     8
280
     0
  0
ATTDEF
  5
BE
330
B6
100
AcDbEntity
  8
AM_6
100
AcDbText
 10
3.056583333333334
 20
-0.8711666866899166
 30
0.0
 40
0.5
  1
ASME B18.3-10
100
AcDbAttributeDefinition
  3

  2
LINA
 70
     8
280
     0
  0
ATTDEF
  5
BF
330
B6
100
AcDbEntity
  8
AM_6
100
AcDbText
 10
3.056583333333334
 20
-1.371166686689917
 30
0.0
 40
0.5
  1
10
100
AcDbAttributeDefinition
  3

  2
NS
 70
     8
280
     0
  0
ATTDEF
  5
C0
330
B6
100
AcDbEntity
  8
AM_6
100
AcDbText
 10
3.056583333333334
 20
-1.871166686689917
 30
0.0
 40
0.5
  1
0.361
100
AcDbAttributeDefinition
  3

  2
A
 70
     8
280
     0
  0
ATTDEF
  5
C1
330
B6
100
AcDbEntity
  8
AM_6
100
AcDbText
 10
3.056583333333334
 20
-2.371166686689917
 30
0.0
 40
0.5
  1
0.101
100
AcDbAttributeDefinition
  3

  2
H
 70
     8
280
     0
  0
ATTDEF
  5
C2
330
B6
100
AcDbEntity
  8
AM_6
100
AcDbText
 10
3.056583333333334
 20
-2.871166686689917
 30
0.0
 40
0.5
  1
0.800
100
AcDbAttributeDefinition
  3

  2
L
 70
     8
280
     0
  0
ATTDEF
  5
C3
330
B6
100
AcDbEntity
  8
AM_6
100
AcDbText
 10
3.056583333333334
 20
-3.371166686689917
 30
0.0
 40
0.5
  1
0.020
100
AcDbAttributeDefinition
  3

  2
S
 70
     8
280
     0
  0
ATTDEF
  5
C4
330
B6
100
AcDbEntity
  8
AM_6
100
AcDbText
 10
3.056583333333334
 20
-3.871166686689917
 30
0.0
 40
0.5
  1
0.125000
100
AcDbAttributeDefinition
  3

  2
J
 70
     8
280
     0
  0
ATTDEF
  5
C5
330
B6
100
AcDbEntity
  8
AM_6
100
AcDbText
 10
3.056583333333334
 20
-4.371166686689916
 30
0.0
 40
0.5
  1
baldor
100
AcDbAttributeDefinition
  3

  2
COMPANY
 70
     8
280
     0
  0
LINE
  5
C6
330
B6
100
AcDbEntity
  8
AM_9
100
AcDbLine
 10
-2.783416666666666
 20
0.8786236213319328
 30
0.0
 11
-2.844416666666666
 21
0.8786236213319328
 31
0.0
  0
LINE
  5
C7
330
B6
100
AcDbEntity
  8
AM_9
100
AcDbLine
 10
-2.783416666666666
 20
0.9296546576399157
 30
0.0
 11
-2.844416666666666
 21
0.9296546576399157
 31
0.0
  0
LINE
  5
C8
330
B6
100
AcDbEntity
  8
AM_9
100
AcDbLine
 10
-2.783416666666666
 20
1.018043005288234
 30
0.0
 11
-2.844416666666666
 21
1.018043005288234
 31
0.0
  0
LINE
  5
C9
330
B6
100
AcDbEntity
  8
AM_9
100
AcDbLine
 10
-2.783416666666666
 20
0.9993643496180663
 30
0.0
 11
-2.844416666666666
 21
0.9993643496180663
 31
0.0
  0
LINE
  5
CA
330
B6
100
AcDbEntity
  8
AM_9
100
AcDbLine
 10
-2.783416666666666
 20
1.018043005288234
 30
0.0
 11
-2.783416666666666
 21
0.8786236213319328
 31
0.0
  0
LINE
  5
CB
330
B6
100
AcDbEntity
  8
AM_9
100
AcDbLine
 10
-2.783416666666666
 20
0.8973022770021005
 30
0.0
 11
-2.844416666666666
 21
0.8973022770021005
 31
0.0
  0
LINE
  5
CC
330
B6
100
AcDbEntity
  8
AM_9
100
AcDbLine
 10
-2.783416666666666
 20
0.9670119689802512
 30
0.0
 11
-2.844416666666666
 21
0.9670119689802512
 31
0.0
  0
LINE
  5
CD
330
B6
100
AcDbEntity
  8
AM_9
100
AcDbLine
 10
-1.943416666666666
 20
1.024733313310084
 30
0.0
 11
-1.943416666666666
 21
0.8719333133100834
 31
0.0
  0
LINE
  5
CE
330
B6
100
AcDbEntity
  8
AM_9
100
AcDbLine
 10
-1.943416666666666
 20
1.024733313310084
 30
0.0
 11
-1.962016666666666
 21
1.043333313310083
 31
0.0
  0
LINE
  5
CF
330
B6
100
AcDbEntity
  8
AM_9
100
AcDbLine
 10
-1.962016666666666
 20
0.8533333133100836
 30
0.0
 11
-1.943416666666666
 21
0.8719333133100834
 31
0.0
  0
LINE
  5
D0
330
B6
100
AcDbEntity
  8
AM_9
100
AcDbLine
 10
-1.962016666666666
 20
1.043333313310083
 30
0.0
 11
-1.962016666666666
 21
0.8533333133100833
 31
0.0
  0
LINE
  5
D1
330
B6
100
AcDbEntity
  8
AM_9
100
AcDbLine
 10
-2.743416666666666
 20
0.8533333133100833
 30
0.0
 11
-1.962016666666666
 21
0.8533333133100833
 31
0.0
  0
LINE
  5
D2
330
B6
100
AcDbEntity
  8
AM_9
100
AcDbLine
 10
-1.962016666666666
 20
1.043333313310083
 30
0.0
 11
-2.743416666666666
 21
1.043333313310083
 31
0.0
  0
LINE
  5
D3
330
B6
100
AcDbEntity
  8
AM_9
100
AcDbLine
 10
-2.844416666666666
 20
0.986842105263158
 30
0.0
 11
-2.844416666666666
 21
0.8488333133100835
 31
0.0
  0
ARC
  5
D4
330
B6
100
AcDbEntity
  8
AM_9
100
AcDbCircle
 10
-2.763416666666665
 20
0.8488333133100843
 30
0.0
 40
0.0810000000000008
100
AcDbArc
 50
180.0
 51
270.0
  0
LINE
  5
D5
330
B6
100
AcDbEntity
  8
AM_9
100
AcDbLine
 10
-2.763416666666666
 20
0.9868421052631581
 30
0.0
 11
-2.763416666666666
 21
0.7678333133100834
 31
0.0
  0
LINE
  5
D6
330
B6
100
AcDbEntity
  8
AM_9
100
AcDbLine
 10
-2.763416666666666
 20
0.7678333133100834
 30
0.0
 11
-2.743416666666666
 21
0.7678333133100834
 31
0.0
  0
LINE
  5
D7
330
B6
100
AcDbEntity
  8
AM_5
100
AcDbLine
 10
-2.663416666666667
 20
0.8719333133100834
 30
0.0
 11
-2.695632811687447
 21
0.8533333133100833
 31
0.0
  0
LINE
  5
D8
330
B6
100
AcDbEntity
  8
AM_5
100
AcDbLine
 10
-2.663416666666667
 20
1.043333325242503
 30
0.0
 11
-2.663416666666667
 21
0.8533333133100833
 31
0.0
  0
LINE
  5
D9
330
B6
100
AcDbEntity
  8
AM_4
100
AcDbLine
 10
-2.844416666666666
 20
1.047833313310083
 30
0.0
 11
-2.844416666666666
 21
0.986842105263158
 31
0.0
  0
ARC
  5
DA
330
B6
100
AcDbEntity
  8
AM_4
100
AcDbCircle
 10
-2.763416666666665
 20
1.047833313310083
 30
0.0
 40
0.0810000000000006
100
AcDbArc
 50
90.0
 51
180.0
  0
LINE
  5
DB
330
B6
100
AcDbEntity
  8
AM_4
100
AcDbLine
 10
-2.763416666666666
 20
1.128833313310083
 30
0.0
 11
-2.763416666666666
 21
0.9868421052631581
 31
0.0
  0
LINE
  5
DC
330
B6
100
AcDbEntity
  8
AM_4
100
AcDbLine
 10
-2.743416666666666
 20
1.128833313310083
 30
0.0
 11
-2.763416666666666
 21
1.128833313310083
 31
0.0
  0
ENDBLK
  5
B9
330
B6
100
AcDbEntity
  8
0
100
AcDbBlockEnd
  0
BLOCK
  5
DF
330
DD
100
AcDbEntity
  8
0
100
AcDbBlockBegin
  2
4_070889LW_0_in_069681_2
 70
     2
 10
0.0
 20
0.0
 30
0.0
  3
4_070889LW_0_in_069681_2
  1

  0
ATTDEF
  5
E1
330
DD
100
AcDbEntity
  8
AM_6
100
AcDbText
 10
2.696583333333334
 20
1.640625
 30
0.0
 40
0.5
  1
Imperial Insert Lockwasher -Inch
100
AcDbAttributeDefinition
  3

  2
NN
 70
     8
280
     0
  0
ATTDEF
  5
E2
330
DD
100
AcDbEntity
  8
AM_6
100
AcDbText
 10
2.696583333333334
 20
1.140625
 30
0.0
 40
0.5
  1
Imperial Bearings
100
AcDbAttributeDefinition
  3

  2
NT
 70
     8
280
     0
  0
ATTDEF
  5
E3
330
DD
100
AcDbEntity
  8
AM_6
100
AcDbText
 10
2.696583333333334
 20
0.640625
 30
0.0
 40
0.5
  1
070889LW
100
AcDbAttributeDefinition
  3

  2
NB
 70
     8
280
     0
  0
ATTDEF
  5
E4
330
DD
100
AcDbEntity
  8
AM_6
100
AcDbText
 10
2.696583333333334
 20
0.140625
 30
0.0
 40
0.5
  1
$PN.LW
100
AcDbAttributeDefinition
  3

  2
NBSYN
 70
     8
280
     0
  0
ATTDEF
  5
E5
330
DD
100
AcDbEntity
  8
AM_6
100
AcDbText
 10
2.696583333333334
 20
-0.359375
 30
0.0
 40
0.5
  1
070889
100
AcDbAttributeDefinition
  3

  2
LINA
 70
     8
280
     0
  0
ATTDEF
  5
E6
330
DD
100
AcDbEntity
  8
AM_6
100
AcDbText
 10
2.696583333333334
 20
-0.859375
 30
0.0
 40
0.5
  1
1-7/8
100
AcDbAttributeDefinition
  3

  2
SS
 70
     8
280
     0
  0
ATTDEF
  5
E7
330
DD
100
AcDbEntity
  8
AM_6
100
AcDbText
 10
2.696583333333334
 20
-1.359375
 30
0.0
 40
0.5
  1
1.875000
100
AcDbAttributeDefinition
  3

  2
SS1
 70
     8
280
     0
  0
ATTDEF
  5
E8
330
DD
100
AcDbEntity
  8
AM_6
100
AcDbText
 10
2.696583333333334
 20
-1.859375
 30
0.0
 40
0.5
  1
070889
100
AcDbAttributeDefinition
  3

  2
PN
 70
     8
280
     0
  0
ATTDEF
  5
E9
330
DD
100
AcDbEntity
  8
AM_6
100
AcDbText
 10
2.696583333333334
 20
-2.359375
 30
0.0
 40
0.5
  1
INS-IP-114R
100
AcDbAttributeDefinition
  3

  2
DESCRIPTION
 70
     8
280
     0
  0
ATTDEF
  5
EA
330
DD
100
AcDbEntity
  8
AM_6
100
AcDbText
 10
2.696583333333334
 20
-2.859375
 30
0.0
 40
0.5
  1
3.5433
100
AcDbAttributeDefinition
  3

  2
A
 70
     8
280
     0
  0
ATTDEF
  5
EB
330
DD
100
AcDbEntity
  8
AM_6
100
AcDbText
 10
2.696583333333334
 20
-3.359375
 30
0.0
 40
0.5
  1
61/64
100
AcDbAttributeDefinition
  3

  2
B
 70
     8
280
     0
  0
ATTDEF
  5
EC
330
DD
100
AcDbEntity
  8
AM_6
100
AcDbText
 10
2.696583333333334
 20
-3.859375
 30
0.0
 40
0.5
  1
2-55/64
100
AcDbAttributeDefinition
  3

  2
C
 70
     8
280
     0
  0
ATTDEF
  5
ED
330
DD
100
AcDbEntity
  8
AM_6
100
AcDbText
 10
2.696583333333334
 20
-4.359375
 30
0.0
 40
0.5
  1
0.977
100
AcDbAttributeDefinition
  3

  2
D
 70
     8
280
     0
  0
ATTDEF
  5
EE
330
DD
100
AcDbEntity
  8
AM_6
100
AcDbText
 10
2.696583333333334
 20
-4.859375
 30
0.0
 40
0.5
  1
3-9/32
100
AcDbAttributeDefinition
  3

  2
E
 70
     8
280
     0
  0
ATTDEF
  5
EF
330
DD
100
AcDbEntity
  8
AM_6
100
AcDbText
 10
2.696583333333334
 20
-5.359375
 30
0.0
 40
0.5
  1
0.1900
100
AcDbAttributeDefinition
  3

  2
NDM
 70
     8
280
     0
  0
ATTDEF
  5
F0
330
DD
100
AcDbEntity
  8
AM_6
100
AcDbText
 10
2.696583333333334
 20
-5.859375
 30
0.0
 40
0.5
  1
0.1450
100
AcDbAttributeDefinition
  3

  2
KDM
 70
     8
280
     0
  0
ATTDEF
  5
F1
330
DD
100
AcDbEntity
  8
AM_6
100
AcDbText
 10
2.696583333333334
 20
-6.359375
 30
0.0
 40
0.5
  1
2.67
100
AcDbAttributeDefinition
  3

  2
AL
 70
     8
280
     0
  0
ATTDEF
  5
F2
330
DD
100
AcDbEntity
  8
AM_6
100
AcDbText
 10
2.696583333333334
 20
-6.859375
 30
0.0
 40
0.5
  1
0.38
100
AcDbAttributeDefinition
  3

  2
BL
 70
     8
280
     0
  0
ATTDEF
  5
F3
330
DD
100
AcDbEntity
  8
AM_6
100
AcDbText
 10
2.696583333333334
 20
-7.359375
 30
0.0
 40
0.5
  1
0.07
100
AcDbAttributeDefinition
  3

  2
CL
 70
     8
280
     0
  0
ATTDEF
  5
F4
330
DD
100
AcDbEntity
  8
AM_6
100
AcDbText
 10
2.696583333333334
 20
-7.859375
 30
0.0
 40
0.5
  1
0.44
100
AcDbAttributeDefinition
  3

  2
DL
 70
     8
280
     0
  0
ATTDEF
  5
F5
330
DD
100
AcDbEntity
  8
AM_6
100
AcDbText
 10
2.696583333333334
 20
-8.359375
 30
0.0
 40
0.5
  1
baldor
100
AcDbAttributeDefinition
  3

  2
COMPANY
 70
     8
280
     0
  0
LINE
  5
F6
330
DD
100
AcDbEntity
  8
AM_9
100
AcDbLine
 10
-2.673416666666666
 20
0.298378681332544
 30
0.0
 11
-2.743416666666666
 21
0.298378681332544
 31
0.0
  0
LINE
  5
F7
330
DD
100
AcDbEntity
  8
AM_9
100
AcDbLine
 10
-2.303416666666666
 20
0.288125611623998
 30
0.0
 11
-2.673416666666666
 21
0.2881256116239981
 31
0.0
  0
LINE
  5
F8
330
DD
100
AcDbEntity
  8
AM_9
100
AcDbLine
 10
-2.673416666666666
 20
1.04101086240107
 30
0.0
 11
-2.743416666666666
 21
1.04101086240107
 31
0.0
  0
LINE
  5
F9
330
DD
100
AcDbEntity
  8
AM_9
100
AcDbLine
 10
-2.743416666666666
 20
-1.043375543735768
 30
0.0
 11
-2.673416666666666
 21
-1.043375543735768
 31
0.0
  0
LINE
  5
FA
330
DD
100
AcDbEntity
  8
AM_9
100
AcDbLine
 10
-2.303416666666666
 20
0.2691504263232683
 30
0.0
 11
-2.743416666666666
 21
0.2691504263232683
 31
0.0
  0
LINE
  5
FB
330
DD
100
AcDbEntity
  8
AM_9
100
AcDbLine
 10
-2.303416666666666
 20
0.2691504263232683
 30
0.0
 11
-2.303416666666666
 21
0.4636627228011425
 31
0.0
  0
LINE
  5
FC
330
DD
100
AcDbEntity
  8
AM_9
100
AcDbLine
 10
-2.673416666666666
 20
0.4636627228011426
 30
0.0
 11
-2.303416666666666
 21
0.4636627228011425
 31
0.0
  0
LINE
  5
FD
330
DD
100
AcDbEntity
  8
AM_9
100
AcDbLine
 10
-2.303416666666666
 20
0.4446875375004128
 30
0.0
 11
-2.743416666666666
 21
0.4446875375004128
 31
0.0
  0
LINE
  5
FE
330
DD
100
AcDbEntity
  8
AM_9
100
AcDbLine
 10
-2.673416666666666
 20
0.4739157925096884
 30
0.0
 11
-2.743416666666666
 21
0.4739157925096884
 31
0.0
  0
LINE
  5
FF
330
DD
100
AcDbEntity
  8
AM_9
100
AcDbLine
 10
-2.673416666666666
 20
1.009051357500948
 30
0.0
 11
-2.743416666666666
 21
1.009051357500948
 31
0.0
  0
LINE
  5
100
330
DD
100
AcDbEntity
  8
AM_9
100
AcDbLine
 10
-2.673416666666666
 20
-1.009051357500948
 30
0.0
 11
-2.743416666666666
 21
-1.009051357500948
 31
0.0
  0
LINE
  5
101
330
DD
100
AcDbEntity
  8
AM_9
100
AcDbLine
 10
-2.673416666666666
 20
1.341145833333334
 30
0.0
 11
-2.743416666666666
 21
1.341145833333334
 31
0.0
  0
LINE
  5
102
330
DD
100
AcDbEntity
  8
AM_9
100
AcDbLine
 10
-2.673416666666666
 20
1.439574439842869
 30
0.0
 11
-2.743416666666666
 21
1.439574439842869
 31
0.0
  0
LINE
  5
103
330
DD
100
AcDbEntity
  8
AM_9
100
AcDbLine
 10
-2.673416666666666
 20
-1.341145833333334
 30
0.0
 11
-2.743416666666666
 21
-1.341145833333334
 31
0.0
  0
LINE
  5
104
330
DD
100
AcDbEntity
  8
AM_9
100
AcDbLine
 10
-2.743416666666666
 20
-1.439574439842869
 30
0.0
 11
-2.673416666666666
 21
-1.439574439842869
 31
0.0
  0
LINE
  5
105
330
DD
100
AcDbEntity
  8
AM_9
100
AcDbLine
 10
-2.673416666666666
 20
0.7806822016671342
 30
0.0
 11
-2.743416666666666
 21
0.7806822016671342
 31
0.0
  0
LINE
  5
106
330
DD
100
AcDbEntity
  8
AM_9
100
AcDbLine
 10
-2.673416666666666
 20
-0.7806822016671334
 30
0.0
 11
-2.743416666666666
 21
-0.7806822016671335
 31
0.0
  0
LINE
  5
107
330
DD
100
AcDbEntity
  8
AM_9
100
AcDbLine
 10
-2.673416666666666
 20
-0.6463319132416896
 30
0.0
 11
-2.743416666666666
 21
-0.6463319132416896
 31
0.0
  0
LINE
  5
108
330
DD
100
AcDbEntity
  8
AM_9
100
AcDbLine
 10
-2.673416666666666
 20
0.6463319132416899
 30
0.0
 11
-2.743416666666666
 21
0.6463319132416899
 31
0.0
  0
LINE
  5
109
330
DD
100
AcDbEntity
  8
AM_9
100
AcDbLine
 10
-2.673416666666666
 20
1.015508457522806
 30
0.0
 11
-2.743416666666666
 21
1.015508457522806
 31
0.0
  0
LINE
  5
10A
330
DD
100
AcDbEntity
  8
AM_9
100
AcDbLine
 10
-2.673416666666666
 20
0.8811581690973619
 30
0.0
 11
-2.743416666666666
 21
0.8811581690973619
 31
0.0
  0
LINE
  5
10B
330
DD
100
AcDbEntity
  8
AM_9
100
AcDbLine
 10
-2.673416666666666
 20
1.045775194362568
 30
0.0
 11
-2.743416666666666
 21
1.045775194362568
 31
0.0
  0
LINE
  5
10C
330
DD
100
AcDbEntity
  8
AM_9
100
AcDbLine
 10
-2.673416666666666
 20
-0.8811581690973608
 30
0.0
 11
-2.743416666666666
 21
-0.8811581690973608
 31
0.0
  0
LINE
  5
10D
330
DD
100
AcDbEntity
  8
AM_9
100
AcDbLine
 10
-2.673416666666666
 20
-1.015508457522805
 30
0.0
 11
-2.743416666666666
 21
-1.015508457522805
 31
0.0
  0
LINE
  5
10E
330
DD
100
AcDbEntity
  8
AM_9
100
AcDbLine
 10
-2.743416666666666
 20
-1.045775194362569
 30
0.0
 11
-2.673416666666666
 21
-1.045775194362569
 31
0.0
  0
LINE
  5
10F
330
DD
100
AcDbEntity
  8
AM_9
100
AcDbLine
 10
-2.673416666666666
 20
0.0950597150717369
 30
0.0
 11
-2.743416666666666
 21
0.0950597150717369
 31
0.0
  0
LINE
  5
110
330
DD
100
AcDbEntity
  8
AM_9
100
AcDbLine
 10
-2.743416666666666
 20
-0.0950597150717359
 30
0.0
 11
-2.673416666666666
 21
-0.0950597150717359
 31
0.0
  0
LINE
  5
111
330
DD
100
AcDbEntity
  8
AM_4
100
AcDbLine
 10
-2.673416666666666
 20
1.640625
 30
0.0
 11
-2.743416666666666
 21
1.640625
 31
0.0
  0
LINE
  5
112
330
DD
100
AcDbEntity
  8
AM_4
100
AcDbLine
 10
-2.743416666666666
 20
-1.640625
 30
0.0
 11
-2.673416666666666
 21
-1.640625
 31
0.0
  0
LINE
  5
113
330
DD
100
AcDbEntity
  8
AM_4
100
AcDbLine
 10
-2.743416666666666
 20
1.640625
 30
0.0
 11
-2.743416666666666
 21
-1.640625
 31
0.0
  0
LINE
  5
114
330
DD
100
AcDbEntity
  8
AM_4
100
AcDbLine
 10
-2.673416666666666
 20
1.640625
 30
0.0
 11
-2.673416666666666
 21
-1.640625
 31
0.0
  0
ENDBLK
  5
E0
330
DD
100
AcDbEntity
  8
0
100
AcDbBlockEnd
  0
BLOCK
  5
117
330
115
100
AcDbEntity
  8
0
100
AcDbBlockBegin
  2
5_070921I_0_in_069681_2
 70
     2
 10
0.0
 20
0.0
 30
0.0
  3
5_070921I_0_in_069681_2
  1

  0
ATTDEF
  5
119
330
115
100
AcDbEntity
  8
AM_6
100
AcDbText
 10
5.11709375
 20
1.77165
 30
0.0
 40
0.5
  1
Imperial Insert -Inch
100
AcDbAttributeDefinition
  3

  2
NN
 70
     8
280
     0
  0
ATTDEF
  5
11A
330
115
100
AcDbEntity
  8
AM_6
100
AcDbText
 10
5.11709375
 20
1.27165
 30
0.0
 40
0.5
  1
Imperial Bearings
100
AcDbAttributeDefinition
  3

  2
NT
 70
     8
280
     0
  0
ATTDEF
  5
11B
330
115
100
AcDbEntity
  8
AM_6
100
AcDbText
 10
5.11709375
 20
0.77165
 30
0.0
 40
0.5
  1
070921I
100
AcDbAttributeDefinition
  3

  2
NB
 70
     8
280
     0
  0
ATTDEF
  5
11C
330
115
100
AcDbEntity
  8
AM_6
100
AcDbText
 10
5.11709375
 20
0.2716499999999999
 30
0.0
 40
0.5
  1
$PN.I
100
AcDbAttributeDefinition
  3

  2
NBSYN
 70
     8
280
     0
  0
ATTDEF
  5
11D
330
115
100
AcDbEntity
  8
AM_6
100
AcDbText
 10
5.11709375
 20
-0.2283500000000001
 30
0.0
 40
0.5
  1
070921
100
AcDbAttributeDefinition
  3

  2
LINA
 70
     8
280
     0
  0
ATTDEF
  5
11E
330
115
100
AcDbEntity
  8
AM_6
100
AcDbText
 10
5.11709375
 20
-0.72835
 30
0.0
 40
0.5
  1
1-7/8
100
AcDbAttributeDefinition
  3

  2
SS
 70
     8
280
     0
  0
ATTDEF
  5
11F
330
115
100
AcDbEntity
  8
AM_6
100
AcDbText
 10
5.11709375
 20
-1.22835
 30
0.0
 40
0.5
  1
1.875000
100
AcDbAttributeDefinition
  3

  2
SS1
 70
     8
280
     0
  0
ATTDEF
  5
120
330
115
100
AcDbEntity
  8
AM_6
100
AcDbText
 10
5.11709375
 20
-1.72835
 30
0.0
 40
0.5
  1
070921
100
AcDbAttributeDefinition
  3

  2
PN
 70
     8
280
     0
  0
ATTDEF
  5
121
330
115
100
AcDbEntity
  8
AM_6
100
AcDbText
 10
5.11709375
 20
-2.22835
 30
0.0
 40
0.5
  1
INS-IP-114L
100
AcDbAttributeDefinition
  3

  2
DESCRIPTION
 70
     8
280
     0
  0
ATTDEF
  5
122
330
115
100
AcDbEntity
  8
AM_6
100
AcDbText
 10
5.11709375
 20
-2.72835
 30
0.0
 40
0.5
  1
Labyrinth Seal
100
AcDbAttributeDefinition
  3

  2
ST
 70
     8
280
     0
  0
ATTDEF
  5
123
330
115
100
AcDbEntity
  8
AM_6
100
AcDbText
 10
5.11709375
 20
-3.22835
 30
0.0
 40
0.5
  1
3.5433
100
AcDbAttributeDefinition
  3

  2
A
 70
     8
280
     0
  0
ATTDEF
  5
124
330
115
100
AcDbEntity
  8
AM_6
100
AcDbText
 10
5.11709375
 20
-3.72835
 30
0.0
 40
0.5
  1
61/64
100
AcDbAttributeDefinition
  3

  2
B
 70
     8
280
     0
  0
ATTDEF
  5
125
330
115
100
AcDbEntity
  8
AM_6
100
AcDbText
 10
5.11709375
 20
-4.22835
 30
0.0
 40
0.5
  1
2-55/64
100
AcDbAttributeDefinition
  3

  2
C
 70
     8
280
     0
  0
ATTDEF
  5
126
330
115
100
AcDbEntity
  8
AM_6
100
AcDbText
 10
5.11709375
 20
-4.72835
 30
0.0
 40
0.5
  1
0.977
100
AcDbAttributeDefinition
  3

  2
D
 70
     8
280
     0
  0
ATTDEF
  5
127
330
115
100
AcDbEntity
  8
AM_6
100
AcDbText
 10
5.11709375
 20
-5.22835
 30
0.0
 40
0.5
  1
3-9/32
100
AcDbAttributeDefinition
  3

  2
E
 70
     8
280
     0
  0
ATTDEF
  5
128
330
115
100
AcDbEntity
  8
AM_6
100
AcDbText
 10
5.11709375
 20
-5.72835
 30
0.0
 40
0.5
  1
0.1900
100
AcDbAttributeDefinition
  3

  2
NDM
 70
     8
280
     0
  0
ATTDEF
  5
129
330
115
100
AcDbEntity
  8
AM_6
100
AcDbText
 10
5.11709375
 20
-6.22835
 30
0.0
 40
0.5
  1
0.101
100
AcDbAttributeDefinition
  3

  2
H
 70
     8
280
     0
  0
ATTDEF
  5
12A
330
115
100
AcDbEntity
  8
AM_6
100
AcDbText
 10
5.11709375
 20
-6.72835
 30
0.0
 40
0.5
  1
0.1450
100
AcDbAttributeDefinition
  3

  2
KDM
 70
     8
280
     0
  0
ATTDEF
  5
12B
330
115
100
AcDbEntity
  8
AM_6
100
AcDbText
 10
5.11709375
 20
-7.22835
 30
0.0
 40
0.5
  1
2.67
100
AcDbAttributeDefinition
  3

  2
AL
 70
     8
280
     0
  0
ATTDEF
  5
12C
330
115
100
AcDbEntity
  8
AM_6
100
AcDbText
 10
5.11709375
 20
-7.72835
 30
0.0
 40
0.5
  1
0.38
100
AcDbAttributeDefinition
  3

  2
BL
 70
     8
280
     0
  0
ATTDEF
  5
12D
330
115
100
AcDbEntity
  8
AM_6
100
AcDbText
 10
5.11709375
 20
-8.228349999999999
 30
0.0
 40
0.5
  1
0.07
100
AcDbAttributeDefinition
  3

  2
CL
 70
     8
280
     0
  0
ATTDEF
  5
12E
330
115
100
AcDbEntity
  8
AM_6
100
AcDbText
 10
5.11709375
 20
-8.728349999999999
 30
0.0
 40
0.5
  1
0.44
100
AcDbAttributeDefinition
  3

  2
DL
 70
     8
280
     0
  0
ATTDEF
  5
12F
330
115
100
AcDbEntity
  8
AM_6
100
AcDbText
 10
5.11709375
 20
-9.228349999999999
 30
0.0
 40
0.5
  1
0.8000
100
AcDbAttributeDefinition
  3

  2
LL
 70
     8
280
     0
  0
ATTDEF
  5
130
330
115
100
AcDbEntity
  8
AM_6
100
AcDbText
 10
5.11709375
 20
-9.728349999999999
 30
0.0
 40
0.5
  1
0.020
100
AcDbAttributeDefinition
  3

  2
Y
 70
     8
280
     0
  0
ATTDEF
  5
131
330
115
100
AcDbEntity
  8
AM_6
100
AcDbText
 10
5.11709375
 20
-10.22835
 30
0.0
 40
0.5
  1
0.020000
100
AcDbAttributeDefinition
  3

  2
Y1
 70
     8
280
     0
  0
ATTDEF
  5
132
330
115
100
AcDbEntity
  8
AM_6
100
AcDbText
 10
5.11709375
 20
-10.72835
 30
0.0
 40
0.5
  1
2-19/64
100
AcDbAttributeDefinition
  3

  2
Z
 70
     8
280
     0
  0
ATTDEF
  5
133
330
115
100
AcDbEntity
  8
AM_6
100
AcDbText
 10
5.11709375
 20
-11.22835
 30
0.0
 40
0.5
  1
2.296875
100
AcDbAttributeDefinition
  3

  2
Z1
 70
     8
280
     0
  0
ATTDEF
  5
134
330
115
100
AcDbEntity
  8
AM_6
100
AcDbText
 10
5.11709375
 20
-11.72835
 30
0.0
 40
0.5
  1
baldor
100
AcDbAttributeDefinition
  3

  2
COMPANY
 70
     8
280
     0
  0
LINE
  5
135
330
115
100
AcDbEntity
  8
AM_9
100
AcDbLine
 10
-1.833416666666666
 20
0.9483333133100835
 30
0.0
 11
-1.867200656499996
 21
1.020783313310083
 31
0.0
  0
LINE
  5
136
330
115
100
AcDbEntity
  8
AM_9
100
AcDbLine
 10
-1.867200656499996
 20
0.8758833133100837
 30
0.0
 11
-1.833416666666666
 21
0.9483333133100835
 31
0.0
  0
LINE
  5
137
330
115
100
AcDbEntity
  8
AM_9
100
AcDbLine
 10
-1.867200656499996
 20
0.8758833133100837
 30
0.0
 11
-1.867200656499996
 21
1.020783313310083
 31
0.0
  0
LINE
  5
138
330
115
100
AcDbEntity
  8
AM_9
100
AcDbLine
 10
-1.867200656499996
 20
1.020783313310083
 30
0.0
 11
-2.650866666666666
 21
1.020783313310083
 31
0.0
  0
LINE
  5
139
330
115
100
AcDbEntity
  8
AM_9
100
AcDbLine
 10
-2.650866666666666
 20
0.8758833133100837
 30
0.0
 11
-1.867200656499996
 21
0.8758833133100837
 31
0.0
  0
LINE
  5
13A
330
115
100
AcDbEntity
  8
AM_9
100
AcDbLine
 10
-0.5473125000000001
 20
0.2891266817965458
 30
0.0
 11
-2.673416666666667
 21
0.2891266817965458
 31
0.0
  0
LINE
  5
13B
330
115
100
AcDbEntity
  8
AM_9
100
AcDbLine
 10
-0.5473125000000001
 20
0.46466379297369
 30
0.0
 11
-2.673416666666667
 21
0.46466379297369
 31
0.0
  0
LINE
  5
13C
330
115
100
AcDbEntity
  8
AM_9
100
AcDbLine
 10
-2.650866666666666
 20
0.8758833133100837
 30
0.0
 11
-2.650866666666666
 21
1.020783313310083
 31
0.0
  0
LINE
  5
13D
330
115
100
AcDbEntity
  8
AM_9
100
AcDbLine
 10
-2.650866666666666
 20
1.020783313310083
 30
0.0
 11
-2.673416666666667
 21
1.043333313310083
 31
0.0
  0
LINE
  5
13E
330
115
100
AcDbEntity
  8
AM_9
100
AcDbLine
 10
-2.673416666666667
 20
0.8533333133100836
 30
0.0
 11
-2.650866666666666
 21
0.8758833133100837
 31
0.0
  0
LINE
  5
13F
330
115
100
AcDbEntity
  8
AM_9
100
AcDbLine
 10
-2.233416666666666
 20
-1.335
 30
0.0
 11
-2.673416666666667
 21
-1.335
 31
0.0
  0
LINE
  5
140
330
115
100
AcDbEntity
  8
AM_9
100
AcDbLine
 10
-2.233416666666666
 20
1.335
 30
0.0
 11
-2.673416666666667
 21
1.335
 31
0.0
  0
LINE
  5
141
330
115
100
AcDbEntity
  8
AM_9
100
AcDbLine
 10
-2.233416666666666
 20
-1.335
 30
0.0
 11
-2.233416666666666
 21
-1.645054205508799
 31
0.0
  0
LINE
  5
142
330
115
100
AcDbEntity
  8
AM_9
100
AcDbLine
 10
-2.233416666666666
 20
1.645054205508798
 30
0.0
 11
-2.233416666666666
 21
1.335
 31
0.0
  0
LINE
  5
143
330
115
100
AcDbEntity
  8
AM_9
100
AcDbLine
 10
-1.833416666666655
 20
-0.9483333133100835
 30
0.0
 11
-1.867200656500002
 21
-0.8758833133100837
 31
0.0
  0
LINE
  5
144
330
115
100
AcDbEntity
  8
AM_9
100
AcDbLine
 10
-1.867200656500002
 20
-1.020783313310083
 30
0.0
 11
-1.833416666666655
 21
-0.9483333133100835
 31
0.0
  0
LINE
  5
145
330
115
100
AcDbEntity
  8
AM_9
100
AcDbLine
 10
-2.650866666666685
 20
-1.020783313310083
 30
0.0
 11
-1.867200656500002
 21
-1.020783313310083
 31
0.0
  0
LINE
  5
146
330
115
100
AcDbEntity
  8
AM_9
100
AcDbLine
 10
-1.867200656500002
 20
-0.8758833133100837
 30
0.0
 11
-2.650866666666685
 21
-0.8758833133100837
 31
0.0
  0
LINE
  5
147
330
115
100
AcDbEntity
  8
AM_9
100
AcDbLine
 10
-1.867200656500002
 20
-0.8758833133100837
 30
0.0
 11
-1.867200656500002
 21
-1.020783313310083
 31
0.0
  0
LINE
  5
148
330
115
100
AcDbEntity
  8
AM_9
100
AcDbLine
 10
-2.650866666666685
 20
-0.8758833133100837
 30
0.0
 11
-2.673416666666662
 21
-0.8533333133100836
 31
0.0
  0
LINE
  5
149
330
115
100
AcDbEntity
  8
AM_9
100
AcDbLine
 10
-2.673416666666662
 20
-1.043333313310083
 30
0.0
 11
-2.650866666666685
 21
-1.020783313310083
 31
0.0
  0
LINE
  5
14A
330
115
100
AcDbEntity
  8
AM_9
100
AcDbLine
 10
-2.650866666666685
 20
-0.8758833133100837
 30
0.0
 11
-2.650866666666685
 21
-1.020783313310083
 31
0.0
  0
LINE
  5
14B
330
115
100
AcDbEntity
  8
AM_9
100
AcDbLine
 10
-0.5473125000000001
 20
0.4446875375004131
 30
0.0
 11
-2.90625
 21
0.444687537500413
 31
0.0
  0
LINE
  5
14C
330
115
100
AcDbEntity
  8
AM_9
100
AcDbLine
 10
-2.90625
 20
0.2691504263232685
 30
0.0
 11
-0.5473125000000001
 21
0.2691504263232686
 31
0.0
  0
LINE
  5
14D
330
115
100
AcDbEntity
  8
AM_9
100
AcDbLine
 10
-0.5473124999999998
 20
0.9375000000000003
 30
0.0
 11
-2.90625
 21
0.9375000000000003
 31
0.0
  0
LINE
  5
14E
330
115
100
AcDbEntity
  8
AM_9
100
AcDbLine
 10
-2.90625
 20
-0.9375000000000003
 30
0.0
 11
-0.5473124999999998
 21
-0.9375000000000003
 31
0.0
  0
LINE
  5
14F
330
115
100
AcDbEntity
  8
AM_9
100
AcDbLine
 10
-0.0468749999999999
 20
0.9868421052631579
 30
0.0
 11
-0.5473124999999998
 21
0.9868421052631579
 31
0.0
  0
LINE
  5
150
330
115
100
AcDbEntity
  8
AM_9
100
AcDbLine
 10
-0.5473124999999998
 20
-0.9868421052631579
 30
0.0
 11
-0.0468749999999999
 21
-0.9868421052631579
 31
0.0
  0
LINE
  5
151
330
115
100
AcDbEntity
  8
AM_9
100
AcDbLine
 10
-2.90625
 20
0.4636627228011427
 30
0.0
 11
-2.673416666666667
 21
0.4636627228011427
 31
0.0
  0
LINE
  5
152
330
115
100
AcDbEntity
  8
AM_9
100
AcDbLine
 10
-2.673416666666667
 20
0.2881256116239981
 30
0.0
 11
-2.90625
 21
0.2881256116239981
 31
0.0
  0
LINE
  5
153
330
115
100
AcDbEntity
  8
AM_9
100
AcDbLine
 10
-2.673416666666667
 20
0.986842105263158
 30
0.0
 11
-2.743416666666666
 21
0.986842105263158
 31
0.0
  0
LINE
  5
154
330
115
100
AcDbEntity
  8
AM_9
100
AcDbLine
 10
-2.844416666666666
 20
-0.986842105263158
 30
0.0
 11
-2.673416666666667
 21
-0.986842105263158
 31
0.0
  0
LINE
  5
155
330
115
100
AcDbEntity
  8
AM_9
100
AcDbLine
 10
-0.0468749999999999
 20
-1.1484375
 30
0.0
 11
-0.0468749999999999
 21
1.1484375
 31
0.0
  0
LINE
  5
156
330
115
100
AcDbEntity
  8
AM_9
100
AcDbLine
 10
-0.0268750000000001
 20
1.1484375
 30
0.0
 11
-0.0468749999999999
 21
1.1484375
 31
0.0
  0
LINE
  5
157
330
115
100
AcDbEntity
  8
AM_9
100
AcDbLine
 10
-0.0468749999999999
 20
-1.1484375
 30
0.0
 11
-0.0268750000000001
 21
-1.1484375
 31
0.0
  0
LINE
  5
158
330
115
100
AcDbEntity
  8
AM_9
100
AcDbLine
 10
-0.056322115384616
 20
1.276041666666667
 30
0.0
 11
-0.3566874999999999
 21
1.276041666666667
 31
0.0
  0
LINE
  5
159
330
115
100
AcDbEntity
  8
AM_9
100
AcDbLine
 10
-0.3566874999999999
 20
-1.276041666666667
 30
0.0
 11
-0.056322115384616
 21
-1.276041666666667
 31
0.0
  0
LINE
  5
15A
330
115
100
AcDbEntity
  8
AM_9
100
AcDbLine
 10
-0.0268750000000001
 20
-1.246594551282051
 30
0.0
 11
-0.0268750000000001
 21
1.246594551282051
 31
0.0
  0
LINE
  5
15B
330
115
100
AcDbEntity
  8
AM_9
100
AcDbLine
 10
-0.056322115384616
 20
-1.276041666666667
 30
0.0
 11
-0.056322115384616
 21
1.276041666666667
 31
0.0
  0
ARC
  5
15C
330
115
100
AcDbEntity
  8
AM_9
100
AcDbCircle
 10
-0.0563221153846157
 20
1.246594551282051
 30
0.0
 40
0.0294471153846157
100
AcDbArc
 50
0.0000008537736463
 51
90.0
  0
ARC
  5
15D
330
115
100
AcDbEntity
  8
AM_9
100
AcDbCircle
 10
-0.0563221153846158
 20
-1.246594551282051
 30
0.0
 40
0.0294471153846159
100
AcDbArc
 50
270.0
 51
0.0
  0
LINE
  5
15E
330
115
100
AcDbEntity
  8
AM_9
100
AcDbLine
 10
-0.3566874999999999
 20
-1.403857578016765
 30
0.0
 11
-0.3566874999999999
 21
1.403857578016765
 31
0.0
  0
ARC
  5
15F
330
115
100
AcDbEntity
  8
AM_9
100
AcDbCircle
 10
-0.4566874999999996
 20
1.403857578016765
 30
0.0
 40
0.0999999999999998
100
AcDbArc
 50
0.0
 51
60.0
  0
ARC
  5
160
330
115
100
AcDbEntity
  8
AM_9
100
AcDbCircle
 10
-0.4566874999999991
 20
-1.403857578016765
 30
0.0
 40
0.0999999999999993
100
AcDbArc
 50
299.9999999999998
 51
0.0
  0
LINE
  5
161
330
115
100
AcDbEntity
  8
AM_9
100
AcDbLine
 10
-0.4066874999999997
 20
-1.490460118395209
 30
0.0
 11
-0.4066874999999997
 21
1.490460118395209
 31
0.0
  0
LINE
  5
162
330
115
100
AcDbEntity
  8
AM_9
100
AcDbLine
 10
-0.4066874999999997
 20
1.490460118395209
 30
0.0
 11
-0.5473124999999998
 21
1.57165
 31
0.0
  0
LINE
  5
163
330
115
100
AcDbEntity
  8
AM_9
100
AcDbLine
 10
-0.5473124999999998
 20
-1.57165
 30
0.0
 11
-0.4066874999999997
 21
-1.490460118395209
 31
0.0
  0
LINE
  5
164
330
115
100
AcDbEntity
  8
AM_9
100
AcDbLine
 10
-1.921875
 20
-1.666869413305112
 30
0.0
 11
-1.5004375
 21
-1.68158633509779
 31
0.0
  0
LINE
  5
165
330
115
100
AcDbEntity
  8
AM_9
100
AcDbLine
 10
-1.5004375
 20
1.68158633509779
 30
0.0
 11
-1.921875
 21
1.666869413305112
 31
0.0
  0
LINE
  5
166
330
115
100
AcDbEntity
  8
AM_9
100
AcDbLine
 10
-0.9963606512339319
 20
1.72399375
 30
0.0
 11
-1.051389348766068
 21
1.72399375
 31
0.0
  0
LINE
  5
167
330
115
100
AcDbEntity
  8
AM_9
100
AcDbLine
 10
-1.051389348766068
 20
-1.72399375
 30
0.0
 11
-0.9963606512339319
 21
-1.72399375
 31
0.0
  0
LINE
  5
168
330
115
100
AcDbEntity
  8
AM_9
100
AcDbLine
 10
-1.5004375
 20
-1.721649999999999
 30
0.0
 11
-1.5004375
 21
1.721649999999999
 31
0.0
  0
ARC
  5
169
330
115
100
AcDbEntity
  8
AM_9
100
AcDbCircle
 10
-1.4504375
 20
1.72165
 30
0.0
 40
0.0499999999999996
100
AcDbArc
 50
90.0
 51
180.0
  0
ARC
  5
16A
330
115
100
AcDbEntity
  8
AM_9
100
AcDbCircle
 10
-1.4504375
 20
-1.72165
 30
0.0
 40
0.0499999999999994
100
AcDbArc
 50
180.0
 51
270.0
  0
LINE
  5
16B
330
115
100
AcDbEntity
  8
AM_9
100
AcDbLine
 10
-0.9963606512339319
 20
-1.72399375
 30
0.0
 11
-0.9963606512339319
 21
1.72399375
 31
0.0
  0
LINE
  5
16C
330
115
100
AcDbEntity
  8
AM_9
100
AcDbLine
 10
-0.9963606512339319
 20
-1.72399375
 30
0.0
 11
-0.968846302467864
 21
-1.77165
 31
0.0
  0
LINE
  5
16D
330
115
100
AcDbEntity
  8
AM_9
100
AcDbLine
 10
-0.968846302467864
 20
1.77165
 30
0.0
 11
-0.9963606512339319
 21
1.72399375
 31
0.0
  0
LINE
  5
16E
330
115
100
AcDbEntity
  8
AM_9
100
AcDbLine
 10
-0.968846302467864
 20
-1.77165
 30
0.0
 11
-0.968846302467864
 21
1.77165
 31
0.0
  0
LINE
  5
16F
330
115
100
AcDbEntity
  8
AM_9
100
AcDbLine
 10
-0.5973125
 20
1.77165
 30
0.0
 11
-0.968846302467864
 21
1.77165
 31
0.0
  0
LINE
  5
170
330
115
100
AcDbEntity
  8
AM_9
100
AcDbLine
 10
-0.968846302467864
 20
-1.77165
 30
0.0
 11
-0.5973125
 21
-1.77165
 31
0.0
  0
LINE
  5
171
330
115
100
AcDbEntity
  8
AM_9
100
AcDbLine
 10
-1.4504375
 20
-1.77165
 30
0.0
 11
-1.4504375
 21
1.77165
 31
0.0
  0
LINE
  5
172
330
115
100
AcDbEntity
  8
AM_9
100
AcDbLine
 10
-1.078903697532136
 20
1.77165
 30
0.0
 11
-1.4504375
 21
1.77165
 31
0.0
  0
LINE
  5
173
330
115
100
AcDbEntity
  8
AM_9
100
AcDbLine
 10
-1.4504375
 20
-1.77165
 30
0.0
 11
-1.078903697532136
 21
-1.77165
 31
0.0
  0
LINE
  5
174
330
115
100
AcDbEntity
  8
AM_9
100
AcDbLine
 10
-0.5473125000000001
 20
-1.72165
 30
0.0
 11
-0.5473125000000001
 21
1.72165
 31
0.0
  0
LINE
  5
175
330
115
100
AcDbEntity
  8
AM_9
100
AcDbLine
 10
-0.5973125
 20
-1.77165
 30
0.0
 11
-0.5973125
 21
1.77165
 31
0.0
  0
ARC
  5
176
330
115
100
AcDbEntity
  8
AM_9
100
AcDbCircle
 10
-0.5973124999999996
 20
1.72165
 30
0.0
 40
0.0499999999999995
100
AcDbArc
 50
0.0
 51
90.0
  0
ARC
  5
177
330
115
100
AcDbEntity
  8
AM_9
100
AcDbCircle
 10
-0.5973124999999999
 20
-1.72165
 30
0.0
 40
0.0499999999999998
100
AcDbArc
 50
270.0
 51
0.0
  0
LINE
  5
178
330
115
100
AcDbEntity
  8
AM_9
100
AcDbLine
 10
-1.051389348766068
 20
-1.72399375
 30
0.0
 11
-1.051389348766068
 21
1.72399375
 31
0.0
  0
LINE
  5
179
330
115
100
AcDbEntity
  8
AM_9
100
AcDbLine
 10
-1.078903697532136
 20
-1.77165
 30
0.0
 11
-1.078903697532136
 21
1.77165
 31
0.0
  0
LINE
  5
17A
330
115
100
AcDbEntity
  8
AM_9
100
AcDbLine
 10
-1.051389348766068
 20
1.72399375
 30
0.0
 11
-1.078903697532136
 21
1.77165
 31
0.0
  0
LINE
  5
17B
330
115
100
AcDbEntity
  8
AM_9
100
AcDbLine
 10
-1.078903697532136
 20
-1.77165
 30
0.0
 11
-1.051389348766068
 21
-1.72399375
 31
0.0
  0
LINE
  5
17C
330
115
100
AcDbEntity
  8
AM_5
100
AcDbLine
 10
-1.913416666666667
 20
0.9483333133100835
 30
0.0
 11
-1.900397418096441
 21
0.9483333133100837
 31
0.0
  0
LINE
  5
17D
330
115
100
AcDbEntity
  8
AM_5
100
AcDbLine
 10
-1.913416666666666
 20
-1.020783313310083
 30
0.0
 11
-1.913416666666666
 21
-1.043333313310083
 31
0.0
  0
LINE
  5
17E
330
115
100
AcDbEntity
  8
AM_5
100
AcDbLine
 10
-1.913416666666666
 20
-1.043333313310083
 30
0.0
 11
-1.900397418096458
 21
-1.020783313310083
 31
0.0
  0
LINE
  5
17F
330
115
100
AcDbEntity
  8
AM_5
100
AcDbLine
 10
-1.913416666666666
 20
-0.8758833133100836
 30
0.0
 11
-1.913416666666666
 21
-0.8533333133100833
 31
0.0
  0
LINE
  5
180
330
115
100
AcDbEntity
  8
AM_5
100
AcDbLine
 10
-1.913416666666666
 20
-0.8533333133100833
 30
0.0
 11
-1.900397418096458
 21
-0.875883313310084
 31
0.0
  0
LINE
  5
183
330
115
100
AcDbEntity
  8
AM_7
100
AcDbLine
 10
0.1170937500000002
 20
0.0
 30
0.0
 11
-3.05021875
 21
0.0
 31
0.0
  0
LINE
  5
184
330
115
100
AcDbEntity
  8
AM_7
100
AcDbLine
 10
-1.791416666666666
 20
0.9483333133100835
 30
0.0
 11
-2.889466666666666
 21
0.9483333133100834
 31
0.0
  0
LINE
  5
185
330
115
100
AcDbEntity
  8
AM_7
100
AcDbLine
 10
-1.791416666666654
 20
-0.9483333133100835
 30
0.0
 11
-2.889466666666666
 21
-0.9483333133100834
 31
0.0
  0
LINE
  5
186
330
115
100
AcDbEntity
  8
AM_4
100
AcDbLine
 10
-2.743416666666666
 20
0.986842105263158
 30
0.0
 11
-2.90625
 21
0.986842105263158
 31
0.0
  0
LINE
  5
187
330
115
100
AcDbEntity
  8
AM_4
100
AcDbLine
 10
-2.90625
 20
-0.986842105263158
 30
0.0
 11
-2.844416666666666
 21
-0.986842105263158
 31
0.0
  0
LINE
  5
188
330
115
100
AcDbEntity
  8
AM_4
100
AcDbLine
 10
-2.90625
 20
-0.986842105263158
 30
0.0
 11
-2.90625
 21
0.986842105263158
 31
0.0
  0
LINE
  5
189
330
115
100
AcDbEntity
  8
AM_4
100
AcDbLine
 10
-2.233416666666666
 20
-0.1900000000000002
 30
0.0
 11
-2.673416666666667
 21
-0.1900000000000003
 31
0.0
  0
LWPOLYLINE
  5
18A
330
115
100
AcDbEntity
  8
AM_4
100
AcDbPolyline
 90
        6
 70
     0
 43
0.0
 10
-2.673416666666667
 20
-1.580964409160651
 10
-2.672886751154502
 20
-1.588276628166215
 10
-2.667632398319422
 20
-1.604474509641373
 10
-2.657317543597212
 20
-1.617975125195426
 10
-2.643176837990357
 20
-1.627215224803593
 10
-2.625161641501792
 20
-1.631282462707438
  0
LWPOLYLINE
  5
18B
330
115
100
AcDbEntity
  8
AM_4
100
AcDbPolyline
 90
        6
 70
     0
 43
0.0
 10
-2.625161641501792
 20
1.631282462707438
 10
-2.641517379049313
 20
1.627898782242918
 10
-2.655839434706216
 20
1.619294469623813
 10
-2.666562136834694
 20
1.60641129182944
 10
-2.672489794707624
 20
1.590615644683364
 10
-2.673416666666667
 20
1.580964409160651
  0
LINE
  5
18C
330
115
100
AcDbEntity
  8
AM_4
100
AcDbLine
 10
-2.673416666666667
 20
0.1899999999999999
 30
0.0
 11
-2.233416666666666
 21
0.1899999999999996
 31
0.0
  0
LINE
  5
18D
330
115
100
AcDbEntity
  8
AM_4
100
AcDbLine
 10
-2.625161641501792
 20
0.1899999999999995
 30
0.0
 11
-2.625161641501792
 21
1.631282462707438
 31
0.0
  0
LINE
  5
18E
330
115
100
AcDbEntity
  8
AM_4
100
AcDbLine
 10
-2.233416666666666
 20
0.1899999999999996
 30
0.0
 11
-2.233416666666666
 21
-0.1900000000000002
 31
0.0
  0
LINE
  5
18F
330
115
100
AcDbEntity
  8
AM_4
100
AcDbLine
 10
-2.625161641501792
 20
-1.631282462707438
 30
0.0
 11
-2.625161641501792
 21
-0.1900000000000002
 31
0.0
  0
LINE
  5
190
330
115
100
AcDbEntity
  8
AM_4
100
AcDbLine
 10
-2.625161641501792
 20
-1.631282462707438
 30
0.0
 11
-2.233416666666666
 21
-1.645054205508799
 31
0.0
  0
LINE
  5
191
330
115
100
AcDbEntity
  8
AM_4
100
AcDbLine
 10
-2.233416666666666
 20
-1.645054205508799
 30
0.0
 11
-2.233416666666666
 21
-1.65599013857637
 31
0.0
  0
LINE
  5
192
330
115
100
AcDbEntity
  8
AM_4
100
AcDbLine
 10
-2.233416666666666
 20
1.645054205508798
 30
0.0
 11
-2.625161641501792
 21
1.631282462707438
 31
0.0
  0
LINE
  5
193
330
115
100
AcDbEntity
  8
AM_4
100
AcDbLine
 10
-2.233416666666666
 20
-1.65599013857637
 30
0.0
 11
-1.921875
 21
-1.666869413305112
 31
0.0
  0
LINE
  5
194
330
115
100
AcDbEntity
  8
AM_4
100
AcDbLine
 10
-1.921875
 20
1.666869413305112
 30
0.0
 11
-2.233416666666666
 21
1.65599013857637
 31
0.0
  0
LINE
  5
195
330
115
100
AcDbEntity
  8
AM_4
100
AcDbLine
 10
-2.233416666666666
 20
1.65599013857637
 30
0.0
 11
-2.233416666666666
 21
1.645054205508798
 31
0.0
  0
ENDBLK
  5
118
330
115
100
AcDbEntity
  8
0
100
AcDbBlockEnd
  0
BLOCK
  5
198
330
196
100
AcDbEntity
  8
0
100
AcDbBlockBegin
  2
6_405015E_Inch_0_in_069681_2
 70
     2
 10
0.0
 20
0.0
 30
0.0
  3
6_405015E_Inch_0_in_069681_2
  1

  0
ATTDEF
  5
19A
330
196
100
AcDbEntity
  8
AM_6
100
AcDbText
 10
4.010403242770462
 20
2.725
 30
0.0
 40
0.5
  1
405015E -Inch
100
AcDbAttributeDefinition
  3

  2
NN
 70
     8
280
     0
  0
ATTDEF
  5
19B
330
196
100
AcDbEntity
  8
AM_6
100
AcDbText
 10
4.010403242770462
 20
2.225
 30
0.0
 40
0.5
  1
Grease Fitting
100
AcDbAttributeDefinition
  3

  2
NT
 70
     8
280
     0
  0
ATTDEF
  5
19C
330
196
100
AcDbEntity
  8
AM_6
100
AcDbText
 10
4.010403242770462
 20
1.725
 30
0.0
 40
0.5
  1
405015E-Inch
100
AcDbAttributeDefinition
  3

  2
NB
 70
     8
280
     0
  0
ATTDEF
  5
19D
330
196
100
AcDbEntity
  8
AM_6
100
AcDbText
 10
4.010403242770462
 20
1.225
 30
0.0
 40
0.5
  1
$MN.-Inch
100
AcDbAttributeDefinition
  3

  2
NBSYN
 70
     8
280
     0
  0
ATTDEF
  5
19E
330
196
100
AcDbEntity
  8
AM_6
100
AcDbText
 10
4.010403242770462
 20
0.7250000000000001
 30
0.0
 40
0.5
  1
405015E
100
AcDbAttributeDefinition
  3

  2
LINA
 70
     8
280
     0
  0
ATTDEF
  5
19F
330
196
100
AcDbEntity
  8
AM_6
100
AcDbText
 10
4.010403242770462
 20
0.2250000000000001
 30
0.0
 40
0.5
  1
405015E
100
AcDbAttributeDefinition
  3

  2
MN
 70
     8
280
     0
  0
ATTDEF
  5
1A0
330
196
100
AcDbEntity
  8
AM_6
100
AcDbText
 10
4.010403242770462
 20
-0.2749999999999999
 30
0.0
 40
0.5
  1
1/8 x 27PTF
100
AcDbAttributeDefinition
  3

  2
T
 70
     8
280
     0
  0
ATTDEF
  5
1A1
330
196
100
AcDbEntity
  8
AM_6
100
AcDbText
 10
4.010403242770462
 20
-0.7749999999999999
 30
0.0
 40
0.5
  1
baldor
100
AcDbAttributeDefinition
  3

  2
COMPANY
 70
     8
280
     0
  0
LINE
  5
1A2
330
196
100
AcDbEntity
  8
AM_9
100
AcDbLine
 10
-1.404090372472269
 20
2.085
 30
0.0
 11
-1.080284627527731
 21
2.085
 31
0.0
  0
LINE
  5
1A3
330
196
100
AcDbEntity
  8
AM_9
100
AcDbLine
 10
-1.080284627527731
 20
2.085
 30
0.0
 11
-1.043569873218785
 21
2.121714754308946
 31
0.0
  0
LINE
  5
1A4
330
196
100
AcDbEntity
  8
AM_9
100
AcDbLine
 10
-1.440805126781215
 20
2.121714754308946
 30
0.0
 11
-1.404090372472269
 21
2.085
 31
0.0
  0
LINE
  5
1A5
330
196
100
AcDbEntity
  8
AM_9
100
AcDbLine
 10
-1.440805126781215
 20
2.121714754308946
 30
0.0
 11
-1.043569873218785
 21
2.121714754308946
 31
0.0
  0
LINE
  5
1A6
330
196
100
AcDbEntity
  8
AM_9
100
AcDbLine
 10
-1.043569873218785
 20
2.121714754308946
 30
0.0
 11
-1.03643560277693
 21
2.35
 31
0.0
  0
LINE
  5
1A7
330
196
100
AcDbEntity
  8
AM_9
100
AcDbLine
 10
-1.44793939722307
 20
2.35
 30
0.0
 11
-1.440805126781215
 21
2.121714754308946
 31
0.0
  0
LINE
  5
1A8
330
196
100
AcDbEntity
  8
AM_5
100
AcDbLine
 10
-1.074038375147652
 20
2.284870087748463
 30
0.0
 11
-1.080284627527731
 21
2.085
 31
0.0
  0
LINE
  5
1A9
330
196
100
AcDbEntity
  8
AM_5
100
AcDbLine
 10
-1.03643560277693
 20
2.35
 30
0.0
 11
-1.074038375147652
 21
2.284870087748463
 31
0.0
  0
LINE
  5
1AA
330
196
100
AcDbEntity
  8
AM_5
100
AcDbLine
 10
-1.445903985751557
 20
2.284870087748463
 30
0.0
 11
-1.038471014248443
 21
2.284870087748463
 31
0.0
  0
LINE
  5
1AB
330
196
100
AcDbEntity
  8
AM_5
100
AcDbLine
 10
-1.410336624852348
 20
2.284870087748463
 30
0.0
 11
-1.404090372472269
 21
2.085
 31
0.0
  0
LINE
  5
1AC
330
196
100
AcDbEntity
  8
AM_5
100
AcDbLine
 10
-1.447939397223069
 20
2.35
 30
0.0
 11
-1.410336624852348
 21
2.284870087748463
 31
0.0
  0
LINE
  5
1AD
330
196
100
AcDbEntity
  8
AM_4
100
AcDbLine
 10
-1.1371875
 20
2.555
 30
0.0
 11
-1.1371875
 21
2.585
 31
0.0
  0
LINE
  5
1AE
330
196
100
AcDbEntity
  8
AM_4
100
AcDbLine
 10
-1.3471875
 20
2.585
 30
0.0
 11
-1.3471875
 21
2.555
 31
0.0
  0
LINE
  5
1AF
330
196
100
AcDbEntity
  8
AM_4
100
AcDbLine
 10
-1.4609375
 20
2.45
 30
0.0
 11
-1.0234375
 21
2.45
 31
0.0
  0
LINE
  5
1B0
330
196
100
AcDbEntity
  8
AM_4
100
AcDbLine
 10
-0.9895967572295387
 20
2.440932400303386
 30
0.0
 11
-1.0234375
 21
2.45
 31
0.0
  0
LINE
  5
1B1
330
196
100
AcDbEntity
  8
AM_4
100
AcDbLine
 10
-1.4609375
 20
2.45
 30
0.0
 11
-1.494778242770461
 21
2.440932400303386
 31
0.0
  0
LINE
  5
1B2
330
196
100
AcDbEntity
  8
AM_4
100
AcDbLine
 10
-1.0234375
 20
2.35
 30
0.0
 11
-0.9895967572295387
 21
2.359067599696615
 31
0.0
  0
LINE
  5
1B3
330
196
100
AcDbEntity
  8
AM_4
100
AcDbLine
 10
-1.494778242770461
 20
2.359067599696615
 30
0.0
 11
-1.4609375
 21
2.35
 31
0.0
  0
LINE
  5
1B4
330
196
100
AcDbEntity
  8
AM_4
100
AcDbLine
 10
-1.3471875
 20
2.555
 30
0.0
 11
-1.1371875
 21
2.555
 31
0.0
  0
LINE
  5
1B5
330
196
100
AcDbEntity
  8
AM_4
100
AcDbLine
 10
-1.3471875
 20
2.555
 30
0.0
 11
-1.361007590734897
 21
2.522753121618572
 31
0.0
  0
LINE
  5
1B6
330
196
100
AcDbEntity
  8
AM_4
100
AcDbLine
 10
-1.123367409265102
 20
2.522753121618572
 30
0.0
 11
-1.1371875
 21
2.555
 31
0.0
  0
LINE
  5
1B7
330
196
100
AcDbEntity
  8
AM_4
100
AcDbLine
 10
-1.3471875
 20
2.585
 30
0.0
 11
-1.1371875
 21
2.585
 31
0.0
  0
LINE
  5
1B8
330
196
100
AcDbEntity
  8
AM_4
100
AcDbLine
 10
-1.1371875
 20
2.585
 30
0.0
 11
-1.1071875
 21
2.645
 31
0.0
  0
LINE
  5
1B9
330
196
100
AcDbEntity
  8
AM_4
100
AcDbLine
 10
-1.3771875
 20
2.645
 30
0.0
 11
-1.3471875
 21
2.585
 31
0.0
  0
LINE
  5
1BA
330
196
100
AcDbEntity
  8
AM_4
100
AcDbLine
 10
-1.344865401933187
 20
2.725
 30
0.0
 11
-1.139509598066813
 21
2.725
 31
0.0
  0
LINE
  5
1BB
330
196
100
AcDbEntity
  8
AM_4
100
AcDbLine
 10
-1.3771875
 20
2.645
 30
0.0
 11
-1.1071875
 21
2.645
 31
0.0
  0
LINE
  5
1BC
330
196
100
AcDbEntity
  8
AM_4
100
AcDbLine
 10
-1.344865401933187
 20
2.725
 30
0.0
 11
-1.3771875
 21
2.645
 31
0.0
  0
LINE
  5
1BD
330
196
100
AcDbEntity
  8
AM_4
100
AcDbLine
 10
-1.1071875
 20
2.645
 30
0.0
 11
-1.139509598066813
 21
2.725
 31
0.0
  0
LINE
  5
1BE
330
196
100
AcDbEntity
  8
AM_4
100
AcDbLine
 10
-1.361007590734897
 20
2.522753121618572
 30
0.0
 11
-1.123367409265102
 21
2.522753121618572
 31
0.0
  0
LINE
  5
1BF
330
196
100
AcDbEntity
  8
AM_4
100
AcDbLine
 10
-1.361007590734898
 20
2.522753121618572
 30
0.0
 11
-1.414721553283015
 21
2.468318198540882
 31
0.0
  0
LINE
  5
1C0
330
196
100
AcDbEntity
  8
AM_4
100
AcDbLine
 10
-1.069653446716985
 20
2.468318198540882
 30
0.0
 11
-1.123367409265102
 21
2.522753121618572
 31
0.0
  0
LINE
  5
1C1
330
196
100
AcDbEntity
  8
AM_4
100
AcDbLine
 10
-1.414721553283015
 20
2.468318198540882
 30
0.0
 11
-1.069653446716985
 21
2.468318198540882
 31
0.0
  0
LINE
  5
1C2
330
196
100
AcDbEntity
  8
AM_4
100
AcDbLine
 10
-1.414721553283015
 20
2.468318198540882
 30
0.0
 11
-1.4559375
 21
2.45
 31
0.0
  0
LINE
  5
1C3
330
196
100
AcDbEntity
  8
AM_4
100
AcDbLine
 10
-1.0284375
 20
2.45
 30
0.0
 11
-1.069653446716985
 21
2.468318198540882
 31
0.0
  0
LINE
  5
1C4
330
196
100
AcDbEntity
  8
AM_4
100
AcDbLine
 10
-0.9895967572295387
 20
2.440932400303386
 30
0.0
 11
-0.9895967572295387
 21
2.359067599696615
 31
0.0
  0
LWPOLYLINE
  5
1C5
330
196
100
AcDbEntity
  8
AM_4
100
AcDbPolyline
 90
        4
 70
     0
 43
0.0
 10
-1.052744442922154
 20
2.45
 10
-1.036957521499
 20
2.449392585996001
 10
-1.021170600075846
 20
2.447606619214965
 10
-0.9895967572295387
 20
2.440932400303386
  0
LWPOLYLINE
  5
1C6
330
196
100
AcDbEntity
  8
AM_4
100
AcDbPolyline
 90
        4
 70
     0
 43
0.0
 10
-0.9895967572295387
 20
2.359067599696615
 10
-1.021028635576436
 20
2.35241452494962
 10
-1.036864424397847
 20
2.350614561814227
 10
-1.052744442922154
 20
2.35
  0
LWPOLYLINE
  5
1C7
330
196
100
AcDbEntity
  8
AM_4
100
AcDbPolyline
 90
        4
 70
     0
 43
0.0
 10
-1.115892128614769
 20
2.440932400303386
 10
-1.084460250267872
 20
2.44758547505038
 10
-1.068624461446461
 20
2.449385438185773
 10
-1.052744442922154
 20
2.45
  0
LWPOLYLINE
  5
1C8
330
196
100
AcDbEntity
  8
AM_4
100
AcDbPolyline
 90
        4
 70
     0
 43
0.0
 10
-1.431630557077846
 20
2.45
 10
-1.415843635654692
 20
2.449392585996001
 10
-1.400056714231538
 20
2.447606619214965
 10
-1.36848287138523
 20
2.440932400303386
  0
LWPOLYLINE
  5
1C9
330
196
100
AcDbEntity
  8
AM_4
100
AcDbPolyline
 90
        4
 70
     0
 43
0.0
 10
-1.494778242770461
 20
2.440932400303386
 10
-1.463346364423564
 20
2.44758547505038
 10
-1.447510575602153
 20
2.449385438185773
 10
-1.431630557077846
 20
2.45
  0
LINE
  5
1CA
330
196
100
AcDbEntity
  8
AM_4
100
AcDbLine
 10
-1.494778242770461
 20
2.440932400303386
 30
0.0
 11
-1.494778242770461
 21
2.359067599696615
 31
0.0
  0
LWPOLYLINE
  5
1CB
330
196
100
AcDbEntity
  8
AM_4
100
AcDbPolyline
 90
        4
 70
     0
 43
0.0
 10
-1.431630557077846
 20
2.35
 10
-1.447417478501
 20
2.350607414003999
 10
-1.463204399924154
 20
2.352393380785035
 10
-1.494778242770461
 20
2.359067599696615
  0
LWPOLYLINE
  5
1CC
330
196
100
AcDbEntity
  8
AM_4
100
AcDbPolyline
 90
        4
 70
     0
 43
0.0
 10
-1.36848287138523
 20
2.359067599696615
 10
-1.399914749732128
 20
2.35241452494962
 10
-1.415750538553539
 20
2.350614561814227
 10
-1.431630557077846
 20
2.35
  0
LINE
  5
1CD
330
196
100
AcDbEntity
  8
AM_4
100
AcDbLine
 10
-1.115892128614769
 20
2.440932400303386
 30
0.0
 11
-1.115892128614769
 21
2.359067599696615
 31
0.0
  0
LWPOLYLINE
  5
1CE
330
196
100
AcDbEntity
  8
AM_4
100
AcDbPolyline
 90
        4
 70
     0
 43
0.0
 10
-1.2421875
 20
2.45
 10
-1.193787683944101
 20
2.448582439282863
 10
-1.145387867888202
 20
2.444517587482157
 10
-1.115892128614769
 20
2.440932400303386
  0
LWPOLYLINE
  5
1CF
330
196
100
AcDbEntity
  8
AM_4
100
AcDbPolyline
 90
        4
 70
     0
 43
0.0
 10
-1.36848287138523
 20
2.440932400303386
 10
-1.305619114691437
 20
2.44758547505038
 10
-1.273947537048614
 20
2.449385438185773
 10
-1.2421875
 20
2.45
  0
LINE
  5
1D0
330
196
100
AcDbEntity
  8
AM_4
100
AcDbLine
 10
-1.36848287138523
 20
2.440932400303386
 30
0.0
 11
-1.36848287138523
 21
2.359067599696615
 31
0.0
  0
LWPOLYLINE
  5
1D1
330
196
100
AcDbEntity
  8
AM_4
100
AcDbPolyline
 90
        4
 70
     0
 43
0.0
 10
-1.2421875
 20
2.35
 10
-1.273761342846308
 20
2.350607414003999
 10
-1.305335185692615
 20
2.352393380785035
 10
-1.36848287138523
 20
2.359067599696615
  0
LWPOLYLINE
  5
1D2
330
196
100
AcDbEntity
  8
AM_4
100
AcDbPolyline
 90
        4
 70
     0
 43
0.0
 10
-1.052744442922154
 20
2.35
 10
-1.068531364345308
 20
2.350607414003999
 10
-1.084318285768462
 20
2.352393380785035
 10
-1.115892128614769
 20
2.359067599696615
  0
LWPOLYLINE
  5
1D3
330
196
100
AcDbEntity
  8
AM_4
100
AcDbPolyline
 90
        4
 70
     0
 43
0.0
 10
-1.115892128614769
 20
2.359067599696615
 10
-1.145387867888202
 20
2.355482412517844
 10
-1.193645058752246
 20
2.351425828243072
 10
-1.2421875
 20
2.35
  0
ENDBLK
  5
199
330
196
100
AcDbEntity
  8
0
100
AcDbBlockEnd
  0
BLOCK
  5
1D6
330
1D4
100
AcDbEntity
  8
0
100
AcDbBlockBegin
  2
7_069681H_0_in_069681_2
 70
     2
 10
0.0
 20
0.0
 30
0.0
  3
7_069681H_0_in_069681_2
  1

  0
ATTDEF
  5
1D8
330
1D4
100
AcDbEntity
  8
AM_6
100
AcDbText
 10
5.02953125
 20
3.46875
 30
0.0
 40
0.5
  1
F3&4R-IP -(Labyrinth Seal)-Housing -Inch
100
AcDbAttributeDefinition
  3

  2
NN
 70
     8
280
     0
  0
ATTDEF
  5
1D9
330
1D4
100
AcDbEntity
  8
AM_6
100
AcDbText
 10
5.02953125
 20
2.96875
 30
0.0
 40
0.5
  1
Imperial 3 & 4 Bolt Round Flange Bearings
100
AcDbAttributeDefinition
  3

  2
NT
 70
     8
280
     0
  0
ATTDEF
  5
1DA
330
1D4
100
AcDbEntity
  8
AM_6
100
AcDbText
 10
5.02953125
 20
2.46875
 30
0.0
 40
0.5
  1
069681H
100
AcDbAttributeDefinition
  3

  2
NB
 70
     8
280
     0
  0
ATTDEF
  5
1DB
330
1D4
100
AcDbEntity
  8
AM_6
100
AcDbText
 10
5.02953125
 20
1.96875
 30
0.0
 40
0.5
  1
$PN.H
100
AcDbAttributeDefinition
  3

  2
NBSYN
 70
     8
280
     0
  0
ATTDEF
  5
1DC
330
1D4
100
AcDbEntity
  8
AM_6
100
AcDbText
 10
5.02953125
 20
1.46875
 30
0.0
 40
0.5
  1
069681
100
AcDbAttributeDefinition
  3

  2
LINA
 70
     8
280
     0
  0
ATTDEF
  5
1DD
330
1D4
100
AcDbEntity
  8
AM_6
100
AcDbText
 10
5.02953125
 20
0.96875
 30
0.0
 40
0.5
  1
1-7/8
100
AcDbAttributeDefinition
  3

  2
SS
 70
     8
280
     0
  0
ATTDEF
  5
1DE
330
1D4
100
AcDbEntity
  8
AM_6
100
AcDbText
 10
5.02953125
 20
0.46875
 30
0.0
 40
0.5
  1
069681
100
AcDbAttributeDefinition
  3

  2
PN
 70
     8
280
     0
  0
ATTDEF
  5
1DF
330
1D4
100
AcDbEntity
  8
AM_6
100
AcDbText
 10
5.02953125
 20
-0.03125
 30
0.0
 40
0.5
  1
F4R-IP-114LE
100
AcDbAttributeDefinition
  3

  2
DESCRIPTION
 70
     8
280
     0
  0
ATTDEF
  5
1E0
330
1D4
100
AcDbEntity
  8
AM_6
100
AcDbText
 10
5.02953125
 20
-0.53125
 30
0.0
 40
0.5
  1
Expansion Type
100
AcDbAttributeDefinition
  3

  2
EF
 70
     8
280
     0
  0
ATTDEF
  5
1E1
330
1D4
100
AcDbEntity
  8
AM_6
100
AcDbText
 10
5.02953125
 20
-1.03125
 30
0.0
 40
0.5
  1
Labyrinth Seal
100
AcDbAttributeDefinition
  3

  2
ST
 70
     8
280
     0
  0
ATTDEF
  5
1E2
330
1D4
100
AcDbEntity
  8
AM_6
100
AcDbText
 10
5.02953125
 20
-1.53125
 30
0.0
 40
0.5
  1
2-55/64
100
AcDbAttributeDefinition
  3

  2
A
 70
     8
280
     0
  0
ATTDEF
  5
1E3
330
1D4
100
AcDbEntity
  8
AM_6
100
AcDbText
 10
5.02953125
 20
-2.03125
 30
0.0
 40
0.5
  1
6-11/16
100
AcDbAttributeDefinition
  3

  2
B
 70
     8
280
     0
  0
ATTDEF
  5
1E4
330
1D4
100
AcDbEntity
  8
AM_6
100
AcDbText
 10
5.02953125
 20
-2.53125
 30
0.0
 40
0.5
  1
3-5/32
100
AcDbAttributeDefinition
  3

  2
C
 70
     8
280
     0
  0
ATTDEF
  5
1E5
330
1D4
100
AcDbEntity
  8
AM_6
100
AcDbText
 10
5.02953125
 20
-3.03125
 30
0.0
 40
0.5
  1
4-1/16
100
AcDbAttributeDefinition
  3

  2
D
 70
     8
280
     0
  0
ATTDEF
  5
1E6
330
1D4
100
AcDbEntity
  8
AM_6
100
AcDbText
 10
5.02953125
 20
-3.53125
 30
0.0
 40
0.5
  1
5-3/4
100
AcDbAttributeDefinition
  3

  2
DD
 70
     8
280
     0
  0
ATTDEF
  5
1E7
330
1D4
100
AcDbEntity
  8
AM_6
100
AcDbText
 10
5.02953125
 20
-4.03125
 30
0.0
 40
0.5
  1
1-59/64
100
AcDbAttributeDefinition
  3

  2
E
 70
     8
280
     0
  0
ATTDEF
  5
1E8
330
1D4
100
AcDbEntity
  8
AM_6
100
AcDbText
 10
5.02953125
 20
-4.53125
 30
0.0
 40
0.5
  1
1/2
100
AcDbAttributeDefinition
  3

  2
F
 70
     8
280
     0
  0
ATTDEF
  5
1E9
330
1D4
100
AcDbEntity
  8
AM_6
100
AcDbText
 10
5.02953125
 20
-5.03125
 30
0.0
 40
0.5
  1
9/16
100
AcDbAttributeDefinition
  3

  2
H
 70
     8
280
     0
  0
ATTDEF
  5
1EA
330
1D4
100
AcDbEntity
  8
AM_6
100
AcDbText
 10
5.02953125
 20
-5.53125
 30
0.0
 40
0.5
  1
4-1/2
100
AcDbAttributeDefinition
  3

  2
J
 70
     8
280
     0
  0
ATTDEF
  5
1EB
330
1D4
100
AcDbEntity
  8
AM_6
100
AcDbText
 10
5.02953125
 20
-6.03125
 30
0.0
 40
0.5
  1
3-9/32
100
AcDbAttributeDefinition
  3

  2
L
 70
     8
280
     0
  0
ATTDEF
  5
1EC
330
1D4
100
AcDbEntity
  8
AM_6
100
AcDbText
 10
5.02953125
 20
-6.53125
 30
0.0
 40
0.5
  1
19/64
100
AcDbAttributeDefinition
  3

  2
P
 70
     8
280
     0
  0
ATTDEF
  5
1ED
330
1D4
100
AcDbEntity
  8
AM_6
100
AcDbText
 10
5.02953125
 20
-7.03125
 30
0.0
 40
0.5
  1
1/4
100
AcDbAttributeDefinition
  3

  2
X
 70
     8
280
     0
  0
ATTDEF
  5
1EE
330
1D4
100
AcDbEntity
  8
AM_6
100
AcDbText
 10
5.02953125
 20
-7.53125
 30
0.0
 40
0.5
  1
0.020
100
AcDbAttributeDefinition
  3

  2
Y
 70
     8
280
     0
  0
ATTDEF
  5
1EF
330
1D4
100
AcDbEntity
  8
AM_6
100
AcDbText
 10
5.02953125
 20
-8.03125
 30
0.0
 40
0.5
  1
2-19/64
100
AcDbAttributeDefinition
  3

  2
Z
 70
     8
280
     0
  0
ATTDEF
  5
1F0
330
1D4
100
AcDbEntity
  8
AM_6
100
AcDbText
 10
5.02953125
 20
-8.53125
 30
0.0
 40
0.5
  1
baldor
100
AcDbAttributeDefinition
  3

  2
COMPANY
 70
     8
280
     0
  0
LINE
  5
1F1
330
1D4
100
AcDbEntity
  8
AM_9
100
AcDbLine
 10
-0.50625
 20
3.21875
 30
0.0
 11
0.0
 21
3.21875
 31
0.0
  0
LINE
  5
1F2
330
1D4
100
AcDbEntity
  8
AM_9
100
AcDbLine
 10
-0.50625
 20
-2.063700611073405
 30
0.0
 11
-0.5624999999999999
 21
-2.063700611073405
 31
0.0
  0
LINE
  5
1F3
330
1D4
100
AcDbEntity
  8
AM_9
100
AcDbLine
 10
-0.50625
 20
-2.043355216055917
 30
0.0
 11
-0.5624999999999999
 21
-2.043355216055917
 31
0.0
  0
LINE
  5
1F4
330
1D4
100
AcDbEntity
  8
AM_9
100
AcDbLine
 10
-0.50625
 20
2.063700611073405
 30
0.0
 11
-0.5624999999999999
 21
2.063700611073405
 31
0.0
  0
LINE
  5
1F5
330
1D4
100
AcDbEntity
  8
AM_9
100
AcDbLine
 10
-0.5624999999999999
 20
2.043355216055916
 30
0.0
 11
-0.50625
 21
2.043355216055916
 31
0.0
  0
LINE
  5
1F6
330
1D4
100
AcDbEntity
  8
AM_9
100
AcDbLine
 10
-0.50625
 20
2.053195448620434
 30
0.0
 11
-0.5624999999999999
 21
2.053195448620434
 31
0.0
  0
LINE
  5
1F7
330
1D4
100
AcDbEntity
  8
AM_9
100
AcDbLine
 10
-0.50625
 20
2.25
 30
0.0
 11
-0.5624999999999999
 21
2.25
 31
0.0
  0
LINE
  5
1F8
330
1D4
100
AcDbEntity
  8
AM_9
100
AcDbLine
 10
-0.50625
 20
-2.053195443862778
 30
0.0
 11
-0.5624999999999999
 21
-2.053195443862778
 31
0.0
  0
LINE
  5
1F9
330
1D4
100
AcDbEntity
  8
AM_9
100
AcDbLine
 10
-0.5625000000000001
 20
-2.25
 30
0.0
 11
-0.50625
 21
-2.25
 31
0.0
  0
LINE
  5
1FA
330
1D4
100
AcDbEntity
  8
AM_9
100
AcDbLine
 10
-1.921875
 20
-1.77165
 30
0.0
 11
-0.05625
 21
-1.77165
 31
0.0
  0
LINE
  5
1FB
330
1D4
100
AcDbEntity
  8
AM_9
100
AcDbLine
 10
-0.05625
 20
1.77165
 30
0.0
 11
-1.921875
 21
1.77165
 31
0.0
  0
LINE
  5
1FC
330
1D4
100
AcDbEntity
  8
AM_9
100
AcDbLine
 10
-0.05625
 20
-2.142857142857143
 30
0.0
 11
0.0
 21
-2.142857142857143
 31
0.0
  0
LINE
  5
1FD
330
1D4
100
AcDbEntity
  8
AM_9
100
AcDbLine
 10
0.0
 20
2.142857142857143
 30
0.0
 11
-0.05625
 21
2.142857142857143
 31
0.0
  0
LINE
  5
1FE
330
1D4
100
AcDbEntity
  8
AM_9
100
AcDbLine
 10
-0.05625
 20
2.142857142857143
 30
0.0
 11
-0.05625
 21
-2.142857142857143
 31
0.0
  0
LINE
  5
1FF
330
1D4
100
AcDbEntity
  8
AM_9
100
AcDbLine
 10
-0.5624999999999999
 20
1.782931995911324
 30
0.0
 11
0.0000000000000001
 21
1.782931995911324
 31
0.0
  0
LINE
  5
200
330
1D4
100
AcDbEntity
  8
AM_9
100
AcDbLine
 10
0.0000000000000001
 20
2.282931995911324
 30
0.0
 11
-0.5624999999999999
 21
2.282931995911324
 31
0.0
  0
LINE
  5
201
330
1D4
100
AcDbEntity
  8
AM_9
100
AcDbLine
 10
-0.5624999999999999
 20
-2.282931995911324
 30
0.0
 11
0.0000000000000001
 21
-2.282931995911324
 31
0.0
  0
LINE
  5
202
330
1D4
100
AcDbEntity
  8
AM_9
100
AcDbLine
 10
0.0000000000000001
 20
-1.782931995911324
 30
0.0
 11
-0.5624999999999999
 21
-1.782931995911324
 31
0.0
  0
LINE
  5
203
330
1D4
100
AcDbEntity
  8
AM_7
100
AcDbLine
 10
0.0295312499999999
 20
2.032931995911324
 30
0.0
 11
-0.6201562500000002
 21
2.032931995911324
 31
0.0
  0
LINE
  5
204
330
1D4
100
AcDbEntity
  8
AM_7
100
AcDbLine
 10
0.0295312499999999
 20
-2.032931995911324
 30
0.0
 11
-0.6201562500000002
 21
-2.032931995911324
 31
0.0
  0
LINE
  5
205
330
1D4
100
AcDbEntity
  8
AM_7
100
AcDbLine
 10
0.02953125
 20
3.46875
 30
0.0
 11
-0.6201562500000001
 21
3.46875
 31
0.0
  0
LINE
  5
206
330
1D4
100
AcDbEntity
  8
AM_7
100
AcDbLine
 10
-1.2421875
 20
2.757
 30
0.0
 11
-1.2421875
 21
1.825
 31
0.0
  0
LINE
  5
207
330
1D4
100
AcDbEntity
  8
AM_4
100
AcDbLine
 10
-1.642187499999999
 20
2.35
 30
0.0
 11
-0.8421875000391401
 21
2.35
 31
0.0
  0
ARC
  5
208
330
1D4
100
AcDbEntity
  8
AM_4
100
AcDbCircle
 10
-0.8421875000000003
 20
2.249999999999999
 30
0.0
 40
0.1000000000000005
100
AcDbArc
 50
0.0
 51
90.0
  0
ARC
  5
209
330
1D4
100
AcDbEntity
  8
AM_4
100
AcDbCircle
 10
-1.6421875
 20
2.25
 30
0.0
 40
0.1000000000000001
100
AcDbArc
 50
90.0
 51
180.0
  0
LINE
  5
20A
330
1D4
100
AcDbEntity
  8
AM_4
100
AcDbLine
 10
-1.7421875
 20
2.25
 30
0.0
 11
-0.7421874999999998
 21
2.25
 31
0.0
  0
LWPOLYLINE
  5
20B
330
1D4
100
AcDbEntity
  8
AM_4
100
AcDbPolyline
 90
       38
 70
     0
 43
0.0
 10
-1.7421875
 20
2.25
 10
-1.74050456392849
 20
2.249626030872164
 10
-1.735481468498949
 20
2.248519277070455
 10
-1.726850457064016
 20
2.246640989262188
 10
-1.714792787136918
 20
2.24407124606813
 10
-1.699882233860104
 20
2.240978151312504
 10
-1.681938873926292
 20
2.237382683152362
 10
-1.660449898913981
 20
2.233258382222384
 10
-1.636043239641734
 20
2.228816354850426
 10
-1.609252756272419
 20
2.224238685235323
 10
-1.579963091251585
 20
2.219592834293118
 10
-1.54742763231648
 20
2.214875619175835
 10
-1.512672189620791
 20
2.210353358022028
 10
-1.476574532051119
 20
2.206227805124256
 10
-1.438802614602791
 20
2.20253433646113
 10
-1.398412036615463
 20
2.199298090753041
 10
-1.356815753303545
 20
2.196733856536886
 10
-1.316246354010673
 20
2.194992183987074
 10
-1.275148166848676
 20
2.193988697682627
 10
-1.232563348470006
 20
2.193763819538217
 10
-1.190051756949833
 20
2.194360530018573
 10
-1.149902205828876
 20
2.195682575489234
 10
-1.110386452590485
 20
2.197696866289399
 10
-1.070684552841857
 20
2.200435909259082
 10
-1.032210341944018
 20
2.203767321407881
 10
-0.9959333455051584
 20
2.207519954803491
 10
-0.9613212357857033
 20
2.211647769961052
 10
-0.9277177424731858
 20
2.216166359761309
 10
-0.8963251948842266
 20
2.220837845071089
 10
-0.8675175961794097
 20
2.225506280148201
 10
-0.8412909067165836
 20
2.230071316910347
 10
-0.8171951767555998
 20
2.234528541900812
 10
-0.7961953380282295
 20
2.238617655728699
 10
-0.7788899356230062
 20
2.242129108218879
 10
-0.7647987548415479
 20
2.245083520496278
 10
-0.7537699581787013
 20
2.247453863204006
 10
-0.746361372413246
 20
2.249076154512709
 10
-0.7421874999999998
 20
2.25
  0
LINE
  5
20C
330
1D4
100
AcDbEntity
  8
AM_4
100
AcDbLine
 10
-0.5624999999999999
 20
2.25
 30
0.0
 11
-0.7421874999999998
 21
2.25
 31
0.0
  0
LINE
  5
20D
330
1D4
100
AcDbEntity
  8
AM_4
100
AcDbLine
 10
-1.7421875
 20
2.25
 30
0.0
 11
-1.865625
 21
2.25
 31
0.0
  0
LINE
  5
20E
330
1D4
100
AcDbEntity
  8
AM_4
100
AcDbLine
 10
-1.865625
 20
-2.25
 30
0.0
 11
-0.5625000000000001
 21
-2.25
 31
0.0
  0
LINE
  5
20F
330
1D4
100
AcDbEntity
  8
AM_4
100
AcDbLine
 10
-1.865625
 20
-1.907340512878286
 30
0.0
 11
-0.5625
 21
-1.907340512878286
 31
0.0
  0
LINE
  5
210
330
1D4
100
AcDbEntity
  8
AM_4
100
AcDbLine
 10
-1.865625
 20
1.907340515606675
 30
0.0
 11
-0.5624999999999999
 21
1.907340515606675
 31
0.0
  0
LWPOLYLINE
  5
211
330
1D4
100
AcDbEntity
  8
AM_4
100
AcDbPolyline
 90
        4
 70
     0
 43
0.0
 10
-1.865625
 20
1.907340515606675
 10
-1.865840407669646
 20
1.907231206773701
 10
-1.876750655791444
 20
1.900755128554457
 10
-1.887684908335964
 20
1.892320668503312
  0
ARC
  5
212
330
1D4
100
AcDbEntity
  8
AM_4
100
AcDbCircle
 10
-1.865625
 20
2.19375
 30
0.0
 40
0.0562499999999999
100
AcDbArc
 50
90.0
 51
180.0
  0
LINE
  5
213
330
1D4
100
AcDbEntity
  8
AM_4
100
AcDbLine
 10
-1.865625
 20
2.25
 30
0.0
 11
-1.865625
 21
1.907340515606675
 31
0.0
  0
LINE
  5
214
330
1D4
100
AcDbEntity
  8
AM_4
100
AcDbLine
 10
-1.921875
 20
2.19375
 30
0.0
 11
-1.921875
 21
-2.19375
 31
0.0
  0
LWPOLYLINE
  5
215
330
1D4
100
AcDbEntity
  8
AM_4
100
AcDbPolyline
 90
        4
 70
     0
 43
0.0
 10
-1.887684901020552
 20
-1.89232067485955
 10
-1.877003781538343
 20
-1.900582667932889
 10
-1.86584040766967
 20
-1.907231206773712
 10
-1.865625
 20
-1.907340512878284
  0
LINE
  5
216
330
1D4
100
AcDbEntity
  8
AM_4
100
AcDbLine
 10
-1.865625
 20
-1.907340512878286
 30
0.0
 11
-1.865625
 21
-2.25
 31
0.0
  0
ARC
  5
217
330
1D4
100
AcDbEntity
  8
AM_4
100
AcDbCircle
 10
-1.865625
 20
-2.19375
 30
0.0
 40
0.0562500000000001
100
AcDbArc
 50
180.0
 51
270.0
  0
LINE
  5
218
330
1D4
100
AcDbEntity
  8
AM_4
100
AcDbLine
 10
-1.887684908335964
 20
1.892320668503312
 30
0.0
 11
-0.5624999999999999
 21
1.892320668503312
 31
0.0
  0
LWPOLYLINE
  5
219
330
1D4
100
AcDbEntity
  8
AM_4
100
AcDbPolyline
 90
        7
 70
     0
 43
0.0
 10
-1.921875
 20
1.772420833465405
 10
-1.920467087631661
 20
1.804807240288826
 10
-1.915340121947721
 20
1.83760257687713
 10
-1.910497999609137
 20
1.854695608710259
 10
-1.903435430827625
 20
1.871324404324138
 10
-1.896665656861181
 20
1.882417774276153
 10
-1.887684908335964
 20
1.892320668503312
  0
LINE
  5
21A
330
1D4
100
AcDbEntity
  8
AM_4
100
AcDbLine
 10
-1.887684901020552
 20
-1.89232067485955
 30
0.0
 11
-0.5624999999999999
 21
-1.89232067485955
 31
0.0
  0
LWPOLYLINE
  5
21B
330
1D4
100
AcDbEntity
  8
AM_4
100
AcDbPolyline
 90
        6
 70
     0
 43
0.0
 10
-1.887684901020552
 20
-1.89232067485955
 10
-1.896401644519838
 20
-1.882773404909514
 10
-1.903032650130096
 20
-1.872092666411835
 10
-1.913468889069869
 20
-1.844997331034513
 10
-1.919155195838766
 20
-1.816448629283863
 10
-1.921875
 20
-1.772420833465406
  0
LINE
  5
21C
330
1D4
100
AcDbEntity
  8
AM_4
100
AcDbLine
 10
-1.887684908335965
 20
-1.20886930012155
 30
0.0
 11
-0.5624999999999999
 21
-1.20886930012155
 31
0.0
  0
LINE
  5
21D
330
1D4
100
AcDbEntity
  8
AM_4
100
AcDbLine
 10
-1.88768491565136
 20
1.208869304278209
 30
0.0
 11
-0.5624999999999999
 21
1.208869304278209
 31
0.0
  0
LINE
  5
21E
330
1D4
100
AcDbEntity
  8
AM_4
100
AcDbLine
 10
-0.5624999999999999
 20
-0.9202654408471599
 30
0.0
 11
-0.5624999999999999
 21
-2.677543132873264
 31
0.0
  0
LINE
  5
21F
330
1D4
100
AcDbEntity
  8
AM_4
100
AcDbLine
 10
-0.5624999999999999
 20
2.677543132873264
 30
0.0
 11
-0.5624999999999999
 21
0.9202654341553471
 31
0.0
  0
LINE
  5
220
330
1D4
100
AcDbEntity
  8
AM_4
100
AcDbLine
 10
-0.5062499999999999
 20
0.9202654341553471
 30
0.0
 11
-0.5624999999999999
 21
0.9202654341553471
 31
0.0
  0
LINE
  5
221
330
1D4
100
AcDbEntity
  8
AM_4
100
AcDbLine
 10
-1.865625
 20
1.193546047680274
 30
0.0
 11
-0.5624999999999999
 21
1.193546047680275
 31
0.0
  0
LINE
  5
222
330
1D4
100
AcDbEntity
  8
AM_4
100
AcDbLine
 10
-1.865625
 20
-1.193546052040368
 30
0.0
 11
-0.5624999999999999
 21
-1.193546052040368
 31
0.0
  0
LINE
  5
223
330
1D4
100
AcDbEntity
  8
AM_4
100
AcDbLine
 10
-0.5062499999999999
 20
-0.9202654408471599
 30
0.0
 11
-0.5624999999999999
 21
-0.9202654408471599
 31
0.0
  0
LWPOLYLINE
  5
224
330
1D4
100
AcDbEntity
  8
AM_4
100
AcDbPolyline
 90
        4
 70
     0
 43
0.0
 10
-1.88768491565136
 20
1.208869304278209
 10
-1.877003789376257
 20
1.202103874575872
 10
-1.865840407669649
 20
1.193719928577609
 10
-1.865625
 20
1.193546047680274
  0
LWPOLYLINE
  5
225
330
1D4
100
AcDbEntity
  8
AM_4
100
AcDbPolyline
 90
        6
 70
     0
 43
0.0
 10
-1.88768491565136
 20
1.208869304278209
 10
-1.896266562021066
 20
1.215049538597762
 10
-1.903032658181006
 20
1.222246293714151
 10
-1.913468898048335
 20
1.240638879516712
 10
-1.91915520256577
 20
1.260621217701945
 10
-1.921875
 20
1.29269619462494
  0
LWPOLYLINE
  5
226
330
1D4
100
AcDbEntity
  8
AM_4
100
AcDbPolyline
 90
        7
 70
     0
 43
0.0
 10
-1.921875
 20
-1.292696194624939
 10
-1.920467087948707
 20
-1.268951441472599
 10
-1.915340123563906
 20
-1.24575460494515
 10
-1.910513006213587
 20
-1.234064266891288
 10
-1.903435433084693
 20
-1.222760257179873
 10
-1.896766059251362
 20
-1.215500038226159
 10
-1.887684908335965
 20
-1.20886930012155
  0
LWPOLYLINE
  5
227
330
1D4
100
AcDbEntity
  8
AM_4
100
AcDbPolyline
 90
        4
 70
     0
 43
0.0
 10
-1.865625
 20
-1.193546052040368
 10
-1.865840407669689
 20
-1.193719928577575
 10
-1.876750655791442
 20
-1.20192785675109
 10
-1.887684908335965
 20
-1.20886930012155
  0
LINE
  5
228
330
1D4
100
AcDbEntity
  8
AM_4
100
AcDbLine
 10
-1.865625
 20
1.193546047680274
 30
0.0
 11
-1.865625
 21
-1.193546052040368
 31
0.0
  0
LINE
  5
229
330
1D4
100
AcDbEntity
  8
AM_4
100
AcDbLine
 10
-0.5062499999999999
 20
-1.030806054952608
 30
0.0
 11
-0.5624999999999999
 21
-1.030806054952608
 31
0.0
  0
LWPOLYLINE
  5
22A
330
1D4
100
AcDbEntity
  8
AM_4
100
AcDbPolyline
 90
        6
 70
     0
 43
0.0
 10
-0.5062499999999991
 20
-1.956303756383817
 10
-0.5240873585136334
 20
-1.95378558370572
 10
-0.5399121792067995
 20
-1.946600987081724
 10
-0.5523998555158003
 20
-1.935399674057832
 10
-0.5603598451606443
 20
-1.920818011602043
 10
-0.5624999999999999
 20
-1.907464028914628
  0
LWPOLYLINE
  5
22B
330
1D4
100
AcDbEntity
  8
AM_4
100
AcDbPolyline
 90
        7
 70
     0
 43
0.0
 10
-0.5624999999999999
 20
-2.677543132873264
 10
-0.5623692897203711
 20
-2.679875427684734
 10
-0.5574545883585404
 20
-2.691707763699147
 10
-0.5459327237661262
 20
-2.701787921248164
 10
-0.5297454820504878
 20
-2.708617865681458
 10
-0.5115362768476421
 20
-2.711589883034288
 10
-0.5062499999999999
 20
-2.711741078211298
  0
LINE
  5
22C
330
1D4
100
AcDbEntity
  8
AM_4
100
AcDbLine
 10
-0.5062499999999999
 20
1.030806054952607
 30
0.0
 11
-0.5624999999999999
 21
1.030806054952607
 31
0.0
  0
LWPOLYLINE
  5
22D
330
1D4
100
AcDbEntity
  8
AM_4
100
AcDbPolyline
 90
        6
 70
     0
 43
0.0
 10
-0.5062499999999999
 20
2.711741078211298
 10
-0.5240873585136334
 20
2.70997783471958
 10
-0.5399121792067995
 20
2.704947126004462
 10
-0.5523998555158002
 20
2.697103882187287
 10
-0.5603598451606443
 20
2.686893692216114
 10
-0.5624999999999999
 20
2.677543132873264
  0
LWPOLYLINE
  5
22E
330
1D4
100
AcDbEntity
  8
AM_4
100
AcDbPolyline
 90
        7
 70
     0
 43
0.0
 10
-0.5624999999999999
 20
1.907464028914628
 10
-0.5623692897203711
 20
1.910794891100766
 10
-0.5574545883585404
 20
1.927693218194852
 10
-0.5459327237661262
 20
1.942089175106128
 10
-0.5297454820504878
 20
1.951843346634696
 10
-0.5115362768476421
 20
1.956087827293142
 10
-0.5062499999999999
 20
1.956303756383817
  0
LINE
  5
22F
330
1D4
100
AcDbEntity
  8
AM_4
100
AcDbLine
 10
-0.5062499999999999
 20
1.956303756383817
 30
0.0
 11
-0.5062499999999991
 21
-1.956303756383817
 31
0.0
  0
LINE
  5
230
330
1D4
100
AcDbEntity
  8
AM_4
100
AcDbLine
 10
-0.50625
 20
3.336993243243243
 30
0.0
 11
0.0
 21
3.336993243243244
 31
0.0
  0
LINE
  5
231
330
1D4
100
AcDbEntity
  8
AM_4
100
AcDbLine
 10
-0.50625
 20
3.336993243243243
 30
0.0
 11
-0.5062499999999999
 21
2.711741078211298
 31
0.0
  0
LINE
  5
232
330
1D4
100
AcDbEntity
  8
AM_4
100
AcDbLine
 10
-0.5062499999999999
 20
2.711741078211298
 30
0.0
 11
-0.5062499999999999
 21
1.956303756383817
 31
0.0
  0
LINE
  5
233
330
1D4
100
AcDbEntity
  8
AM_4
100
AcDbLine
 10
-0.5062499999999991
 20
-1.956303756383817
 30
0.0
 11
-0.5062499999999999
 21
-2.711741078211298
 31
0.0
  0
LINE
  5
234
330
1D4
100
AcDbEntity
  8
AM_4
100
AcDbLine
 10
-0.5062499999999999
 20
-2.711741078211298
 30
0.0
 11
-0.5062499999999993
 21
-3.34375
 31
0.0
  0
LINE
  5
235
330
1D4
100
AcDbEntity
  8
AM_4
100
AcDbLine
 10
0.0
 20
3.336993243243244
 30
0.0
 11
0.0
 21
-3.34375
 31
0.0
  0
LINE
  5
236
330
1D4
100
AcDbEntity
  8
AM_4
100
AcDbLine
 10
-0.5062499999999993
 20
-3.34375
 30
0.0
 11
0.0
 21
-3.34375
 31
0.0
  0
ENDBLK
  5
1D7
330
1D4
100
AcDbEntity
  8
0
100
AcDbBlockEnd
  0
ENDSEC
  0
SECTION
  2
ENTITIES
  0
INSERT
  5
6F
330
1F
100
AcDbEntity
  8
0
100
AcDbBlockReference
  2
1_069681_2
 10
0.0
 20
0.0
 30
0.0
  0
POINT
  5
238
330
1F
100
AcDbEntity
  8
ConnectionPoints
100
AcDbPoint
 10
-2.743416666666666
 20
0.9483333133100834
 30
-0.9483333133100831
  0
POINT
  5
239
330
1F
100
AcDbEntity
  8
ConnectionPoints
100
AcDbPoint
 10
-2.673416666666666
 20
0.0
 30
0.0000000000000002
  0
POINT
  5
23A
330
1F
100
AcDbEntity
  8
ConnectionPoints
100
AcDbPoint
 10
-2.90625
 20
0.0
 30
0.0000000000000002
  0
POINT
  5
23B
330
1F
100
AcDbEntity
  8
ConnectionPoints
100
AcDbPoint
 10
-2.872416666666667
 20
0.0
 30
0.0000000000000002
  0
POINT
  5
23C
330
1F
100
AcDbEntity
  8
ConnectionPoints
100
AcDbPoint
 10
-2.673416666666666
 20
0.9483333133100834
 30
-0.9483333133100831
  0
POINT
  5
23D
330
1F
100
AcDbEntity
  8
ConnectionPoints
100
AcDbPoint
 10
-2.80525
 20
0.9483333133100834
 30
-0.9483333133100831
  0
POINT
  5
23E
330
1F
100
AcDbEntity
  8
ConnectionPoints
100
AcDbPoint
 10
-2.673416666666666
 20
-0.9483333133100834
 30
0.9483333133100835
  0
POINT
  5
23F
330
1F
100
AcDbEntity
  8
ConnectionPoints
100
AcDbPoint
 10
-2.80525
 20
-0.9483333133100834
 30
0.9483333133100835
  0
POINT
  5
240
330
1F
100
AcDbEntity
  8
ConnectionPoints
100
AcDbPoint
 10
-2.673416666666666
 20
0.0
 30
0.0000000000000002
  0
POINT
  5
241
330
1F
100
AcDbEntity
  8
ConnectionPoints
100
AcDbPoint
 10
-1.2421875
 20
2.35
 30
0.0000000000000001
  0
POINT
  5
242
330
1F
100
AcDbEntity
  8
ConnectionPoints
100
AcDbPoint
 10
-1.2421875
 20
2.35
 30
0.0000000000000001
  0
POINT
  5
243
330
1F
100
AcDbEntity
  8
ConnectionPoints
100
AcDbPoint
 10
-2.90625
 20
0.0
 30
0.0000000000000002
  0
POINT
  5
244
330
1F
100
AcDbEntity
  8
ConnectionPoints
100
AcDbPoint
 10
-3.15625
 20
0.0
 30
0.0000000000000002
  0
ENDSEC
  0
SECTION
  2
OBJECTS
  0
DICTIONARY
  5
C
330
0
100
AcDbDictionary
281
     1
  3
ACAD_DETAILVIEWSTYLE
350
24C
  3
ACAD_GROUP
350
D
  3
ACAD_LAYOUT
350
1A
  3
ACAD_MATERIAL
350
43
  3
ACAD_MLEADERSTYLE
350
6B
  3
ACAD_MLINESTYLE
350
17
  3
ACAD_PLOTSETTINGS
350
19
  3
ACAD_PLOTSTYLENAME
350
E
  3
ACAD_SCALELIST
350
47
  3
ACAD_SECTIONVIEWSTYLE
350
24D
  3
ACAD_TABLESTYLE
350
69
  3
ACAD_VISUALSTYLE
350
2A
  3
ACDB_RECOMPOSE_DATA
350
249
  3
AcDbVariableDictionary
350
245
  0
SUN
  5
6D
330
29
100
AcDbSun
 90
        1
290
     0
 63
     7
421
 16777215
 40
1.0
291
     1
 91
  2455826
 92
 54000000
292
     0
 70
     2
 71
   256
280
     1
  0
DICTIONARY
  5
24C
102
{ACAD_REACTORS
330
C
102
}
330
C
100
AcDbDictionary
281
     1
  0
DICTIONARY
  5
D
102
{ACAD_REACTORS
330
C
102
}
330
C
100
AcDbDictionary
281
     1
  0
DICTIONARY
  5
1A
102
{ACAD_REACTORS
330
C
102
}
330
C
100
AcDbDictionary
281
     1
  3
Layout1
350
1E
  3
Layout2
350
26
  3
Model
350
22
  0
DICTIONARY
  5
43
102
{ACAD_REACTORS
330
C
102
}
330
C
100
AcDbDictionary
281
     1
  3
ByBlock
350
45
  3
ByLayer
350
44
  3
Global
350
46
  0
DICTIONARY
  5
6B
102
{ACAD_REACTORS
330
C
102
}
330
C
100
AcDbDictionary
281
     1
  3
Standard
350
6C
  0
DICTIONARY
  5
17
102
{ACAD_REACTORS
330
C
102
}
330
C
100
AcDbDictionary
281
     1
  3
Standard
350
18
  0
DICTIONARY
  5
19
102
{ACAD_REACTORS
330
C
102
}
330
C
100
AcDbDictionary
281
     1
  0
ACDBDICTIONARYWDFLT
  5
E
102
{ACAD_REACTORS
330
C
102
}
330
C
100
AcDbDictionary
281
     1
  3
Normal
350
F
100
AcDbDictionaryWithDefault
340
F
  0
DICTIONARY
  5
47
102
{ACAD_REACTORS
330
C
102
}
330
C
100
AcDbDictionary
281
     1
  3
A0
350
48
  3
A1
350
49
  3
A2
350
4A
  3
A3
350
4B
  3
A4
350
4C
  3
A5
350
4D
  3
A6
350
4E
  3
A7
350
4F
  3
A8
350
50
  3
A9
350
51
  3
B0
350
52
  3
B1
350
53
  3
B2
350
54
  3
B3
350
55
  3
B4
350
56
  3
B5
350
57
  3
B6
350
58
  3
B7
350
59
  3
B8
350
5A
  3
B9
350
5B
  3
C0
350
5C
  3
C1
350
5D
  3
C2
350
5E
  3
C3
350
5F
  3
C4
350
60
  3
C5
350
61
  3
C6
350
62
  3
C7
350
63
  3
C8
350
64
  3
C9
350
65
  3
D0
350
66
  3
D1
350
67
  3
D2
350
68
  0
DICTIONARY
  5
24D
102
{ACAD_REACTORS
330
C
102
}
330
C
100
AcDbDictionary
281
     1
  0
DICTIONARY
  5
69
102
{ACAD_REACTORS
330
C
102
}
330
C
100
AcDbDictionary
281
     1
  3
Standard
350
6A
  0
DICTIONARY
  5
2A
102
{ACAD_REACTORS
330
C
102
}
330
C
100
AcDbDictionary
281
     1
  3
2dWireframe
350
2F
  3
Basic
350
32
  3
Brighten
350
36
  3
ColorChange
350
3A
  3
Conceptual
350
34
  3
Dim
350
35
  3
EdgeColorOff
350
3D
  3
Facepattern
350
39
  3
Flat
350
2B
  3
FlatWithEdges
350
2C
  3
Gouraud
350
2D
  3
GouraudWithEdges
350
2E
  3
Hidden
350
31
  3
JitterOff
350
3B
  3
Linepattern
350
38
  3
OverhangOff
350
3C
  3
Realistic
350
33
  3
Shaded
350
42
  3
Shaded with edges
350
41
  3
Shades of Gray
350
3E
  3
Sketchy
350
3F
  3
Thicken
350
37
  3
Wireframe
350
30
  3
X-Ray
350
40
  0
XRECORD
  5
249
102
{ACAD_REACTORS
330
C
102
}
330
C
100
AcDbXrecord
280
     1
 90
        1
330
6A
  0
DICTIONARY
  5
245
102
{ACAD_REACTORS
330
C
102
}
330
C
100
AcDbDictionary
281
     1
  3
CANNOSCALE
350
246
  3
CMLEADERSTYLE
350
24B
  3
CTABLESTYLE
350
24A
  0
LAYOUT
  5
1E
102
{ACAD_REACTORS
330
1A
102
}
330
1A
100
AcDbPlotSettings
  1

  2
none_device
  4

  6

 40
0.0
 41
0.0
 42
0.0
 43
0.0
 44
0.0
 45
0.0
 46
0.0
 47
0.0
 48
0.0
 49
0.0
140
0.0
141
0.0
142
1.0
143
1.0
 70
   688
 72
     0
 73
     0
 74
     5
  7

 75
    16
 76
     0
 77
     2
 78
   300
147
1.0
148
0.0
149
0.0
100
AcDbLayout
  1
Layout1
 70
     1
 71
     1
 10
0.0
 20
0.0
 11
12.0
 21
9.0
 12
0.0
 22
0.0
 32
0.0
 14
1.000000000000000E+20
 24
1.000000000000000E+20
 34
1.000000000000000E+20
 15
-1.000000000000000E+20
 25
-1.000000000000000E+20
 35
-1.000000000000000E+20
146
0.0
 13
0.0
 23
0.0
 33
0.0
 16
1.0
 26
0.0
 36
0.0
 17
0.0
 27
1.0
 37
0.0
 76
     0
330
1B
  0
LAYOUT
  5
26
102
{ACAD_REACTORS
330
1A
102
}
330
1A
100
AcDbPlotSettings
  1

  2
none_device
  4

  6

 40
0.0
 41
0.0
 42
0.0
 43
0.0
 44
0.0
 45
0.0
 46
0.0
 47
0.0
 48
0.0
 49
0.0
140
0.0
141
0.0
142
1.0
143
1.0
 70
   688
 72
     0
 73
     0
 74
     5
  7

 75
    16
 76
     0
 77
     2
 78
   300
147
1.0
148
0.0
149
0.0
100
AcDbLayout
  1
Layout2
 70
     1
 71
     2
 10
0.0
 20
0.0
 11
0.0
 21
0.0
 12
0.0
 22
0.0
 32
0.0
 14
0.0
 24
0.0
 34
0.0
 15
0.0
 25
0.0
 35
0.0
146
0.0
 13
0.0
 23
0.0
 33
0.0
 16
1.0
 26
0.0
 36
0.0
 17
0.0
 27
1.0
 37
0.0
 76
     0
330
23
  0
LAYOUT
  5
22
102
{ACAD_REACTORS
330
1A
102
}
330
1A
100
AcDbPlotSettings
  1

  2
none_device
  4
Letter_(8.50_x_11.00_Inches)
  6

 40
6.35
 41
6.35
 42
6.35000508
 43
6.35000508
 44
215.9
 45
279.4
 46
0.0
 47
0.0
 48
0.0
 49
0.0
140
0.0
141
0.0
142
1.0
143
1.0
 70
  1712
 72
     0
 73
     0
 74
     0
  7

 75
     0
 76
     0
 77
     2
 78
   300
147
1.0
148
0.0
149
0.0
100
AcDbLayout
  1
Model
 70
     1
 71
     0
 10
0.0
 20
0.0
 11
12.0
 21
9.0
 12
0.0
 22
0.0
 32
0.0
 14
1.000000000000000E+20
 24
1.000000000000000E+20
 34
1.000000000000000E+20
 15
-1.000000000000000E+20
 25
-1.000000000000000E+20
 35
-1.000000000000000E+20
146
0.0
 13
0.0
 23
0.0
 33
0.0
 16
1.0
 26
0.0
 36
0.0
 17
0.0
 27
1.0
 37
0.0
 76
     0
330
1F
331
29
  0
MATERIAL
  5
45
102
{ACAD_REACTORS
330
43
102
}
330
43
100
AcDbMaterial
  1
ByBlock
 72
     1
 94
      127
  0
MATERIAL
  5
44
102
{ACAD_REACTORS
330
43
102
}
330
43
100
AcDbMaterial
  1
ByLayer
 72
     1
 94
      127
  0
MATERIAL
  5
46
102
{ACAD_REACTORS
330
43
102
}
330
43
100
AcDbMaterial
  1
Global
 72
     1
 94
      127
  0
MLEADERSTYLE
  5
6C
102
{ACAD_REACTORS
330
6B
102
}
330
6B
100
AcDbMLeaderStyle
179
     2
170
     2
171
     1
172
     0
 90
        2
 40
0.0
 41
0.0
173
     1
 91
-1056964608
340
14
 92
       -2
290
     1
 42
0.09
291
     1
 43
0.36
  3
Standard
341
0
 44
0.18
300

342
11
174
     1
178
     6
175
     1
176
     0
 93
-1056964608
 45
0.18
292
     0
297
     0
 46
0.18
343
0
 94
-1056964608
 47
1.0
 49
1.0
140
1.0
293
     1
141
0.0
294
     1
177
     0
142
1.0
295
     0
296
     0
143
0.125
271
     0
272
     9
273
     9
298
     0
  0
MLINESTYLE
  5
18
102
{ACAD_REACTORS
330
17
102
}
330
17
100
AcDbMlineStyle
  2
Standard
 70
     0
  3

 62
   256
 51
90.0
 52
90.0
 71
     2
 49
0.5
 62
   256
  6
BYLAYER
 49
-0.5
 62
   256
  6
BYLAYER
  0
ACDBPLACEHOLDER
  5
F
102
{ACAD_REACTORS
330
E
102
}
330
E
  0
SCALE
  5
48
102
{ACAD_REACTORS
330
47
102
}
330
47
100
AcDbScale
 70
     0
300
1:1
140
1.0
141
1.0
290
     1
  0
SCALE
  5
49
102
{ACAD_REACTORS
330
47
102
}
330
47
100
AcDbScale
 70
     0
300
1:2
140
1.0
141
2.0
290
     0
  0
SCALE
  5
4A
102
{ACAD_REACTORS
330
47
102
}
330
47
100
AcDbScale
 70
     0
300
1:4
140
1.0
141
4.0
290
     0
  0
SCALE
  5
4B
102
{ACAD_REACTORS
330
47
102
}
330
47
100
AcDbScale
 70
     0
300
1:5
140
1.0
141
5.0
290
     0
  0
SCALE
  5
4C
102
{ACAD_REACTORS
330
47
102
}
330
47
100
AcDbScale
 70
     0
300
1:8
140
1.0
141
8.0
290
     0
  0
SCALE
  5
4D
102
{ACAD_REACTORS
330
47
102
}
330
47
100
AcDbScale
 70
     0
300
1:10
140
1.0
141
10.0
290
     0
  0
SCALE
  5
4E
102
{ACAD_REACTORS
330
47
102
}
330
47
100
AcDbScale
 70
     0
300
1:16
140
1.0
141
16.0
290
     0
  0
SCALE
  5
4F
102
{ACAD_REACTORS
330
47
102
}
330
47
100
AcDbScale
 70
     0
300
1:20
140
1.0
141
20.0
290
     0
  0
SCALE
  5
50
102
{ACAD_REACTORS
330
47
102
}
330
47
100
AcDbScale
 70
     0
300
1:30
140
1.0
141
30.0
290
     0
  0
SCALE
  5
51
102
{ACAD_REACTORS
330
47
102
}
330
47
100
AcDbScale
 70
     0
300
1:40
140
1.0
141
40.0
290
     0
  0
SCALE
  5
52
102
{ACAD_REACTORS
330
47
102
}
330
47
100
AcDbScale
 70
     0
300
1:50
140
1.0
141
50.0
290
     0
  0
SCALE
  5
53
102
{ACAD_REACTORS
330
47
102
}
330
47
100
AcDbScale
 70
     0
300
1:100
140
1.0
141
100.0
290
     0
  0
SCALE
  5
54
102
{ACAD_REACTORS
330
47
102
}
330
47
100
AcDbScale
 70
     0
300
2:1
140
2.0
141
1.0
290
     0
  0
SCALE
  5
55
102
{ACAD_REACTORS
330
47
102
}
330
47
100
AcDbScale
 70
     0
300
4:1
140
4.0
141
1.0
290
     0
  0
SCALE
  5
56
102
{ACAD_REACTORS
330
47
102
}
330
47
100
AcDbScale
 70
     0
300
8:1
140
8.0
141
1.0
290
     0
  0
SCALE
  5
57
102
{ACAD_REACTORS
330
47
102
}
330
47
100
AcDbScale
 70
     0
300
10:1
140
10.0
141
1.0
290
     0
  0
SCALE
  5
58
102
{ACAD_REACTORS
330
47
102
}
330
47
100
AcDbScale
 70
     0
300
100:1
140
100.0
141
1.0
290
     0
  0
SCALE
  5
59
102
{ACAD_REACTORS
330
47
102
}
330
47
100
AcDbScale
 70
     0
300
1/128" = 1'-0"
140
0.0078125
141
12.0
290
     0
  0
SCALE
  5
5A
102
{ACAD_REACTORS
330
47
102
}
330
47
100
AcDbScale
 70
     0
300
1/64" = 1'-0"
140
0.015625
141
12.0
290
     0
  0
SCALE
  5
5B
102
{ACAD_REACTORS
330
47
102
}
330
47
100
AcDbScale
 70
     0
300
1/32" = 1'-0"
140
0.03125
141
12.0
290
     0
  0
SCALE
  5
5C
102
{ACAD_REACTORS
330
47
102
}
330
47
100
AcDbScale
 70
     0
300
1/16" = 1'-0"
140
0.0625
141
12.0
290
     0
  0
SCALE
  5
5D
102
{ACAD_REACTORS
330
47
102
}
330
47
100
AcDbScale
 70
     0
300
3/32" = 1'-0"
140
0.09375
141
12.0
290
     0
  0
SCALE
  5
5E
102
{ACAD_REACTORS
330
47
102
}
330
47
100
AcDbScale
 70
     0
300
1/8" = 1'-0"
140
0.125
141
12.0
290
     0
  0
SCALE
  5
5F
102
{ACAD_REACTORS
330
47
102
}
330
47
100
AcDbScale
 70
     0
300
3/16" = 1'-0"
140
0.1875
141
12.0
290
     0
  0
SCALE
  5
60
102
{ACAD_REACTORS
330
47
102
}
330
47
100
AcDbScale
 70
     0
300
1/4" = 1'-0"
140
0.25
141
12.0
290
     0
  0
SCALE
  5
61
102
{ACAD_REACTORS
330
47
102
}
330
47
100
AcDbScale
 70
     0
300
3/8" = 1'-0"
140
0.375
141
12.0
290
     0
  0
SCALE
  5
62
102
{ACAD_REACTORS
330
47
102
}
330
47
100
AcDbScale
 70
     0
300
1/2" = 1'-0"
140
0.5
141
12.0
290
     0
  0
SCALE
  5
63
102
{ACAD_REACTORS
330
47
102
}
330
47
100
AcDbScale
 70
     0
300
3/4" = 1'-0"
140
0.75
141
12.0
290
     0
  0
SCALE
  5
64
102
{ACAD_REACTORS
330
47
102
}
330
47
100
AcDbScale
 70
     0
300
1" = 1'-0"
140
1.0
141
12.0
290
     0
  0
SCALE
  5
65
102
{ACAD_REACTORS
330
47
102
}
330
47
100
AcDbScale
 70
     0
300
1-1/2" = 1'-0"
140
1.5
141
12.0
290
     0
  0
SCALE
  5
66
102
{ACAD_REACTORS
330
47
102
}
330
47
100
AcDbScale
 70
     0
300
3" = 1'-0"
140
3.0
141
12.0
290
     0
  0
SCALE
  5
67
102
{ACAD_REACTORS
330
47
102
}
330
47
100
AcDbScale
 70
     0
300
6" = 1'-0"
140
6.0
141
12.0
290
     0
  0
SCALE
  5
68
102
{ACAD_REACTORS
330
47
102
}
330
47
100
AcDbScale
 70
     0
300
1'-0" = 1'-0"
140
12.0
141
12.0
290
     0
  0
TABLESTYLE
  5
6A
102
{ACAD_REACTORS
330
69
102
}
102
{ACAD_XDICTIONARY
360
247
102
}
330
69
100
AcDbTableStyle
  3
Standard
 70
     0
 71
     0
 40
0.06
 41
0.06
280
     0
281
     0
  7
Standard
140
0.18
170
     2
 62
     0
 63
   257
283
     0
 90
        4
 91
        0
  1

274
    -2
284
     1
 64
     0
275
    -2
285
     1
 65
     0
276
    -2
286
     1
 66
     0
277
    -2
287
     1
 67
     0
278
    -2
288
     1
 68
     0
279
    -2
289
     1
 69
     0
  7
Standard
140
0.25
170
     5
 62
     0
 63
   257
283
     0
 90
        4
 91
        0
  1

274
    -2
284
     1
 64
     0
275
    -2
285
     1
 65
     0
276
    -2
286
     1
 66
     0
277
    -2
287
     1
 67
     0
278
    -2
288
     1
 68
     0
279
    -2
289
     1
 69
     0
  7
Standard
140
0.18
170
     5
 62
     0
 63
   257
283
     0
 90
        4
 91
        0
  1

274
    -2
284
     1
 64
     0
275
    -2
285
     1
 65
     0
276
    -2
286
     1
 66
     0
277
    -2
287
     1
 67
     0
278
    -2
288
     1
 68
     0
279
    -2
289
     1
 69
     0
  0
VISUALSTYLE
  5
2F
102
{ACAD_REACTORS
330
2A
102
}
330
2A
100
AcDbVisualStyle
  2
2dWireframe
 70
     4
177
     3
291
     0
 70
    58
 90
        0
176
     1
 90
        2
176
     1
 90
        0
176
     1
 90
        0
176
     1
 40
0.6
176
     1
 40
30.0
176
     1
 62
     7
420
 16777215
176
     1
 90
        1
176
     1
 90
        4
176
     1
 62
     7
176
     1
 62
   257
176
     1
 90
        1
176
     1
 90
        1
176
     1
 40
1.0
176
     1
 90
        0
176
     1
 62
   257
176
     1
 40
1.0
176
     1
 90
        1
176
     1
 90
        6
176
     1
 90
        2
176
     1
 62
     7
176
     1
 90
        5
176
     1
 90
        0
176
     1
 90
        0
176
     1
290
     0
176
     1
 90
        1
176
     1
 40
0.0
176
     1
 90
        0
176
     1
290
     1
176
     1
290
     1
176
     1
290
     0
176
     1
290
     0
176
     1
290
     0
176
     1
290
     0
176
     1
290
     0
176
     1
290
     0
176
     1
290
     0
176
     1
 90
       50
176
     1
 40
0.0
176
     1
 40
1.0
176
     1
 90
        0
176
     1
 62
    18
420
        0
176
     1
 90
       50
176
     1
 90
        3
176
     1
 62
     5
420
      255
176
     1
290
     0
176
     1
 90
       50
176
     1
 90
       50
176
     1
 90
       50
176
     1
290
     0
176
     1
 90
       50
176
     1
 62
   256
176
     0
 40
1.0
176
     0
 90
        2
176
     1
  1
strokes_ogs.tif
176
     1
290
     0
176
     1
 40
1.0
176
     1
 40
1.0
176
     1
  0
VISUALSTYLE
  5
32
102
{ACAD_REACTORS
330
2A
102
}
330
2A
100
AcDbVisualStyle
  2
Basic
 70
     7
177
     3
291
     1
 70
    58
 90
        1
176
     1
 90
        0
176
     1
 90
        1
176
     1
 90
        0
176
     1
 40
0.6
176
     1
 40
30.0
176
     1
 62
     7
420
 16777215
176
     1
 90
        0
176
     1
 90
        4
176
     1
 62
     7
176
     1
 62
   257
176
     1
 90
        1
176
     1
 90
        1
176
     1
 40
1.0
176
     1
 90
        8
176
     1
 62
     7
176
     1
 40
1.0
176
     1
 90
        1
176
     1
 90
        6
176
     1
 90
        2
176
     1
 62
     7
176
     1
 90
        5
176
     1
 90
        0
176
     1
 90
        0
176
     1
290
     0
176
     1
 90
        1
176
     1
 40
0.0
176
     1
 90
        0
176
     1
290
     0
176
     1
290
     1
176
     1
290
     1
176
     1
290
     0
176
     1
290
     0
176
     1
290
     0
176
     1
290
     0
176
     1
290
     0
176
     1
290
     0
176
     1
 90
       50
176
     1
 40
0.0
176
     1
 40
1.0
176
     1
 90
        0
176
     1
 62
    18
420
        0
176
     1
 90
       50
176
     1
 90
        3
176
     1
 62
     5
420
      255
176
     1
290
     0
176
     1
 90
       50
176
     1
 90
       50
176
     1
 90
       50
176
     1
290
     0
176
     1
 90
       50
176
     1
 62
   256
176
     0
 40
1.0
176
     0
 90
        2
176
     1
  1
strokes_ogs.tif
176
     1
290
     0
176
     1
 40
1.0
176
     1
 40
1.0
176
     1
  0
VISUALSTYLE
  5
36
102
{ACAD_REACTORS
330
2A
102
}
330
2A
100
AcDbVisualStyle
  2
Brighten
 70
    12
177
     3
291
     1
 70
    58
 90
        2
176
     1
 90
        2
176
     1
 90
        0
176
     1
 90
        0
176
     1
 40
0.6
176
     1
 40
30.0
176
     1
 62
     7
420
 16777215
176
     1
 90
        1
176
     1
 90
        4
176
     1
 62
     7
176
     1
 62
   257
176
     1
 90
        1
176
     1
 90
        1
176
     1
 40
1.0
176
     1
 90
        8
176
     1
 62
     7
176
     1
 40
1.0
176
     1
 90
        1
176
     1
 90
        6
176
     1
 90
        2
176
     1
 62
     7
176
     1
 90
        5
176
     1
 90
        0
176
     1
 90
        0
176
     1
290
     0
176
     1
 90
        1
176
     1
 40
50.0
176
     1
 90
        0
176
     1
290
     0
176
     1
290
     1
176
     1
290
     1
176
     1
290
     0
176
     1
290
     0
176
     1
290
     0
176
     1
290
     0
176
     1
290
     0
176
     1
290
     0
176
     1
 90
       50
176
     1
 40
0.0
176
     1
 40
1.0
176
     1
 90
        0
176
     1
 62
    18
420
        0
176
     1
 90
       50
176
     1
 90
        3
176
     1
 62
     5
420
      255
176
     1
290
     0
176
     1
 90
       50
176
     1
 90
       50
176
     1
 90
       50
176
     1
290
     0
176
     1
 90
       50
176
     1
 62
   256
176
     0
 40
1.0
176
     0
 90
        2
176
     1
  1
strokes_ogs.tif
176
     1
290
     0
176
     1
 40
1.0
176
     1
 40
1.0
176
     1
  0
VISUALSTYLE
  5
3A
102
{ACAD_REACTORS
330
2A
102
}
330
2A
100
AcDbVisualStyle
  2
ColorChange
 70
    16
177
     3
291
     1
 70
    58
 90
        2
176
     1
 90
        2
176
     1
 90
        3
176
     1
 90
        0
176
     1
 40
0.6
176
     1
 40
30.0
176
     1
 62
     8
420
  8421504
176
     1
 90
        1
176
     1
 90
        4
176
     1
 62
     7
176
     1
 62
   257
176
     1
 90
        1
176
     1
 90
        1
176
     1
 40
1.0
176
     1
 90
        8
176
     1
 62
     8
420
  8421504
176
     1
 40
1.0
176
     1
 90
        1
176
     1
 90
        6
176
     1
 90
        2
176
     1
 62
     7
176
     1
 90
        5
176
     1
 90
        0
176
     1
 90
        0
176
     1
290
     0
176
     1
 90
        1
176
     1
 40
0.0
176
     1
 90
        0
176
     1
290
     0
176
     1
290
     1
176
     1
290
     1
176
     1
290
     0
176
     1
290
     0
176
     1
290
     0
176
     1
290
     0
176
     1
290
     0
176
     1
290
     0
176
     1
 90
       50
176
     1
 40
0.0
176
     1
 40
1.0
176
     1
 90
        0
176
     1
 62
    18
420
        0
176
     1
 90
       50
176
     1
 90
        3
176
     1
 62
     5
420
      255
176
     1
290
     0
176
     1
 90
       50
176
     1
 90
       50
176
     1
 90
       50
176
     1
290
     0
176
     1
 90
       50
176
     1
 62
   256
176
     0
 40
1.0
176
     0
 90
        2
176
     1
  1
strokes_ogs.tif
176
     1
290
     0
176
     1
 40
1.0
176
     1
 40
1.0
176
     1
  0
VISUALSTYLE
  5
34
102
{ACAD_REACTORS
330
2A
102
}
330
2A
100
AcDbVisualStyle
  2
Conceptual
 70
     9
177
     3
291
     0
 70
    58
 90
        3
176
     1
 90
        2
176
     1
 90
        0
176
     1
 90
        0
176
     1
 40
0.6
176
     1
 40
30.0
176
     1
 62
     7
420
 16777215
176
     1
 90
        2
176
     1
 90
        2
176
     1
 62
     7
176
     1
 62
   257
176
     1
 90
        1
176
     1
 90
        1
176
     1
 40
179.0
176
     1
 90
        8
176
     1
 62
     7
176
     1
 40
1.0
176
     1
 90
        1
176
     1
 90
        6
176
     1
 90
        2
176
     1
 62
     7
176
     1
 90
        3
176
     1
 90
        0
176
     1
 90
        0
176
     1
290
     0
176
     1
 90
        1
176
     1
 40
0.0
176
     1
 90
        0
176
     1
290
     0
176
     1
290
     1
176
     1
290
     1
176
     1
290
     0
176
     1
290
     0
176
     1
290
     0
176
     1
290
     0
176
     1
290
     0
176
     1
290
     0
176
     1
 90
       50
176
     1
 40
0.0
176
     1
 40
1.0
176
     1
 90
        0
176
     1
 62
    18
420
        0
176
     1
 90
       50
176
     1
 90
        3
176
     1
 62
     5
420
      255
176
     1
290
     0
176
     1
 90
       50
176
     1
 90
       50
176
     1
 90
       50
176
     1
290
     0
176
     1
 90
       50
176
     1
 62
   256
176
     0
 40
1.0
176
     0
 90
        2
176
     1
  1
strokes_ogs.tif
176
     1
290
     0
176
     1
 40
1.0
176
     1
 40
1.0
176
     1
  0
VISUALSTYLE
  5
35
102
{ACAD_REACTORS
330
2A
102
}
330
2A
100
AcDbVisualStyle
  2
Dim
 70
    11
177
     3
291
     1
 70
    58
 90
        2
176
     1
 90
        2
176
     1
 90
        0
176
     1
 90
        0
176
     1
 40
0.6
176
     1
 40
30.0
176
     1
 62
     7
420
 16777215
176
     1
 90
        1
176
     1
 90
        4
176
     1
 62
     7
176
     1
 62
   257
176
     1
 90
        1
176
     1
 90
        1
176
     1
 40
1.0
176
     1
 90
        8
176
     1
 62
     7
176
     1
 40
1.0
176
     1
 90
        1
176
     1
 90
        6
176
     1
 90
        2
176
     1
 62
     7
176
     1
 90
        5
176
     1
 90
        0
176
     1
 90
        0
176
     1
290
     0
176
     1
 90
        1
176
     1
 40
-50.0
176
     1
 90
        0
176
     1
290
     0
176
     1
290
     1
176
     1
290
     1
176
     1
290
     0
176
     1
290
     0
176
     1
290
     0
176
     1
290
     0
176
     1
290
     0
176
     1
290
     0
176
     1
 90
       50
176
     1
 40
0.0
176
     1
 40
1.0
176
     1
 90
        0
176
     1
 62
    18
420
        0
176
     1
 90
       50
176
     1
 90
        3
176
     1
 62
     5
420
      255
176
     1
290
     0
176
     1
 90
       50
176
     1
 90
       50
176
     1
 90
       50
176
     1
290
     0
176
     1
 90
       50
176
     1
 62
   256
176
     0
 40
1.0
176
     0
 90
        2
176
     1
  1
strokes_ogs.tif
176
     1
290
     0
176
     1
 40
1.0
176
     1
 40
1.0
176
     1
  0
VISUALSTYLE
  5
3D
102
{ACAD_REACTORS
330
2A
102
}
330
2A
100
AcDbVisualStyle
  2
EdgeColorOff
 70
    22
177
     3
291
     1
 70
    58
 90
        2
176
     0
 90
        2
176
     0
 90
        0
176
     0
 90
        0
176
     0
 40
0.6
176
     0
 40
30.0
176
     0
 62
     7
420
 16777215
176
     0
 90
        1
176
     0
 90
        4
176
     0
 62
     7
176
     0
 62
   257
176
     0
 90
        1
176
     0
 90
        1
176
     0
 40
1.0
176
     0
 90
        8
176
     2
 62
     7
176
     0
 40
1.0
176
     0
 90
        1
176
     0
 90
        6
176
     0
 90
        2
176
     0
 62
     7
176
     0
 90
        5
176
     0
 90
        0
176
     0
 90
        0
176
     0
290
     0
176
     0
 90
        1
176
     0
 40
0.0
176
     0
 90
        0
176
     0
290
     0
176
     0
290
     1
176
     0
290
     1
176
     0
290
     0
176
     0
290
     0
176
     0
290
     0
176
     0
290
     0
176
     0
290
     0
176
     0
290
     0
176
     0
 90
       50
176
     0
 40
0.0
176
     0
 40
1.0
176
     0
 90
        0
176
     0
 62
    18
420
        0
176
     0
 90
       50
176
     0
 90
        3
176
     0
 62
     5
420
      255
176
     0
290
     0
176
     0
 90
       50
176
     0
 90
       50
176
     0
 90
       50
176
     0
290
     0
176
     0
 90
       50
176
     0
 62
   256
176
     0
 40
1.0
176
     0
 90
        2
176
     0
  1
strokes_ogs.tif
176
     0
290
     0
176
     0
 40
1.0
176
     0
 40
1.0
176
     0
  0
VISUALSTYLE
  5
39
102
{ACAD_REACTORS
330
2A
102
}
330
2A
100
AcDbVisualStyle
  2
Facepattern
 70
    15
177
     3
291
     1
 70
    58
 90
        2
176
     1
 90
        2
176
     1
 90
        0
176
     1
 90
        0
176
     1
 40
0.6
176
     1
 40
30.0
176
     1
 62
     7
420
 16777215
176
     1
 90
        1
176
     1
 90
        4
176
     1
 62
     7
176
     1
 62
   257
176
     1
 90
        1
176
     1
 90
        1
176
     1
 40
1.0
176
     1
 90
        8
176
     1
 62
     7
176
     1
 40
1.0
176
     1
 90
        1
176
     1
 90
        6
176
     1
 90
        2
176
     1
 62
     7
176
     1
 90
        5
176
     1
 90
        0
176
     1
 90
        0
176
     1
290
     0
176
     1
 90
        1
176
     1
 40
0.0
176
     1
 90
        0
176
     1
290
     0
176
     1
290
     1
176
     1
290
     1
176
     1
290
     0
176
     1
290
     0
176
     1
290
     0
176
     1
290
     0
176
     1
290
     0
176
     1
290
     0
176
     1
 90
       50
176
     1
 40
0.0
176
     1
 40
1.0
176
     1
 90
        0
176
     1
 62
    18
420
        0
176
     1
 90
       50
176
     1
 90
        3
176
     1
 62
     5
420
      255
176
     1
290
     0
176
     1
 90
       50
176
     1
 90
       50
176
     1
 90
       50
176
     1
290
     0
176
     1
 90
       50
176
     1
 62
   256
176
     0
 40
1.0
176
     0
 90
        2
176
     1
  1
strokes_ogs.tif
176
     1
290
     0
176
     1
 40
1.0
176
     1
 40
1.0
176
     1
  0
VISUALSTYLE
  5
2B
102
{ACAD_REACTORS
330
2A
102
}
330
2A
100
AcDbVisualStyle
  2
Flat
 70
     0
177
     3
291
     1
 70
    58
 90
        2
176
     1
 90
        1
176
     1
 90
        1
176
     1
 90
        2
176
     1
 40
0.6
176
     1
 40
30.0
176
     1
 62
     7
420
 16777215
176
     1
 90
        0
176
     1
 90
        0
176
     1
 62
     7
176
     1
 62
   257
176
     1
 90
        1
176
     1
 90
        1
176
     1
 40
1.0
176
     1
 90
        8
176
     1
 62
     7
176
     1
 40
1.0
176
     1
 90
        1
176
     1
 90
        6
176
     1
 90
        2
176
     1
 62
     7
176
     1
 90
        5
176
     1
 90
        0
176
     1
 90
        0
176
     1
290
     0
176
     1
 90
       13
176
     1
 40
0.0
176
     1
 90
        0
176
     1
290
     0
176
     1
290
     1
176
     1
290
     1
176
     1
290
     0
176
     1
290
     0
176
     1
290
     0
176
     1
290
     0
176
     1
290
     0
176
     1
290
     0
176
     1
 90
       50
176
     1
 40
0.0
176
     1
 40
1.0
176
     1
 90
        0
176
     1
 62
    18
420
        0
176
     1
 90
       50
176
     1
 90
        3
176
     1
 62
     5
420
      255
176
     1
290
     0
176
     1
 90
       50
176
     1
 90
       50
176
     1
 90
       50
176
     1
290
     0
176
     1
 90
       50
176
     1
 62
   256
176
     0
 40
1.0
176
     0
 90
        2
176
     1
  1
strokes_ogs.tif
176
     1
290
     0
176
     1
 40
1.0
176
     1
 40
1.0
176
     1
  0
VISUALSTYLE
  5
2C
102
{ACAD_REACTORS
330
2A
102
}
330
2A
100
AcDbVisualStyle
  2
FlatWithEdges
 70
     1
177
     3
291
     1
 70
    58
 90
        2
176
     1
 90
        1
176
     1
 90
        1
176
     1
 90
        2
176
     1
 40
0.6
176
     1
 40
30.0
176
     1
 62
     7
420
 16777215
176
     1
 90
        1
176
     1
 90
        0
176
     1
 62
     7
176
     1
 62
   257
176
     1
 90
        1
176
     1
 90
        1
176
     1
 40
1.0
176
     1
 90
        0
176
     1
 62
   257
176
     1
 40
1.0
176
     1
 90
        1
176
     1
 90
        6
176
     1
 90
        2
176
     1
 62
     7
176
     1
 90
        5
176
     1
 90
        0
176
     1
 90
        0
176
     1
290
     0
176
     1
 90
       13
176
     1
 40
0.0
176
     1
 90
        0
176
     1
290
     0
176
     1
290
     1
176
     1
290
     1
176
     1
290
     0
176
     1
290
     0
176
     1
290
     0
176
     1
290
     0
176
     1
290
     0
176
     1
290
     0
176
     1
 90
       50
176
     1
 40
0.0
176
     1
 40
1.0
176
     1
 90
        0
176
     1
 62
    18
420
        0
176
     1
 90
       50
176
     1
 90
        3
176
     1
 62
     5
420
      255
176
     1
290
     0
176
     1
 90
       50
176
     1
 90
       50
176
     1
 90
       50
176
     1
290
     0
176
     1
 90
       50
176
     1
 62
   256
176
     0
 40
1.0
176
     0
 90
        2
176
     1
  1
strokes_ogs.tif
176
     1
290
     0
176
     1
 40
1.0
176
     1
 40
1.0
176
     1
  0
VISUALSTYLE
  5
2D
102
{ACAD_REACTORS
330
2A
102
}
330
2A
100
AcDbVisualStyle
  2
Gouraud
 70
     2
177
     3
291
     1
 70
    58
 90
        2
176
     1
 90
        2
176
     1
 90
        1
176
     1
 90
        2
176
     1
 40
0.6
176
     1
 40
30.0
176
     1
 62
     7
420
 16777215
176
     1
 90
        0
176
     1
 90
        0
176
     1
 62
     7
176
     1
 62
   257
176
     1
 90
        1
176
     1
 90
        1
176
     1
 40
1.0
176
     1
 90
        0
176
     1
 62
     7
176
     1
 40
1.0
176
     1
 90
        1
176
     1
 90
        6
176
     1
 90
        2
176
     1
 62
     7
176
     1
 90
        5
176
     1
 90
        0
176
     1
 90
        0
176
     1
290
     0
176
     1
 90
       13
176
     1
 40
0.0
176
     1
 90
        0
176
     1
290
     0
176
     1
290
     1
176
     1
290
     1
176
     1
290
     0
176
     1
290
     0
176
     1
290
     0
176
     1
290
     0
176
     1
290
     0
176
     1
290
     0
176
     1
 90
       50
176
     1
 40
0.0
176
     1
 40
1.0
176
     1
 90
        0
176
     1
 62
    18
420
        0
176
     1
 90
       50
176
     1
 90
        3
176
     1
 62
     5
420
      255
176
     1
290
     0
176
     1
 90
       50
176
     1
 90
       50
176
     1
 90
       50
176
     1
290
     0
176
     1
 90
       50
176
     1
 62
   256
176
     0
 40
1.0
176
     0
 90
        2
176
     1
  1
strokes_ogs.tif
176
     1
290
     0
176
     1
 40
1.0
176
     1
 40
1.0
176
     1
  0
VISUALSTYLE
  5
2E
102
{ACAD_REACTORS
330
2A
102
}
330
2A
100
AcDbVisualStyle
  2
GouraudWithEdges
 70
     3
177
     3
291
     1
 70
    58
 90
        2
176
     1
 90
        2
176
     1
 90
        1
176
     1
 90
        2
176
     1
 40
0.6
176
     1
 40
30.0
176
     1
 62
     7
420
 16777215
176
     1
 90
        1
176
     1
 90
        0
176
     1
 62
     7
176
     1
 62
   257
176
     1
 90
        1
176
     1
 90
        1
176
     1
 40
1.0
176
     1
 90
        0
176
     1
 62
   257
176
     1
 40
1.0
176
     1
 90
        1
176
     1
 90
        6
176
     1
 90
        2
176
     1
 62
     7
176
     1
 90
        5
176
     1
 90
        0
176
     1
 90
        0
176
     1
290
     0
176
     1
 90
       13
176
     1
 40
0.0
176
     1
 90
        0
176
     1
290
     0
176
     1
290
     1
176
     1
290
     1
176
     1
290
     0
176
     1
290
     0
176
     1
290
     0
176
     1
290
     0
176
     1
290
     0
176
     1
290
     0
176
     1
 90
       50
176
     1
 40
0.0
176
     1
 40
1.0
176
     1
 90
        0
176
     1
 62
    18
420
        0
176
     1
 90
       50
176
     1
 90
        3
176
     1
 62
     5
420
      255
176
     1
290
     0
176
     1
 90
       50
176
     1
 90
       50
176
     1
 90
       50
176
     1
290
     0
176
     1
 90
       50
176
     1
 62
   256
176
     0
 40
1.0
176
     0
 90
        2
176
     1
  1
strokes_ogs.tif
176
     1
290
     0
176
     1
 40
1.0
176
     1
 40
1.0
176
     1
  0
VISUALSTYLE
  5
31
102
{ACAD_REACTORS
330
2A
102
}
330
2A
100
AcDbVisualStyle
  2
Hidden
 70
     6
177
     3
291
     0
 70
    58
 90
        1
176
     1
 90
        2
176
     1
 90
        2
176
     1
 90
        0
176
     1
 40
0.6
176
     1
 40
30.0
176
     1
 62
     7
420
 16777215
176
     1
 90
        2
176
     1
 90
        2
176
     1
 62
     7
176
     1
 62
   257
176
     1
 90
        2
176
     1
 90
        1
176
     1
 40
40.0
176
     1
 90
        0
176
     1
 62
   257
176
     1
 40
1.0
176
     1
 90
        1
176
     1
 90
        6
176
     1
 90
        2
176
     1
 62
     7
176
     1
 90
        3
176
     1
 90
        0
176
     1
 90
        0
176
     1
290
     0
176
     1
 90
        1
176
     1
 40
0.0
176
     1
 90
        0
176
     1
290
     0
176
     1
290
     1
176
     1
290
     1
176
     1
290
     0
176
     1
290
     0
176
     1
290
     0
176
     1
290
     0
176
     1
290
     0
176
     1
290
     0
176
     1
 90
       50
176
     1
 40
0.0
176
     1
 40
1.0
176
     1
 90
        0
176
     1
 62
    18
420
        0
176
     1
 90
       50
176
     1
 90
        3
176
     1
 62
     5
420
      255
176
     1
290
     0
176
     1
 90
       50
176
     1
 90
       50
176
     1
 90
       50
176
     1
290
     0
176
     1
 90
       50
176
     1
 62
   256
176
     0
 40
1.0
176
     0
 90
        2
176
     1
  1
strokes_ogs.tif
176
     1
290
     0
176
     1
 40
1.0
176
     1
 40
1.0
176
     1
  0
VISUALSTYLE
  5
3B
102
{ACAD_REACTORS
330
2A
102
}
330
2A
100
AcDbVisualStyle
  2
JitterOff
 70
    20
177
     3
291
     1
 70
    58
 90
        2
176
     0
 90
        2
176
     0
 90
        0
176
     0
 90
        0
176
     0
 40
0.6
176
     0
 40
30.0
176
     0
 62
     7
420
 16777215
176
     0
 90
        1
176
     0
 90
        4
176
     0
 62
     7
176
     0
 62
   257
176
     0
 90
        1
176
     0
 90
        1
176
     0
 40
1.0
176
     0
 90
       10
176
     2
 62
     7
176
     0
 40
1.0
176
     0
 90
        1
176
     0
 90
        6
176
     0
 90
        2
176
     0
 62
     7
176
     0
 90
        5
176
     0
 90
        0
176
     0
 90
        0
176
     0
290
     0
176
     0
 90
        1
176
     0
 40
0.0
176
     0
 90
        0
176
     0
290
     0
176
     0
290
     1
176
     0
290
     1
176
     0
290
     0
176
     0
290
     0
176
     0
290
     0
176
     0
290
     0
176
     0
290
     0
176
     0
290
     0
176
     0
 90
       50
176
     0
 40
0.0
176
     0
 40
1.0
176
     0
 90
        0
176
     0
 62
    18
420
        0
176
     0
 90
       50
176
     0
 90
        3
176
     0
 62
     5
420
      255
176
     0
290
     0
176
     0
 90
       50
176
     0
 90
       50
176
     0
 90
       50
176
     0
290
     0
176
     0
 90
       50
176
     0
 62
   256
176
     0
 40
1.0
176
     0
 90
        2
176
     0
  1
strokes_ogs.tif
176
     0
290
     0
176
     0
 40
1.0
176
     0
 40
1.0
176
     0
  0
VISUALSTYLE
  5
38
102
{ACAD_REACTORS
330
2A
102
}
330
2A
100
AcDbVisualStyle
  2
Linepattern
 70
    14
177
     3
291
     1
 70
    58
 90
        2
176
     1
 90
        2
176
     1
 90
        0
176
     1
 90
        0
176
     1
 40
0.6
176
     1
 40
30.0
176
     1
 62
     7
420
 16777215
176
     1
 90
        1
176
     1
 90
        4
176
     1
 62
     7
176
     1
 62
   257
176
     1
 90
        7
176
     1
 90
        7
176
     1
 40
1.0
176
     1
 90
        8
176
     1
 62
     7
176
     1
 40
1.0
176
     1
 90
        1
176
     1
 90
        6
176
     1
 90
        2
176
     1
 62
     7
176
     1
 90
        5
176
     1
 90
        0
176
     1
 90
        0
176
     1
290
     0
176
     1
 90
        1
176
     1
 40
0.0
176
     1
 90
        0
176
     1
290
     0
176
     1
290
     1
176
     1
290
     1
176
     1
290
     0
176
     1
290
     0
176
     1
290
     0
176
     1
290
     0
176
     1
290
     0
176
     1
290
     0
176
     1
 90
       50
176
     1
 40
0.0
176
     1
 40
1.0
176
     1
 90
        0
176
     1
 62
    18
420
        0
176
     1
 90
       50
176
     1
 90
        3
176
     1
 62
     5
420
      255
176
     1
290
     0
176
     1
 90
       50
176
     1
 90
       50
176
     1
 90
       50
176
     1
290
     0
176
     1
 90
       50
176
     1
 62
   256
176
     0
 40
1.0
176
     0
 90
        2
176
     1
  1
strokes_ogs.tif
176
     1
290
     0
176
     1
 40
1.0
176
     1
 40
1.0
176
     1
  0
VISUALSTYLE
  5
3C
102
{ACAD_REACTORS
330
2A
102
}
330
2A
100
AcDbVisualStyle
  2
OverhangOff
 70
    21
177
     3
291
     1
 70
    58
 90
        2
176
     0
 90
        2
176
     0
 90
        0
176
     0
 90
        0
176
     0
 40
0.6
176
     0
 40
30.0
176
     0
 62
     7
420
 16777215
176
     0
 90
        1
176
     0
 90
        4
176
     0
 62
     7
176
     0
 62
   257
176
     0
 90
        1
176
     0
 90
        1
176
     0
 40
1.0
176
     0
 90
        9
176
     2
 62
     7
176
     0
 40
1.0
176
     0
 90
        1
176
     0
 90
        6
176
     0
 90
        2
176
     0
 62
     7
176
     0
 90
        5
176
     0
 90
        0
176
     0
 90
        0
176
     0
290
     0
176
     0
 90
        1
176
     0
 40
0.0
176
     0
 90
        0
176
     0
290
     0
176
     0
290
     1
176
     0
290
     1
176
     0
290
     0
176
     0
290
     0
176
     0
290
     0
176
     0
290
     0
176
     0
290
     0
176
     0
290
     0
176
     0
 90
       50
176
     0
 40
0.0
176
     0
 40
1.0
176
     0
 90
        0
176
     0
 62
    18
420
        0
176
     0
 90
       50
176
     0
 90
        3
176
     0
 62
     5
420
      255
176
     0
290
     0
176
     0
 90
       50
176
     0
 90
       50
176
     0
 90
       50
176
     0
290
     0
176
     0
 90
       50
176
     0
 62
   256
176
     0
 40
1.0
176
     0
 90
        2
176
     0
  1
strokes_ogs.tif
176
     0
290
     0
176
     0
 40
1.0
176
     0
 40
1.0
176
     0
  0
VISUALSTYLE
  5
33
102
{ACAD_REACTORS
330
2A
102
}
330
2A
100
AcDbVisualStyle
  2
Realistic
 70
     8
177
     3
291
     0
 70
    58
 90
        2
176
     1
 90
        3
176
     1
 90
        0
176
     1
 90
        2
176
     1
 40
0.6
176
     1
 40
30.0
176
     1
 62
     7
420
 16777215
176
     1
 90
        0
176
     1
 90
        0
176
     1
 62
     7
176
     1
 62
   257
176
     1
 90
        1
176
     1
 90
        1
176
     1
 40
1.0
176
     1
 90
        8
176
     1
 62
   257
176
     1
 40
1.0
176
     1
 90
        1
176
     1
 90
        6
176
     1
 90
        2
176
     1
 62
     7
176
     1
 90
        3
176
     1
 90
        0
176
     1
 90
        0
176
     1
290
     0
176
     1
 90
       13
176
     1
 40
0.0
176
     1
 90
        0
176
     1
290
     0
176
     1
290
     1
176
     1
290
     1
176
     1
290
     0
176
     1
290
     0
176
     1
290
     0
176
     1
290
     0
176
     1
290
     0
176
     1
290
     0
176
     1
 90
       50
176
     1
 40
0.0
176
     1
 40
1.0
176
     1
 90
        0
176
     1
 62
    18
420
        0
176
     1
 90
       50
176
     1
 90
        3
176
     1
 62
     5
420
      255
176
     1
290
     0
176
     1
 90
       50
176
     1
 90
       50
176
     1
 90
       50
176
     1
290
     0
176
     1
 90
       50
176
     1
 62
   256
176
     0
 40
1.0
176
     0
 90
        2
176
     1
  1
strokes_ogs.tif
176
     1
290
     0
176
     1
 40
1.0
176
     1
 40
1.0
176
     1
  0
VISUALSTYLE
  5
42
102
{ACAD_REACTORS
330
2A
102
}
330
2A
100
AcDbVisualStyle
  2
Shaded
 70
    27
177
     3
291
     0
 70
    58
 90
        2
176
     1
 90
        2
176
     1
 90
        1
176
     1
 90
        2
176
     1
 40
0.6
176
     1
 40
30.0
176
     1
 62
     7
420
 16777215
176
     1
 90
        0
176
     1
 90
        4
176
     1
 62
     7
176
     1
 62
   257
176
     1
 90
        1
176
     1
 90
        1
176
     1
 40
1.0
176
     1
 90
        8
176
     1
 62
   257
176
     1
 40
1.0
176
     1
 90
        1
176
     1
 90
        6
176
     1
 90
        2
176
     1
 62
     8
420
  7895160
176
     1
 90
        3
176
     1
 90
        0
176
     1
 90
        0
176
     1
290
     0
176
     1
 90
        5
176
     1
 40
0.0
176
     1
 90
        0
176
     1
290
     0
176
     1
290
     1
176
     1
290
     1
176
     1
290
     0
176
     1
290
     0
176
     1
290
     0
176
     1
290
     0
176
     1
290
     0
176
     1
290
     0
176
     1
 90
       50
176
     1
 40
0.0
176
     1
 40
1.0
176
     1
 90
        0
176
     1
 62
    18
420
        0
176
     1
 90
       50
176
     1
 90
        3
176
     1
 62
     5
420
      255
176
     1
290
     0
176
     1
 90
       50
176
     1
 90
       50
176
     1
 90
       50
176
     1
290
     0
176
     1
 90
       50
176
     1
 62
   256
176
     0
 40
1.0
176
     0
 90
        2
176
     1
  1
strokes_ogs.tif
176
     1
290
     0
176
     1
 40
1.0
176
     1
 40
1.0
176
     1
  0
VISUALSTYLE
  5
41
102
{ACAD_REACTORS
330
2A
102
}
330
2A
100
AcDbVisualStyle
  2
Shaded with edges
 70
    26
177
     3
291
     0
 70
    58
 90
        2
176
     1
 90
        2
176
     1
 90
        1
176
     1
 90
        2
176
     1
 40
0.6
176
     1
 40
30.0
176
     1
 62
     7
420
 16777215
176
     1
 90
        1
176
     1
 90
       10
176
     1
 62
     7
176
     1
 62
   257
176
     1
 90
        2
176
     1
 90
        1
176
     1
 40
1.0
176
     1
 90
        8
176
     1
 62
   257
176
     1
 40
1.0
176
     1
 90
        1
176
     1
 90
        6
176
     1
 90
        2
176
     1
 62
     7
176
     1
 90
        3
176
     1
 90
        0
176
     1
 90
        0
176
     1
290
     0
176
     1
 90
        5
176
     1
 40
0.0
176
     1
 90
        0
176
     1
290
     0
176
     1
290
     1
176
     1
290
     1
176
     1
290
     0
176
     1
290
     0
176
     1
290
     0
176
     1
290
     0
176
     1
290
     0
176
     1
290
     0
176
     1
 90
       50
176
     1
 40
0.0
176
     1
 40
1.0
176
     1
 90
        0
176
     1
 62
    18
420
        0
176
     1
 90
       50
176
     1
 90
        3
176
     1
 62
     5
420
      255
176
     1
290
     0
176
     1
 90
       50
176
     1
 90
       50
176
     1
 90
       50
176
     1
290
     0
176
     1
 90
       50
176
     1
 62
   256
176
     0
 40
1.0
176
     0
 90
        2
176
     1
  1
strokes_ogs.tif
176
     1
290
     0
176
     1
 40
1.0
176
     1
 40
1.0
176
     1
  0
VISUALSTYLE
  5
3E
102
{ACAD_REACTORS
330
2A
102
}
330
2A
100
AcDbVisualStyle
  2
Shades of Gray
 70
    23
177
     3
291
     0
 70
    58
 90
        2
176
     1
 90
        2
176
     1
 90
        3
176
     1
 90
        0
176
     1
 40
0.6
176
     1
 40
30.0
176
     1
 62
     7
420
 16777215
176
     1
 90
        2
176
     1
 90
        2
176
     1
 62
     7
176
     1
 62
     7
176
     1
 90
        1
176
     1
 90
        1
176
     1
 40
40.0
176
     1
 90
        8
176
     1
 62
     7
176
     1
 40
1.0
176
     1
 90
        1
176
     1
 90
        6
176
     1
 90
        2
176
     1
 62
     7
176
     1
 90
        3
176
     1
 90
        0
176
     1
 90
        0
176
     1
290
     0
176
     1
 90
        1
176
     1
 40
0.0
176
     1
 90
        0
176
     1
290
     0
176
     1
290
     1
176
     1
290
     1
176
     1
290
     0
176
     1
290
     0
176
     1
290
     0
176
     1
290
     0
176
     1
290
     0
176
     1
290
     0
176
     1
 90
       50
176
     1
 40
0.0
176
     1
 40
1.0
176
     1
 90
        0
176
     1
 62
    18
420
        0
176
     1
 90
       50
176
     1
 90
        3
176
     1
 62
     5
420
      255
176
     1
290
     0
176
     1
 90
       50
176
     1
 90
       50
176
     1
 90
       50
176
     1
290
     0
176
     1
 90
       50
176
     1
 62
   256
176
     0
 40
1.0
176
     0
 90
        2
176
     1
  1
strokes_ogs.tif
176
     1
290
     0
176
     1
 40
1.0
176
     1
 40
1.0
176
     1
  0
VISUALSTYLE
  5
3F
102
{ACAD_REACTORS
330
2A
102
}
330
2A
100
AcDbVisualStyle
  2
Sketchy
 70
    24
177
     3
291
     0
 70
    58
 90
        1
176
     1
 90
        2
176
     1
 90
        2
176
     1
 90
        0
176
     1
 40
0.6
176
     1
 40
30.0
176
     1
 62
     7
420
 16777215
176
     1
 90
        2
176
     1
 90
        2
176
     1
 62
     7
176
     1
 62
     7
176
     1
 90
        1
176
     1
 90
        1
176
     1
 40
40.0
176
     1
 90
       11
176
     1
 62
     7
176
     1
 40
1.0
176
     1
 90
        1
176
     1
 90
        6
176
     1
 90
        2
176
     1
 62
     7
176
     1
 90
        6
176
     1
 90
        0
176
     1
 90
        0
176
     1
290
     0
176
     1
 90
        1
176
     1
 40
0.0
176
     1
 90
        0
176
     1
290
     0
176
     1
290
     1
176
     1
290
     1
176
     1
290
     0
176
     1
290
     0
176
     1
290
     0
176
     1
290
     0
176
     1
290
     0
176
     1
290
     0
176
     1
 90
       50
176
     1
 40
0.0
176
     1
 40
1.0
176
     1
 90
        0
176
     1
 62
    18
420
        0
176
     1
 90
       50
176
     1
 90
        3
176
     1
 62
     5
420
      255
176
     1
290
     0
176
     1
 90
       50
176
     1
 90
       50
176
     1
 90
       50
176
     1
290
     0
176
     1
 90
       50
176
     1
 62
   256
176
     0
 40
1.0
176
     0
 90
        2
176
     1
  1
strokes_ogs.tif
176
     1
290
     0
176
     1
 40
1.0
176
     1
 40
1.0
176
     1
  0
VISUALSTYLE
  5
37
102
{ACAD_REACTORS
330
2A
102
}
330
2A
100
AcDbVisualStyle
  2
Thicken
 70
    13
177
     3
291
     1
 70
    58
 90
        2
176
     1
 90
        2
176
     1
 90
        0
176
     1
 90
        0
176
     1
 40
0.6
176
     1
 40
30.0
176
     1
 62
     7
420
 16777215
176
     1
 90
        1
176
     1
 90
        4
176
     1
 62
     7
176
     1
 62
   257
176
     1
 90
        1
176
     1
 90
        1
176
     1
 40
1.0
176
     1
 90
       12
176
     1
 62
     7
176
     1
 40
1.0
176
     1
 90
        1
176
     1
 90
        6
176
     1
 90
        2
176
     1
 62
     7
176
     1
 90
        5
176
     1
 90
        0
176
     1
 90
        0
176
     1
290
     0
176
     1
 90
        1
176
     1
 40
0.0
176
     1
 90
        0
176
     1
290
     0
176
     1
290
     1
176
     1
290
     1
176
     1
290
     0
176
     1
290
     0
176
     1
290
     0
176
     1
290
     0
176
     1
290
     0
176
     1
290
     0
176
     1
 90
       50
176
     1
 40
0.0
176
     1
 40
1.0
176
     1
 90
        0
176
     1
 62
    18
420
        0
176
     1
 90
       50
176
     1
 90
        3
176
     1
 62
     5
420
      255
176
     1
290
     0
176
     1
 90
       50
176
     1
 90
       50
176
     1
 90
       50
176
     1
290
     0
176
     1
 90
       50
176
     1
 62
   256
176
     0
 40
1.0
176
     0
 90
        2
176
     1
  1
strokes_ogs.tif
176
     1
290
     0
176
     1
 40
1.0
176
     1
 40
1.0
176
     1
  0
VISUALSTYLE
  5
30
102
{ACAD_REACTORS
330
2A
102
}
330
2A
100
AcDbVisualStyle
  2
Wireframe
 70
     5
177
     3
291
     0
 70
    58
 90
        0
176
     1
 90
        2
176
     1
 90
        0
176
     1
 90
        0
176
     1
 40
0.6
176
     1
 40
30.0
176
     1
 62
     7
420
 16777215
176
     1
 90
        1
176
     1
 90
        4
176
     1
 62
     7
176
     1
 62
   257
176
     1
 90
        1
176
     1
 90
        1
176
     1
 40
1.0
176
     1
 90
        0
176
     1
 62
   257
176
     1
 40
1.0
176
     1
 90
        1
176
     1
 90
        6
176
     1
 90
        2
176
     1
 62
     7
176
     1
 90
        3
176
     1
 90
        0
176
     1
 90
        0
176
     1
290
     0
176
     1
 90
        1
176
     1
 40
0.0
176
     1
 90
        0
176
     1
290
     0
176
     1
290
     1
176
     1
290
     1
176
     1
290
     0
176
     1
290
     0
176
     1
290
     0
176
     1
290
     0
176
     1
290
     0
176
     1
290
     0
176
     1
 90
       50
176
     1
 40
0.0
176
     1
 40
1.0
176
     1
 90
        0
176
     1
 62
    18
420
        0
176
     1
 90
       50
176
     1
 90
        3
176
     1
 62
     5
420
      255
176
     1
290
     0
176
     1
 90
       50
176
     1
 90
       50
176
     1
 90
       50
176
     1
290
     0
176
     1
 90
       50
176
     1
 62
   256
176
     0
 40
1.0
176
     0
 90
        2
176
     1
  1
strokes_ogs.tif
176
     1
290
     0
176
     1
 40
1.0
176
     1
 40
1.0
176
     1
  0
VISUALSTYLE
  5
40
102
{ACAD_REACTORS
330
2A
102
}
330
2A
100
AcDbVisualStyle
  2
X-Ray
 70
    25
177
     3
291
     0
 70
    58
 90
        2
176
     1
 90
        2
176
     1
 90
        1
176
     1
 90
        1
176
     1
 40
0.5
176
     1
 40
30.0
176
     1
 62
     7
420
 16777215
176
     1
 90
        1
176
     1
 90
        0
176
     1
 62
     7
176
     1
 62
   257
176
     1
 90
        1
176
     1
 90
        1
176
     1
 40
1.0
176
     1
 90
        8
176
     1
 62
     7
176
     1
 40
1.0
176
     1
 90
        1
176
     1
 90
        6
176
     1
 90
        2
176
     1
 62
     7
176
     1
 90
        3
176
     1
 90
        0
176
     1
 90
        0
176
     1
290
     0
176
     1
 90
       13
176
     1
 40
0.0
176
     1
 90
        0
176
     1
290
     0
176
     1
290
     1
176
     1
290
     1
176
     1
290
     0
176
     1
290
     0
176
     1
290
     0
176
     1
290
     0
176
     1
290
     0
176
     1
290
     0
176
     1
 90
       50
176
     1
 40
0.0
176
     1
 40
1.0
176
     1
 90
        0
176
     1
 62
    18
420
        0
176
     1
 90
       50
176
     1
 90
        3
176
     1
 62
     5
420
      255
176
     1
290
     0
176
     1
 90
       50
176
     1
 90
       50
176
     1
 90
       50
176
     1
290
     0
176
     1
 90
       50
176
     1
 62
   256
176
     0
 40
1.0
176
     0
 90
        2
176
     1
  1
strokes_ogs.tif
176
     1
290
     0
176
     1
 40
1.0
176
     1
 40
1.0
176
     1
  0
DICTIONARYVAR
  5
246
102
{ACAD_REACTORS
330
245
102
}
330
245
100
DictionaryVariables
280
     0
  1
1:1
  0
DICTIONARYVAR
  5
24B
102
{ACAD_REACTORS
330
245
102
}
330
245
100
DictionaryVariables
280
     0
  1
Standard
  0
DICTIONARYVAR
  5
24A
102
{ACAD_REACTORS
330
245
102
}
330
245
100
DictionaryVariables
280
     0
  1
Standard
  0
DICTIONARY
  5
247
330
6A
100
AcDbDictionary
280
     1
281
     1
  3
ACAD_ROUNDTRIP_2008_TABLESTYLE_CELLSTYLEMAP
360
248
  0
CELLSTYLEMAP
  5
248
102
{ACAD_REACTORS
330
247
102
}
330
247
100
AcDbCellStyleMap
 90
        3
300
CELLSTYLE
  1
TABLEFORMAT_BEGIN
 90
        5
170
     1
 91
        0
 92
    32768
 62
   257
 93
        1
300
CONTENTFORMAT
  1
CONTENTFORMAT_BEGIN
 90
        0
 91
        0
 92
        4
 93
        0
300

 40
0.0
140
1.0
 94
        5
 62
     0
340
11
144
0.25
309
CONTENTFORMAT_END
171
     1
301
MARGIN
  1
CELLMARGIN_BEGIN
 40
0.06
 40
0.06
 40
0.06
 40
0.06
 40
0.06
 40
0.06
309
CELLMARGIN_END
 94
        6
 95
        1
302
GRIDFORMAT
  1
GRIDFORMAT_BEGIN
 90
        0
 91
        1
 62
     0
 92
       -2
340
14
 93
        0
 40
0.045
309
GRIDFORMAT_END
 95
        2
302
GRIDFORMAT
  1
GRIDFORMAT_BEGIN
 90
        0
 91
        1
 62
     0
 92
       -2
340
14
 93
        0
 40
0.045
309
GRIDFORMAT_END
 95
        4
302
GRIDFORMAT
  1
GRIDFORMAT_BEGIN
 90
        0
 91
        1
 62
     0
 92
       -2
340
14
 93
        0
 40
0.045
309
GRIDFORMAT_END
 95
        8
302
GRIDFORMAT
  1
GRIDFORMAT_BEGIN
 90
        0
 91
        1
 62
     0
 92
       -2
340
14
 93
        0
 40
0.045
309
GRIDFORMAT_END
 95
       16
302
GRIDFORMAT
  1
GRIDFORMAT_BEGIN
 90
        0
 91
        1
 62
     0
 92
       -2
340
14
 93
        0
 40
0.045
309
GRIDFORMAT_END
 95
       32
302
GRIDFORMAT
  1
GRIDFORMAT_BEGIN
 90
        0
 91
        1
 62
     0
 92
       -2
340
14
 93
        0
 40
0.045
309
GRIDFORMAT_END
309
TABLEFORMAT_END
  1
CELLSTYLE_BEGIN
 90
        1
 91
        1
300
_TITLE
309
CELLSTYLE_END
300
CELLSTYLE
  1
TABLEFORMAT_BEGIN
 90
        5
170
     1
 91
        0
 92
        0
 62
   257
 93
        1
300
CONTENTFORMAT
  1
CONTENTFORMAT_BEGIN
 90
        0
 91
        0
 92
        4
 93
        0
300

 40
0.0
140
1.0
 94
        5
 62
     0
340
11
144
0.18
309
CONTENTFORMAT_END
171
     1
301
MARGIN
  1
CELLMARGIN_BEGIN
 40
0.06
 40
0.06
 40
0.06
 40
0.06
 40
0.06
 40
0.06
309
CELLMARGIN_END
 94
        6
 95
        1
302
GRIDFORMAT
  1
GRIDFORMAT_BEGIN
 90
        0
 91
        1
 62
     0
 92
       -2
340
14
 93
        0
 40
0.045
309
GRIDFORMAT_END
 95
        2
302
GRIDFORMAT
  1
GRIDFORMAT_BEGIN
 90
        0
 91
        1
 62
     0
 92
       -2
340
14
 93
        0
 40
0.045
309
GRIDFORMAT_END
 95
        4
302
GRIDFORMAT
  1
GRIDFORMAT_BEGIN
 90
        0
 91
        1
 62
     0
 92
       -2
340
14
 93
        0
 40
0.045
309
GRIDFORMAT_END
 95
        8
302
GRIDFORMAT
  1
GRIDFORMAT_BEGIN
 90
        0
 91
        1
 62
     0
 92
       -2
340
14
 93
        0
 40
0.045
309
GRIDFORMAT_END
 95
       16
302
GRIDFORMAT
  1
GRIDFORMAT_BEGIN
 90
        0
 91
        1
 62
     0
 92
       -2
340
14
 93
        0
 40
0.045
309
GRIDFORMAT_END
 95
       32
302
GRIDFORMAT
  1
GRIDFORMAT_BEGIN
 90
        0
 91
        1
 62
     0
 92
       -2
340
14
 93
        0
 40
0.045
309
GRIDFORMAT_END
309
TABLEFORMAT_END
  1
CELLSTYLE_BEGIN
 90
        2
 91
        1
300
_HEADER
309
CELLSTYLE_END
300
CELLSTYLE
  1
TABLEFORMAT_BEGIN
 90
        5
170
     1
 91
        0
 92
        0
 62
   257
 93
        1
300
CONTENTFORMAT
  1
CONTENTFORMAT_BEGIN
 90
        0
 91
        0
 92
        4
 93
        0
300

 40
0.0
140
1.0
 94
        2
 62
     0
340
11
144
0.18
309
CONTENTFORMAT_END
171
     1
301
MARGIN
  1
CELLMARGIN_BEGIN
 40
0.06
 40
0.06
 40
0.06
 40
0.06
 40
0.06
 40
0.06
309
CELLMARGIN_END
 94
        6
 95
        1
302
GRIDFORMAT
  1
GRIDFORMAT_BEGIN
 90
        0
 91
        1
 62
     0
 92
       -2
340
14
 93
        0
 40
0.045
309
GRIDFORMAT_END
 95
        2
302
GRIDFORMAT
  1
GRIDFORMAT_BEGIN
 90
        0
 91
        1
 62
     0
 92
       -2
340
14
 93
        0
 40
0.045
309
GRIDFORMAT_END
 95
        4
302
GRIDFORMAT
  1
GRIDFORMAT_BEGIN
 90
        0
 91
        1
 62
     0
 92
       -2
340
14
 93
        0
 40
0.045
309
GRIDFORMAT_END
 95
        8
302
GRIDFORMAT
  1
GRIDFORMAT_BEGIN
 90
        0
 91
        1
 62
     0
 92
       -2
340
14
 93
        0
 40
0.045
309
GRIDFORMAT_END
 95
       16
302
GRIDFORMAT
  1
GRIDFORMAT_BEGIN
 90
        0
 91
        1
 62
     0
 92
       -2
340
14
 93
        0
 40
0.045
309
GRIDFORMAT_END
 95
       32
302
GRIDFORMAT
  1
GRIDFORMAT_BEGIN
 90
        0
 91
        1
 62
     0
 92
       -2
340
14
 93
        0
 40
0.045
309
GRIDFORMAT_END
309
TABLEFORMAT_END
  1
CELLSTYLE_BEGIN
 90
        3
 91
        2
300
_DATA
309
CELLSTYLE_END
  0
ENDSEC
  0
EOF