0
SECTION
  2
HEADER
  9
$ACADVER
  1
AC1027
  9
$ACADMAINTVER
 70
     8
  9
$DWGCODEPAGE
  3
ANSI_1252
  9
$REQUIREDVERSIONS
160
                 0
  9
$COMMENTS
  1
File was created by Cadenas
  9
$CUSTOMPROPERTYTAG
  1
NN
  9
$CUSTOMPROPERTY
  1
Imperial - IP Flange - Round Labyrinth Seal
  9
$CUSTOMPROPERTYTAG
  1
NT
  9
$CUSTOMPROPERTY
  1
Imperial 3 & 4 Bolt Round Flange Bearings
  9
$CUSTOMPROPERTYTAG
  1
NB
  9
$CUSTOMPROPERTY
  1
069681
  9
$CUSTOMPROPERTYTAG
  1
NBSYN
  9
$CUSTOMPROPERTY
  1
$PN.
  9
$CUSTOMPROPERTYTAG
  1
LINA
  9
$CUSTOMPROPERTY
  1
069681
  9
$CUSTOMPROPERTYTAG
  1
SS
  9
$CUSTOMPROPERTY
  1
1-7/8
  9
$CUSTOMPROPERTYTAG
  1
PN
  9
$CUSTOMPROPERTY
  1
069681
  9
$CUSTOMPROPERTYTAG
  1
DESCRIPTION
  9
$CUSTOMPROPERTY
  1
F4R-IP-114LE
  9
$CUSTOMPROPERTYTAG
  1
EF
  9
$CUSTOMPROPERTY
  1
Expansion Type
  9
$CUSTOMPROPERTYTAG
  1
ST
  9
$CUSTOMPROPERTY
  1
Labyrinth Seal
  9
$CUSTOMPROPERTYTAG
  1
A
  9
$CUSTOMPROPERTY
  1
2-55/64
  9
$CUSTOMPROPERTYTAG
  1
B
  9
$CUSTOMPROPERTY
  1
6-11/16
  9
$CUSTOMPROPERTYTAG
  1
C
  9
$CUSTOMPROPERTY
  1
3-5/32
  9
$CUSTOMPROPERTYTAG
  1
D
  9
$CUSTOMPROPERTY
  1
4-1/16
  9
$CUSTOMPROPERTYTAG
  1
DD
  9
$CUSTOMPROPERTY
  1
5-3/4
  9
$CUSTOMPROPERTYTAG
  1
E
  9
$CUSTOMPROPERTY
  1
1-59/64
  9
$CUSTOMPROPERTYTAG
  1
F
  9
$CUSTOMPROPERTY
  1
1/2
  9
$CUSTOMPROPERTYTAG
  1
H
  9
$CUSTOMPROPERTY
  1
9/16
  9
$CUSTOMPROPERTYTAG
  1
J
  9
$CUSTOMPROPERTY
  1
4-1/2
  9
$CUSTOMPROPERTYTAG
  1
L
  9
$CUSTOMPROPERTY
  1
3-9/32
  9
$CUSTOMPROPERTYTAG
  1
P
  9
$CUSTOMPROPERTY
  1
19/64
  9
$CUSTOMPROPERTYTAG
  1
X
  9
$CUSTOMPROPERTY
  1
1/4
  9
$CUSTOMPROPERTYTAG
  1
Y
  9
$CUSTOMPROPERTY
  1
0.020
  9
$CUSTOMPROPERTYTAG
  1
Z
  9
$CUSTOMPROPERTY
  1
2-19/64
  9
$CUSTOMPROPERTYTAG
  1
COMPANY
  9
$CUSTOMPROPERTY
  1
baldor
  9
$INSBASE
 10
0.0
 20
0.0
 30
0.0
  9
$EXTMIN
 10
1.000000000000000E+20
 20
1.000000000000000E+20
 30
1.000000000000000E+20
  9
$EXTMAX
 10
-1.000000000000000E+20
 20
-1.000000000000000E+20
 30
-1.000000000000000E+20
  9
$LIMMIN
 10
0.0
 20
0.0
  9
$LIMMAX
 10
12.0
 20
9.0
  9
$ORTHOMODE
 70
     0
  9
$REGENMODE
 70
     1
  9
$FILLMODE
 70
     1
  9
$QTEXTMODE
 70
     0
  9
$MIRRTEXT
 70
     1
  9
$LTSCALE
 40
1.0
  9
$ATTMODE
 70
     1
  9
$TEXTSIZE
 40
0.2
  9
$TRACEWID
 40
0.05
  9
$TEXTSTYLE
  7
Standard
  9
$CLAYER
  8
0
  9
$CELTYPE
  6
ByLayer
  9
$CECOLOR
 62
   256
  9
$CELTSCALE
 40
1.0
  9
$DISPSILH
 70
     0
  9
$DIMSCALE
 40
1.0
  9
$DIMASZ
 40
0.18
  9
$DIMEXO
 40
0.0625
  9
$DIMDLI
 40
0.38
  9
$DIMRND
 40
0.0
  9
$DIMDLE
 40
0.0
  9
$DIMEXE
 40
0.18
  9
$DIMTP
 40
0.0
  9
$DIMTM
 40
0.0
  9
$DIMTXT
 40
0.18
  9
$DIMCEN
 40
0.09
  9
$DIMTSZ
 40
0.0
  9
$DIMTOL
 70
     0
  9
$DIMLIM
 70
     0
  9
$DIMTIH
 70
     1
  9
$DIMTOH
 70
     1
  9
$DIMSE1
 70
     0
  9
$DIMSE2
 70
     0
  9
$DIMTAD
 70
     0
  9
$DIMZIN
 70
     0
  9
$DIMBLK
  1

  9
$DIMASO
 70
     1
  9
$DIMSHO
 70
     1
  9
$DIMPOST
  1

  9
$DIMAPOST
  1

  9
$DIMALT
 70
     0
  9
$DIMALTD
 70
     2
  9
$DIMALTF
 40
25.4
  9
$DIMLFAC
 40
1.0
  9
$DIMTOFL
 70
     0
  9
$DIMTVP
 40
0.0
  9
$DIMTIX
 70
     0
  9
$DIMSOXD
 70
     0
  9
$DIMSAH
 70
     0
  9
$DIMBLK1
  1

  9
$DIMBLK2
  1

  9
$DIMSTYLE
  2
Standard
  9
$DIMCLRD
 70
     0
  9
$DIMCLRE
 70
     0
  9
$DIMCLRT
 70
     0
  9
$DIMTFAC
 40
1.0
  9
$DIMGAP
 40
0.09
  9
$DIMJUST
 70
     0
  9
$DIMSD1
 70
     0
  9
$DIMSD2
 70
     0
  9
$DIMTOLJ
 70
     1
  9
$DIMTZIN
 70
     0
  9
$DIMALTZ
 70
     0
  9
$DIMALTTZ
 70
     0
  9
$DIMUPT
 70
     0
  9
$DIMDEC
 70
     4
  9
$DIMTDEC
 70
     4
  9
$DIMALTU
 70
     2
  9
$DIMALTTD
 70
     2
  9
$DIMTXSTY
  7
Standard
  9
$DIMAUNIT
 70
     0
  9
$DIMADEC
 70
     0
  9
$DIMALTRND
 40
0.0
  9
$DIMAZIN
 70
     0
  9
$DIMDSEP
 70
    46
  9
$DIMATFIT
 70
     3
  9
$DIMFRAC
 70
     0
  9
$DIMLDRBLK
  1

  9
$DIMLUNIT
 70
     2
  9
$DIMLWD
 70
    -2
  9
$DIMLWE
 70
    -2
  9
$DIMTMOVE
 70
     0
  9
$DIMFXL
 40
1.0
  9
$DIMFXLON
 70
     0
  9
$DIMJOGANG
 40
0.7853981633974483
  9
$DIMTFILL
 70
     0
  9
$DIMTFILLCLR
 70
     0
  9
$DIMARCSYM
 70
     0
  9
$DIMLTYPE
  6

  9
$DIMLTEX1
  6

  9
$DIMLTEX2
  6

  9
$DIMTXTDIRECTION
 70
     0
  9
$LUNITS
 70
     2
  9
$LUPREC
 70
     4
  9
$SKETCHINC
 40
0.1
  9
$FILLETRAD
 40
0.5
  9
$AUNITS
 70
     0
  9
$AUPREC
 70
     0
  9
$MENU
  1
.
  9
$ELEVATION
 40
0.0
  9
$PELEVATION
 40
0.0
  9
$THICKNESS
 40
0.0
  9
$LIMCHECK
 70
     0
  9
$CHAMFERA
 40
0.0
  9
$CHAMFERB
 40
0.0
  9
$CHAMFERC
 40
0.0
  9
$CHAMFERD
 40
0.0
  9
$SKPOLY
 70
     0
  9
$TDCREATE
 40
2458168.963472465
  9
$TDUCREATE
 40
2458168.921805799
  9
$TDUPDATE
 40
2458168.963472639
  9
$TDUUPDATE
 40
2458168.921805972
  9
$TDINDWG
 40
0.0000000116
  9
$TDUSRTIMER
 40
0.0000000116
  9
$USRTIMER
 70
     1
  9
$ANGBASE
 50
0.0
  9
$ANGDIR
 70
     0
  9
$PDMODE
 70
     0
  9
$PDSIZE
 40
0.0
  9
$PLINEWID
 40
0.0
  9
$SPLFRAME
 70
     0
  9
$SPLINETYPE
 70
     6
  9
$SPLINESEGS
 70
     8
  9
$HANDSEED
  5
228
  9
$SURFTAB1
 70
     6
  9
$SURFTAB2
 70
     6
  9
$SURFTYPE
 70
     6
  9
$SURFU
 70
     6
  9
$SURFV
 70
     6
  9
$UCSBASE
  2

  9
$UCSNAME
  2

  9
$UCSORG
 10
0.0
 20
0.0
 30
0.0
  9
$UCSXDIR
 10
1.0
 20
0.0
 30
0.0
  9
$UCSYDIR
 10
0.0
 20
1.0
 30
0.0
  9
$UCSORTHOREF
  2

  9
$UCSORTHOVIEW
 70
     0
  9
$UCSORGTOP
 10
0.0
 20
0.0
 30
0.0
  9
$UCSORGBOTTOM
 10
0.0
 20
0.0
 30
0.0
  9
$UCSORGLEFT
 10
0.0
 20
0.0
 30
0.0
  9
$UCSORGRIGHT
 10
0.0
 20
0.0
 30
0.0
  9
$UCSORGFRONT
 10
0.0
 20
0.0
 30
0.0
  9
$UCSORGBACK
 10
0.0
 20
0.0
 30
0.0
  9
$PUCSBASE
  2

  9
$PUCSNAME
  2

  9
$PUCSORG
 10
0.0
 20
0.0
 30
0.0
  9
$PUCSXDIR
 10
1.0
 20
0.0
 30
0.0
  9
$PUCSYDIR
 10
0.0
 20
1.0
 30
0.0
  9
$PUCSORTHOREF
  2

  9
$PUCSORTHOVIEW
 70
     0
  9
$PUCSORGTOP
 10
0.0
 20
0.0
 30
0.0
  9
$PUCSORGBOTTOM
 10
0.0
 20
0.0
 30
0.0
  9
$PUCSORGLEFT
 10
0.0
 20
0.0
 30
0.0
  9
$PUCSORGRIGHT
 10
0.0
 20
0.0
 30
0.0
  9
$PUCSORGFRONT
 10
0.0
 20
0.0
 30
0.0
  9
$PUCSORGBACK
 10
0.0
 20
0.0
 30
0.0
  9
$USERI1
 70
     0
  9
$USERI2
 70
     0
  9
$USERI3
 70
     0
  9
$USERI4
 70
     0
  9
$USERI5
 70
     0
  9
$USERR1
 40
0.0
  9
$USERR2
 40
0.0
  9
$USERR3
 40
0.0
  9
$USERR4
 40
0.0
  9
$USERR5
 40
0.0
  9
$WORLDVIEW
 70
     1
  9
$SHADEDGE
 70
     3
  9
$SHADEDIF
 70
    70
  9
$TILEMODE
 70
     1
  9
$MAXACTVP
 70
    64
  9
$PINSBASE
 10
0.0
 20
0.0
 30
0.0
  9
$PLIMCHECK
 70
     0
  9
$PEXTMIN
 10
1.000000000000000E+20
 20
1.000000000000000E+20
 30
1.000000000000000E+20
  9
$PEXTMAX
 10
-1.000000000000000E+20
 20
-1.000000000000000E+20
 30
-1.000000000000000E+20
  9
$PLIMMIN
 10
0.0
 20
0.0
  9
$PLIMMAX
 10
12.0
 20
9.0
  9
$UNITMODE
 70
     0
  9
$VISRETAIN
 70
     1
  9
$PLINEGEN
 70
     0
  9
$PSLTSCALE
 70
     1
  9
$TREEDEPTH
 70
  3020
  9
$CMLSTYLE
  2
Standard
  9
$CMLJUST
 70
     0
  9
$CMLSCALE
 40
1.0
  9
$PROXYGRAPHICS
 70
     1
  9
$MEASUREMENT
 70
     0
  9
$CELWEIGHT
370
    -1
  9
$ENDCAPS
280
     0
  9
$JOINSTYLE
280
     0
  9
$LWDISPLAY
290
     0
  9
$INSUNITS
 70
     1
  9
$HYPERLINKBASE
  1

  9
$STYLESHEET
  1

  9
$XEDIT
290
     1
  9
$CEPSNTYPE
380
     0
  9
$PSTYLEMODE
290
     1
  9
$FINGERPRINTGUID
  2
{F5C774AA-999E-472F-8FFC-4ABEACECAFA6}
  9
$VERSIONGUID
  2
{FAEB1C32-E019-11D5-929B-00C0DF256EC4}
  9
$EXTNAMES
290
     1
  9
$PSVPSCALE
 40
0.0
  9
$OLESTARTUP
290
     0
  9
$SORTENTS
280
   127
  9
$INDEXCTL
280
     0
  9
$HIDETEXT
280
     1
  9
$XCLIPFRAME
280
     2
  9
$HALOGAP
280
     0
  9
$OBSCOLOR
 70
   257
  9
$OBSLTYPE
280
     0
  9
$INTERSECTIONDISPLAY
280
     0
  9
$INTERSECTIONCOLOR
 70
   257
  9
$DIMASSOC
280
     2
  9
$PROJECTNAME
  1

  9
$CAMERADISPLAY
290
     0
  9
$LENSLENGTH
 40
50.0
  9
$CAMERAHEIGHT
 40
0.0
  9
$STEPSPERSEC
 40
2.0
  9
$STEPSIZE
 40
6.0
  9
$3DDWFPREC
 40
2.0
  9
$PSOLWIDTH
 40
0.25
  9
$PSOLHEIGHT
 40
4.0
  9
$LOFTANG1
 40
1.570796326794897
  9
$LOFTANG2
 40
1.570796326794897
  9
$LOFTMAG1
 40
0.0
  9
$LOFTMAG2
 40
0.0
  9
$LOFTPARAM
 70
     7
  9
$LOFTNORMALS
280
     1
  9
$LATITUDE
 40
37.795
  9
$LONGITUDE
 40
-122.394
  9
$NORTHDIRECTION
 40
0.0
  9
$TIMEZONE
 70
 -8000
  9
$LIGHTGLYPHDISPLAY
280
     1
  9
$TILEMODELIGHTSYNCH
280
     1
  9
$CMATERIAL
347
44
  9
$SOLIDHIST
280
     0
  9
$SHOWHIST
280
     1
  9
$DWFFRAME
280
     2
  9
$DGNFRAME
280
     2
  9
$REALWORLDSCALE
290
     1
  9
$INTERFERECOLOR
 62
   256
  9
$CSHADOW
280
     0
  9
$SHADOWPLANELOCATION
 40
0.0
  0
ENDSEC
  0
SECTION
  2
CLASSES
  0
CLASS
  1
ACDBDICTIONARYWDFLT
  2
AcDbDictionaryWithDefault
  3
ObjectDBX Classes
 90
        0
 91
        4
280
     0
281
     0
  0
CLASS
  1
VISUALSTYLE
  2
AcDbVisualStyle
  3
ObjectDBX Classes
 90
     4095
 91
        4
280
     0
281
     0
  0
CLASS
  1
MATERIAL
  2
AcDbMaterial
  3
ObjectDBX Classes
 90
     1153
 91
        4
280
     0
281
     0
  0
CLASS
  1
SCALE
  2
AcDbScale
  3
ObjectDBX Classes
 90
     1153
 91
        4
280
     0
281
     0
  0
CLASS
  1
TABLESTYLE
  2
AcDbTableStyle
  3
ObjectDBX Classes
 90
     4095
 91
        4
280
     0
281
     0
  0
CLASS
  1
MLEADERSTYLE
  2
AcDbMLeaderStyle
  3
ACDB_MLEADERSTYLE_CLASS
 90
     4095
 91
        4
280
     0
281
     0
  0
CLASS
  1
SUN
  2
AcDbSun
  3
SCENEOE
 90
     1153
 91
        4
280
     0
281
     0
  0
CLASS
  1
DICTIONARYVAR
  2
AcDbDictionaryVar
  3
ObjectDBX Classes
 90
        0
 91
        4
280
     0
281
     0
  0
CLASS
  1
CELLSTYLEMAP
  2
AcDbCellStyleMap
  3
ObjectDBX Classes
 90
     1152
 91
        4
280
     0
281
     0
  0
ENDSEC
  0
SECTION
  2
TABLES
  0
TABLE
  2
VPORT
  5
8
330
0
100
AcDbSymbolTable
 70
     1
  0
VPORT
  5
29
330
8
100
AcDbSymbolTableRecord
100
AcDbViewportTableRecord
  2
*Active
 70
     0
 10
0.0
 20
0.0
 11
1.0
 21
1.0
 12
0.0
 22
0.0
 13
0.0
 23
0.0
 14
0.5
 24
0.5
 15
0.5
 25
0.5
 16
0.0
 26
0.0
 36
1.0
 17
0.0
 27
0.0
 37
0.0
 40
7.162312500000001
 41
0.9999999999999999
 42
50.0
 43
0.0
 44
0.0
 50
0.0
 51
0.0
 71
     0
 72
   100
 73
     1
 74
     3
 75
     0
 76
     0
 77
     0
 78
     0
281
     0
 65
     1
110
0.0
120
0.0
130
0.0
111
1.0
121
0.0
131
0.0
112
0.0
122
1.0
132
0.0
 79
     0
146
0.0
348
2F
 60
     3
 61
     5
292
     1
282
     1
141
0.0
142
0.0
 63
   250
361
6D
  0
ENDTAB
  0
TABLE
  2
LTYPE
  5
5
330
0
100
AcDbSymbolTable
 70
     3
  0
LTYPE
  5
14
330
5
100
AcDbSymbolTableRecord
100
AcDbLinetypeTableRecord
  2
ByBlock
 70
     0
  3

 72
    65
 73
     0
 40
0.0
  0
LTYPE
  5
15
330
5
100
AcDbSymbolTableRecord
100
AcDbLinetypeTableRecord
  2
ByLayer
 70
     0
  3

 72
    65
 73
     0
 40
0.0
  0
LTYPE
  5
16
330
5
100
AcDbSymbolTableRecord
100
AcDbLinetypeTableRecord
  2
Continuous
 70
     0
  3
Solid line
 72
    65
 73
     0
 40
0.0
  0
LTYPE
  5
9E
330
5
100
AcDbSymbolTableRecord
100
AcDbLinetypeTableRecord
  2
Center
 70
     0
  3

 72
    65
 73
     4
 40
1.5
 49
0.45
 74
     0
 49
-0.5
 74
     0
 49
0.05
 74
     0
 49
-0.5
 74
     0
  0
LTYPE
  5
E4
330
5
100
AcDbSymbolTableRecord
100
AcDbLinetypeTableRecord
  2
Dashed
 70
     0
  3

 72
    65
 73
     2
 40
2.0
 49
1.0
 74
     0
 49
-1.0
 74
     0
  0
ENDTAB
  0
TABLE
  2
LAYER
  5
2
330
0
100
AcDbSymbolTable
 70
     7
  0
LAYER
  5
10
330
2
100
AcDbSymbolTableRecord
100
AcDbLayerTableRecord
  2
0
 70
     0
 62
     7
  6
Continuous
370
    -3
390
F
347
46
348
0
  0
LAYER
  5
72
330
2
100
AcDbSymbolTableRecord
100
AcDbLayerTableRecord
  2
AM_6
 70
     0
 62
    -2
  6
Continuous
370
    35
390
F
347
46
348
0
  0
LAYER
  5
9C
330
2
100
AcDbSymbolTableRecord
100
AcDbLayerTableRecord
  2
AM_5
 70
     0
 62
     3
  6
Continuous
370
    25
390
F
347
46
348
0
  0
LAYER
  5
9F
330
2
100
AcDbSymbolTableRecord
100
AcDbLayerTableRecord
  2
AM_7
 70
     0
 62
     7
  6
Center
370
    25
390
F
347
46
348
0
  0
LAYER
  5
A2
330
2
100
AcDbSymbolTableRecord
100
AcDbLayerTableRecord
  2
AM_4
 70
     0
 62
     7
  6
Continuous
370
    50
390
F
347
46
348
0
  0
LAYER
  5
E5
330
2
100
AcDbSymbolTableRecord
100
AcDbLayerTableRecord
  2
AM_9
 70
     0
 62
     6
  6
Dashed
370
    25
390
F
347
46
348
0
  0
LAYER
  5
211
330
2
100
AcDbSymbolTableRecord
100
AcDbLayerTableRecord
  2
ConnectionPoints
 70
     0
 62
     7
  6
Continuous
370
    50
390
F
347
46
348
0
  0
ENDTAB
  0
TABLE
  2
STYLE
  5
3
330
0
100
AcDbSymbolTable
 70
     1
  0
STYLE
  5
11
330
3
100
AcDbSymbolTableRecord
100
AcDbTextStyleTableRecord
  2
Standard
 70
     0
 40
0.0
 41
1.0
 50
0.0
 71
     0
 42
0.2
  3
txt
  4

  0
ENDTAB
  0
TABLE
  2
VIEW
  5
6
330
0
100
AcDbSymbolTable
 70
     0
  0
ENDTAB
  0
TABLE
  2
UCS
  5
7
330
0
100
AcDbSymbolTable
 70
     0
  0
ENDTAB
  0
TABLE
  2
APPID
  5
9
330
0
100
AcDbSymbolTable
 70
     1
  0
APPID
  5
12
330
9
100
AcDbSymbolTableRecord
100
AcDbRegAppTableRecord
  2
ACAD
 70
     0
  0
ENDTAB
  0
TABLE
  2
DIMSTYLE
  5
A
330
0
100
AcDbSymbolTable
 70
     1
100
AcDbDimStyleTable
  0
DIMSTYLE
105
27
330
A
100
AcDbSymbolTableRecord
100
AcDbDimStyleTableRecord
  2
Standard
 70
     0
178
     0
340
11
  0
ENDTAB
  0
TABLE
  2
BLOCK_RECORD
  5
1
330
0
100
AcDbSymbolTable
 70
     8
  0
BLOCK_RECORD
  5
1F
330
1
100
AcDbSymbolTableRecord
100
AcDbBlockTableRecord
  2
*Model_Space
340
22
 70
     0
280
     1
281
     0
  0
BLOCK_RECORD
  5
1B
330
1
100
AcDbSymbolTableRecord
100
AcDbBlockTableRecord
  2
*Paper_Space
340
1E
 70
     0
280
     1
281
     0
  0
BLOCK_RECORD
  5
23
330
1
100
AcDbSymbolTableRecord
100
AcDbBlockTableRecord
  2
*Paper_Space0
340
26
 70
     0
280
     1
281
     0
  0
BLOCK_RECORD
  5
6E
330
1
100
AcDbSymbolTableRecord
100
AcDbBlockTableRecord
  2
1_069681_0
340
0
102
{BLKREFS
331
6F
102
}
 70
     0
280
     1
281
     0
  0
BLOCK_RECORD
  5
8C
330
1
100
AcDbSymbolTableRecord
100
AcDbBlockTableRecord
  2
2_ASME_B18_3_10_1_0_in_069681_0
340
0
102
{BLKREFS
331
8D
102
}
 70
     0
280
     1
281
     0
  0
BLOCK_RECORD
  5
AE
330
1
100
AcDbSymbolTableRecord
100
AcDbBlockTableRecord
  2
3_ASME_B18_3_10_2_0_in_069681_0
340
0
102
{BLKREFS
331
AF
102
}
 70
     0
280
     1
281
     0
  0
BLOCK_RECORD
  5
CB
330
1
100
AcDbSymbolTableRecord
100
AcDbBlockTableRecord
  2
4_070889LW_0_in_069681_0
340
0
102
{BLKREFS
331
CC
102
}
 70
     0
280
     1
281
     0
  0
BLOCK_RECORD
  5
11A
330
1
100
AcDbSymbolTableRecord
100
AcDbBlockTableRecord
  2
5_070921I_0_in_069681_0
340
0
102
{BLKREFS
331
11B
102
}
 70
     0
280
     1
281
     0
  0
BLOCK_RECORD
  5
177
330
1
100
AcDbSymbolTableRecord
100
AcDbBlockTableRecord
  2
6_405015E_Inch_0_in_069681_0
340
0
102
{BLKREFS
331
178
102
}
 70
     0
280
     1
281
     0
  0
BLOCK_RECORD
  5
1AC
330
1
100
AcDbSymbolTableRecord
100
AcDbBlockTableRecord
  2
7_069681H_0_in_069681_0
340
0
102
{BLKREFS
331
1AD
102
}
 70
     0
280
     1
281
     0
  0
ENDTAB
  0
ENDSEC
  0
SECTION
  2
BLOCKS
  0
BLOCK
  5
20
330
1F
100
AcDbEntity
  8
0
100
AcDbBlockBegin
  2
*Model_Space
 70
     0
 10
0.0
 20
0.0
 30
0.0
  3
*Model_Space
  1

  0
ENDBLK
  5
21
330
1F
100
AcDbEntity
  8
0
100
AcDbBlockEnd
  0
BLOCK
  5
1C
330
1B
100
AcDbEntity
 67
     1
  8
0
100
AcDbBlockBegin
  2
*Paper_Space
 70
     0
 10
0.0
 20
0.0
 30
0.0
  3
*Paper_Space
  1

  0
ENDBLK
  5
1D
330
1B
100
AcDbEntity
 67
     1
  8
0
100
AcDbBlockEnd
  0
BLOCK
  5
24
330
23
100
AcDbEntity
  8
0
100
AcDbBlockBegin
  2
*Paper_Space0
 70
     0
 10
0.0
 20
0.0
 30
0.0
  3
*Paper_Space0
  1

  0
ENDBLK
  5
25
330
23
100
AcDbEntity
  8
0
100
AcDbBlockEnd
  0
BLOCK
  5
70
330
6E
100
AcDbEntity
  8
0
100
AcDbBlockBegin
  2
1_069681_0
 70
     2
 10
0.0
 20
0.0
 30
0.0
  3
1_069681_0
  1

  0
ATTDEF
  5
73
330
6E
100
AcDbEntity
  8
AM_6
100
AcDbText
 10
8.5109375
 20
3.5109375
 30
0.0
 40
0.5
  1
Imperial - IP Flange - Round Labyrinth Seal
100
AcDbAttributeDefinition
  3

  2
NN
 70
     8
280
     0
  0
ATTDEF
  5
74
330
6E
100
AcDbEntity
  8
AM_6
100
AcDbText
 10
8.5109375
 20
3.0109375
 30
0.0
 40
0.5
  1
Imperial 3 & 4 Bolt Round Flange Bearings
100
AcDbAttributeDefinition
  3

  2
NT
 70
     8
280
     0
  0
ATTDEF
  5
75
330
6E
100
AcDbEntity
  8
AM_6
100
AcDbText
 10
8.5109375
 20
2.5109375
 30
0.0
 40
0.5
  1
069681
100
AcDbAttributeDefinition
  3

  2
NB
 70
     8
280
     0
  0
ATTDEF
  5
76
330
6E
100
AcDbEntity
  8
AM_6
100
AcDbText
 10
8.5109375
 20
2.0109375
 30
0.0
 40
0.5
  1
$PN.
100
AcDbAttributeDefinition
  3

  2
NBSYN
 70
     8
280
     0
  0
ATTDEF
  5
77
330
6E
100
AcDbEntity
  8
AM_6
100
AcDbText
 10
8.5109375
 20
1.5109375
 30
0.0
 40
0.5
  1
069681
100
AcDbAttributeDefinition
  3

  2
LINA
 70
     8
280
     0
  0
ATTDEF
  5
78
330
6E
100
AcDbEntity
  8
AM_6
100
AcDbText
 10
8.5109375
 20
1.0109375
 30
0.0
 40
0.5
  1
1-7/8
100
AcDbAttributeDefinition
  3

  2
SS
 70
     8
280
     0
  0
ATTDEF
  5
79
330
6E
100
AcDbEntity
  8
AM_6
100
AcDbText
 10
8.5109375
 20
0.5109375000000003
 30
0.0
 40
0.5
  1
069681
100
AcDbAttributeDefinition
  3

  2
PN
 70
     8
280
     0
  0
ATTDEF
  5
7A
330
6E
100
AcDbEntity
  8
AM_6
100
AcDbText
 10
8.5109375
 20
0.0109375000000003
 30
0.0
 40
0.5
  1
F4R-IP-114LE
100
AcDbAttributeDefinition
  3

  2
DESCRIPTION
 70
     8
280
     0
  0
ATTDEF
  5
7B
330
6E
100
AcDbEntity
  8
AM_6
100
AcDbText
 10
8.5109375
 20
-0.4890624999999997
 30
0.0
 40
0.5
  1
Expansion Type
100
AcDbAttributeDefinition
  3

  2
EF
 70
     8
280
     0
  0
ATTDEF
  5
7C
330
6E
100
AcDbEntity
  8
AM_6
100
AcDbText
 10
8.5109375
 20
-0.9890624999999997
 30
0.0
 40
0.5
  1
Labyrinth Seal
100
AcDbAttributeDefinition
  3

  2
ST
 70
     8
280
     0
  0
ATTDEF
  5
7D
330
6E
100
AcDbEntity
  8
AM_6
100
AcDbText
 10
8.5109375
 20
-1.4890625
 30
0.0
 40
0.5
  1
2-55/64
100
AcDbAttributeDefinition
  3

  2
A
 70
     8
280
     0
  0
ATTDEF
  5
7E
330
6E
100
AcDbEntity
  8
AM_6
100
AcDbText
 10
8.5109375
 20
-1.9890625
 30
0.0
 40
0.5
  1
6-11/16
100
AcDbAttributeDefinition
  3

  2
B
 70
     8
280
     0
  0
ATTDEF
  5
7F
330
6E
100
AcDbEntity
  8
AM_6
100
AcDbText
 10
8.5109375
 20
-2.4890625
 30
0.0
 40
0.5
  1
3-5/32
100
AcDbAttributeDefinition
  3

  2
C
 70
     8
280
     0
  0
ATTDEF
  5
80
330
6E
100
AcDbEntity
  8
AM_6
100
AcDbText
 10
8.5109375
 20
-2.9890625
 30
0.0
 40
0.5
  1
4-1/16
100
AcDbAttributeDefinition
  3

  2
D
 70
     8
280
     0
  0
ATTDEF
  5
81
330
6E
100
AcDbEntity
  8
AM_6
100
AcDbText
 10
8.5109375
 20
-3.4890625
 30
0.0
 40
0.5
  1
5-3/4
100
AcDbAttributeDefinition
  3

  2
DD
 70
     8
280
     0
  0
ATTDEF
  5
82
330
6E
100
AcDbEntity
  8
AM_6
100
AcDbText
 10
8.5109375
 20
-3.9890625
 30
0.0
 40
0.5
  1
1-59/64
100
AcDbAttributeDefinition
  3

  2
E
 70
     8
280
     0
  0
ATTDEF
  5
83
330
6E
100
AcDbEntity
  8
AM_6
100
AcDbText
 10
8.5109375
 20
-4.489062499999999
 30
0.0
 40
0.5
  1
1/2
100
AcDbAttributeDefinition
  3

  2
F
 70
     8
280
     0
  0
ATTDEF
  5
84
330
6E
100
AcDbEntity
  8
AM_6
100
AcDbText
 10
8.5109375
 20
-4.989062499999999
 30
0.0
 40
0.5
  1
9/16
100
AcDbAttributeDefinition
  3

  2
H
 70
     8
280
     0
  0
ATTDEF
  5
85
330
6E
100
AcDbEntity
  8
AM_6
100
AcDbText
 10
8.5109375
 20
-5.489062499999999
 30
0.0
 40
0.5
  1
4-1/2
100
AcDbAttributeDefinition
  3

  2
J
 70
     8
280
     0
  0
ATTDEF
  5
86
330
6E
100
AcDbEntity
  8
AM_6
100
AcDbText
 10
8.5109375
 20
-5.989062499999999
 30
0.0
 40
0.5
  1
3-9/32
100
AcDbAttributeDefinition
  3

  2
L
 70
     8
280
     0
  0
ATTDEF
  5
87
330
6E
100
AcDbEntity
  8
AM_6
100
AcDbText
 10
8.5109375
 20
-6.489062499999999
 30
0.0
 40
0.5
  1
19/64
100
AcDbAttributeDefinition
  3

  2
P
 70
     8
280
     0
  0
ATTDEF
  5
88
330
6E
100
AcDbEntity
  8
AM_6
100
AcDbText
 10
8.5109375
 20
-6.989062499999999
 30
0.0
 40
0.5
  1
1/4
100
AcDbAttributeDefinition
  3

  2
X
 70
     8
280
     0
  0
ATTDEF
  5
89
330
6E
100
AcDbEntity
  8
AM_6
100
AcDbText
 10
8.5109375
 20
-7.489062499999999
 30
0.0
 40
0.5
  1
0.020
100
AcDbAttributeDefinition
  3

  2
Y
 70
     8
280
     0
  0
ATTDEF
  5
8A
330
6E
100
AcDbEntity
  8
AM_6
100
AcDbText
 10
8.5109375
 20
-7.989062499999999
 30
0.0
 40
0.5
  1
2-19/64
100
AcDbAttributeDefinition
  3

  2
Z
 70
     8
280
     0
  0
ATTDEF
  5
8B
330
6E
100
AcDbEntity
  8
AM_6
100
AcDbText
 10
8.5109375
 20
-8.4890625
 30
0.0
 40
0.5
  1
baldor
100
AcDbAttributeDefinition
  3

  2
COMPANY
 70
     8
280
     0
  0
INSERT
  5
8D
330
6E
100
AcDbEntity
  8
0
100
AcDbBlockReference
  2
2_ASME_B18_3_10_1_0_in_069681_0
 10
0.0
 20
0.0
 30
0.0
  0
INSERT
  5
AF
330
6E
100
AcDbEntity
  8
0
100
AcDbBlockReference
  2
3_ASME_B18_3_10_2_0_in_069681_0
 10
0.0
 20
0.0
 30
0.0
  0
INSERT
  5
CC
330
6E
100
AcDbEntity
  8
0
100
AcDbBlockReference
  2
4_070889LW_0_in_069681_0
 10
0.0
 20
0.0
 30
0.0
  0
INSERT
  5
11B
330
6E
100
AcDbEntity
  8
0
100
AcDbBlockReference
  2
5_070921I_0_in_069681_0
 10
0.0
 20
0.0
 30
0.0
  0
INSERT
  5
178
330
6E
100
AcDbEntity
  8
0
100
AcDbBlockReference
  2
6_405015E_Inch_0_in_069681_0
 10
0.0
 20
0.0
 30
0.0
  0
INSERT
  5
1AD
330
6E
100
AcDbEntity
  8
0
100
AcDbBlockReference
  2
7_069681H_0_in_069681_0
 10
0.0
 20
0.0
 30
0.0
  0
ENDBLK
  5
71
330
6E
100
AcDbEntity
  8
0
100
AcDbBlockEnd
  0
BLOCK
  5
8E
330
8C
100
AcDbEntity
  8
0
100
AcDbBlockBegin
  2
2_ASME_B18_3_10_1_0_in_069681_0
 70
     2
 10
0.0
 20
0.0
 30
0.0
  3
2_ASME_B18_3_10_1_0_in_069681_0
  1

  0
ATTDEF
  5
90
330
8C
100
AcDbEntity
  8
AM_6
100
AcDbText
 10
6.137858313310083
 20
-0.7588083133100835
 30
0.0
 40
0.5
  1
ANSI/ASME B18.3-1998
100
AcDbAttributeDefinition
  3

  2
NN
 70
     8
280
     0
  0
ATTDEF
  5
91
330
8C
100
AcDbEntity
  8
AM_6
100
AcDbText
 10
6.137858313310083
 20
-1.258808313310083
 30
0.0
 40
0.5
  1
Socket Button Head Cap Screws
100
AcDbAttributeDefinition
  3

  2
NT
 70
     8
280
     0
  0
ATTDEF
  5
92
330
8C
100
AcDbEntity
  8
AM_6
100
AcDbText
 10
6.137858313310083
 20
-1.758808313310083
 30
0.0
 40
0.5
  1
ASME B18.3-10
100
AcDbAttributeDefinition
  3

  2
NB
 70
     8
280
     0
  0
ATTDEF
  5
93
330
8C
100
AcDbEntity
  8
AM_6
100
AcDbText
 10
6.137858313310083
 20
-2.258808313310083
 30
0.0
 40
0.5
  1
ASME B18.3-$NS.
100
AcDbAttributeDefinition
  3

  2
NBSYN
 70
     8
280
     0
  0
ATTDEF
  5
94
330
8C
100
AcDbEntity
  8
AM_6
100
AcDbText
 10
6.137858313310083
 20
-2.758808313310083
 30
0.0
 40
0.5
  1
ASME B18.3-10
100
AcDbAttributeDefinition
  3

  2
LINA
 70
     8
280
     0
  0
ATTDEF
  5
95
330
8C
100
AcDbEntity
  8
AM_6
100
AcDbText
 10
6.137858313310083
 20
-3.258808313310083
 30
0.0
 40
0.5
  1
10
100
AcDbAttributeDefinition
  3

  2
NS
 70
     8
280
     0
  0
ATTDEF
  5
96
330
8C
100
AcDbEntity
  8
AM_6
100
AcDbText
 10
6.137858313310083
 20
-3.758808313310083
 30
0.0
 40
0.5
  1
0.361
100
AcDbAttributeDefinition
  3

  2
A
 70
     8
280
     0
  0
ATTDEF
  5
97
330
8C
100
AcDbEntity
  8
AM_6
100
AcDbText
 10
6.137858313310083
 20
-4.258808313310084
 30
0.0
 40
0.5
  1
0.101
100
AcDbAttributeDefinition
  3

  2
H
 70
     8
280
     0
  0
ATTDEF
  5
98
330
8C
100
AcDbEntity
  8
AM_6
100
AcDbText
 10
6.137858313310083
 20
-4.758808313310084
 30
0.0
 40
0.5
  1
0.800
100
AcDbAttributeDefinition
  3

  2
L
 70
     8
280
     0
  0
ATTDEF
  5
99
330
8C
100
AcDbEntity
  8
AM_6
100
AcDbText
 10
6.137858313310083
 20
-5.258808313310084
 30
0.0
 40
0.5
  1
0.020
100
AcDbAttributeDefinition
  3

  2
S
 70
     8
280
     0
  0
ATTDEF
  5
9A
330
8C
100
AcDbEntity
  8
AM_6
100
AcDbText
 10
6.137858313310083
 20
-5.758808313310084
 30
0.0
 40
0.5
  1
0.125000
100
AcDbAttributeDefinition
  3

  2
J
 70
     8
280
     0
  0
ATTDEF
  5
9B
330
8C
100
AcDbEntity
  8
AM_6
100
AcDbText
 10
6.137858313310083
 20
-6.258808313310084
 30
0.0
 40
0.5
  1
baldor
100
AcDbAttributeDefinition
  3

  2
COMPANY
 70
     8
280
     0
  0
ARC
  5
9D
330
8C
100
AcDbEntity
  8
AM_5
100
AcDbCircle
 10
0.9483333133100833
 20
-0.9483333133100834
 30
0.0
 40
0.0702
100
AcDbArc
 50
74.99999999999991
 51
14.99999999999992
  0
LINE
  5
A0
330
8C
100
AcDbEntity
  8
AM_7
100
AcDbLine
 10
0.7588083133100832
 20
-0.9483333133100835
 30
0.0
 11
1.137858313310083
 21
-0.9483333133100835
 31
0.0
  0
LINE
  5
A1
330
8C
100
AcDbEntity
  8
AM_7
100
AcDbLine
 10
0.9483333133100833
 20
-1.137858313310083
 30
0.0
 11
0.9483333133100833
 21
-0.7588083133100835
 31
0.0
  0
LINE
  5
A3
330
8C
100
AcDbEntity
  8
AM_4
100
AcDbLine
 10
0.8973022770021004
 20
-0.8973022770021005
 30
0.0
 11
0.967011968980251
 21
-0.8786236213319328
 31
0.0
  0
LINE
  5
A4
330
8C
100
AcDbEntity
  8
AM_4
100
AcDbLine
 10
0.967011968980251
 20
-0.8786236213319328
 30
0.0
 11
1.018043005288234
 21
-0.9296546576399157
 31
0.0
  0
LINE
  5
A5
330
8C
100
AcDbEntity
  8
AM_4
100
AcDbLine
 10
0.8786236213319326
 20
-0.9670119689802512
 30
0.0
 11
0.8973022770021004
 21
-0.8973022770021005
 31
0.0
  0
LINE
  5
A6
330
8C
100
AcDbEntity
  8
AM_4
100
AcDbLine
 10
1.018043005288234
 20
-0.9296546576399157
 30
0.0
 11
0.9993643496180662
 21
-0.9993643496180663
 31
0.0
  0
LINE
  5
A7
330
8C
100
AcDbEntity
  8
AM_4
100
AcDbLine
 10
0.9296546576399156
 20
-1.018043005288234
 30
0.0
 11
0.8786236213319326
 21
-0.9670119689802512
 31
0.0
  0
LINE
  5
A8
330
8C
100
AcDbEntity
  8
AM_4
100
AcDbLine
 10
0.9993643496180662
 20
-0.9993643496180663
 30
0.0
 11
0.9296546576399156
 21
-1.018043005288234
 31
0.0
  0
CIRCLE
  5
A9
330
8C
100
AcDbEntity
  8
AM_4
100
AcDbCircle
 10
0.9483333133100833
 20
-0.9483333133100834
 30
0.0
 40
0.0995
  0
ARC
  5
AA
330
8C
100
AcDbEntity
  8
AM_5
100
AcDbCircle
 10
0.9483333133100833
 20
-0.9483333133100834
 30
0.0
 40
0.0764000000000001
100
AcDbArc
 50
75.00000000000004
 51
15.0
  0
ARC
  5
AB
330
8C
100
AcDbEntity
  8
AM_5
100
AcDbCircle
 10
0.9483333133100833
 20
-0.9483333133100834
 30
0.0
 40
0.0764
100
AcDbArc
 50
15.0
 51
240.0
  0
ARC
  5
AC
330
8C
100
AcDbEntity
  8
AM_5
100
AcDbCircle
 10
0.9483333133100833
 20
-0.9483333133100834
 30
0.0
 40
0.0702
100
AcDbArc
 50
30.00000000000003
 51
330.0
  0
CIRCLE
  5
AD
330
8C
100
AcDbEntity
  8
AM_4
100
AcDbCircle
 10
0.9483333133100833
 20
-0.9483333133100835
 30
0.0
 40
0.1805
  0
ENDBLK
  5
8F
330
8C
100
AcDbEntity
  8
0
100
AcDbBlockEnd
  0
BLOCK
  5
B0
330
AE
100
AcDbEntity
  8
0
100
AcDbBlockBegin
  2
3_ASME_B18_3_10_2_0_in_069681_0
 70
     2
 10
0.0
 20
0.0
 30
0.0
  3
3_ASME_B18_3_10_2_0_in_069681_0
  1

  0
ATTDEF
  5
B2
330
AE
100
AcDbEntity
  8
AM_6
100
AcDbText
 10
4.241191686689917
 20
1.137858313310084
 30
0.0
 40
0.5
  1
ANSI/ASME B18.3-1998
100
AcDbAttributeDefinition
  3

  2
NN
 70
     8
280
     0
  0
ATTDEF
  5
B3
330
AE
100
AcDbEntity
  8
AM_6
100
AcDbText
 10
4.241191686689917
 20
0.6378583133100837
 30
0.0
 40
0.5
  1
Socket Button Head Cap Screws
100
AcDbAttributeDefinition
  3

  2
NT
 70
     8
280
     0
  0
ATTDEF
  5
B4
330
AE
100
AcDbEntity
  8
AM_6
100
AcDbText
 10
4.241191686689917
 20
0.1378583133100837
 30
0.0
 40
0.5
  1
ASME B18.3-10
100
AcDbAttributeDefinition
  3

  2
NB
 70
     8
280
     0
  0
ATTDEF
  5
B5
330
AE
100
AcDbEntity
  8
AM_6
100
AcDbText
 10
4.241191686689917
 20
-0.3621416866899163
 30
0.0
 40
0.5
  1
ASME B18.3-$NS.
100
AcDbAttributeDefinition
  3

  2
NBSYN
 70
     8
280
     0
  0
ATTDEF
  5
B6
330
AE
100
AcDbEntity
  8
AM_6
100
AcDbText
 10
4.241191686689917
 20
-0.8621416866899163
 30
0.0
 40
0.5
  1
ASME B18.3-10
100
AcDbAttributeDefinition
  3

  2
LINA
 70
     8
280
     0
  0
ATTDEF
  5
B7
330
AE
100
AcDbEntity
  8
AM_6
100
AcDbText
 10
4.241191686689917
 20
-1.362141686689916
 30
0.0
 40
0.5
  1
10
100
AcDbAttributeDefinition
  3

  2
NS
 70
     8
280
     0
  0
ATTDEF
  5
B8
330
AE
100
AcDbEntity
  8
AM_6
100
AcDbText
 10
4.241191686689917
 20
-1.862141686689916
 30
0.0
 40
0.5
  1
0.361
100
AcDbAttributeDefinition
  3

  2
A
 70
     8
280
     0
  0
ATTDEF
  5
B9
330
AE
100
AcDbEntity
  8
AM_6
100
AcDbText
 10
4.241191686689917
 20
-2.362141686689916
 30
0.0
 40
0.5
  1
0.101
100
AcDbAttributeDefinition
  3

  2
H
 70
     8
280
     0
  0
ATTDEF
  5
BA
330
AE
100
AcDbEntity
  8
AM_6
100
AcDbText
 10
4.241191686689917
 20
-2.862141686689916
 30
0.0
 40
0.5
  1
0.800
100
AcDbAttributeDefinition
  3

  2
L
 70
     8
280
     0
  0
ATTDEF
  5
BB
330
AE
100
AcDbEntity
  8
AM_6
100
AcDbText
 10
4.241191686689917
 20
-3.362141686689916
 30
0.0
 40
0.5
  1
0.020
100
AcDbAttributeDefinition
  3

  2
S
 70
     8
280
     0
  0
ATTDEF
  5
BC
330
AE
100
AcDbEntity
  8
AM_6
100
AcDbText
 10
4.241191686689917
 20
-3.862141686689916
 30
0.0
 40
0.5
  1
0.125000
100
AcDbAttributeDefinition
  3

  2
J
 70
     8
280
     0
  0
ATTDEF
  5
BD
330
AE
100
AcDbEntity
  8
AM_6
100
AcDbText
 10
4.241191686689917
 20
-4.362141686689917
 30
0.0
 40
0.5
  1
baldor
100
AcDbAttributeDefinition
  3

  2
COMPANY
 70
     8
280
     0
  0
ARC
  5
BE
330
AE
100
AcDbEntity
  8
AM_5
100
AcDbCircle
 10
-0.9483333133100834
 20
0.9483333133100836
 30
0.0
 40
0.0702
100
AcDbArc
 50
74.99999999999991
 51
14.99999999999985
  0
LINE
  5
BF
330
AE
100
AcDbEntity
  8
AM_7
100
AcDbLine
 10
-1.137858313310083
 20
0.9483333133100835
 30
0.0
 11
-0.7588083133100832
 21
0.9483333133100835
 31
0.0
  0
LINE
  5
C0
330
AE
100
AcDbEntity
  8
AM_7
100
AcDbLine
 10
-0.9483333133100833
 20
0.7588083133100835
 30
0.0
 11
-0.9483333133100833
 21
1.137858313310084
 31
0.0
  0
LINE
  5
C1
330
AE
100
AcDbEntity
  8
AM_4
100
AcDbLine
 10
-0.8786236213319326
 20
0.9670119689802512
 30
0.0
 11
-0.8973022770021004
 21
0.8973022770021005
 31
0.0
  0
LINE
  5
C2
330
AE
100
AcDbEntity
  8
AM_4
100
AcDbLine
 10
-0.9296546576399156
 20
1.018043005288234
 30
0.0
 11
-0.8786236213319326
 21
0.9670119689802512
 31
0.0
  0
LINE
  5
C3
330
AE
100
AcDbEntity
  8
AM_4
100
AcDbLine
 10
-1.018043005288234
 20
0.9296546576399157
 30
0.0
 11
-0.9993643496180662
 21
0.9993643496180663
 31
0.0
  0
LINE
  5
C4
330
AE
100
AcDbEntity
  8
AM_4
100
AcDbLine
 10
-0.9993643496180662
 20
0.9993643496180663
 30
0.0
 11
-0.9296546576399156
 21
1.018043005288234
 31
0.0
  0
LINE
  5
C5
330
AE
100
AcDbEntity
  8
AM_4
100
AcDbLine
 10
-0.967011968980251
 20
0.8786236213319328
 30
0.0
 11
-1.018043005288234
 21
0.9296546576399157
 31
0.0
  0
LINE
  5
C6
330
AE
100
AcDbEntity
  8
AM_4
100
AcDbLine
 10
-0.8973022770021004
 20
0.8973022770021005
 30
0.0
 11
-0.967011968980251
 21
0.8786236213319328
 31
0.0
  0
CIRCLE
  5
C7
330
AE
100
AcDbEntity
  8
AM_4
100
AcDbCircle
 10
-0.9483333133100833
 20
0.9483333133100834
 30
0.0
 40
0.0995
  0
ARC
  5
C8
330
AE
100
AcDbEntity
  8
AM_5
100
AcDbCircle
 10
-0.9483333133100833
 20
0.9483333133100834
 30
0.0
 40
0.0702
100
AcDbArc
 50
30.00000000000003
 51
330.0
  0
CIRCLE
  5
C9
330
AE
100
AcDbEntity
  8
AM_4
100
AcDbCircle
 10
-0.9483333133100833
 20
0.9483333133100835
 30
0.0
 40
0.1805000000000001
  0
CIRCLE
  5
CA
330
AE
100
AcDbEntity
  8
AM_5
100
AcDbCircle
 10
-0.9483333133100833
 20
0.9483333133100833
 30
0.0
 40
0.0763999999999999
  0
ENDBLK
  5
B1
330
AE
100
AcDbEntity
  8
0
100
AcDbBlockEnd
  0
BLOCK
  5
CD
330
CB
100
AcDbEntity
  8
0
100
AcDbBlockBegin
  2
4_070889LW_0_in_069681_0
 70
     2
 10
0.0
 20
0.0
 30
0.0
  3
4_070889LW_0_in_069681_0
  1

  0
ATTDEF
  5
CF
330
CB
100
AcDbEntity
  8
AM_6
100
AcDbText
 10
6.640625
 20
1.640625
 30
0.0
 40
0.5
  1
Imperial Insert Lockwasher -Inch
100
AcDbAttributeDefinition
  3

  2
NN
 70
     8
280
     0
  0
ATTDEF
  5
D0
330
CB
100
AcDbEntity
  8
AM_6
100
AcDbText
 10
6.640625
 20
1.140625
 30
0.0
 40
0.5
  1
Imperial Bearings
100
AcDbAttributeDefinition
  3

  2
NT
 70
     8
280
     0
  0
ATTDEF
  5
D1
330
CB
100
AcDbEntity
  8
AM_6
100
AcDbText
 10
6.640625
 20
0.640625
 30
0.0
 40
0.5
  1
070889LW
100
AcDbAttributeDefinition
  3

  2
NB
 70
     8
280
     0
  0
ATTDEF
  5
D2
330
CB
100
AcDbEntity
  8
AM_6
100
AcDbText
 10
6.640625
 20
0.140625
 30
0.0
 40
0.5
  1
$PN.LW
100
AcDbAttributeDefinition
  3

  2
NBSYN
 70
     8
280
     0
  0
ATTDEF
  5
D3
330
CB
100
AcDbEntity
  8
AM_6
100
AcDbText
 10
6.640625
 20
-0.359375
 30
0.0
 40
0.5
  1
070889
100
AcDbAttributeDefinition
  3

  2
LINA
 70
     8
280
     0
  0
ATTDEF
  5
D4
330
CB
100
AcDbEntity
  8
AM_6
100
AcDbText
 10
6.640625
 20
-0.859375
 30
0.0
 40
0.5
  1
1-7/8
100
AcDbAttributeDefinition
  3

  2
SS
 70
     8
280
     0
  0
ATTDEF
  5
D5
330
CB
100
AcDbEntity
  8
AM_6
100
AcDbText
 10
6.640625
 20
-1.359375
 30
0.0
 40
0.5
  1
1.875000
100
AcDbAttributeDefinition
  3

  2
SS1
 70
     8
280
     0
  0
ATTDEF
  5
D6
330
CB
100
AcDbEntity
  8
AM_6
100
AcDbText
 10
6.640625
 20
-1.859375
 30
0.0
 40
0.5
  1
070889
100
AcDbAttributeDefinition
  3

  2
PN
 70
     8
280
     0
  0
ATTDEF
  5
D7
330
CB
100
AcDbEntity
  8
AM_6
100
AcDbText
 10
6.640625
 20
-2.359375
 30
0.0
 40
0.5
  1
INS-IP-114R
100
AcDbAttributeDefinition
  3

  2
DESCRIPTION
 70
     8
280
     0
  0
ATTDEF
  5
D8
330
CB
100
AcDbEntity
  8
AM_6
100
AcDbText
 10
6.640625
 20
-2.859375
 30
0.0
 40
0.5
  1
3.5433
100
AcDbAttributeDefinition
  3

  2
A
 70
     8
280
     0
  0
ATTDEF
  5
D9
330
CB
100
AcDbEntity
  8
AM_6
100
AcDbText
 10
6.640625
 20
-3.359375
 30
0.0
 40
0.5
  1
61/64
100
AcDbAttributeDefinition
  3

  2
B
 70
     8
280
     0
  0
ATTDEF
  5
DA
330
CB
100
AcDbEntity
  8
AM_6
100
AcDbText
 10
6.640625
 20
-3.859375
 30
0.0
 40
0.5
  1
2-55/64
100
AcDbAttributeDefinition
  3

  2
C
 70
     8
280
     0
  0
ATTDEF
  5
DB
330
CB
100
AcDbEntity
  8
AM_6
100
AcDbText
 10
6.640625
 20
-4.359375
 30
0.0
 40
0.5
  1
0.977
100
AcDbAttributeDefinition
  3

  2
D
 70
     8
280
     0
  0
ATTDEF
  5
DC
330
CB
100
AcDbEntity
  8
AM_6
100
AcDbText
 10
6.640625
 20
-4.859375
 30
0.0
 40
0.5
  1
3-9/32
100
AcDbAttributeDefinition
  3

  2
E
 70
     8
280
     0
  0
ATTDEF
  5
DD
330
CB
100
AcDbEntity
  8
AM_6
100
AcDbText
 10
6.640625
 20
-5.359375
 30
0.0
 40
0.5
  1
0.1900
100
AcDbAttributeDefinition
  3

  2
NDM
 70
     8
280
     0
  0
ATTDEF
  5
DE
330
CB
100
AcDbEntity
  8
AM_6
100
AcDbText
 10
6.640625
 20
-5.859375
 30
0.0
 40
0.5
  1
0.1450
100
AcDbAttributeDefinition
  3

  2
KDM
 70
     8
280
     0
  0
ATTDEF
  5
DF
330
CB
100
AcDbEntity
  8
AM_6
100
AcDbText
 10
6.640625
 20
-6.359375
 30
0.0
 40
0.5
  1
2.67
100
AcDbAttributeDefinition
  3

  2
AL
 70
     8
280
     0
  0
ATTDEF
  5
E0
330
CB
100
AcDbEntity
  8
AM_6
100
AcDbText
 10
6.640625
 20
-6.859375
 30
0.0
 40
0.5
  1
0.38
100
AcDbAttributeDefinition
  3

  2
BL
 70
     8
280
     0
  0
ATTDEF
  5
E1
330
CB
100
AcDbEntity
  8
AM_6
100
AcDbText
 10
6.640625
 20
-7.359375
 30
0.0
 40
0.5
  1
0.07
100
AcDbAttributeDefinition
  3

  2
CL
 70
     8
280
     0
  0
ATTDEF
  5
E2
330
CB
100
AcDbEntity
  8
AM_6
100
AcDbText
 10
6.640625
 20
-7.859375
 30
0.0
 40
0.5
  1
0.44
100
AcDbAttributeDefinition
  3

  2
DL
 70
     8
280
     0
  0
ATTDEF
  5
E3
330
CB
100
AcDbEntity
  8
AM_6
100
AcDbText
 10
6.640625
 20
-8.359375
 30
0.0
 40
0.5
  1
baldor
100
AcDbAttributeDefinition
  3

  2
COMPANY
 70
     8
280
     0
  0
ARC
  5
E6
330
CB
100
AcDbEntity
  8
AM_9
100
AcDbCircle
 10
0.0000000000000187
 20
-0.0000000000000086
 30
0.0
 40
0.9868421052631785
100
AcDbArc
 50
151.9757713603054
 51
163.0242286396945
  0
LINE
  5
E7
330
CB
100
AcDbEntity
  8
AM_9
100
AcDbLine
 10
0.8811581690973621
 20
-1.015508457522805
 30
0.0
 11
0.7726334023388008
 21
-0.9069836907642439
 31
0.0
  0
ARC
  5
E8
330
CB
100
AcDbEntity
  8
AM_9
100
AcDbCircle
 10
0.9507154792908339
 20
-0.9507154792908328
 30
0.0
 40
0.0950597150717363
100
AcDbArc
 50
222.9690272674172
 51
47.03097273258302
  0
LINE
  5
E9
330
CB
100
AcDbEntity
  8
AM_9
100
AcDbLine
 10
0.9069836907642453
 20
-0.7726334023388006
 30
0.0
 11
1.015508457522806
 21
-0.8811581690973608
 31
0.0
  0
LINE
  5
EA
330
CB
100
AcDbEntity
  8
AM_9
100
AcDbLine
 10
-0.906983690764245
 20
0.7726334023388007
 30
0.0
 11
-1.015508457522806
 21
0.8811581690973613
 31
0.0
  0
ARC
  5
EB
330
CB
100
AcDbEntity
  8
AM_9
100
AcDbCircle
 10
-0.9459511473293337
 20
0.9459511473293335
 30
0.0
 40
0.0950597150717364
100
AcDbArc
 50
47.03097273258297
 51
222.9690272674171
  0
LINE
  5
EC
330
CB
100
AcDbEntity
  8
AM_9
100
AcDbLine
 10
-0.8811581690973616
 20
1.015508457522805
 30
0.0
 11
-0.7726334023388007
 21
0.9069836907642445
 31
0.0
  0
LINE
  5
ED
330
CB
100
AcDbEntity
  8
AM_7
100
AcDbLine
 10
-1.341205529649019
 20
-0.099750019693854
 30
0.0
 11
-1.341205529649019
 21
0.0997500196938538
 31
0.0
  0
LINE
  5
EE
330
CB
100
AcDbEntity
  8
AM_7
100
AcDbLine
 10
-0.0998127008253223
 20
-1.344514724771133
 30
0.0
 11
0.0998127008253239
 21
-1.344514724771133
 31
0.0
  0
LINE
  5
EF
330
CB
100
AcDbEntity
  8
AM_7
100
AcDbLine
 10
-0.0998127008253235
 20
1.344514724771133
 30
0.0
 11
0.0998127008253227
 21
1.344514724771133
 31
0.0
  0
LINE
  5
F0
330
CB
100
AcDbEntity
  8
AM_7
100
AcDbLine
 10
0.8509027784655082
 20
0.9507154792908321
 30
0.0
 11
1.050528180116154
 21
0.9507154792908321
 31
0.0
  0
LINE
  5
F1
330
CB
100
AcDbEntity
  8
AM_7
100
AcDbLine
 10
0.9507154792908312
 20
0.8509027784655091
 30
0.0
 11
0.9507154792908312
 21
1.050528180116155
 31
0.0
  0
LINE
  5
F2
330
CB
100
AcDbEntity
  8
AM_7
100
AcDbLine
 10
0.8509027784655109
 20
-0.9507154792908328
 30
0.0
 11
1.050528180116157
 21
-0.9507154792908328
 31
0.0
  0
LINE
  5
F3
330
CB
100
AcDbEntity
  8
AM_7
100
AcDbLine
 10
0.9507154792908339
 20
-1.050528180116156
 30
0.0
 11
0.9507154792908339
 21
-0.8509027784655098
 31
0.0
  0
LINE
  5
F4
330
CB
100
AcDbEntity
  8
AM_7
100
AcDbLine
 10
-1.048125544673569
 20
-0.9483755249797168
 30
0.0
 11
-0.8486255052858612
 21
-0.9483755249797168
 31
0.0
  0
LINE
  5
F5
330
CB
100
AcDbEntity
  8
AM_7
100
AcDbLine
 10
-0.9483755249797153
 20
-1.048125544673571
 30
0.0
 11
-0.9483755249797153
 21
-0.8486255052858627
 31
0.0
  0
LINE
  5
F6
330
CB
100
AcDbEntity
  8
AM_7
100
AcDbLine
 10
1.344514724771133
 20
-0.0998127008253227
 30
0.0
 11
1.344514724771133
 21
0.0998127008253235
 31
0.0
  0
LINE
  5
F7
330
CB
100
AcDbEntity
  8
AM_4
100
AcDbLine
 10
0.7726334023388008
 20
-0.9069836907642439
 30
0.0
 11
0.6463319132416901
 21
-0.7806822016671335
 31
0.0
  0
LINE
  5
F8
330
CB
100
AcDbEntity
  8
AM_4
100
AcDbLine
 10
-1.341145833333322
 20
0.095
 30
0.0
 11
-1.009051357500948
 21
0.095
 31
0.0
  0
ARC
  5
F9
330
CB
100
AcDbEntity
  8
AM_4
100
AcDbCircle
 10
0.0000000000000007
 20
-0.0000000000000022
 30
0.0
 40
1.013513513513511
100
AcDbArc
 50
275.3784198378748
 51
309.6215801621253
  0
ARC
  5
FA
330
CB
100
AcDbEntity
  8
AM_4
100
AcDbCircle
 10
-0.0000000000000004
 20
1.344514724771133
 30
0.0
 40
0.0950597150717363
100
AcDbArc
 50
357.9690272674176
 51
182.0309727325822
  0
CIRCLE
  5
FB
330
CB
100
AcDbEntity
  8
AM_4
100
AcDbCircle
 10
0.0
 20
0.0
 30
0.0
 40
1.640625
  0
ARC
  5
FC
330
CB
100
AcDbEntity
  8
AM_4
100
AcDbCircle
 10
-0.0000000000000674
 20
0.0000000000000445
 30
0.0
 40
1.013513513513433
100
AcDbArc
 50
140.3784198378743
 51
152.1215801621257
  0
LINE
  5
FD
330
CB
100
AcDbEntity
  8
AM_4
100
AcDbLine
 10
0.0949999999999997
 20
1.341145833333334
 30
0.0
 11
0.0949999999999997
 21
1.009051357500948
 31
0.0
  0
ARC
  5
FE
330
CB
100
AcDbEntity
  8
AM_4
100
AcDbCircle
 10
0.000000000000001
 20
-0.0000000000000008
 30
0.0
 40
1.013513513513512
100
AcDbArc
 50
320.3784198378748
 51
354.6215801621252
  0
LINE
  5
FF
330
CB
100
AcDbEntity
  8
AM_4
100
AcDbLine
 10
1.341145833333333
 20
-0.0949999999999996
 30
0.0
 11
1.009051357500948
 21
-0.0949999999999997
 31
0.0
  0
ARC
  5
100
330
CB
100
AcDbEntity
  8
AM_4
100
AcDbCircle
 10
1.344514724771133
 20
0.0000000000000004
 30
0.0
 40
0.0950597150717363
100
AcDbArc
 50
267.9690272674173
 51
92.03097273258227
  0
LINE
  5
101
330
CB
100
AcDbEntity
  8
AM_4
100
AcDbLine
 10
1.009051357500949
 20
0.0950000000000001
 30
0.0
 11
1.341145833333334
 21
0.0950000000000006
 31
0.0
  0
ARC
  5
102
330
CB
100
AcDbEntity
  8
AM_4
100
AcDbCircle
 10
-0.0000000000000041
 20
0.0000000000000012
 30
0.0
 40
1.013513513513509
100
AcDbArc
 50
162.8784198378748
 51
174.6215801621252
  0
LINE
  5
103
330
CB
100
AcDbEntity
  8
AM_4
100
AcDbLine
 10
0.7806822016671342
 20
-0.6463319132416896
 30
0.0
 11
0.9069836907642453
 21
-0.7726334023388006
 31
0.0
  0
LINE
  5
104
330
CB
100
AcDbEntity
  8
AM_4
100
AcDbLine
 10
-0.0949999999999993
 20
-1.341145833333334
 30
0.0
 11
-0.0949999999999995
 21
-1.009051357500948
 31
0.0
  0
LINE
  5
105
330
CB
100
AcDbEntity
  8
AM_4
100
AcDbLine
 10
0.0950000000000017
 20
-1.009051357500948
 30
0.0
 11
0.0950000000000009
 21
-1.341145833333334
 31
0.0
  0
LINE
  5
106
330
CB
100
AcDbEntity
  8
AM_4
100
AcDbLine
 10
-0.7806822016671339
 20
0.6463319132416896
 30
0.0
 11
-0.906983690764245
 21
0.7726334023388007
 31
0.0
  0
LINE
  5
107
330
CB
100
AcDbEntity
  8
AM_4
100
AcDbLine
 10
1.015508457522805
 20
0.8811581690973619
 30
0.0
 11
0.7806822016671336
 21
0.6463319132416899
 31
0.0
  0
LINE
  5
108
330
CB
100
AcDbEntity
  8
AM_4
100
AcDbLine
 10
-0.8711338704268435
 20
0.4636627228011425
 30
0.0
 11
-0.8958869703731719
 21
0.4739157925096884
 31
0.0
  0
ARC
  5
109
330
CB
100
AcDbEntity
  8
AM_4
100
AcDbCircle
 10
-0.0000000000000431
 20
0.0000000000000176
 30
0.0
 40
0.9374999999999536
100
AcDbArc
 50
151.684045095311
 51
163.315954904689
  0
LINE
  5
10A
330
CB
100
AcDbEntity
  8
AM_4
100
AcDbLine
 10
-0.968596822522539
 20
0.298378681332544
 30
0.0
 11
-0.9438437225762107
 21
0.2881256116239981
 31
0.0
  0
LINE
  5
10B
330
CB
100
AcDbEntity
  8
AM_4
100
AcDbLine
 10
-0.0950000000000001
 20
1.009051357500949
 30
0.0
 11
-0.0950000000000004
 21
1.341145833333334
 31
0.0
  0
ARC
  5
10C
330
CB
100
AcDbEntity
  8
AM_4
100
AcDbCircle
 10
-0.0000000000000003
 20
-0.0000000000000014
 30
0.0
 40
1.013513513513515
100
AcDbArc
 50
50.37841983787486
 51
84.62158016212521
  0
LINE
  5
10D
330
CB
100
AcDbEntity
  8
AM_4
100
AcDbLine
 10
0.6463319132416895
 20
0.7806822016671342
 30
0.0
 11
0.881158169097361
 21
1.015508457522806
 31
0.0
  0
ARC
  5
10E
330
CB
100
AcDbEntity
  8
AM_4
100
AcDbCircle
 10
0.9507154792908313
 20
0.950715479290832
 30
0.0
 40
0.0950597150717362
100
AcDbArc
 50
312.9690272674185
 51
137.0309727325815
  0
ARC
  5
10F
330
CB
100
AcDbEntity
  8
AM_4
100
AcDbCircle
 10
-0.0000000000000001
 20
-0.0000000000000006
 30
0.0
 40
1.013513513513514
100
AcDbArc
 50
5.378419837874842
 51
39.62158016212525
  0
ARC
  5
110
330
CB
100
AcDbEntity
  8
AM_4
100
AcDbCircle
 10
0.0000000000000008
 20
-1.344514724771133
 30
0.0
 40
0.0950597150717363
100
AcDbArc
 50
177.9690272674176
 51
2.030972732582218
  0
ARC
  5
111
330
CB
100
AcDbEntity
  8
AM_4
100
AcDbCircle
 10
-0.0000000000000006
 20
-0.0000000000000016
 30
0.0
 40
1.013513513513512
100
AcDbArc
 50
230.3784198378747
 51
264.6215801621253
  0
LINE
  5
112
330
CB
100
AcDbEntity
  8
AM_4
100
AcDbLine
 10
-0.6463319132416895
 20
-0.7806822016671339
 30
0.0
 11
-0.8811581690973604
 21
-1.015508457522806
 31
0.0
  0
ARC
  5
113
330
CB
100
AcDbEntity
  8
AM_4
100
AcDbCircle
 10
-0.9483755249797153
 20
-0.9483755249797168
 30
0.0
 40
0.0950000187560515
100
AcDbArc
 50
134.963996352726
 51
315.0360036472741
  0
LINE
  5
114
330
CB
100
AcDbEntity
  8
AM_4
100
AcDbLine
 10
-1.015508457522805
 20
-0.881158169097362
 30
0.0
 11
-0.7806822016671334
 21
-0.6463319132416903
 31
0.0
  0
ARC
  5
115
330
CB
100
AcDbEntity
  8
AM_4
100
AcDbCircle
 10
0.0
 20
-0.0000000000000001
 30
0.0
 40
1.013513513513513
100
AcDbArc
 50
185.3784198378748
 51
219.6215801621253
  0
LINE
  5
116
330
CB
100
AcDbEntity
  8
AM_4
100
AcDbLine
 10
-1.009051357500948
 20
-0.0949999999999998
 30
0.0
 11
-1.341145833333334
 21
-0.095
 31
0.0
  0
ARC
  5
117
330
CB
100
AcDbEntity
  8
AM_4
100
AcDbCircle
 10
-1.341205529649019
 20
0.0000000000000001
 30
0.0
 40
0.0950000187560512
100
AcDbArc
 50
89.96399635271912
 51
270.0360036472741
  0
LINE
  5
118
330
CB
100
AcDbEntity
  8
AM_4
100
AcDbLine
 10
-0.7726334023388007
 20
0.9069836907642445
 30
0.0
 11
-0.64633191324169
 21
0.7806822016671339
 31
0.0
  0
ARC
  5
119
330
CB
100
AcDbEntity
  8
AM_4
100
AcDbCircle
 10
-0.0000000000000003
 20
0.0000000000000006
 30
0.0
 40
1.013513513513513
100
AcDbArc
 50
95.37841983787479
 51
129.6215801621252
  0
ENDBLK
  5
CE
330
CB
100
AcDbEntity
  8
0
100
AcDbBlockEnd
  0
BLOCK
  5
11C
330
11A
100
AcDbEntity
  8
0
100
AcDbBlockBegin
  2
5_070921I_0_in_069681_0
 70
     2
 10
0.0
 20
0.0
 30
0.0
  3
5_070921I_0_in_069681_0
  1

  0
ATTDEF
  5
11E
330
11A
100
AcDbEntity
  8
AM_6
100
AcDbText
 10
6.72399375
 20
1.72399375
 30
0.0
 40
0.5
  1
Imperial Insert -Inch
100
AcDbAttributeDefinition
  3

  2
NN
 70
     8
280
     0
  0
ATTDEF
  5
11F
330
11A
100
AcDbEntity
  8
AM_6
100
AcDbText
 10
6.72399375
 20
1.22399375
 30
0.0
 40
0.5
  1
Imperial Bearings
100
AcDbAttributeDefinition
  3

  2
NT
 70
     8
280
     0
  0
ATTDEF
  5
120
330
11A
100
AcDbEntity
  8
AM_6
100
AcDbText
 10
6.72399375
 20
0.72399375
 30
0.0
 40
0.5
  1
070921I
100
AcDbAttributeDefinition
  3

  2
NB
 70
     8
280
     0
  0
ATTDEF
  5
121
330
11A
100
AcDbEntity
  8
AM_6
100
AcDbText
 10
6.72399375
 20
0.22399375
 30
0.0
 40
0.5
  1
$PN.I
100
AcDbAttributeDefinition
  3

  2
NBSYN
 70
     8
280
     0
  0
ATTDEF
  5
122
330
11A
100
AcDbEntity
  8
AM_6
100
AcDbText
 10
6.72399375
 20
-0.27600625
 30
0.0
 40
0.5
  1
070921
100
AcDbAttributeDefinition
  3

  2
LINA
 70
     8
280
     0
  0
ATTDEF
  5
123
330
11A
100
AcDbEntity
  8
AM_6
100
AcDbText
 10
6.72399375
 20
-0.77600625
 30
0.0
 40
0.5
  1
1-7/8
100
AcDbAttributeDefinition
  3

  2
SS
 70
     8
280
     0
  0
ATTDEF
  5
124
330
11A
100
AcDbEntity
  8
AM_6
100
AcDbText
 10
6.72399375
 20
-1.27600625
 30
0.0
 40
0.5
  1
1.875000
100
AcDbAttributeDefinition
  3

  2
SS1
 70
     8
280
     0
  0
ATTDEF
  5
125
330
11A
100
AcDbEntity
  8
AM_6
100
AcDbText
 10
6.72399375
 20
-1.77600625
 30
0.0
 40
0.5
  1
070921
100
AcDbAttributeDefinition
  3

  2
PN
 70
     8
280
     0
  0
ATTDEF
  5
126
330
11A
100
AcDbEntity
  8
AM_6
100
AcDbText
 10
6.72399375
 20
-2.27600625
 30
0.0
 40
0.5
  1
INS-IP-114L
100
AcDbAttributeDefinition
  3

  2
DESCRIPTION
 70
     8
280
     0
  0
ATTDEF
  5
127
330
11A
100
AcDbEntity
  8
AM_6
100
AcDbText
 10
6.72399375
 20
-2.77600625
 30
0.0
 40
0.5
  1
Labyrinth Seal
100
AcDbAttributeDefinition
  3

  2
ST
 70
     8
280
     0
  0
ATTDEF
  5
128
330
11A
100
AcDbEntity
  8
AM_6
100
AcDbText
 10
6.72399375
 20
-3.27600625
 30
0.0
 40
0.5
  1
3.5433
100
AcDbAttributeDefinition
  3

  2
A
 70
     8
280
     0
  0
ATTDEF
  5
129
330
11A
100
AcDbEntity
  8
AM_6
100
AcDbText
 10
6.72399375
 20
-3.77600625
 30
0.0
 40
0.5
  1
61/64
100
AcDbAttributeDefinition
  3

  2
B
 70
     8
280
     0
  0
ATTDEF
  5
12A
330
11A
100
AcDbEntity
  8
AM_6
100
AcDbText
 10
6.72399375
 20
-4.27600625
 30
0.0
 40
0.5
  1
2-55/64
100
AcDbAttributeDefinition
  3

  2
C
 70
     8
280
     0
  0
ATTDEF
  5
12B
330
11A
100
AcDbEntity
  8
AM_6
100
AcDbText
 10
6.72399375
 20
-4.77600625
 30
0.0
 40
0.5
  1
0.977
100
AcDbAttributeDefinition
  3

  2
D
 70
     8
280
     0
  0
ATTDEF
  5
12C
330
11A
100
AcDbEntity
  8
AM_6
100
AcDbText
 10
6.72399375
 20
-5.27600625
 30
0.0
 40
0.5
  1
3-9/32
100
AcDbAttributeDefinition
  3

  2
E
 70
     8
280
     0
  0
ATTDEF
  5
12D
330
11A
100
AcDbEntity
  8
AM_6
100
AcDbText
 10
6.72399375
 20
-5.77600625
 30
0.0
 40
0.5
  1
0.1900
100
AcDbAttributeDefinition
  3

  2
NDM
 70
     8
280
     0
  0
ATTDEF
  5
12E
330
11A
100
AcDbEntity
  8
AM_6
100
AcDbText
 10
6.72399375
 20
-6.27600625
 30
0.0
 40
0.5
  1
0.101
100
AcDbAttributeDefinition
  3

  2
H
 70
     8
280
     0
  0
ATTDEF
  5
12F
330
11A
100
AcDbEntity
  8
AM_6
100
AcDbText
 10
6.72399375
 20
-6.77600625
 30
0.0
 40
0.5
  1
0.1450
100
AcDbAttributeDefinition
  3

  2
KDM
 70
     8
280
     0
  0
ATTDEF
  5
130
330
11A
100
AcDbEntity
  8
AM_6
100
AcDbText
 10
6.72399375
 20
-7.27600625
 30
0.0
 40
0.5
  1
2.67
100
AcDbAttributeDefinition
  3

  2
AL
 70
     8
280
     0
  0
ATTDEF
  5
131
330
11A
100
AcDbEntity
  8
AM_6
100
AcDbText
 10
6.72399375
 20
-7.77600625
 30
0.0
 40
0.5
  1
0.38
100
AcDbAttributeDefinition
  3

  2
BL
 70
     8
280
     0
  0
ATTDEF
  5
132
330
11A
100
AcDbEntity
  8
AM_6
100
AcDbText
 10
6.72399375
 20
-8.27600625
 30
0.0
 40
0.5
  1
0.07
100
AcDbAttributeDefinition
  3

  2
CL
 70
     8
280
     0
  0
ATTDEF
  5
133
330
11A
100
AcDbEntity
  8
AM_6
100
AcDbText
 10
6.72399375
 20
-8.77600625
 30
0.0
 40
0.5
  1
0.44
100
AcDbAttributeDefinition
  3

  2
DL
 70
     8
280
     0
  0
ATTDEF
  5
134
330
11A
100
AcDbEntity
  8
AM_6
100
AcDbText
 10
6.72399375
 20
-9.27600625
 30
0.0
 40
0.5
  1
0.8000
100
AcDbAttributeDefinition
  3

  2
LL
 70
     8
280
     0
  0
ATTDEF
  5
135
330
11A
100
AcDbEntity
  8
AM_6
100
AcDbText
 10
6.72399375
 20
-9.77600625
 30
0.0
 40
0.5
  1
0.020
100
AcDbAttributeDefinition
  3

  2
Y
 70
     8
280
     0
  0
ATTDEF
  5
136
330
11A
100
AcDbEntity
  8
AM_6
100
AcDbText
 10
6.72399375
 20
-10.27600625
 30
0.0
 40
0.5
  1
0.020000
100
AcDbAttributeDefinition
  3

  2
Y1
 70
     8
280
     0
  0
ATTDEF
  5
137
330
11A
100
AcDbEntity
  8
AM_6
100
AcDbText
 10
6.72399375
 20
-10.77600625
 30
0.0
 40
0.5
  1
2-19/64
100
AcDbAttributeDefinition
  3

  2
Z
 70
     8
280
     0
  0
ATTDEF
  5
138
330
11A
100
AcDbEntity
  8
AM_6
100
AcDbText
 10
6.72399375
 20
-11.27600625
 30
0.0
 40
0.5
  1
2.296875
100
AcDbAttributeDefinition
  3

  2
Z1
 70
     8
280
     0
  0
ATTDEF
  5
139
330
11A
100
AcDbEntity
  8
AM_6
100
AcDbText
 10
6.72399375
 20
-11.77600625
 30
0.0
 40
0.5
  1
baldor
100
AcDbAttributeDefinition
  3

  2
COMPANY
 70
     8
280
     0
  0
CIRCLE
  5
13A
330
11A
100
AcDbEntity
  8
AM_9
100
AcDbCircle
 10
0.0
 20
0.0
 30
0.0
 40
1.1484375
  0
CIRCLE
  5
13B
330
11A
100
AcDbEntity
  8
AM_9
100
AcDbCircle
 10
0.0
 20
0.0
 30
0.0
 40
1.246594551282051
  0
CIRCLE
  5
13C
330
11A
100
AcDbEntity
  8
AM_9
100
AcDbCircle
 10
0.0
 20
0.0
 30
0.0
 40
1.276041666666667
  0
CIRCLE
  5
13D
330
11A
100
AcDbEntity
  8
AM_9
100
AcDbCircle
 10
0.0
 20
0.0
 30
0.0
 40
1.403857578016765
  0
CIRCLE
  5
13E
330
11A
100
AcDbEntity
  8
AM_9
100
AcDbCircle
 10
0.0
 20
0.0
 30
0.0
 40
1.490460118395209
  0
CIRCLE
  5
13F
330
11A
100
AcDbEntity
  8
AM_9
100
AcDbCircle
 10
0.0
 20
0.0
 30
0.0
 40
1.57165
  0
CIRCLE
  5
140
330
11A
100
AcDbEntity
  8
AM_9
100
AcDbCircle
 10
0.0
 20
0.0
 30
0.0
 40
1.72399375
  0
CIRCLE
  5
141
330
11A
100
AcDbEntity
  8
AM_9
100
AcDbCircle
 10
0.9483333133100833
 20
-0.9483333133100835
 30
0.0
 40
0.0724499999999997
  0
LINE
  5
142
330
11A
100
AcDbEntity
  8
AM_9
100
AcDbLine
 10
0.1900000000000003
 20
1.631282462707438
 30
0.0
 11
0.1900000000000003
 21
1.335
 31
0.0
  0
LINE
  5
143
330
11A
100
AcDbEntity
  8
AM_9
100
AcDbLine
 10
-1.335
 20
-0.1899999999999998
 30
0.0
 11
-1.631282462707438
 21
-0.1899999999999995
 31
0.0
  0
LINE
  5
144
330
11A
100
AcDbEntity
  8
AM_9
100
AcDbLine
 10
-0.1899999999999998
 20
1.335
 30
0.0
 11
-0.1899999999999995
 21
1.631282462707438
 31
0.0
  0
LINE
  5
145
330
11A
100
AcDbEntity
  8
AM_9
100
AcDbLine
 10
1.631282462707438
 20
-0.1900000000000002
 30
0.0
 11
1.335
 21
-0.1900000000000002
 31
0.0
  0
LINE
  5
146
330
11A
100
AcDbEntity
  8
AM_9
100
AcDbLine
 10
0.1899999999999998
 20
-1.335
 30
0.0
 11
0.1899999999999995
 21
-1.631282462707438
 31
0.0
  0
LINE
  5
147
330
11A
100
AcDbEntity
  8
AM_9
100
AcDbLine
 10
-1.631282462707438
 20
0.1900000000000003
 30
0.0
 11
-1.335
 21
0.1900000000000002
 31
0.0
  0
LINE
  5
148
330
11A
100
AcDbEntity
  8
AM_9
100
AcDbLine
 10
1.335
 20
0.1899999999999998
 30
0.0
 11
1.631282462707438
 21
0.1899999999999995
 31
0.0
  0
LINE
  5
149
330
11A
100
AcDbEntity
  8
AM_9
100
AcDbLine
 10
-0.0950000000000004
 20
1.335
 30
0.0
 11
-0.1899999999999998
 21
1.335
 31
0.0
  0
LINE
  5
14A
330
11A
100
AcDbEntity
  8
AM_9
100
AcDbLine
 10
0.1900000000000003
 20
1.335
 30
0.0
 11
0.0949999999999997
 21
1.335
 31
0.0
  0
LINE
  5
14B
330
11A
100
AcDbEntity
  8
AM_9
100
AcDbLine
 10
-1.335
 20
-0.095
 30
0.0
 11
-1.335
 21
-0.1899999999999998
 31
0.0
  0
LINE
  5
14C
330
11A
100
AcDbEntity
  8
AM_9
100
AcDbLine
 10
-1.335
 20
0.1900000000000002
 30
0.0
 11
-1.335
 21
0.095
 31
0.0
  0
LINE
  5
14D
330
11A
100
AcDbEntity
  8
AM_9
100
AcDbLine
 10
0.095000000000001
 20
-1.335
 30
0.0
 11
0.1899999999999998
 21
-1.335
 31
0.0
  0
LINE
  5
14E
330
11A
100
AcDbEntity
  8
AM_9
100
AcDbLine
 10
-0.1900000000000003
 20
-1.335
 30
0.0
 11
-0.0949999999999993
 21
-1.335
 31
0.0
  0
ARC
  5
14F
330
11A
100
AcDbEntity
  8
AM_9
100
AcDbCircle
 10
0.0000000000000605
 20
-0.0000000000000254
 30
0.0
 40
0.9894459102903028
100
AcDbArc
 50
151.9903538398015
 51
163.0096461601984
  0
LINE
  5
150
330
11A
100
AcDbEntity
  8
AM_9
100
AcDbLine
 10
1.335
 20
0.0950000000000007
 30
0.0
 11
1.335
 21
0.1899999999999998
 31
0.0
  0
LINE
  5
151
330
11A
100
AcDbEntity
  8
AM_9
100
AcDbLine
 10
1.335
 20
-0.1900000000000002
 30
0.0
 11
1.335
 21
-0.0949999999999996
 31
0.0
  0
LINE
  5
152
330
11A
100
AcDbEntity
  8
AM_9
100
AcDbLine
 10
-0.1900000000000003
 20
-1.631282462707438
 30
0.0
 11
-0.1900000000000003
 21
-1.335
 31
0.0
  0
ARC
  5
153
330
11A
100
AcDbEntity
  8
AM_9
100
AcDbCircle
 10
-0.0000000000000027
 20
-0.0000000000000027
 30
0.0
 40
1.592340561259644
100
AcDbArc
 50
186.852929220171
 51
263.147070779829
  0
CIRCLE
  5
154
330
11A
100
AcDbEntity
  8
AM_9
100
AcDbCircle
 10
-0.9483333133100833
 20
0.9483333133100835
 30
0.0
 40
0.0724499999999997
  0
ARC
  5
155
330
11A
100
AcDbEntity
  8
AM_9
100
AcDbCircle
 10
0.0000000000000016
 20
0.0000000000000014
 30
0.0
 40
1.592340561259645
100
AcDbArc
 50
6.852929220171074
 51
83.14707077982894
  0
ARC
  5
156
330
11A
100
AcDbEntity
  8
AM_9
100
AcDbCircle
 10
0.0000000000000019
 20
-0.0000000000000018
 30
0.0
 40
1.592340561259645
100
AcDbArc
 50
276.852929220171
 51
353.147070779829
  0
ARC
  5
157
330
11A
100
AcDbEntity
  8
AM_9
100
AcDbCircle
 10
-0.0000000000000016
 20
0.0000000000000016
 30
0.0
 40
1.592340561259645
100
AcDbArc
 50
96.85292922017103
 51
173.1470707798289
  0
ARC
  5
158
330
11A
100
AcDbEntity
  8
AM_5
100
AcDbCircle
 10
0.9483333133100831
 20
-0.9483333133100832
 30
0.0
 40
0.0949999999999999
100
AcDbArc
 50
74.99999999999991
 51
14.99999999999987
  0
CIRCLE
  5
159
330
11A
100
AcDbEntity
  8
AM_4
100
AcDbCircle
 10
0.0
 20
0.0
 30
0.0
 40
1.721649999999999
  0
LINE
  5
15A
330
11A
100
AcDbEntity
  8
AM_4
100
AcDbLine
 10
0.1900000000000006
 20
1.645054205508798
 30
0.0
 11
0.1900000000000003
 21
1.631282462707438
 31
0.0
  0
LINE
  5
15B
330
11A
100
AcDbEntity
  8
AM_4
100
AcDbLine
 10
-1.631282462707438
 20
-0.1899999999999995
 30
0.0
 11
-1.645054205508799
 21
-0.1899999999999995
 31
0.0
  0
LINE
  5
15C
330
11A
100
AcDbEntity
  8
AM_4
100
AcDbLine
 10
-0.1899999999999995
 20
1.631282462707438
 30
0.0
 11
-0.1899999999999995
 21
1.645054205508799
 31
0.0
  0
LINE
  5
15D
330
11A
100
AcDbEntity
  8
AM_4
100
AcDbLine
 10
1.645054205508798
 20
-0.1900000000000002
 30
0.0
 11
1.631282462707438
 21
-0.1900000000000002
 31
0.0
  0
LINE
  5
15E
330
11A
100
AcDbEntity
  8
AM_4
100
AcDbLine
 10
0.1899999999999995
 20
-1.631282462707438
 30
0.0
 11
0.1899999999999995
 21
-1.645054205508799
 31
0.0
  0
LINE
  5
15F
330
11A
100
AcDbEntity
  8
AM_4
100
AcDbLine
 10
-1.645054205508798
 20
0.1900000000000002
 30
0.0
 11
-1.631282462707438
 21
0.1900000000000003
 31
0.0
  0
LINE
  5
160
330
11A
100
AcDbEntity
  8
AM_4
100
AcDbLine
 10
1.631282462707438
 20
0.1899999999999995
 30
0.0
 11
1.645054205508798
 21
0.1899999999999996
 31
0.0
  0
LINE
  5
161
330
11A
100
AcDbEntity
  8
AM_4
100
AcDbLine
 10
-0.1900000000000006
 20
-1.645054205508798
 30
0.0
 11
-0.1900000000000003
 21
-1.631282462707438
 31
0.0
  0
CIRCLE
  5
162
330
11A
100
AcDbEntity
  8
AM_4
100
AcDbCircle
 10
0.0
 20
0.0
 30
0.0
 40
1.68158633509779
  0
ARC
  5
163
330
11A
100
AcDbEntity
  8
AM_4
100
AcDbCircle
 10
0.0000000000000355
 20
0.0000000000000007
 30
0.0
 40
1.655990138576334
100
AcDbArc
 50
353.4116604984157
 51
6.588339501584159
  0
ARC
  5
164
330
11A
100
AcDbEntity
  8
AM_4
100
AcDbCircle
 10
0.0000000000000023
 20
0.0000000000000009
 30
0.0
 40
1.655990138576371
100
AcDbArc
 50
263.4116604984158
 51
276.588339501584
  0
ARC
  5
165
330
11A
100
AcDbEntity
  8
AM_4
100
AcDbCircle
 10
-0.0000000000000024
 20
-0.0000000000000025
 30
0.0
 40
1.655990138576367
100
AcDbArc
 50
173.4116604984158
 51
186.588339501584
  0
ARC
  5
166
330
11A
100
AcDbEntity
  8
AM_4
100
AcDbCircle
 10
-0.0000000000000023
 20
-0.0000000000000011
 30
0.0
 40
1.655990138576371
100
AcDbArc
 50
83.41166049841583
 51
96.58833950158397
  0
LINE
  5
167
330
11A
100
AcDbEntity
  8
AM_4
100
AcDbLine
 10
0.0949999999999997
 20
1.335
 30
0.0
 11
-0.0950000000000004
 21
1.335
 31
0.0
  0
LINE
  5
168
330
11A
100
AcDbEntity
  8
AM_4
100
AcDbLine
 10
-1.335
 20
0.095
 30
0.0
 11
-1.335
 21
-0.095
 31
0.0
  0
LINE
  5
169
330
11A
100
AcDbEntity
  8
AM_4
100
AcDbLine
 10
-0.0949999999999993
 20
-1.335
 30
0.0
 11
0.095000000000001
 21
-1.335
 31
0.0
  0
LINE
  5
16A
330
11A
100
AcDbEntity
  8
AM_4
100
AcDbLine
 10
1.335
 20
-0.0949999999999996
 30
0.0
 11
1.335
 21
0.0950000000000007
 31
0.0
  0
ARC
  5
16B
330
11A
100
AcDbEntity
  8
AM_4
100
AcDbCircle
 10
-0.0000000000000018
 20
-0.0000000000000017
 30
0.0
 40
1.6423101026106
100
AcDbArc
 50
186.6434649700238
 51
263.3565350299763
  0
ARC
  5
16C
330
11A
100
AcDbEntity
  8
AM_4
100
AcDbCircle
 10
-0.0000000000000002
 20
-0.0000000000000002
 30
0.0
 40
1.642310102610602
100
AcDbArc
 50
6.643464970023757
 51
83.35653502997624
  0
ARC
  5
16D
330
11A
100
AcDbEntity
  8
AM_4
100
AcDbCircle
 10
-0.0000000000000006
 20
0.0000000000000009
 30
0.0
 40
1.642310102610602
100
AcDbArc
 50
276.6434649700237
 51
353.3565350299763
  0
ARC
  5
16E
330
11A
100
AcDbEntity
  8
AM_4
100
AcDbCircle
 10
-0.000000000000001
 20
0.0000000000000009
 30
0.0
 40
1.6423101026106
100
AcDbArc
 50
96.64346497002371
 51
173.3565350299763
  0
ARC
  5
16F
330
11A
100
AcDbEntity
  8
AM_4
100
AcDbCircle
 10
-0.0000000000000007
 20
-0.0000000000000016
 30
0.0
 40
0.986842105263158
100
AcDbArc
 50
163.0242286396945
 51
151.9757713603053
  0
LINE
  5
170
330
11A
100
AcDbEntity
  8
AM_4
100
AcDbLine
 10
-0.9438437225762107
 20
0.2881256116239981
 30
0.0
 11
-0.8980335728746465
 21
0.2691504263232685
 31
0.0
  0
LINE
  5
171
330
11A
100
AcDbEntity
  8
AM_4
100
AcDbLine
 10
-0.8253237207252795
 20
0.444687537500413
 30
0.0
 11
-0.8711338704268434
 21
0.4636627228011427
 31
0.0
  0
ARC
  5
172
330
11A
100
AcDbEntity
  8
AM_4
100
AcDbCircle
 10
0.0000000000000001
 20
0.0000000000000003
 30
0.0
 40
0.9375000000000001
100
AcDbArc
 50
163.3159549046887
 51
151.6840450953113
  0
ARC
  5
173
330
11A
100
AcDbEntity
  8
AM_5
100
AcDbCircle
 10
-0.9483333133100833
 20
0.9483333133100833
 30
0.0
 40
0.095
100
AcDbArc
 50
149.9999999999999
 51
15.00000000000009
  0
ARC
  5
174
330
11A
100
AcDbEntity
  8
AM_5
100
AcDbCircle
 10
-0.9483333133100833
 20
0.9483333133100834
 30
0.0
 40
0.095
100
AcDbArc
 50
210.0
 51
150.0
  0
ARC
  5
175
330
11A
100
AcDbEntity
  8
AM_5
100
AcDbCircle
 10
0.9483333133100833
 20
-0.9483333133100834
 30
0.0
 40
0.095
100
AcDbArc
 50
210.0
 51
150.0
  0
ARC
  5
176
330
11A
100
AcDbEntity
  8
AM_5
100
AcDbCircle
 10
0.9483333133100832
 20
-0.9483333133100834
 30
0.0
 40
0.095
100
AcDbArc
 50
150.0
 51
59.99999999999996
  0
ENDBLK
  5
11D
330
11A
100
AcDbEntity
  8
0
100
AcDbBlockEnd
  0
BLOCK
  5
179
330
177
100
AcDbEntity
  8
0
100
AcDbBlockBegin
  2
6_405015E_Inch_0_in_069681_0
 70
     2
 10
0.0
 20
0.0
 30
0.0
  3
6_405015E_Inch_0_in_069681_0
  1

  0
ATTDEF
  5
17B
330
177
100
AcDbEntity
  8
AM_6
100
AcDbText
 10
5.21875
 20
2.725
 30
0.0
 40
0.5
  1
405015E -Inch
100
AcDbAttributeDefinition
  3

  2
NN
 70
     8
280
     0
  0
ATTDEF
  5
17C
330
177
100
AcDbEntity
  8
AM_6
100
AcDbText
 10
5.21875
 20
2.225
 30
0.0
 40
0.5
  1
Grease Fitting
100
AcDbAttributeDefinition
  3

  2
NT
 70
     8
280
     0
  0
ATTDEF
  5
17D
330
177
100
AcDbEntity
  8
AM_6
100
AcDbText
 10
5.21875
 20
1.725
 30
0.0
 40
0.5
  1
405015E-Inch
100
AcDbAttributeDefinition
  3

  2
NB
 70
     8
280
     0
  0
ATTDEF
  5
17E
330
177
100
AcDbEntity
  8
AM_6
100
AcDbText
 10
5.21875
 20
1.225
 30
0.0
 40
0.5
  1
$MN.-Inch
100
AcDbAttributeDefinition
  3

  2
NBSYN
 70
     8
280
     0
  0
ATTDEF
  5
17F
330
177
100
AcDbEntity
  8
AM_6
100
AcDbText
 10
5.21875
 20
0.7250000000000001
 30
0.0
 40
0.5
  1
405015E
100
AcDbAttributeDefinition
  3

  2
LINA
 70
     8
280
     0
  0
ATTDEF
  5
180
330
177
100
AcDbEntity
  8
AM_6
100
AcDbText
 10
5.21875
 20
0.2250000000000001
 30
0.0
 40
0.5
  1
405015E
100
AcDbAttributeDefinition
  3

  2
MN
 70
     8
280
     0
  0
ATTDEF
  5
181
330
177
100
AcDbEntity
  8
AM_6
100
AcDbText
 10
5.21875
 20
-0.2749999999999999
 30
0.0
 40
0.5
  1
1/8 x 27PTF
100
AcDbAttributeDefinition
  3

  2
T
 70
     8
280
     0
  0
ATTDEF
  5
182
330
177
100
AcDbEntity
  8
AM_6
100
AcDbText
 10
5.21875
 20
-0.7749999999999999
 30
0.0
 40
0.5
  1
baldor
100
AcDbAttributeDefinition
  3

  2
COMPANY
 70
     8
280
     0
  0
LINE
  5
183
330
177
100
AcDbEntity
  8
AM_9
100
AcDbLine
 10
-0.161902872472269
 20
2.085
 30
0.0
 11
0.161902872472269
 21
2.085
 31
0.0
  0
LINE
  5
184
330
177
100
AcDbEntity
  8
AM_9
100
AcDbLine
 10
0.161902872472269
 20
2.085
 30
0.0
 11
0.1986176267812154
 21
2.121714754308946
 31
0.0
  0
LINE
  5
185
330
177
100
AcDbEntity
  8
AM_9
100
AcDbLine
 10
-0.1986176267812154
 20
2.121714754308946
 30
0.0
 11
-0.161902872472269
 21
2.085
 31
0.0
  0
LINE
  5
186
330
177
100
AcDbEntity
  8
AM_9
100
AcDbLine
 10
-0.1986176267812154
 20
2.121714754308946
 30
0.0
 11
0.1986176267812154
 21
2.121714754308946
 31
0.0
  0
LINE
  5
187
330
177
100
AcDbEntity
  8
AM_9
100
AcDbLine
 10
0.1986176267812154
 20
2.121714754308946
 30
0.0
 11
0.2057518972230696
 21
2.35
 31
0.0
  0
LINE
  5
188
330
177
100
AcDbEntity
  8
AM_9
100
AcDbLine
 10
-0.2057518972230696
 20
2.35
 30
0.0
 11
-0.1986176267812154
 21
2.121714754308946
 31
0.0
  0
LINE
  5
189
330
177
100
AcDbEntity
  8
AM_5
100
AcDbLine
 10
-0.1681491248523479
 20
2.284870087748463
 30
0.0
 11
-0.161902872472269
 21
2.085
 31
0.0
  0
LINE
  5
18A
330
177
100
AcDbEntity
  8
AM_5
100
AcDbLine
 10
-0.2057518972230694
 20
2.35
 30
0.0
 11
-0.1681491248523479
 21
2.284870087748463
 31
0.0
  0
LINE
  5
18B
330
177
100
AcDbEntity
  8
AM_5
100
AcDbLine
 10
0.2037164857515567
 20
2.284870087748463
 30
0.0
 11
-0.2037164857515567
 21
2.284870087748463
 31
0.0
  0
LINE
  5
18C
330
177
100
AcDbEntity
  8
AM_5
100
AcDbLine
 10
0.1681491248523479
 20
2.284870087748463
 30
0.0
 11
0.161902872472269
 21
2.085
 31
0.0
  0
LINE
  5
18D
330
177
100
AcDbEntity
  8
AM_5
100
AcDbLine
 10
0.2057518972230694
 20
2.35
 30
0.0
 11
0.1681491248523479
 21
2.284870087748463
 31
0.0
  0
LINE
  5
18E
330
177
100
AcDbEntity
  8
AM_4
100
AcDbLine
 10
0.105
 20
2.555
 30
0.0
 11
0.105
 21
2.585
 31
0.0
  0
LINE
  5
18F
330
177
100
AcDbEntity
  8
AM_4
100
AcDbLine
 10
-0.105
 20
2.585
 30
0.0
 11
-0.105
 21
2.555
 31
0.0
  0
LINE
  5
190
330
177
100
AcDbEntity
  8
AM_4
100
AcDbLine
 10
-0.105
 20
2.555
 30
0.0
 11
0.105
 21
2.555
 31
0.0
  0
LINE
  5
191
330
177
100
AcDbEntity
  8
AM_4
100
AcDbLine
 10
-0.105
 20
2.555
 30
0.0
 11
-0.1188200907348975
 21
2.522753121618572
 31
0.0
  0
LINE
  5
192
330
177
100
AcDbEntity
  8
AM_4
100
AcDbLine
 10
0.1188200907348975
 20
2.522753121618572
 30
0.0
 11
0.105
 21
2.555
 31
0.0
  0
LINE
  5
193
330
177
100
AcDbEntity
  8
AM_4
100
AcDbLine
 10
-0.105
 20
2.585
 30
0.0
 11
0.105
 21
2.585
 31
0.0
  0
LINE
  5
194
330
177
100
AcDbEntity
  8
AM_4
100
AcDbLine
 10
0.105
 20
2.585
 30
0.0
 11
0.135
 21
2.645
 31
0.0
  0
LINE
  5
195
330
177
100
AcDbEntity
  8
AM_4
100
AcDbLine
 10
-0.135
 20
2.645
 30
0.0
 11
-0.105
 21
2.585
 31
0.0
  0
LINE
  5
196
330
177
100
AcDbEntity
  8
AM_4
100
AcDbLine
 10
-0.1026779019331875
 20
2.725
 30
0.0
 11
0.1026779019331875
 21
2.725
 31
0.0
  0
LINE
  5
197
330
177
100
AcDbEntity
  8
AM_4
100
AcDbLine
 10
-0.135
 20
2.645
 30
0.0
 11
0.135
 21
2.645
 31
0.0
  0
LINE
  5
198
330
177
100
AcDbEntity
  8
AM_4
100
AcDbLine
 10
-0.1026779019331875
 20
2.725
 30
0.0
 11
-0.135
 21
2.645
 31
0.0
  0
LINE
  5
199
330
177
100
AcDbEntity
  8
AM_4
100
AcDbLine
 10
0.135
 20
2.645
 30
0.0
 11
0.1026779019331875
 21
2.725
 31
0.0
  0
LINE
  5
19A
330
177
100
AcDbEntity
  8
AM_4
100
AcDbLine
 10
-0.1188200907348975
 20
2.522753121618572
 30
0.0
 11
0.1188200907348975
 21
2.522753121618572
 31
0.0
  0
LINE
  5
19B
330
177
100
AcDbEntity
  8
AM_4
100
AcDbLine
 10
-0.1188200907348975
 20
2.522753121618572
 30
0.0
 11
-0.1725340532830154
 21
2.468318198540882
 31
0.0
  0
LINE
  5
19C
330
177
100
AcDbEntity
  8
AM_4
100
AcDbLine
 10
0.1725340532830154
 20
2.468318198540882
 30
0.0
 11
0.1188200907348975
 21
2.522753121618572
 31
0.0
  0
LINE
  5
19D
330
177
100
AcDbEntity
  8
AM_4
100
AcDbLine
 10
0.21875
 20
2.35
 30
0.0
 11
0.21875
 21
2.45
 31
0.0
  0
LINE
  5
19E
330
177
100
AcDbEntity
  8
AM_4
100
AcDbLine
 10
-0.21875
 20
2.45
 30
0.0
 11
0.21875
 21
2.45
 31
0.0
  0
LINE
  5
19F
330
177
100
AcDbEntity
  8
AM_4
100
AcDbLine
 10
-0.21875
 20
2.45
 30
0.0
 11
-0.21875
 21
2.35
 31
0.0
  0
LINE
  5
1A0
330
177
100
AcDbEntity
  8
AM_4
100
AcDbLine
 10
-0.1725340532830154
 20
2.468318198540882
 30
0.0
 11
0.1725340532830154
 21
2.468318198540882
 31
0.0
  0
LINE
  5
1A1
330
177
100
AcDbEntity
  8
AM_4
100
AcDbLine
 10
-0.1725340532830154
 20
2.468318198540882
 30
0.0
 11
-0.21375
 21
2.45
 31
0.0
  0
LINE
  5
1A2
330
177
100
AcDbEntity
  8
AM_4
100
AcDbLine
 10
0.21375
 20
2.45
 30
0.0
 11
0.1725340532830154
 21
2.468318198540882
 31
0.0
  0
LWPOLYLINE
  5
1A3
330
177
100
AcDbEntity
  8
AM_4
100
AcDbPolyline
 90
        4
 70
     0
 43
0.0
 10
-0.21875
 20
2.440932400303386
 10
-0.1643083897258504
 20
2.44758547505038
 10
-0.1368799989092349
 20
2.449385438185773
 10
-0.109375
 20
2.45
  0
LWPOLYLINE
  5
1A4
330
177
100
AcDbEntity
  8
AM_4
100
AcDbPolyline
 90
        4
 70
     0
 43
0.0
 10
-0.109375
 20
2.35
 10
-0.1367187499999999
 20
2.350607414003999
 10
-0.1640625
 20
2.352393380785035
 10
-0.21875
 20
2.359067599696615
  0
LWPOLYLINE
  5
1A5
330
177
100
AcDbEntity
  8
AM_4
100
AcDbPolyline
 90
        4
 70
     0
 43
0.0
 10
0.0
 20
2.359067599696615
 10
-0.0544416102741496
 20
2.35241452494962
 10
-0.0818700010907651
 20
2.350614561814227
 10
-0.109375
 20
2.35
  0
LWPOLYLINE
  5
1A6
330
177
100
AcDbEntity
  8
AM_4
100
AcDbPolyline
 90
        4
 70
     0
 43
0.0
 10
0.1093749999999999
 20
2.45
 10
0.1367187499999999
 20
2.449392585996001
 10
0.1640625
 20
2.447606619214965
 10
0.21875
 20
2.440932400303386
  0
LINE
  5
1A7
330
177
100
AcDbEntity
  8
AM_4
100
AcDbLine
 10
0.0
 20
2.440932400303386
 30
0.0
 11
0.0
 21
2.359067599696615
 31
0.0
  0
LWPOLYLINE
  5
1A8
330
177
100
AcDbEntity
  8
AM_4
100
AcDbPolyline
 90
        4
 70
     0
 43
0.0
 10
0.109375
 20
2.35
 10
0.08203125
 20
2.350607414003999
 10
0.0546875
 20
2.352393380785035
 10
0.0
 20
2.359067599696615
  0
LWPOLYLINE
  5
1A9
330
177
100
AcDbEntity
  8
AM_4
100
AcDbPolyline
 90
        4
 70
     0
 43
0.0
 10
0.21875
 20
2.359067599696615
 10
0.1643083897258504
 20
2.35241452494962
 10
0.1368799989092349
 20
2.350614561814227
 10
0.109375
 20
2.35
  0
LWPOLYLINE
  5
1AA
330
177
100
AcDbEntity
  8
AM_4
100
AcDbPolyline
 90
        4
 70
     0
 43
0.0
 10
-0.109375
 20
2.45
 10
-0.08203125
 20
2.449392585996001
 10
-0.0546875
 20
2.447606619214965
 10
0.0
 20
2.440932400303386
  0
LWPOLYLINE
  5
1AB
330
177
100
AcDbEntity
  8
AM_4
100
AcDbPolyline
 90
        4
 70
     0
 43
0.0
 10
0.0
 20
2.440932400303386
 10
0.0544416102741496
 20
2.44758547505038
 10
0.0818700010907651
 20
2.449385438185773
 10
0.1093749999999999
 20
2.45
  0
ENDBLK
  5
17A
330
177
100
AcDbEntity
  8
0
100
AcDbBlockEnd
  0
BLOCK
  5
1AE
330
1AC
100
AcDbEntity
  8
0
100
AcDbBlockBegin
  2
7_069681H_0_in_069681_0
 70
     2
 10
0.0
 20
0.0
 30
0.0
  3
7_069681H_0_in_069681_0
  1

  0
ATTDEF
  5
1B0
330
1AC
100
AcDbEntity
  8
AM_6
100
AcDbText
 10
8.5109375
 20
3.5109375
 30
0.0
 40
0.5
  1
F3&4R-IP -(Labyrinth Seal)-Housing -Inch
100
AcDbAttributeDefinition
  3

  2
NN
 70
     8
280
     0
  0
ATTDEF
  5
1B1
330
1AC
100
AcDbEntity
  8
AM_6
100
AcDbText
 10
8.5109375
 20
3.0109375
 30
0.0
 40
0.5
  1
Imperial 3 & 4 Bolt Round Flange Bearings
100
AcDbAttributeDefinition
  3

  2
NT
 70
     8
280
     0
  0
ATTDEF
  5
1B2
330
1AC
100
AcDbEntity
  8
AM_6
100
AcDbText
 10
8.5109375
 20
2.5109375
 30
0.0
 40
0.5
  1
069681H
100
AcDbAttributeDefinition
  3

  2
NB
 70
     8
280
     0
  0
ATTDEF
  5
1B3
330
1AC
100
AcDbEntity
  8
AM_6
100
AcDbText
 10
8.5109375
 20
2.0109375
 30
0.0
 40
0.5
  1
$PN.H
100
AcDbAttributeDefinition
  3

  2
NBSYN
 70
     8
280
     0
  0
ATTDEF
  5
1B4
330
1AC
100
AcDbEntity
  8
AM_6
100
AcDbText
 10
8.5109375
 20
1.5109375
 30
0.0
 40
0.5
  1
069681
100
AcDbAttributeDefinition
  3

  2
LINA
 70
     8
280
     0
  0
ATTDEF
  5
1B5
330
1AC
100
AcDbEntity
  8
AM_6
100
AcDbText
 10
8.5109375
 20
1.0109375
 30
0.0
 40
0.5
  1
1-7/8
100
AcDbAttributeDefinition
  3

  2
SS
 70
     8
280
     0
  0
ATTDEF
  5
1B6
330
1AC
100
AcDbEntity
  8
AM_6
100
AcDbText
 10
8.5109375
 20
0.5109375000000003
 30
0.0
 40
0.5
  1
069681
100
AcDbAttributeDefinition
  3

  2
PN
 70
     8
280
     0
  0
ATTDEF
  5
1B7
330
1AC
100
AcDbEntity
  8
AM_6
100
AcDbText
 10
8.5109375
 20
0.0109375000000003
 30
0.0
 40
0.5
  1
F4R-IP-114LE
100
AcDbAttributeDefinition
  3

  2
DESCRIPTION
 70
     8
280
     0
  0
ATTDEF
  5
1B8
330
1AC
100
AcDbEntity
  8
AM_6
100
AcDbText
 10
8.5109375
 20
-0.4890624999999997
 30
0.0
 40
0.5
  1
Expansion Type
100
AcDbAttributeDefinition
  3

  2
EF
 70
     8
280
     0
  0
ATTDEF
  5
1B9
330
1AC
100
AcDbEntity
  8
AM_6
100
AcDbText
 10
8.5109375
 20
-0.9890624999999997
 30
0.0
 40
0.5
  1
Labyrinth Seal
100
AcDbAttributeDefinition
  3

  2
ST
 70
     8
280
     0
  0
ATTDEF
  5
1BA
330
1AC
100
AcDbEntity
  8
AM_6
100
AcDbText
 10
8.5109375
 20
-1.4890625
 30
0.0
 40
0.5
  1
2-55/64
100
AcDbAttributeDefinition
  3

  2
A
 70
     8
280
     0
  0
ATTDEF
  5
1BB
330
1AC
100
AcDbEntity
  8
AM_6
100
AcDbText
 10
8.5109375
 20
-1.9890625
 30
0.0
 40
0.5
  1
6-11/16
100
AcDbAttributeDefinition
  3

  2
B
 70
     8
280
     0
  0
ATTDEF
  5
1BC
330
1AC
100
AcDbEntity
  8
AM_6
100
AcDbText
 10
8.5109375
 20
-2.4890625
 30
0.0
 40
0.5
  1
3-5/32
100
AcDbAttributeDefinition
  3

  2
C
 70
     8
280
     0
  0
ATTDEF
  5
1BD
330
1AC
100
AcDbEntity
  8
AM_6
100
AcDbText
 10
8.5109375
 20
-2.9890625
 30
0.0
 40
0.5
  1
4-1/16
100
AcDbAttributeDefinition
  3

  2
D
 70
     8
280
     0
  0
ATTDEF
  5
1BE
330
1AC
100
AcDbEntity
  8
AM_6
100
AcDbText
 10
8.5109375
 20
-3.4890625
 30
0.0
 40
0.5
  1
5-3/4
100
AcDbAttributeDefinition
  3

  2
DD
 70
     8
280
     0
  0
ATTDEF
  5
1BF
330
1AC
100
AcDbEntity
  8
AM_6
100
AcDbText
 10
8.5109375
 20
-3.9890625
 30
0.0
 40
0.5
  1
1-59/64
100
AcDbAttributeDefinition
  3

  2
E
 70
     8
280
     0
  0
ATTDEF
  5
1C0
330
1AC
100
AcDbEntity
  8
AM_6
100
AcDbText
 10
8.5109375
 20
-4.489062499999999
 30
0.0
 40
0.5
  1
1/2
100
AcDbAttributeDefinition
  3

  2
F
 70
     8
280
     0
  0
ATTDEF
  5
1C1
330
1AC
100
AcDbEntity
  8
AM_6
100
AcDbText
 10
8.5109375
 20
-4.989062499999999
 30
0.0
 40
0.5
  1
9/16
100
AcDbAttributeDefinition
  3

  2
H
 70
     8
280
     0
  0
ATTDEF
  5
1C2
330
1AC
100
AcDbEntity
  8
AM_6
100
AcDbText
 10
8.5109375
 20
-5.489062499999999
 30
0.0
 40
0.5
  1
4-1/2
100
AcDbAttributeDefinition
  3

  2
J
 70
     8
280
     0
  0
ATTDEF
  5
1C3
330
1AC
100
AcDbEntity
  8
AM_6
100
AcDbText
 10
8.5109375
 20
-5.989062499999999
 30
0.0
 40
0.5
  1
3-9/32
100
AcDbAttributeDefinition
  3

  2
L
 70
     8
280
     0
  0
ATTDEF
  5
1C4
330
1AC
100
AcDbEntity
  8
AM_6
100
AcDbText
 10
8.5109375
 20
-6.489062499999999
 30
0.0
 40
0.5
  1
19/64
100
AcDbAttributeDefinition
  3

  2
P
 70
     8
280
     0
  0
ATTDEF
  5
1C5
330
1AC
100
AcDbEntity
  8
AM_6
100
AcDbText
 10
8.5109375
 20
-6.989062499999999
 30
0.0
 40
0.5
  1
1/4
100
AcDbAttributeDefinition
  3

  2
X
 70
     8
280
     0
  0
ATTDEF
  5
1C6
330
1AC
100
AcDbEntity
  8
AM_6
100
AcDbText
 10
8.5109375
 20
-7.489062499999999
 30
0.0
 40
0.5
  1
0.020
100
AcDbAttributeDefinition
  3

  2
Y
 70
     8
280
     0
  0
ATTDEF
  5
1C7
330
1AC
100
AcDbEntity
  8
AM_6
100
AcDbText
 10
8.5109375
 20
-7.989062499999999
 30
0.0
 40
0.5
  1
2-19/64
100
AcDbAttributeDefinition
  3

  2
Z
 70
     8
280
     0
  0
ATTDEF
  5
1C8
330
1AC
100
AcDbEntity
  8
AM_6
100
AcDbText
 10
8.5109375
 20
-8.4890625
 30
0.0
 40
0.5
  1
baldor
100
AcDbAttributeDefinition
  3

  2
COMPANY
 70
     8
280
     0
  0
CIRCLE
  5
1C9
330
1AC
100
AcDbEntity
  8
AM_9
100
AcDbCircle
 10
0.0
 20
0.0
 30
0.0
 40
2.142857142857143
  0
LINE
  5
1CA
330
1AC
100
AcDbEntity
  8
AM_7
100
AcDbLine
 10
1.770431995911324
 20
-2.032931995911324
 30
0.0
 11
2.295431995911324
 21
-2.032931995911324
 31
0.0
  0
LINE
  5
1CB
330
1AC
100
AcDbEntity
  8
AM_7
100
AcDbLine
 10
2.032931995911324
 20
-2.295431995911324
 30
0.0
 11
2.032931995911324
 21
-1.770431995911324
 31
0.0
  0
LINE
  5
1CC
330
1AC
100
AcDbEntity
  8
AM_7
100
AcDbLine
 10
-2.295431995911324
 20
2.032931995911324
 30
0.0
 11
-1.770431995911324
 21
2.032931995911324
 31
0.0
  0
LINE
  5
1CD
330
1AC
100
AcDbEntity
  8
AM_7
100
AcDbLine
 10
-2.032931995911324
 20
1.770431995911324
 30
0.0
 11
-2.032931995911324
 21
2.295431995911324
 31
0.0
  0
LINE
  5
1CE
330
1AC
100
AcDbEntity
  8
AM_7
100
AcDbLine
 10
-2.295431995911324
 20
-2.032931995911324
 30
0.0
 11
-1.770431995911324
 21
-2.032931995911324
 31
0.0
  0
LINE
  5
1CF
330
1AC
100
AcDbEntity
  8
AM_7
100
AcDbLine
 10
-2.032931995911324
 20
-2.295431995911324
 30
0.0
 11
-2.032931995911324
 21
-1.770431995911324
 31
0.0
  0
LINE
  5
1D0
330
1AC
100
AcDbEntity
  8
AM_7
100
AcDbLine
 10
1.770431995911324
 20
2.032931995911324
 30
0.0
 11
2.295431995911324
 21
2.032931995911324
 31
0.0
  0
LINE
  5
1D1
330
1AC
100
AcDbEntity
  8
AM_7
100
AcDbLine
 10
2.032931995911324
 20
1.770431995911324
 30
0.0
 11
2.032931995911324
 21
2.295431995911324
 31
0.0
  0
LINE
  5
1D2
330
1AC
100
AcDbEntity
  8
AM_7
100
AcDbLine
 10
-3.510937499999999
 20
0.0
 30
0.0
 11
3.510937500000001
 21
0.0
 31
0.0
  0
LINE
  5
1D3
330
1AC
100
AcDbEntity
  8
AM_7
100
AcDbLine
 10
0.0000000000000009
 20
-3.5109375
 30
0.0
 11
0.0000000000000009
 21
3.5109375
 31
0.0
  0
ARC
  5
1D4
330
1AC
100
AcDbEntity
  8
AM_4
100
AcDbCircle
 10
0.0000000000000001
 20
3.468750000000004
 30
0.0
 40
0.2500000000000045
100
AcDbArc
 50
211.804802220498
 51
328.195197779502
  0
ARC
  5
1D5
330
1AC
100
AcDbEntity
  8
AM_4
100
AcDbCircle
 10
0.0
 20
-0.0000000000000014
 30
0.0
 40
3.343750000000001
100
AcDbArc
 50
93.64303238528886
 51
86.35696761471117
  0
LINE
  5
1D6
330
1AC
100
AcDbEntity
  8
AM_4
100
AcDbLine
 10
1.956303756383817
 20
2.711741078211298
 30
0.0
 11
1.030806054952607
 21
2.063700611073405
 31
0.0
  0
LINE
  5
1D7
330
1AC
100
AcDbEntity
  8
AM_4
100
AcDbLine
 10
2.063700611073405
 20
1.030806054952607
 30
0.0
 11
2.711741078211297
 21
1.956303756383817
 31
0.0
  0
LINE
  5
1D8
330
1AC
100
AcDbEntity
  8
AM_4
100
AcDbLine
 10
-1.030806054952607
 20
2.063700611073405
 30
0.0
 11
-1.956303756383816
 21
2.711741078211297
 31
0.0
  0
LINE
  5
1D9
330
1AC
100
AcDbEntity
  8
AM_4
100
AcDbLine
 10
-2.711741078211298
 20
1.956303756383817
 30
0.0
 11
-2.063700611073405
 21
1.030806054952607
 31
0.0
  0
LINE
  5
1DA
330
1AC
100
AcDbEntity
  8
AM_4
100
AcDbLine
 10
-1.956303756383817
 20
-2.711741078211297
 30
0.0
 11
-1.030806054952608
 21
-2.063700611073405
 31
0.0
  0
LINE
  5
1DB
330
1AC
100
AcDbEntity
  8
AM_4
100
AcDbLine
 10
-2.063700611073405
 20
-1.030806054952607
 30
0.0
 11
-2.711741078211298
 21
-1.956303756383817
 31
0.0
  0
LINE
  5
1DC
330
1AC
100
AcDbEntity
  8
AM_4
100
AcDbLine
 10
2.711741078211297
 20
-1.956303756383817
 30
0.0
 11
2.063700611073405
 21
-1.030806054952608
 31
0.0
  0
LINE
  5
1DD
330
1AC
100
AcDbEntity
  8
AM_4
100
AcDbLine
 10
1.030806054952607
 20
-2.063700611073405
 30
0.0
 11
1.956303756383817
 21
-2.711741078211298
 31
0.0
  0
CIRCLE
  5
1DE
330
1AC
100
AcDbEntity
  8
AM_4
100
AcDbCircle
 10
2.032931995911324
 20
-2.032931995911324
 30
0.0
 40
0.25
  0
ARC
  5
1DF
330
1AC
100
AcDbEntity
  8
AM_4
100
AcDbCircle
 10
2.155855216055912
 20
-0.9662787058631152
 30
0.0
 40
0.1124999999999963
100
AcDbArc
 50
155.8575412028365
 51
215.0000000000013
  0
ARC
  5
1E0
330
1AC
100
AcDbEntity
  8
AM_4
100
AcDbCircle
 10
0.9662787058631146
 20
-2.155855216055915
 30
0.0
 40
0.1124999999999986
100
AcDbArc
 50
54.99999999999979
 51
114.1424625319515
  0
ARC
  5
1E1
330
1AC
100
AcDbEntity
  8
AM_4
100
AcDbCircle
 10
0.0000000000000058
 20
-0.0000000000000062
 30
0.0
 40
3.287499999999992
100
AcDbArc
 50
305.4658204354266
 51
324.5341795645734
  0
CIRCLE
  5
1E2
330
1AC
100
AcDbEntity
  8
AM_4
100
AcDbCircle
 10
-2.032931995911324
 20
2.032931995911324
 30
0.0
 40
0.25
  0
ARC
  5
1E3
330
1AC
100
AcDbEntity
  8
AM_4
100
AcDbCircle
 10
-0.0000000000000298
 20
0.0000000000000253
 30
0.0
 40
3.287499999999961
100
AcDbArc
 50
125.4658204354265
 51
144.5341795645734
  0
ARC
  5
1E4
330
1AC
100
AcDbEntity
  8
AM_4
100
AcDbCircle
 10
-2.155855216055915
 20
0.9662787058631143
 30
0.0
 40
0.1124999999999989
100
AcDbArc
 50
335.8575412028375
 51
35.00000000000045
  0
ARC
  5
1E5
330
1AC
100
AcDbEntity
  8
AM_4
100
AcDbCircle
 10
-0.966278705863115
 20
2.155855216055916
 30
0.0
 40
0.1124999999999988
100
AcDbArc
 50
235.0000000000001
 51
294.1424625319524
  0
CIRCLE
  5
1E6
330
1AC
100
AcDbEntity
  8
AM_4
100
AcDbCircle
 10
-2.032931995911324
 20
-2.032931995911324
 30
0.0
 40
0.25
  0
ARC
  5
1E7
330
1AC
100
AcDbEntity
  8
AM_4
100
AcDbCircle
 10
-0.9662787058631146
 20
-2.155855216055916
 30
0.0
 40
0.1124999999999998
100
AcDbArc
 50
65.85754120283745
 51
125.0000000000003
  0
ARC
  5
1E8
330
1AC
100
AcDbEntity
  8
AM_4
100
AcDbCircle
 10
-2.155855216055916
 20
-0.9662787058631147
 30
0.0
 40
0.1124999999999989
100
AcDbArc
 50
324.9999999999999
 51
24.14246253195151
  0
ARC
  5
1E9
330
1AC
100
AcDbEntity
  8
AM_4
100
AcDbCircle
 10
-0.0000000000000062
 20
-0.0000000000000058
 30
0.0
 40
3.287499999999992
100
AcDbArc
 50
215.4658204354267
 51
234.5341795645733
  0
CIRCLE
  5
1EA
330
1AC
100
AcDbEntity
  8
AM_4
100
AcDbCircle
 10
2.032931995911324
 20
2.032931995911324
 30
0.0
 40
0.25
  0
ARC
  5
1EB
330
1AC
100
AcDbEntity
  8
AM_4
100
AcDbCircle
 10
0.9662787058631144
 20
2.155855216055914
 30
0.0
 40
0.1124999999999982
100
AcDbArc
 50
245.8575315438094
 51
305.0000000000007
  0
ARC
  5
1EC
330
1AC
100
AcDbEntity
  8
AM_4
100
AcDbCircle
 10
2.155855216055915
 20
0.9662787058631155
 30
0.0
 40
0.1124999999999983
100
AcDbArc
 50
145.0
 51
204.1424625319525
  0
ARC
  5
1ED
330
1AC
100
AcDbEntity
  8
AM_4
100
AcDbCircle
 10
0.0000000000000249
 20
0.0000000000000293
 30
0.0
 40
3.287499999999962
100
AcDbArc
 50
35.46582043542649
 51
54.53417956457341
  0
LINE
  5
1EE
330
1AC
100
AcDbEntity
  8
AM_4
100
AcDbLine
 10
0.5000000000000001
 20
2.194132516684944
 30
0.0
 11
0.5000000000000001
 21
2.25
 31
0.0
  0
LINE
  5
1EF
330
1AC
100
AcDbEntity
  8
AM_4
100
AcDbLine
 10
-0.5000000000000001
 20
2.25
 30
0.0
 11
-0.5000000000000001
 21
2.193960002682858
 31
0.0
  0
LINE
  5
1F0
330
1AC
100
AcDbEntity
  8
AM_4
100
AcDbLine
 10
-0.5000000000000001
 20
2.25
 30
0.0
 11
0.5000000000000001
 21
2.25
 31
0.0
  0
LINE
  5
1F1
330
1AC
100
AcDbEntity
  8
AM_4
100
AcDbLine
 10
-0.3999999999999996
 20
2.35
 30
0.0
 11
0.3999999999999996
 21
2.35
 31
0.0
  0
ARC
  5
1F2
330
1AC
100
AcDbEntity
  8
AM_4
100
AcDbCircle
 10
0.3999999999999995
 20
2.249999999999999
 30
0.0
 40
0.1000000000000006
100
AcDbArc
 50
0.0
 51
90.0
  0
ARC
  5
1F3
330
1AC
100
AcDbEntity
  8
AM_4
100
AcDbCircle
 10
-0.4
 20
2.25
 30
0.0
 40
0.1000000000000001
100
AcDbArc
 50
90.0
 51
180.0
  0
LWPOLYLINE
  5
1F4
330
1AC
100
AcDbEntity
  8
AM_4
100
AcDbPolyline
 90
        5
 70
     0
 43
0.0
 10
1.892320662147076
 20
1.208869304278209
 10
1.872092651215415
 20
1.222246293714151
 10
1.844997298428505
 20
1.240638879516712
 10
1.816448579208385
 20
1.260621217701945
 10
1.772420833465405
 20
1.29269619462494
  0
LWPOLYLINE
  5
1F5
330
1AC
100
AcDbEntity
  8
AM_4
100
AcDbPolyline
 90
        5
 70
     0
 43
0.0
 10
1.772420833465406
 20
-1.292696194624939
 10
1.804807236846029
 20
-1.268951441472599
 10
1.837602569905095
 20
-1.24575460494515
 10
1.871324399973771
 20
-1.222760257179873
 10
1.892320668503312
 20
-1.20886930012155
  0
LWPOLYLINE
  5
1F6
330
1AC
100
AcDbEntity
  8
AM_4
100
AcDbPolyline
 90
        3
 70
     0
 43
0.0
 10
1.892320662147076
 20
1.208869304278209
 10
1.907231206773701
 20
1.193719928577609
 10
1.907340512878285
 20
1.193546047680274
  0
LWPOLYLINE
  5
1F7
330
1AC
100
AcDbEntity
  8
AM_4
100
AcDbPolyline
 90
        3
 70
     0
 43
0.0
 10
1.907340510149892
 20
-1.193546052040368
 10
1.907231206773722
 20
-1.193719928577575
 10
1.892320668503312
 20
-1.20886930012155
  0
ARC
  5
1F8
330
1AC
100
AcDbEntity
  8
AM_4
100
AcDbCircle
 10
0.0
 20
0.0
 30
0.0
 40
2.25
100
AcDbArc
 50
327.9631275576016
 51
32.03687231142282
  0
ARC
  5
1F9
330
1AC
100
AcDbEntity
  8
AM_4
100
AcDbCircle
 10
-3.183874551360512
 20
-3.18387455136051
 30
0.0
 40
2.359821428571446
100
AcDbArc
 50
36.73528984625666
 51
53.26471015374327
  0
ARC
  5
1FA
330
1AC
100
AcDbEntity
  8
AM_4
100
AcDbCircle
 10
3.183874551360485
 20
3.183874551360484
 30
0.0
 40
2.359821428571408
100
AcDbArc
 50
216.7352898462566
 51
233.2647101537433
  0
ARC
  5
1FB
330
1AC
100
AcDbEntity
  8
AM_4
100
AcDbCircle
 10
-3.183874551360486
 20
3.18387455136049
 30
0.0
 40
2.359821428571413
100
AcDbArc
 50
306.7352898462565
 51
323.2647101537433
  0
ARC
  5
1FC
330
1AC
100
AcDbEntity
  8
AM_4
100
AcDbCircle
 10
3.183874551360502
 20
-3.183874551360501
 30
0.0
 40
2.359821428571431
100
AcDbArc
 50
126.7352898462567
 51
143.2647101537434
  0
ARC
  5
1FD
330
1AC
100
AcDbEntity
  8
AM_4
100
AcDbCircle
 10
0.0000000000000027
 20
-0.0000000000000003
 30
0.0
 40
2.193749999999998
100
AcDbArc
 50
323.8952583400863
 51
36.10474165991369
  0
CIRCLE
  5
1FE
330
1AC
100
AcDbEntity
  8
AM_4
100
AcDbCircle
 10
0.0
 20
0.0
 30
0.0
 40
1.77165
  0
LWPOLYLINE
  5
1FF
330
1AC
100
AcDbEntity
  8
AM_4
100
AcDbPolyline
 90
        5
 70
     0
 43
0.0
 10
-1.292696194624938
 20
-1.772420833465406
 10
-1.2689514389932
 20
-1.804807240288834
 10
-1.245754600102171
 20
-1.837602576877143
 10
-1.222760254268219
 20
-1.871324404324147
 10
-1.208869300121551
 20
-1.892320668503312
  0
LWPOLYLINE
  5
200
330
1AC
100
AcDbEntity
  8
AM_4
100
AcDbPolyline
 90
        5
 70
     0
 43
0.0
 10
1.208869295964892
 20
-1.89232067485955
 10
1.222246283551986
 20
-1.872092666411835
 10
1.240638857051376
 20
-1.844997331034513
 10
1.260621182098466
 20
-1.816448629283863
 10
1.292696194624938
 20
-1.772420833465406
  0
LWPOLYLINE
  5
201
330
1AC
100
AcDbEntity
  8
AM_4
100
AcDbPolyline
 90
        3
 70
     0
 43
0.0
 10
1.208869295964892
 20
-1.89232067485955
 10
1.19371992857759
 20
-1.907231206773712
 10
1.193546047680274
 20
-1.907340512878284
  0
ARC
  5
202
330
1AC
100
AcDbEntity
  8
AM_4
100
AcDbCircle
 10
0.0000000000000004
 20
0.0000000000000009
 30
0.0
 40
2.193750000000001
100
AcDbArc
 50
233.8952583400864
 51
306.1047416599136
  0
LWPOLYLINE
  5
203
330
1AC
100
AcDbEntity
  8
AM_4
100
AcDbPolyline
 90
        3
 70
     0
 43
0.0
 10
-1.193546043320182
 20
-1.907340515606675
 10
-1.193719928577598
 20
-1.907231206773708
 10
-1.208869300121551
 20
-1.892320668503312
  0
ARC
  5
204
330
1AC
100
AcDbEntity
  8
AM_4
100
AcDbCircle
 10
0.0000000000000004
 20
0.0000000000000036
 30
0.0
 40
2.250000000000003
100
AcDbArc
 50
237.9631278195527
 51
302.0368723114227
  0
LWPOLYLINE
  5
205
330
1AC
100
AcDbEntity
  8
AM_4
100
AcDbPolyline
 90
        5
 70
     0
 43
0.0
 10
-1.892320662147076
 20
-1.208869304278209
 10
-1.872092651215415
 20
-1.22224629371415
 10
-1.844997298428504
 20
-1.240638879516712
 10
-1.816448579208384
 20
-1.260621217701946
 10
-1.772420833465407
 20
-1.292696194624937
  0
LWPOLYLINE
  5
206
330
1AC
100
AcDbEntity
  8
AM_4
100
AcDbPolyline
 90
        5
 70
     0
 43
0.0
 10
-1.772420833465406
 20
1.292696194624939
 10
-1.804807236846023
 20
1.268951441472604
 10
-1.837602569905081
 20
1.245754604945159
 10
-1.871324399973758
 20
1.222760257179882
 10
-1.892320668503314
 20
1.20886930012155
  0
LWPOLYLINE
  5
207
330
1AC
100
AcDbEntity
  8
AM_4
100
AcDbPolyline
 90
        3
 70
     0
 43
0.0
 10
-1.907340510149892
 20
1.193546052040368
 10
-1.907231206773711
 20
1.193719928577593
 10
-1.892320668503314
 20
1.20886930012155
  0
ARC
  5
208
330
1AC
100
AcDbEntity
  8
AM_4
100
AcDbCircle
 10
0.000000000000004
 20
-0.0000000000000001
 30
0.0
 40
2.250000000000004
100
AcDbArc
 50
147.9631275576017
 51
212.0368723114227
  0
LWPOLYLINE
  5
209
330
1AC
100
AcDbEntity
  8
AM_4
100
AcDbPolyline
 90
        3
 70
     0
 43
0.0
 10
-1.892320662147076
 20
-1.208869304278209
 10
-1.907231206773709
 20
-1.193719928577595
 10
-1.907340512878285
 20
-1.193546047680274
  0
ARC
  5
20A
330
1AC
100
AcDbEntity
  8
AM_4
100
AcDbCircle
 10
0.0000000000000009
 20
0.0000000000000004
 30
0.0
 40
2.193750000000001
100
AcDbArc
 50
143.8952583400864
 51
216.1047416599135
  0
LWPOLYLINE
  5
20B
330
1AC
100
AcDbEntity
  8
AM_4
100
AcDbPolyline
 90
        5
 70
     0
 43
0.0
 10
1.29269619462494
 20
1.772420833465405
 10
1.268951438993206
 20
1.804807240288826
 10
1.245754600102181
 20
1.83760257687713
 10
1.222760254268226
 20
1.871324404324138
 10
1.208869300121552
 20
1.892320668503312
  0
LWPOLYLINE
  5
20C
330
1AC
100
AcDbEntity
  8
AM_4
100
AcDbPolyline
 90
        5
 70
     0
 43
0.0
 10
-1.208869295964892
 20
1.892320674859549
 10
-1.222246283551986
 20
1.872092666411835
 10
-1.240638857051376
 20
1.844997331034513
 10
-1.260621182098466
 20
1.816448629283863
 10
-1.292696194624938
 20
1.772420833465406
  0
LWPOLYLINE
  5
20D
330
1AC
100
AcDbEntity
  8
AM_4
100
AcDbPolyline
 90
        3
 70
     0
 43
0.0
 10
1.193546043320182
 20
1.907340515606675
 10
1.193719928577609
 20
1.907231206773701
 10
1.208869300121552
 20
1.892320668503312
  0
ARC
  5
20E
330
1AC
100
AcDbEntity
  8
AM_4
100
AcDbCircle
 10
-0.0000000000000002
 20
-0.0000000000000009
 30
0.0
 40
2.250000000000001
100
AcDbArc
 50
57.96312781955267
 51
122.0368723114228
  0
LWPOLYLINE
  5
20F
330
1AC
100
AcDbEntity
  8
AM_4
100
AcDbPolyline
 90
        3
 70
     0
 43
0.0
 10
-1.208869295964892
 20
1.892320674859549
 10
-1.193719928577539
 20
1.907231206773744
 10
-1.193546047680277
 20
1.907340512878283
  0
ARC
  5
210
330
1AC
100
AcDbEntity
  8
AM_4
100
AcDbCircle
 10
0.0
 20
-0.0000000000000013
 30
0.0
 40
2.193750000000001
100
AcDbArc
 50
53.89525834008639
 51
126.1047416599136
  0
ENDBLK
  5
1AF
330
1AC
100
AcDbEntity
  8
0
100
AcDbBlockEnd
  0
ENDSEC
  0
SECTION
  2
ENTITIES
  0
INSERT
  5
6F
330
1F
100
AcDbEntity
  8
0
100
AcDbBlockReference
  2
1_069681_0
 10
0.0
 20
0.0
 30
0.0
  0
POINT
  5
212
330
1F
100
AcDbEntity
  8
ConnectionPoints
100
AcDbPoint
 10
-0.9483333133100833
 20
0.9483333133100834
 30
2.743416666666666
  0
POINT
  5
213
330
1F
100
AcDbEntity
  8
ConnectionPoints
100
AcDbPoint
 10
0.0
 20
0.0
 30
2.673416666666666
  0
POINT
  5
214
330
1F
100
AcDbEntity
  8
ConnectionPoints
100
AcDbPoint
 10
0.0
 20
0.0
 30
2.90625
  0
POINT
  5
215
330
1F
100
AcDbEntity
  8
ConnectionPoints
100
AcDbPoint
 10
0.0
 20
0.0
 30
2.872416666666667
  0
POINT
  5
216
330
1F
100
AcDbEntity
  8
ConnectionPoints
100
AcDbPoint
 10
-0.9483333133100833
 20
0.9483333133100834
 30
2.673416666666666
  0
POINT
  5
217
330
1F
100
AcDbEntity
  8
ConnectionPoints
100
AcDbPoint
 10
-0.9483333133100833
 20
0.9483333133100834
 30
2.80525
  0
POINT
  5
218
330
1F
100
AcDbEntity
  8
ConnectionPoints
100
AcDbPoint
 10
0.9483333133100833
 20
-0.9483333133100834
 30
2.673416666666666
  0
POINT
  5
219
330
1F
100
AcDbEntity
  8
ConnectionPoints
100
AcDbPoint
 10
0.9483333133100833
 20
-0.9483333133100834
 30
2.80525
  0
POINT
  5
21A
330
1F
100
AcDbEntity
  8
ConnectionPoints
100
AcDbPoint
 10
0.0
 20
0.0
 30
2.673416666666666
  0
POINT
  5
21B
330
1F
100
AcDbEntity
  8
ConnectionPoints
100
AcDbPoint
 10
0.0
 20
2.35
 30
1.2421875
  0
POINT
  5
21C
330
1F
100
AcDbEntity
  8
ConnectionPoints
100
AcDbPoint
 10
0.0
 20
2.35
 30
1.2421875
  0
POINT
  5
21D
330
1F
100
AcDbEntity
  8
ConnectionPoints
100
AcDbPoint
 10
0.0
 20
0.0
 30
2.90625
  0
POINT
  5
21E
330
1F
100
AcDbEntity
  8
ConnectionPoints
100
AcDbPoint
 10
0.0
 20
0.0
 30
3.15625
  0
ENDSEC
  0
SECTION
  2
OBJECTS
  0
DICTIONARY
  5
C
330
0
100
AcDbDictionary
281
     1
  3
ACAD_DETAILVIEWSTYLE
350
226
  3
ACAD_GROUP
350
D
  3
ACAD_LAYOUT
350
1A
  3
ACAD_MATERIAL
350
43
  3
ACAD_MLEADERSTYLE
350
6B
  3
ACAD_MLINESTYLE
350
17
  3
ACAD_PLOTSETTINGS
350
19
  3
ACAD_PLOTSTYLENAME
350
E
  3
ACAD_SCALELIST
350
47
  3
ACAD_SECTIONVIEWSTYLE
350
227
  3
ACAD_TABLESTYLE
350
69
  3
ACAD_VISUALSTYLE
350
2A
  3
ACDB_RECOMPOSE_DATA
350
223
  3
AcDbVariableDictionary
350
21F
  0
SUN
  5
6D
330
29
100
AcDbSun
 90
        1
290
     0
 63
     7
421
 16777215
 40
1.0
291
     1
 91
  2455826
 92
 54000000
292
     0
 70
     2
 71
   256
280
     1
  0
DICTIONARY
  5
226
102
{ACAD_REACTORS
330
C
102
}
330
C
100
AcDbDictionary
281
     1
  0
DICTIONARY
  5
D
102
{ACAD_REACTORS
330
C
102
}
330
C
100
AcDbDictionary
281
     1
  0
DICTIONARY
  5
1A
102
{ACAD_REACTORS
330
C
102
}
330
C
100
AcDbDictionary
281
     1
  3
Layout1
350
1E
  3
Layout2
350
26
  3
Model
350
22
  0
DICTIONARY
  5
43
102
{ACAD_REACTORS
330
C
102
}
330
C
100
AcDbDictionary
281
     1
  3
ByBlock
350
45
  3
ByLayer
350
44
  3
Global
350
46
  0
DICTIONARY
  5
6B
102
{ACAD_REACTORS
330
C
102
}
330
C
100
AcDbDictionary
281
     1
  3
Standard
350
6C
  0
DICTIONARY
  5
17
102
{ACAD_REACTORS
330
C
102
}
330
C
100
AcDbDictionary
281
     1
  3
Standard
350
18
  0
DICTIONARY
  5
19
102
{ACAD_REACTORS
330
C
102
}
330
C
100
AcDbDictionary
281
     1
  0
ACDBDICTIONARYWDFLT
  5
E
102
{ACAD_REACTORS
330
C
102
}
330
C
100
AcDbDictionary
281
     1
  3
Normal
350
F
100
AcDbDictionaryWithDefault
340
F
  0
DICTIONARY
  5
47
102
{ACAD_REACTORS
330
C
102
}
330
C
100
AcDbDictionary
281
     1
  3
A0
350
48
  3
A1
350
49
  3
A2
350
4A
  3
A3
350
4B
  3
A4
350
4C
  3
A5
350
4D
  3
A6
350
4E
  3
A7
350
4F
  3
A8
350
50
  3
A9
350
51
  3
B0
350
52
  3
B1
350
53
  3
B2
350
54
  3
B3
350
55
  3
B4
350
56
  3
B5
350
57
  3
B6
350
58
  3
B7
350
59
  3
B8
350
5A
  3
B9
350
5B
  3
C0
350
5C
  3
C1
350
5D
  3
C2
350
5E
  3
C3
350
5F
  3
C4
350
60
  3
C5
350
61
  3
C6
350
62
  3
C7
350
63
  3
C8
350
64
  3
C9
350
65
  3
D0
350
66
  3
D1
350
67
  3
D2
350
68
  0
DICTIONARY
  5
227
102
{ACAD_REACTORS
330
C
102
}
330
C
100
AcDbDictionary
281
     1
  0
DICTIONARY
  5
69
102
{ACAD_REACTORS
330
C
102
}
330
C
100
AcDbDictionary
281
     1
  3
Standard
350
6A
  0
DICTIONARY
  5
2A
102
{ACAD_REACTORS
330
C
102
}
330
C
100
AcDbDictionary
281
     1
  3
2dWireframe
350
2F
  3
Basic
350
32
  3
Brighten
350
36
  3
ColorChange
350
3A
  3
Conceptual
350
34
  3
Dim
350
35
  3
EdgeColorOff
350
3D
  3
Facepattern
350
39
  3
Flat
350
2B
  3
FlatWithEdges
350
2C
  3
Gouraud
350
2D
  3
GouraudWithEdges
350
2E
  3
Hidden
350
31
  3
JitterOff
350
3B
  3
Linepattern
350
38
  3
OverhangOff
350
3C
  3
Realistic
350
33
  3
Shaded
350
42
  3
Shaded with edges
350
41
  3
Shades of Gray
350
3E
  3
Sketchy
350
3F
  3
Thicken
350
37
  3
Wireframe
350
30
  3
X-Ray
350
40
  0
XRECORD
  5
223
102
{ACAD_REACTORS
330
C
102
}
330
C
100
AcDbXrecord
280
     1
 90
        1
330
6A
  0
DICTIONARY
  5
21F
102
{ACAD_REACTORS
330
C
102
}
330
C
100
AcDbDictionary
281
     1
  3
CANNOSCALE
350
220
  3
CMLEADERSTYLE
350
225
  3
CTABLESTYLE
350
224
  0
LAYOUT
  5
1E
102
{ACAD_REACTORS
330
1A
102
}
330
1A
100
AcDbPlotSettings
  1

  2
none_device
  4

  6

 40
0.0
 41
0.0
 42
0.0
 43
0.0
 44
0.0
 45
0.0
 46
0.0
 47
0.0
 48
0.0
 49
0.0
140
0.0
141
0.0
142
1.0
143
1.0
 70
   688
 72
     0
 73
     0
 74
     5
  7

 75
    16
 76
     0
 77
     2
 78
   300
147
1.0
148
0.0
149
0.0
100
AcDbLayout
  1
Layout1
 70
     1
 71
     1
 10
0.0
 20
0.0
 11
12.0
 21
9.0
 12
0.0
 22
0.0
 32
0.0
 14
1.000000000000000E+20
 24
1.000000000000000E+20
 34
1.000000000000000E+20
 15
-1.000000000000000E+20
 25
-1.000000000000000E+20
 35
-1.000000000000000E+20
146
0.0
 13
0.0
 23
0.0
 33
0.0
 16
1.0
 26
0.0
 36
0.0
 17
0.0
 27
1.0
 37
0.0
 76
     0
330
1B
  0
LAYOUT
  5
26
102
{ACAD_REACTORS
330
1A
102
}
330
1A
100
AcDbPlotSettings
  1

  2
none_device
  4

  6

 40
0.0
 41
0.0
 42
0.0
 43
0.0
 44
0.0
 45
0.0
 46
0.0
 47
0.0
 48
0.0
 49
0.0
140
0.0
141
0.0
142
1.0
143
1.0
 70
   688
 72
     0
 73
     0
 74
     5
  7

 75
    16
 76
     0
 77
     2
 78
   300
147
1.0
148
0.0
149
0.0
100
AcDbLayout
  1
Layout2
 70
     1
 71
     2
 10
0.0
 20
0.0
 11
0.0
 21
0.0
 12
0.0
 22
0.0
 32
0.0
 14
0.0
 24
0.0
 34
0.0
 15
0.0
 25
0.0
 35
0.0
146
0.0
 13
0.0
 23
0.0
 33
0.0
 16
1.0
 26
0.0
 36
0.0
 17
0.0
 27
1.0
 37
0.0
 76
     0
330
23
  0
LAYOUT
  5
22
102
{ACAD_REACTORS
330
1A
102
}
330
1A
100
AcDbPlotSettings
  1

  2
none_device
  4
Letter_(8.50_x_11.00_Inches)
  6

 40
6.35
 41
6.35
 42
6.35000508
 43
6.35000508
 44
215.9
 45
279.4
 46
0.0
 47
0.0
 48
0.0
 49
0.0
140
0.0
141
0.0
142
1.0
143
1.0
 70
  1712
 72
     0
 73
     0
 74
     0
  7

 75
     0
 76
     0
 77
     2
 78
   300
147
1.0
148
0.0
149
0.0
100
AcDbLayout
  1
Model
 70
     1
 71
     0
 10
0.0
 20
0.0
 11
12.0
 21
9.0
 12
0.0
 22
0.0
 32
0.0
 14
1.000000000000000E+20
 24
1.000000000000000E+20
 34
1.000000000000000E+20
 15
-1.000000000000000E+20
 25
-1.000000000000000E+20
 35
-1.000000000000000E+20
146
0.0
 13
0.0
 23
0.0
 33
0.0
 16
1.0
 26
0.0
 36
0.0
 17
0.0
 27
1.0
 37
0.0
 76
     0
330
1F
331
29
  0
MATERIAL
  5
45
102
{ACAD_REACTORS
330
43
102
}
330
43
100
AcDbMaterial
  1
ByBlock
 72
     1
 94
      127
  0
MATERIAL
  5
44
102
{ACAD_REACTORS
330
43
102
}
330
43
100
AcDbMaterial
  1
ByLayer
 72
     1
 94
      127
  0
MATERIAL
  5
46
102
{ACAD_REACTORS
330
43
102
}
330
43
100
AcDbMaterial
  1
Global
 72
     1
 94
      127
  0
MLEADERSTYLE
  5
6C
102
{ACAD_REACTORS
330
6B
102
}
330
6B
100
AcDbMLeaderStyle
179
     2
170
     2
171
     1
172
     0
 90
        2
 40
0.0
 41
0.0
173
     1
 91
-1056964608
340
14
 92
       -2
290
     1
 42
0.09
291
     1
 43
0.36
  3
Standard
341
0
 44
0.18
300

342
11
174
     1
178
     6
175
     1
176
     0
 93
-1056964608
 45
0.18
292
     0
297
     0
 46
0.18
343
0
 94
-1056964608
 47
1.0
 49
1.0
140
1.0
293
     1
141
0.0
294
     1
177
     0
142
1.0
295
     0
296
     0
143
0.125
271
     0
272
     9
273
     9
298
     0
  0
MLINESTYLE
  5
18
102
{ACAD_REACTORS
330
17
102
}
330
17
100
AcDbMlineStyle
  2
Standard
 70
     0
  3

 62
   256
 51
90.0
 52
90.0
 71
     2
 49
0.5
 62
   256
  6
BYLAYER
 49
-0.5
 62
   256
  6
BYLAYER
  0
ACDBPLACEHOLDER
  5
F
102
{ACAD_REACTORS
330
E
102
}
330
E
  0
SCALE
  5
48
102
{ACAD_REACTORS
330
47
102
}
330
47
100
AcDbScale
 70
     0
300
1:1
140
1.0
141
1.0
290
     1
  0
SCALE
  5
49
102
{ACAD_REACTORS
330
47
102
}
330
47
100
AcDbScale
 70
     0
300
1:2
140
1.0
141
2.0
290
     0
  0
SCALE
  5
4A
102
{ACAD_REACTORS
330
47
102
}
330
47
100
AcDbScale
 70
     0
300
1:4
140
1.0
141
4.0
290
     0
  0
SCALE
  5
4B
102
{ACAD_REACTORS
330
47
102
}
330
47
100
AcDbScale
 70
     0
300
1:5
140
1.0
141
5.0
290
     0
  0
SCALE
  5
4C
102
{ACAD_REACTORS
330
47
102
}
330
47
100
AcDbScale
 70
     0
300
1:8
140
1.0
141
8.0
290
     0
  0
SCALE
  5
4D
102
{ACAD_REACTORS
330
47
102
}
330
47
100
AcDbScale
 70
     0
300
1:10
140
1.0
141
10.0
290
     0
  0
SCALE
  5
4E
102
{ACAD_REACTORS
330
47
102
}
330
47
100
AcDbScale
 70
     0
300
1:16
140
1.0
141
16.0
290
     0
  0
SCALE
  5
4F
102
{ACAD_REACTORS
330
47
102
}
330
47
100
AcDbScale
 70
     0
300
1:20
140
1.0
141
20.0
290
     0
  0
SCALE
  5
50
102
{ACAD_REACTORS
330
47
102
}
330
47
100
AcDbScale
 70
     0
300
1:30
140
1.0
141
30.0
290
     0
  0
SCALE
  5
51
102
{ACAD_REACTORS
330
47
102
}
330
47
100
AcDbScale
 70
     0
300
1:40
140
1.0
141
40.0
290
     0
  0
SCALE
  5
52
102
{ACAD_REACTORS
330
47
102
}
330
47
100
AcDbScale
 70
     0
300
1:50
140
1.0
141
50.0
290
     0
  0
SCALE
  5
53
102
{ACAD_REACTORS
330
47
102
}
330
47
100
AcDbScale
 70
     0
300
1:100
140
1.0
141
100.0
290
     0
  0
SCALE
  5
54
102
{ACAD_REACTORS
330
47
102
}
330
47
100
AcDbScale
 70
     0
300
2:1
140
2.0
141
1.0
290
     0
  0
SCALE
  5
55
102
{ACAD_REACTORS
330
47
102
}
330
47
100
AcDbScale
 70
     0
300
4:1
140
4.0
141
1.0
290
     0
  0
SCALE
  5
56
102
{ACAD_REACTORS
330
47
102
}
330
47
100
AcDbScale
 70
     0
300
8:1
140
8.0
141
1.0
290
     0
  0
SCALE
  5
57
102
{ACAD_REACTORS
330
47
102
}
330
47
100
AcDbScale
 70
     0
300
10:1
140
10.0
141
1.0
290
     0
  0
SCALE
  5
58
102
{ACAD_REACTORS
330
47
102
}
330
47
100
AcDbScale
 70
     0
300
100:1
140
100.0
141
1.0
290
     0
  0
SCALE
  5
59
102
{ACAD_REACTORS
330
47
102
}
330
47
100
AcDbScale
 70
     0
300
1/128" = 1'-0"
140
0.0078125
141
12.0
290
     0
  0
SCALE
  5
5A
102
{ACAD_REACTORS
330
47
102
}
330
47
100
AcDbScale
 70
     0
300
1/64" = 1'-0"
140
0.015625
141
12.0
290
     0
  0
SCALE
  5
5B
102
{ACAD_REACTORS
330
47
102
}
330
47
100
AcDbScale
 70
     0
300
1/32" = 1'-0"
140
0.03125
141
12.0
290
     0
  0
SCALE
  5
5C
102
{ACAD_REACTORS
330
47
102
}
330
47
100
AcDbScale
 70
     0
300
1/16" = 1'-0"
140
0.0625
141
12.0
290
     0
  0
SCALE
  5
5D
102
{ACAD_REACTORS
330
47
102
}
330
47
100
AcDbScale
 70
     0
300
3/32" = 1'-0"
140
0.09375
141
12.0
290
     0
  0
SCALE
  5
5E
102
{ACAD_REACTORS
330
47
102
}
330
47
100
AcDbScale
 70
     0
300
1/8" = 1'-0"
140
0.125
141
12.0
290
     0
  0
SCALE
  5
5F
102
{ACAD_REACTORS
330
47
102
}
330
47
100
AcDbScale
 70
     0
300
3/16" = 1'-0"
140
0.1875
141
12.0
290
     0
  0
SCALE
  5
60
102
{ACAD_REACTORS
330
47
102
}
330
47
100
AcDbScale
 70
     0
300
1/4" = 1'-0"
140
0.25
141
12.0
290
     0
  0
SCALE
  5
61
102
{ACAD_REACTORS
330
47
102
}
330
47
100
AcDbScale
 70
     0
300
3/8" = 1'-0"
140
0.375
141
12.0
290
     0
  0
SCALE
  5
62
102
{ACAD_REACTORS
330
47
102
}
330
47
100
AcDbScale
 70
     0
300
1/2" = 1'-0"
140
0.5
141
12.0
290
     0
  0
SCALE
  5
63
102
{ACAD_REACTORS
330
47
102
}
330
47
100
AcDbScale
 70
     0
300
3/4" = 1'-0"
140
0.75
141
12.0
290
     0
  0
SCALE
  5
64
102
{ACAD_REACTORS
330
47
102
}
330
47
100
AcDbScale
 70
     0
300
1" = 1'-0"
140
1.0
141
12.0
290
     0
  0
SCALE
  5
65
102
{ACAD_REACTORS
330
47
102
}
330
47
100
AcDbScale
 70
     0
300
1-1/2" = 1'-0"
140
1.5
141
12.0
290
     0
  0
SCALE
  5
66
102
{ACAD_REACTORS
330
47
102
}
330
47
100
AcDbScale
 70
     0
300
3" = 1'-0"
140
3.0
141
12.0
290
     0
  0
SCALE
  5
67
102
{ACAD_REACTORS
330
47
102
}
330
47
100
AcDbScale
 70
     0
300
6" = 1'-0"
140
6.0
141
12.0
290
     0
  0
SCALE
  5
68
102
{ACAD_REACTORS
330
47
102
}
330
47
100
AcDbScale
 70
     0
300
1'-0" = 1'-0"
140
12.0
141
12.0
290
     0
  0
TABLESTYLE
  5
6A
102
{ACAD_REACTORS
330
69
102
}
102
{ACAD_XDICTIONARY
360
221
102
}
330
69
100
AcDbTableStyle
  3
Standard
 70
     0
 71
     0
 40
0.06
 41
0.06
280
     0
281
     0
  7
Standard
140
0.18
170
     2
 62
     0
 63
   257
283
     0
 90
        4
 91
        0
  1

274
    -2
284
     1
 64
     0
275
    -2
285
     1
 65
     0
276
    -2
286
     1
 66
     0
277
    -2
287
     1
 67
     0
278
    -2
288
     1
 68
     0
279
    -2
289
     1
 69
     0
  7
Standard
140
0.25
170
     5
 62
     0
 63
   257
283
     0
 90
        4
 91
        0
  1

274
    -2
284
     1
 64
     0
275
    -2
285
     1
 65
     0
276
    -2
286
     1
 66
     0
277
    -2
287
     1
 67
     0
278
    -2
288
     1
 68
     0
279
    -2
289
     1
 69
     0
  7
Standard
140
0.18
170
     5
 62
     0
 63
   257
283
     0
 90
        4
 91
        0
  1

274
    -2
284
     1
 64
     0
275
    -2
285
     1
 65
     0
276
    -2
286
     1
 66
     0
277
    -2
287
     1
 67
     0
278
    -2
288
     1
 68
     0
279
    -2
289
     1
 69
     0
  0
VISUALSTYLE
  5
2F
102
{ACAD_REACTORS
330
2A
102
}
330
2A
100
AcDbVisualStyle
  2
2dWireframe
 70
     4
177
     3
291
     0
 70
    58
 90
        0
176
     1
 90
        2
176
     1
 90
        0
176
     1
 90
        0
176
     1
 40
0.6
176
     1
 40
30.0
176
     1
 62
     7
420
 16777215
176
     1
 90
        1
176
     1
 90
        4
176
     1
 62
     7
176
     1
 62
   257
176
     1
 90
        1
176
     1
 90
        1
176
     1
 40
1.0
176
     1
 90
        0
176
     1
 62
   257
176
     1
 40
1.0
176
     1
 90
        1
176
     1
 90
        6
176
     1
 90
        2
176
     1
 62
     7
176
     1
 90
        5
176
     1
 90
        0
176
     1
 90
        0
176
     1
290
     0
176
     1
 90
        1
176
     1
 40
0.0
176
     1
 90
        0
176
     1
290
     1
176
     1
290
     1
176
     1
290
     0
176
     1
290
     0
176
     1
290
     0
176
     1
290
     0
176
     1
290
     0
176
     1
290
     0
176
     1
290
     0
176
     1
 90
       50
176
     1
 40
0.0
176
     1
 40
1.0
176
     1
 90
        0
176
     1
 62
    18
420
        0
176
     1
 90
       50
176
     1
 90
        3
176
     1
 62
     5
420
      255
176
     1
290
     0
176
     1
 90
       50
176
     1
 90
       50
176
     1
 90
       50
176
     1
290
     0
176
     1
 90
       50
176
     1
 62
   256
176
     0
 40
1.0
176
     0
 90
        2
176
     1
  1
strokes_ogs.tif
176
     1
290
     0
176
     1
 40
1.0
176
     1
 40
1.0
176
     1
  0
VISUALSTYLE
  5
32
102
{ACAD_REACTORS
330
2A
102
}
330
2A
100
AcDbVisualStyle
  2
Basic
 70
     7
177
     3
291
     1
 70
    58
 90
        1
176
     1
 90
        0
176
     1
 90
        1
176
     1
 90
        0
176
     1
 40
0.6
176
     1
 40
30.0
176
     1
 62
     7
420
 16777215
176
     1
 90
        0
176
     1
 90
        4
176
     1
 62
     7
176
     1
 62
   257
176
     1
 90
        1
176
     1
 90
        1
176
     1
 40
1.0
176
     1
 90
        8
176
     1
 62
     7
176
     1
 40
1.0
176
     1
 90
        1
176
     1
 90
        6
176
     1
 90
        2
176
     1
 62
     7
176
     1
 90
        5
176
     1
 90
        0
176
     1
 90
        0
176
     1
290
     0
176
     1
 90
        1
176
     1
 40
0.0
176
     1
 90
        0
176
     1
290
     0
176
     1
290
     1
176
     1
290
     1
176
     1
290
     0
176
     1
290
     0
176
     1
290
     0
176
     1
290
     0
176
     1
290
     0
176
     1
290
     0
176
     1
 90
       50
176
     1
 40
0.0
176
     1
 40
1.0
176
     1
 90
        0
176
     1
 62
    18
420
        0
176
     1
 90
       50
176
     1
 90
        3
176
     1
 62
     5
420
      255
176
     1
290
     0
176
     1
 90
       50
176
     1
 90
       50
176
     1
 90
       50
176
     1
290
     0
176
     1
 90
       50
176
     1
 62
   256
176
     0
 40
1.0
176
     0
 90
        2
176
     1
  1
strokes_ogs.tif
176
     1
290
     0
176
     1
 40
1.0
176
     1
 40
1.0
176
     1
  0
VISUALSTYLE
  5
36
102
{ACAD_REACTORS
330
2A
102
}
330
2A
100
AcDbVisualStyle
  2
Brighten
 70
    12
177
     3
291
     1
 70
    58
 90
        2
176
     1
 90
        2
176
     1
 90
        0
176
     1
 90
        0
176
     1
 40
0.6
176
     1
 40
30.0
176
     1
 62
     7
420
 16777215
176
     1
 90
        1
176
     1
 90
        4
176
     1
 62
     7
176
     1
 62
   257
176
     1
 90
        1
176
     1
 90
        1
176
     1
 40
1.0
176
     1
 90
        8
176
     1
 62
     7
176
     1
 40
1.0
176
     1
 90
        1
176
     1
 90
        6
176
     1
 90
        2
176
     1
 62
     7
176
     1
 90
        5
176
     1
 90
        0
176
     1
 90
        0
176
     1
290
     0
176
     1
 90
        1
176
     1
 40
50.0
176
     1
 90
        0
176
     1
290
     0
176
     1
290
     1
176
     1
290
     1
176
     1
290
     0
176
     1
290
     0
176
     1
290
     0
176
     1
290
     0
176
     1
290
     0
176
     1
290
     0
176
     1
 90
       50
176
     1
 40
0.0
176
     1
 40
1.0
176
     1
 90
        0
176
     1
 62
    18
420
        0
176
     1
 90
       50
176
     1
 90
        3
176
     1
 62
     5
420
      255
176
     1
290
     0
176
     1
 90
       50
176
     1
 90
       50
176
     1
 90
       50
176
     1
290
     0
176
     1
 90
       50
176
     1
 62
   256
176
     0
 40
1.0
176
     0
 90
        2
176
     1
  1
strokes_ogs.tif
176
     1
290
     0
176
     1
 40
1.0
176
     1
 40
1.0
176
     1
  0
VISUALSTYLE
  5
3A
102
{ACAD_REACTORS
330
2A
102
}
330
2A
100
AcDbVisualStyle
  2
ColorChange
 70
    16
177
     3
291
     1
 70
    58
 90
        2
176
     1
 90
        2
176
     1
 90
        3
176
     1
 90
        0
176
     1
 40
0.6
176
     1
 40
30.0
176
     1
 62
     8
420
  8421504
176
     1
 90
        1
176
     1
 90
        4
176
     1
 62
     7
176
     1
 62
   257
176
     1
 90
        1
176
     1
 90
        1
176
     1
 40
1.0
176
     1
 90
        8
176
     1
 62
     8
420
  8421504
176
     1
 40
1.0
176
     1
 90
        1
176
     1
 90
        6
176
     1
 90
        2
176
     1
 62
     7
176
     1
 90
        5
176
     1
 90
        0
176
     1
 90
        0
176
     1
290
     0
176
     1
 90
        1
176
     1
 40
0.0
176
     1
 90
        0
176
     1
290
     0
176
     1
290
     1
176
     1
290
     1
176
     1
290
     0
176
     1
290
     0
176
     1
290
     0
176
     1
290
     0
176
     1
290
     0
176
     1
290
     0
176
     1
 90
       50
176
     1
 40
0.0
176
     1
 40
1.0
176
     1
 90
        0
176
     1
 62
    18
420
        0
176
     1
 90
       50
176
     1
 90
        3
176
     1
 62
     5
420
      255
176
     1
290
     0
176
     1
 90
       50
176
     1
 90
       50
176
     1
 90
       50
176
     1
290
     0
176
     1
 90
       50
176
     1
 62
   256
176
     0
 40
1.0
176
     0
 90
        2
176
     1
  1
strokes_ogs.tif
176
     1
290
     0
176
     1
 40
1.0
176
     1
 40
1.0
176
     1
  0
VISUALSTYLE
  5
34
102
{ACAD_REACTORS
330
2A
102
}
330
2A
100
AcDbVisualStyle
  2
Conceptual
 70
     9
177
     3
291
     0
 70
    58
 90
        3
176
     1
 90
        2
176
     1
 90
        0
176
     1
 90
        0
176
     1
 40
0.6
176
     1
 40
30.0
176
     1
 62
     7
420
 16777215
176
     1
 90
        2
176
     1
 90
        2
176
     1
 62
     7
176
     1
 62
   257
176
     1
 90
        1
176
     1
 90
        1
176
     1
 40
179.0
176
     1
 90
        8
176
     1
 62
     7
176
     1
 40
1.0
176
     1
 90
        1
176
     1
 90
        6
176
     1
 90
        2
176
     1
 62
     7
176
     1
 90
        3
176
     1
 90
        0
176
     1
 90
        0
176
     1
290
     0
176
     1
 90
        1
176
     1
 40
0.0
176
     1
 90
        0
176
     1
290
     0
176
     1
290
     1
176
     1
290
     1
176
     1
290
     0
176
     1
290
     0
176
     1
290
     0
176
     1
290
     0
176
     1
290
     0
176
     1
290
     0
176
     1
 90
       50
176
     1
 40
0.0
176
     1
 40
1.0
176
     1
 90
        0
176
     1
 62
    18
420
        0
176
     1
 90
       50
176
     1
 90
        3
176
     1
 62
     5
420
      255
176
     1
290
     0
176
     1
 90
       50
176
     1
 90
       50
176
     1
 90
       50
176
     1
290
     0
176
     1
 90
       50
176
     1
 62
   256
176
     0
 40
1.0
176
     0
 90
        2
176
     1
  1
strokes_ogs.tif
176
     1
290
     0
176
     1
 40
1.0
176
     1
 40
1.0
176
     1
  0
VISUALSTYLE
  5
35
102
{ACAD_REACTORS
330
2A
102
}
330
2A
100
AcDbVisualStyle
  2
Dim
 70
    11
177
     3
291
     1
 70
    58
 90
        2
176
     1
 90
        2
176
     1
 90
        0
176
     1
 90
        0
176
     1
 40
0.6
176
     1
 40
30.0
176
     1
 62
     7
420
 16777215
176
     1
 90
        1
176
     1
 90
        4
176
     1
 62
     7
176
     1
 62
   257
176
     1
 90
        1
176
     1
 90
        1
176
     1
 40
1.0
176
     1
 90
        8
176
     1
 62
     7
176
     1
 40
1.0
176
     1
 90
        1
176
     1
 90
        6
176
     1
 90
        2
176
     1
 62
     7
176
     1
 90
        5
176
     1
 90
        0
176
     1
 90
        0
176
     1
290
     0
176
     1
 90
        1
176
     1
 40
-50.0
176
     1
 90
        0
176
     1
290
     0
176
     1
290
     1
176
     1
290
     1
176
     1
290
     0
176
     1
290
     0
176
     1
290
     0
176
     1
290
     0
176
     1
290
     0
176
     1
290
     0
176
     1
 90
       50
176
     1
 40
0.0
176
     1
 40
1.0
176
     1
 90
        0
176
     1
 62
    18
420
        0
176
     1
 90
       50
176
     1
 90
        3
176
     1
 62
     5
420
      255
176
     1
290
     0
176
     1
 90
       50
176
     1
 90
       50
176
     1
 90
       50
176
     1
290
     0
176
     1
 90
       50
176
     1
 62
   256
176
     0
 40
1.0
176
     0
 90
        2
176
     1
  1
strokes_ogs.tif
176
     1
290
     0
176
     1
 40
1.0
176
     1
 40
1.0
176
     1
  0
VISUALSTYLE
  5
3D
102
{ACAD_REACTORS
330
2A
102
}
330
2A
100
AcDbVisualStyle
  2
EdgeColorOff
 70
    22
177
     3
291
     1
 70
    58
 90
        2
176
     0
 90
        2
176
     0
 90
        0
176
     0
 90
        0
176
     0
 40
0.6
176
     0
 40
30.0
176
     0
 62
     7
420
 16777215
176
     0
 90
        1
176
     0
 90
        4
176
     0
 62
     7
176
     0
 62
   257
176
     0
 90
        1
176
     0
 90
        1
176
     0
 40
1.0
176
     0
 90
        8
176
     2
 62
     7
176
     0
 40
1.0
176
     0
 90
        1
176
     0
 90
        6
176
     0
 90
        2
176
     0
 62
     7
176
     0
 90
        5
176
     0
 90
        0
176
     0
 90
        0
176
     0
290
     0
176
     0
 90
        1
176
     0
 40
0.0
176
     0
 90
        0
176
     0
290
     0
176
     0
290
     1
176
     0
290
     1
176
     0
290
     0
176
     0
290
     0
176
     0
290
     0
176
     0
290
     0
176
     0
290
     0
176
     0
290
     0
176
     0
 90
       50
176
     0
 40
0.0
176
     0
 40
1.0
176
     0
 90
        0
176
     0
 62
    18
420
        0
176
     0
 90
       50
176
     0
 90
        3
176
     0
 62
     5
420
      255
176
     0
290
     0
176
     0
 90
       50
176
     0
 90
       50
176
     0
 90
       50
176
     0
290
     0
176
     0
 90
       50
176
     0
 62
   256
176
     0
 40
1.0
176
     0
 90
        2
176
     0
  1
strokes_ogs.tif
176
     0
290
     0
176
     0
 40
1.0
176
     0
 40
1.0
176
     0
  0
VISUALSTYLE
  5
39
102
{ACAD_REACTORS
330
2A
102
}
330
2A
100
AcDbVisualStyle
  2
Facepattern
 70
    15
177
     3
291
     1
 70
    58
 90
        2
176
     1
 90
        2
176
     1
 90
        0
176
     1
 90
        0
176
     1
 40
0.6
176
     1
 40
30.0
176
     1
 62
     7
420
 16777215
176
     1
 90
        1
176
     1
 90
        4
176
     1
 62
     7
176
     1
 62
   257
176
     1
 90
        1
176
     1
 90
        1
176
     1
 40
1.0
176
     1
 90
        8
176
     1
 62
     7
176
     1
 40
1.0
176
     1
 90
        1
176
     1
 90
        6
176
     1
 90
        2
176
     1
 62
     7
176
     1
 90
        5
176
     1
 90
        0
176
     1
 90
        0
176
     1
290
     0
176
     1
 90
        1
176
     1
 40
0.0
176
     1
 90
        0
176
     1
290
     0
176
     1
290
     1
176
     1
290
     1
176
     1
290
     0
176
     1
290
     0
176
     1
290
     0
176
     1
290
     0
176
     1
290
     0
176
     1
290
     0
176
     1
 90
       50
176
     1
 40
0.0
176
     1
 40
1.0
176
     1
 90
        0
176
     1
 62
    18
420
        0
176
     1
 90
       50
176
     1
 90
        3
176
     1
 62
     5
420
      255
176
     1
290
     0
176
     1
 90
       50
176
     1
 90
       50
176
     1
 90
       50
176
     1
290
     0
176
     1
 90
       50
176
     1
 62
   256
176
     0
 40
1.0
176
     0
 90
        2
176
     1
  1
strokes_ogs.tif
176
     1
290
     0
176
     1
 40
1.0
176
     1
 40
1.0
176
     1
  0
VISUALSTYLE
  5
2B
102
{ACAD_REACTORS
330
2A
102
}
330
2A
100
AcDbVisualStyle
  2
Flat
 70
     0
177
     3
291
     1
 70
    58
 90
        2
176
     1
 90
        1
176
     1
 90
        1
176
     1
 90
        2
176
     1
 40
0.6
176
     1
 40
30.0
176
     1
 62
     7
420
 16777215
176
     1
 90
        0
176
     1
 90
        0
176
     1
 62
     7
176
     1
 62
   257
176
     1
 90
        1
176
     1
 90
        1
176
     1
 40
1.0
176
     1
 90
        8
176
     1
 62
     7
176
     1
 40
1.0
176
     1
 90
        1
176
     1
 90
        6
176
     1
 90
        2
176
     1
 62
     7
176
     1
 90
        5
176
     1
 90
        0
176
     1
 90
        0
176
     1
290
     0
176
     1
 90
       13
176
     1
 40
0.0
176
     1
 90
        0
176
     1
290
     0
176
     1
290
     1
176
     1
290
     1
176
     1
290
     0
176
     1
290
     0
176
     1
290
     0
176
     1
290
     0
176
     1
290
     0
176
     1
290
     0
176
     1
 90
       50
176
     1
 40
0.0
176
     1
 40
1.0
176
     1
 90
        0
176
     1
 62
    18
420
        0
176
     1
 90
       50
176
     1
 90
        3
176
     1
 62
     5
420
      255
176
     1
290
     0
176
     1
 90
       50
176
     1
 90
       50
176
     1
 90
       50
176
     1
290
     0
176
     1
 90
       50
176
     1
 62
   256
176
     0
 40
1.0
176
     0
 90
        2
176
     1
  1
strokes_ogs.tif
176
     1
290
     0
176
     1
 40
1.0
176
     1
 40
1.0
176
     1
  0
VISUALSTYLE
  5
2C
102
{ACAD_REACTORS
330
2A
102
}
330
2A
100
AcDbVisualStyle
  2
FlatWithEdges
 70
     1
177
     3
291
     1
 70
    58
 90
        2
176
     1
 90
        1
176
     1
 90
        1
176
     1
 90
        2
176
     1
 40
0.6
176
     1
 40
30.0
176
     1
 62
     7
420
 16777215
176
     1
 90
        1
176
     1
 90
        0
176
     1
 62
     7
176
     1
 62
   257
176
     1
 90
        1
176
     1
 90
        1
176
     1
 40
1.0
176
     1
 90
        0
176
     1
 62
   257
176
     1
 40
1.0
176
     1
 90
        1
176
     1
 90
        6
176
     1
 90
        2
176
     1
 62
     7
176
     1
 90
        5
176
     1
 90
        0
176
     1
 90
        0
176
     1
290
     0
176
     1
 90
       13
176
     1
 40
0.0
176
     1
 90
        0
176
     1
290
     0
176
     1
290
     1
176
     1
290
     1
176
     1
290
     0
176
     1
290
     0
176
     1
290
     0
176
     1
290
     0
176
     1
290
     0
176
     1
290
     0
176
     1
 90
       50
176
     1
 40
0.0
176
     1
 40
1.0
176
     1
 90
        0
176
     1
 62
    18
420
        0
176
     1
 90
       50
176
     1
 90
        3
176
     1
 62
     5
420
      255
176
     1
290
     0
176
     1
 90
       50
176
     1
 90
       50
176
     1
 90
       50
176
     1
290
     0
176
     1
 90
       50
176
     1
 62
   256
176
     0
 40
1.0
176
     0
 90
        2
176
     1
  1
strokes_ogs.tif
176
     1
290
     0
176
     1
 40
1.0
176
     1
 40
1.0
176
     1
  0
VISUALSTYLE
  5
2D
102
{ACAD_REACTORS
330
2A
102
}
330
2A
100
AcDbVisualStyle
  2
Gouraud
 70
     2
177
     3
291
     1
 70
    58
 90
        2
176
     1
 90
        2
176
     1
 90
        1
176
     1
 90
        2
176
     1
 40
0.6
176
     1
 40
30.0
176
     1
 62
     7
420
 16777215
176
     1
 90
        0
176
     1
 90
        0
176
     1
 62
     7
176
     1
 62
   257
176
     1
 90
        1
176
     1
 90
        1
176
     1
 40
1.0
176
     1
 90
        0
176
     1
 62
     7
176
     1
 40
1.0
176
     1
 90
        1
176
     1
 90
        6
176
     1
 90
        2
176
     1
 62
     7
176
     1
 90
        5
176
     1
 90
        0
176
     1
 90
        0
176
     1
290
     0
176
     1
 90
       13
176
     1
 40
0.0
176
     1
 90
        0
176
     1
290
     0
176
     1
290
     1
176
     1
290
     1
176
     1
290
     0
176
     1
290
     0
176
     1
290
     0
176
     1
290
     0
176
     1
290
     0
176
     1
290
     0
176
     1
 90
       50
176
     1
 40
0.0
176
     1
 40
1.0
176
     1
 90
        0
176
     1
 62
    18
420
        0
176
     1
 90
       50
176
     1
 90
        3
176
     1
 62
     5
420
      255
176
     1
290
     0
176
     1
 90
       50
176
     1
 90
       50
176
     1
 90
       50
176
     1
290
     0
176
     1
 90
       50
176
     1
 62
   256
176
     0
 40
1.0
176
     0
 90
        2
176
     1
  1
strokes_ogs.tif
176
     1
290
     0
176
     1
 40
1.0
176
     1
 40
1.0
176
     1
  0
VISUALSTYLE
  5
2E
102
{ACAD_REACTORS
330
2A
102
}
330
2A
100
AcDbVisualStyle
  2
GouraudWithEdges
 70
     3
177
     3
291
     1
 70
    58
 90
        2
176
     1
 90
        2
176
     1
 90
        1
176
     1
 90
        2
176
     1
 40
0.6
176
     1
 40
30.0
176
     1
 62
     7
420
 16777215
176
     1
 90
        1
176
     1
 90
        0
176
     1
 62
     7
176
     1
 62
   257
176
     1
 90
        1
176
     1
 90
        1
176
     1
 40
1.0
176
     1
 90
        0
176
     1
 62
   257
176
     1
 40
1.0
176
     1
 90
        1
176
     1
 90
        6
176
     1
 90
        2
176
     1
 62
     7
176
     1
 90
        5
176
     1
 90
        0
176
     1
 90
        0
176
     1
290
     0
176
     1
 90
       13
176
     1
 40
0.0
176
     1
 90
        0
176
     1
290
     0
176
     1
290
     1
176
     1
290
     1
176
     1
290
     0
176
     1
290
     0
176
     1
290
     0
176
     1
290
     0
176
     1
290
     0
176
     1
290
     0
176
     1
 90
       50
176
     1
 40
0.0
176
     1
 40
1.0
176
     1
 90
        0
176
     1
 62
    18
420
        0
176
     1
 90
       50
176
     1
 90
        3
176
     1
 62
     5
420
      255
176
     1
290
     0
176
     1
 90
       50
176
     1
 90
       50
176
     1
 90
       50
176
     1
290
     0
176
     1
 90
       50
176
     1
 62
   256
176
     0
 40
1.0
176
     0
 90
        2
176
     1
  1
strokes_ogs.tif
176
     1
290
     0
176
     1
 40
1.0
176
     1
 40
1.0
176
     1
  0
VISUALSTYLE
  5
31
102
{ACAD_REACTORS
330
2A
102
}
330
2A
100
AcDbVisualStyle
  2
Hidden
 70
     6
177
     3
291
     0
 70
    58
 90
        1
176
     1
 90
        2
176
     1
 90
        2
176
     1
 90
        0
176
     1
 40
0.6
176
     1
 40
30.0
176
     1
 62
     7
420
 16777215
176
     1
 90
        2
176
     1
 90
        2
176
     1
 62
     7
176
     1
 62
   257
176
     1
 90
        2
176
     1
 90
        1
176
     1
 40
40.0
176
     1
 90
        0
176
     1
 62
   257
176
     1
 40
1.0
176
     1
 90
        1
176
     1
 90
        6
176
     1
 90
        2
176
     1
 62
     7
176
     1
 90
        3
176
     1
 90
        0
176
     1
 90
        0
176
     1
290
     0
176
     1
 90
        1
176
     1
 40
0.0
176
     1
 90
        0
176
     1
290
     0
176
     1
290
     1
176
     1
290
     1
176
     1
290
     0
176
     1
290
     0
176
     1
290
     0
176
     1
290
     0
176
     1
290
     0
176
     1
290
     0
176
     1
 90
       50
176
     1
 40
0.0
176
     1
 40
1.0
176
     1
 90
        0
176
     1
 62
    18
420
        0
176
     1
 90
       50
176
     1
 90
        3
176
     1
 62
     5
420
      255
176
     1
290
     0
176
     1
 90
       50
176
     1
 90
       50
176
     1
 90
       50
176
     1
290
     0
176
     1
 90
       50
176
     1
 62
   256
176
     0
 40
1.0
176
     0
 90
        2
176
     1
  1
strokes_ogs.tif
176
     1
290
     0
176
     1
 40
1.0
176
     1
 40
1.0
176
     1
  0
VISUALSTYLE
  5
3B
102
{ACAD_REACTORS
330
2A
102
}
330
2A
100
AcDbVisualStyle
  2
JitterOff
 70
    20
177
     3
291
     1
 70
    58
 90
        2
176
     0
 90
        2
176
     0
 90
        0
176
     0
 90
        0
176
     0
 40
0.6
176
     0
 40
30.0
176
     0
 62
     7
420
 16777215
176
     0
 90
        1
176
     0
 90
        4
176
     0
 62
     7
176
     0
 62
   257
176
     0
 90
        1
176
     0
 90
        1
176
     0
 40
1.0
176
     0
 90
       10
176
     2
 62
     7
176
     0
 40
1.0
176
     0
 90
        1
176
     0
 90
        6
176
     0
 90
        2
176
     0
 62
     7
176
     0
 90
        5
176
     0
 90
        0
176
     0
 90
        0
176
     0
290
     0
176
     0
 90
        1
176
     0
 40
0.0
176
     0
 90
        0
176
     0
290
     0
176
     0
290
     1
176
     0
290
     1
176
     0
290
     0
176
     0
290
     0
176
     0
290
     0
176
     0
290
     0
176
     0
290
     0
176
     0
290
     0
176
     0
 90
       50
176
     0
 40
0.0
176
     0
 40
1.0
176
     0
 90
        0
176
     0
 62
    18
420
        0
176
     0
 90
       50
176
     0
 90
        3
176
     0
 62
     5
420
      255
176
     0
290
     0
176
     0
 90
       50
176
     0
 90
       50
176
     0
 90
       50
176
     0
290
     0
176
     0
 90
       50
176
     0
 62
   256
176
     0
 40
1.0
176
     0
 90
        2
176
     0
  1
strokes_ogs.tif
176
     0
290
     0
176
     0
 40
1.0
176
     0
 40
1.0
176
     0
  0
VISUALSTYLE
  5
38
102
{ACAD_REACTORS
330
2A
102
}
330
2A
100
AcDbVisualStyle
  2
Linepattern
 70
    14
177
     3
291
     1
 70
    58
 90
        2
176
     1
 90
        2
176
     1
 90
        0
176
     1
 90
        0
176
     1
 40
0.6
176
     1
 40
30.0
176
     1
 62
     7
420
 16777215
176
     1
 90
        1
176
     1
 90
        4
176
     1
 62
     7
176
     1
 62
   257
176
     1
 90
        7
176
     1
 90
        7
176
     1
 40
1.0
176
     1
 90
        8
176
     1
 62
     7
176
     1
 40
1.0
176
     1
 90
        1
176
     1
 90
        6
176
     1
 90
        2
176
     1
 62
     7
176
     1
 90
        5
176
     1
 90
        0
176
     1
 90
        0
176
     1
290
     0
176
     1
 90
        1
176
     1
 40
0.0
176
     1
 90
        0
176
     1
290
     0
176
     1
290
     1
176
     1
290
     1
176
     1
290
     0
176
     1
290
     0
176
     1
290
     0
176
     1
290
     0
176
     1
290
     0
176
     1
290
     0
176
     1
 90
       50
176
     1
 40
0.0
176
     1
 40
1.0
176
     1
 90
        0
176
     1
 62
    18
420
        0
176
     1
 90
       50
176
     1
 90
        3
176
     1
 62
     5
420
      255
176
     1
290
     0
176
     1
 90
       50
176
     1
 90
       50
176
     1
 90
       50
176
     1
290
     0
176
     1
 90
       50
176
     1
 62
   256
176
     0
 40
1.0
176
     0
 90
        2
176
     1
  1
strokes_ogs.tif
176
     1
290
     0
176
     1
 40
1.0
176
     1
 40
1.0
176
     1
  0
VISUALSTYLE
  5
3C
102
{ACAD_REACTORS
330
2A
102
}
330
2A
100
AcDbVisualStyle
  2
OverhangOff
 70
    21
177
     3
291
     1
 70
    58
 90
        2
176
     0
 90
        2
176
     0
 90
        0
176
     0
 90
        0
176
     0
 40
0.6
176
     0
 40
30.0
176
     0
 62
     7
420
 16777215
176
     0
 90
        1
176
     0
 90
        4
176
     0
 62
     7
176
     0
 62
   257
176
     0
 90
        1
176
     0
 90
        1
176
     0
 40
1.0
176
     0
 90
        9
176
     2
 62
     7
176
     0
 40
1.0
176
     0
 90
        1
176
     0
 90
        6
176
     0
 90
        2
176
     0
 62
     7
176
     0
 90
        5
176
     0
 90
        0
176
     0
 90
        0
176
     0
290
     0
176
     0
 90
        1
176
     0
 40
0.0
176
     0
 90
        0
176
     0
290
     0
176
     0
290
     1
176
     0
290
     1
176
     0
290
     0
176
     0
290
     0
176
     0
290
     0
176
     0
290
     0
176
     0
290
     0
176
     0
290
     0
176
     0
 90
       50
176
     0
 40
0.0
176
     0
 40
1.0
176
     0
 90
        0
176
     0
 62
    18
420
        0
176
     0
 90
       50
176
     0
 90
        3
176
     0
 62
     5
420
      255
176
     0
290
     0
176
     0
 90
       50
176
     0
 90
       50
176
     0
 90
       50
176
     0
290
     0
176
     0
 90
       50
176
     0
 62
   256
176
     0
 40
1.0
176
     0
 90
        2
176
     0
  1
strokes_ogs.tif
176
     0
290
     0
176
     0
 40
1.0
176
     0
 40
1.0
176
     0
  0
VISUALSTYLE
  5
33
102
{ACAD_REACTORS
330
2A
102
}
330
2A
100
AcDbVisualStyle
  2
Realistic
 70
     8
177
     3
291
     0
 70
    58
 90
        2
176
     1
 90
        3
176
     1
 90
        0
176
     1
 90
        2
176
     1
 40
0.6
176
     1
 40
30.0
176
     1
 62
     7
420
 16777215
176
     1
 90
        0
176
     1
 90
        0
176
     1
 62
     7
176
     1
 62
   257
176
     1
 90
        1
176
     1
 90
        1
176
     1
 40
1.0
176
     1
 90
        8
176
     1
 62
   257
176
     1
 40
1.0
176
     1
 90
        1
176
     1
 90
        6
176
     1
 90
        2
176
     1
 62
     7
176
     1
 90
        3
176
     1
 90
        0
176
     1
 90
        0
176
     1
290
     0
176
     1
 90
       13
176
     1
 40
0.0
176
     1
 90
        0
176
     1
290
     0
176
     1
290
     1
176
     1
290
     1
176
     1
290
     0
176
     1
290
     0
176
     1
290
     0
176
     1
290
     0
176
     1
290
     0
176
     1
290
     0
176
     1
 90
       50
176
     1
 40
0.0
176
     1
 40
1.0
176
     1
 90
        0
176
     1
 62
    18
420
        0
176
     1
 90
       50
176
     1
 90
        3
176
     1
 62
     5
420
      255
176
     1
290
     0
176
     1
 90
       50
176
     1
 90
       50
176
     1
 90
       50
176
     1
290
     0
176
     1
 90
       50
176
     1
 62
   256
176
     0
 40
1.0
176
     0
 90
        2
176
     1
  1
strokes_ogs.tif
176
     1
290
     0
176
     1
 40
1.0
176
     1
 40
1.0
176
     1
  0
VISUALSTYLE
  5
42
102
{ACAD_REACTORS
330
2A
102
}
330
2A
100
AcDbVisualStyle
  2
Shaded
 70
    27
177
     3
291
     0
 70
    58
 90
        2
176
     1
 90
        2
176
     1
 90
        1
176
     1
 90
        2
176
     1
 40
0.6
176
     1
 40
30.0
176
     1
 62
     7
420
 16777215
176
     1
 90
        0
176
     1
 90
        4
176
     1
 62
     7
176
     1
 62
   257
176
     1
 90
        1
176
     1
 90
        1
176
     1
 40
1.0
176
     1
 90
        8
176
     1
 62
   257
176
     1
 40
1.0
176
     1
 90
        1
176
     1
 90
        6
176
     1
 90
        2
176
     1
 62
     8
420
  7895160
176
     1
 90
        3
176
     1
 90
        0
176
     1
 90
        0
176
     1
290
     0
176
     1
 90
        5
176
     1
 40
0.0
176
     1
 90
        0
176
     1
290
     0
176
     1
290
     1
176
     1
290
     1
176
     1
290
     0
176
     1
290
     0
176
     1
290
     0
176
     1
290
     0
176
     1
290
     0
176
     1
290
     0
176
     1
 90
       50
176
     1
 40
0.0
176
     1
 40
1.0
176
     1
 90
        0
176
     1
 62
    18
420
        0
176
     1
 90
       50
176
     1
 90
        3
176
     1
 62
     5
420
      255
176
     1
290
     0
176
     1
 90
       50
176
     1
 90
       50
176
     1
 90
       50
176
     1
290
     0
176
     1
 90
       50
176
     1
 62
   256
176
     0
 40
1.0
176
     0
 90
        2
176
     1
  1
strokes_ogs.tif
176
     1
290
     0
176
     1
 40
1.0
176
     1
 40
1.0
176
     1
  0
VISUALSTYLE
  5
41
102
{ACAD_REACTORS
330
2A
102
}
330
2A
100
AcDbVisualStyle
  2
Shaded with edges
 70
    26
177
     3
291
     0
 70
    58
 90
        2
176
     1
 90
        2
176
     1
 90
        1
176
     1
 90
        2
176
     1
 40
0.6
176
     1
 40
30.0
176
     1
 62
     7
420
 16777215
176
     1
 90
        1
176
     1
 90
       10
176
     1
 62
     7
176
     1
 62
   257
176
     1
 90
        2
176
     1
 90
        1
176
     1
 40
1.0
176
     1
 90
        8
176
     1
 62
   257
176
     1
 40
1.0
176
     1
 90
        1
176
     1
 90
        6
176
     1
 90
        2
176
     1
 62
     7
176
     1
 90
        3
176
     1
 90
        0
176
     1
 90
        0
176
     1
290
     0
176
     1
 90
        5
176
     1
 40
0.0
176
     1
 90
        0
176
     1
290
     0
176
     1
290
     1
176
     1
290
     1
176
     1
290
     0
176
     1
290
     0
176
     1
290
     0
176
     1
290
     0
176
     1
290
     0
176
     1
290
     0
176
     1
 90
       50
176
     1
 40
0.0
176
     1
 40
1.0
176
     1
 90
        0
176
     1
 62
    18
420
        0
176
     1
 90
       50
176
     1
 90
        3
176
     1
 62
     5
420
      255
176
     1
290
     0
176
     1
 90
       50
176
     1
 90
       50
176
     1
 90
       50
176
     1
290
     0
176
     1
 90
       50
176
     1
 62
   256
176
     0
 40
1.0
176
     0
 90
        2
176
     1
  1
strokes_ogs.tif
176
     1
290
     0
176
     1
 40
1.0
176
     1
 40
1.0
176
     1
  0
VISUALSTYLE
  5
3E
102
{ACAD_REACTORS
330
2A
102
}
330
2A
100
AcDbVisualStyle
  2
Shades of Gray
 70
    23
177
     3
291
     0
 70
    58
 90
        2
176
     1
 90
        2
176
     1
 90
        3
176
     1
 90
        0
176
     1
 40
0.6
176
     1
 40
30.0
176
     1
 62
     7
420
 16777215
176
     1
 90
        2
176
     1
 90
        2
176
     1
 62
     7
176
     1
 62
     7
176
     1
 90
        1
176
     1
 90
        1
176
     1
 40
40.0
176
     1
 90
        8
176
     1
 62
     7
176
     1
 40
1.0
176
     1
 90
        1
176
     1
 90
        6
176
     1
 90
        2
176
     1
 62
     7
176
     1
 90
        3
176
     1
 90
        0
176
     1
 90
        0
176
     1
290
     0
176
     1
 90
        1
176
     1
 40
0.0
176
     1
 90
        0
176
     1
290
     0
176
     1
290
     1
176
     1
290
     1
176
     1
290
     0
176
     1
290
     0
176
     1
290
     0
176
     1
290
     0
176
     1
290
     0
176
     1
290
     0
176
     1
 90
       50
176
     1
 40
0.0
176
     1
 40
1.0
176
     1
 90
        0
176
     1
 62
    18
420
        0
176
     1
 90
       50
176
     1
 90
        3
176
     1
 62
     5
420
      255
176
     1
290
     0
176
     1
 90
       50
176
     1
 90
       50
176
     1
 90
       50
176
     1
290
     0
176
     1
 90
       50
176
     1
 62
   256
176
     0
 40
1.0
176
     0
 90
        2
176
     1
  1
strokes_ogs.tif
176
     1
290
     0
176
     1
 40
1.0
176
     1
 40
1.0
176
     1
  0
VISUALSTYLE
  5
3F
102
{ACAD_REACTORS
330
2A
102
}
330
2A
100
AcDbVisualStyle
  2
Sketchy
 70
    24
177
     3
291
     0
 70
    58
 90
        1
176
     1
 90
        2
176
     1
 90
        2
176
     1
 90
        0
176
     1
 40
0.6
176
     1
 40
30.0
176
     1
 62
     7
420
 16777215
176
     1
 90
        2
176
     1
 90
        2
176
     1
 62
     7
176
     1
 62
     7
176
     1
 90
        1
176
     1
 90
        1
176
     1
 40
40.0
176
     1
 90
       11
176
     1
 62
     7
176
     1
 40
1.0
176
     1
 90
        1
176
     1
 90
        6
176
     1
 90
        2
176
     1
 62
     7
176
     1
 90
        6
176
     1
 90
        0
176
     1
 90
        0
176
     1
290
     0
176
     1
 90
        1
176
     1
 40
0.0
176
     1
 90
        0
176
     1
290
     0
176
     1
290
     1
176
     1
290
     1
176
     1
290
     0
176
     1
290
     0
176
     1
290
     0
176
     1
290
     0
176
     1
290
     0
176
     1
290
     0
176
     1
 90
       50
176
     1
 40
0.0
176
     1
 40
1.0
176
     1
 90
        0
176
     1
 62
    18
420
        0
176
     1
 90
       50
176
     1
 90
        3
176
     1
 62
     5
420
      255
176
     1
290
     0
176
     1
 90
       50
176
     1
 90
       50
176
     1
 90
       50
176
     1
290
     0
176
     1
 90
       50
176
     1
 62
   256
176
     0
 40
1.0
176
     0
 90
        2
176
     1
  1
strokes_ogs.tif
176
     1
290
     0
176
     1
 40
1.0
176
     1
 40
1.0
176
     1
  0
VISUALSTYLE
  5
37
102
{ACAD_REACTORS
330
2A
102
}
330
2A
100
AcDbVisualStyle
  2
Thicken
 70
    13
177
     3
291
     1
 70
    58
 90
        2
176
     1
 90
        2
176
     1
 90
        0
176
     1
 90
        0
176
     1
 40
0.6
176
     1
 40
30.0
176
     1
 62
     7
420
 16777215
176
     1
 90
        1
176
     1
 90
        4
176
     1
 62
     7
176
     1
 62
   257
176
     1
 90
        1
176
     1
 90
        1
176
     1
 40
1.0
176
     1
 90
       12
176
     1
 62
     7
176
     1
 40
1.0
176
     1
 90
        1
176
     1
 90
        6
176
     1
 90
        2
176
     1
 62
     7
176
     1
 90
        5
176
     1
 90
        0
176
     1
 90
        0
176
     1
290
     0
176
     1
 90
        1
176
     1
 40
0.0
176
     1
 90
        0
176
     1
290
     0
176
     1
290
     1
176
     1
290
     1
176
     1
290
     0
176
     1
290
     0
176
     1
290
     0
176
     1
290
     0
176
     1
290
     0
176
     1
290
     0
176
     1
 90
       50
176
     1
 40
0.0
176
     1
 40
1.0
176
     1
 90
        0
176
     1
 62
    18
420
        0
176
     1
 90
       50
176
     1
 90
        3
176
     1
 62
     5
420
      255
176
     1
290
     0
176
     1
 90
       50
176
     1
 90
       50
176
     1
 90
       50
176
     1
290
     0
176
     1
 90
       50
176
     1
 62
   256
176
     0
 40
1.0
176
     0
 90
        2
176
     1
  1
strokes_ogs.tif
176
     1
290
     0
176
     1
 40
1.0
176
     1
 40
1.0
176
     1
  0
VISUALSTYLE
  5
30
102
{ACAD_REACTORS
330
2A
102
}
330
2A
100
AcDbVisualStyle
  2
Wireframe
 70
     5
177
     3
291
     0
 70
    58
 90
        0
176
     1
 90
        2
176
     1
 90
        0
176
     1
 90
        0
176
     1
 40
0.6
176
     1
 40
30.0
176
     1
 62
     7
420
 16777215
176
     1
 90
        1
176
     1
 90
        4
176
     1
 62
     7
176
     1
 62
   257
176
     1
 90
        1
176
     1
 90
        1
176
     1
 40
1.0
176
     1
 90
        0
176
     1
 62
   257
176
     1
 40
1.0
176
     1
 90
        1
176
     1
 90
        6
176
     1
 90
        2
176
     1
 62
     7
176
     1
 90
        3
176
     1
 90
        0
176
     1
 90
        0
176
     1
290
     0
176
     1
 90
        1
176
     1
 40
0.0
176
     1
 90
        0
176
     1
290
     0
176
     1
290
     1
176
     1
290
     1
176
     1
290
     0
176
     1
290
     0
176
     1
290
     0
176
     1
290
     0
176
     1
290
     0
176
     1
290
     0
176
     1
 90
       50
176
     1
 40
0.0
176
     1
 40
1.0
176
     1
 90
        0
176
     1
 62
    18
420
        0
176
     1
 90
       50
176
     1
 90
        3
176
     1
 62
     5
420
      255
176
     1
290
     0
176
     1
 90
       50
176
     1
 90
       50
176
     1
 90
       50
176
     1
290
     0
176
     1
 90
       50
176
     1
 62
   256
176
     0
 40
1.0
176
     0
 90
        2
176
     1
  1
strokes_ogs.tif
176
     1
290
     0
176
     1
 40
1.0
176
     1
 40
1.0
176
     1
  0
VISUALSTYLE
  5
40
102
{ACAD_REACTORS
330
2A
102
}
330
2A
100
AcDbVisualStyle
  2
X-Ray
 70
    25
177
     3
291
     0
 70
    58
 90
        2
176
     1
 90
        2
176
     1
 90
        1
176
     1
 90
        1
176
     1
 40
0.5
176
     1
 40
30.0
176
     1
 62
     7
420
 16777215
176
     1
 90
        1
176
     1
 90
        0
176
     1
 62
     7
176
     1
 62
   257
176
     1
 90
        1
176
     1
 90
        1
176
     1
 40
1.0
176
     1
 90
        8
176
     1
 62
     7
176
     1
 40
1.0
176
     1
 90
        1
176
     1
 90
        6
176
     1
 90
        2
176
     1
 62
     7
176
     1
 90
        3
176
     1
 90
        0
176
     1
 90
        0
176
     1
290
     0
176
     1
 90
       13
176
     1
 40
0.0
176
     1
 90
        0
176
     1
290
     0
176
     1
290
     1
176
     1
290
     1
176
     1
290
     0
176
     1
290
     0
176
     1
290
     0
176
     1
290
     0
176
     1
290
     0
176
     1
290
     0
176
     1
 90
       50
176
     1
 40
0.0
176
     1
 40
1.0
176
     1
 90
        0
176
     1
 62
    18
420
        0
176
     1
 90
       50
176
     1
 90
        3
176
     1
 62
     5
420
      255
176
     1
290
     0
176
     1
 90
       50
176
     1
 90
       50
176
     1
 90
       50
176
     1
290
     0
176
     1
 90
       50
176
     1
 62
   256
176
     0
 40
1.0
176
     0
 90
        2
176
     1
  1
strokes_ogs.tif
176
     1
290
     0
176
     1
 40
1.0
176
     1
 40
1.0
176
     1
  0
DICTIONARYVAR
  5
220
102
{ACAD_REACTORS
330
21F
102
}
330
21F
100
DictionaryVariables
280
     0
  1
1:1
  0
DICTIONARYVAR
  5
225
102
{ACAD_REACTORS
330
21F
102
}
330
21F
100
DictionaryVariables
280
     0
  1
Standard
  0
DICTIONARYVAR
  5
224
102
{ACAD_REACTORS
330
21F
102
}
330
21F
100
DictionaryVariables
280
     0
  1
Standard
  0
DICTIONARY
  5
221
330
6A
100
AcDbDictionary
280
     1
281
     1
  3
ACAD_ROUNDTRIP_2008_TABLESTYLE_CELLSTYLEMAP
360
222
  0
CELLSTYLEMAP
  5
222
102
{ACAD_REACTORS
330
221
102
}
330
221
100
AcDbCellStyleMap
 90
        3
300
CELLSTYLE
  1
TABLEFORMAT_BEGIN
 90
        5
170
     1
 91
        0
 92
    32768
 62
   257
 93
        1
300
CONTENTFORMAT
  1
CONTENTFORMAT_BEGIN
 90
        0
 91
        0
 92
        4
 93
        0
300

 40
0.0
140
1.0
 94
        5
 62
     0
340
11
144
0.25
309
CONTENTFORMAT_END
171
     1
301
MARGIN
  1
CELLMARGIN_BEGIN
 40
0.06
 40
0.06
 40
0.06
 40
0.06
 40
0.06
 40
0.06
309
CELLMARGIN_END
 94
        6
 95
        1
302
GRIDFORMAT
  1
GRIDFORMAT_BEGIN
 90
        0
 91
        1
 62
     0
 92
       -2
340
14
 93
        0
 40
0.045
309
GRIDFORMAT_END
 95
        2
302
GRIDFORMAT
  1
GRIDFORMAT_BEGIN
 90
        0
 91
        1
 62
     0
 92
       -2
340
14
 93
        0
 40
0.045
309
GRIDFORMAT_END
 95
        4
302
GRIDFORMAT
  1
GRIDFORMAT_BEGIN
 90
        0
 91
        1
 62
     0
 92
       -2
340
14
 93
        0
 40
0.045
309
GRIDFORMAT_END
 95
        8
302
GRIDFORMAT
  1
GRIDFORMAT_BEGIN
 90
        0
 91
        1
 62
     0
 92
       -2
340
14
 93
        0
 40
0.045
309
GRIDFORMAT_END
 95
       16
302
GRIDFORMAT
  1
GRIDFORMAT_BEGIN
 90
        0
 91
        1
 62
     0
 92
       -2
340
14
 93
        0
 40
0.045
309
GRIDFORMAT_END
 95
       32
302
GRIDFORMAT
  1
GRIDFORMAT_BEGIN
 90
        0
 91
        1
 62
     0
 92
       -2
340
14
 93
        0
 40
0.045
309
GRIDFORMAT_END
309
TABLEFORMAT_END
  1
CELLSTYLE_BEGIN
 90
        1
 91
        1
300
_TITLE
309
CELLSTYLE_END
300
CELLSTYLE
  1
TABLEFORMAT_BEGIN
 90
        5
170
     1
 91
        0
 92
        0
 62
   257
 93
        1
300
CONTENTFORMAT
  1
CONTENTFORMAT_BEGIN
 90
        0
 91
        0
 92
        4
 93
        0
300

 40
0.0
140
1.0
 94
        5
 62
     0
340
11
144
0.18
309
CONTENTFORMAT_END
171
     1
301
MARGIN
  1
CELLMARGIN_BEGIN
 40
0.06
 40
0.06
 40
0.06
 40
0.06
 40
0.06
 40
0.06
309
CELLMARGIN_END
 94
        6
 95
        1
302
GRIDFORMAT
  1
GRIDFORMAT_BEGIN
 90
        0
 91
        1
 62
     0
 92
       -2
340
14
 93
        0
 40
0.045
309
GRIDFORMAT_END
 95
        2
302
GRIDFORMAT
  1
GRIDFORMAT_BEGIN
 90
        0
 91
        1
 62
     0
 92
       -2
340
14
 93
        0
 40
0.045
309
GRIDFORMAT_END
 95
        4
302
GRIDFORMAT
  1
GRIDFORMAT_BEGIN
 90
        0
 91
        1
 62
     0
 92
       -2
340
14
 93
        0
 40
0.045
309
GRIDFORMAT_END
 95
        8
302
GRIDFORMAT
  1
GRIDFORMAT_BEGIN
 90
        0
 91
        1
 62
     0
 92
       -2
340
14
 93
        0
 40
0.045
309
GRIDFORMAT_END
 95
       16
302
GRIDFORMAT
  1
GRIDFORMAT_BEGIN
 90
        0
 91
        1
 62
     0
 92
       -2
340
14
 93
        0
 40
0.045
309
GRIDFORMAT_END
 95
       32
302
GRIDFORMAT
  1
GRIDFORMAT_BEGIN
 90
        0
 91
        1
 62
     0
 92
       -2
340
14
 93
        0
 40
0.045
309
GRIDFORMAT_END
309
TABLEFORMAT_END
  1
CELLSTYLE_BEGIN
 90
        2
 91
        1
300
_HEADER
309
CELLSTYLE_END
300
CELLSTYLE
  1
TABLEFORMAT_BEGIN
 90
        5
170
     1
 91
        0
 92
        0
 62
   257
 93
        1
300
CONTENTFORMAT
  1
CONTENTFORMAT_BEGIN
 90
        0
 91
        0
 92
        4
 93
        0
300

 40
0.0
140
1.0
 94
        2
 62
     0
340
11
144
0.18
309
CONTENTFORMAT_END
171
     1
301
MARGIN
  1
CELLMARGIN_BEGIN
 40
0.06
 40
0.06
 40
0.06
 40
0.06
 40
0.06
 40
0.06
309
CELLMARGIN_END
 94
        6
 95
        1
302
GRIDFORMAT
  1
GRIDFORMAT_BEGIN
 90
        0
 91
        1
 62
     0
 92
       -2
340
14
 93
        0
 40
0.045
309
GRIDFORMAT_END
 95
        2
302
GRIDFORMAT
  1
GRIDFORMAT_BEGIN
 90
        0
 91
        1
 62
     0
 92
       -2
340
14
 93
        0
 40
0.045
309
GRIDFORMAT_END
 95
        4
302
GRIDFORMAT
  1
GRIDFORMAT_BEGIN
 90
        0
 91
        1
 62
     0
 92
       -2
340
14
 93
        0
 40
0.045
309
GRIDFORMAT_END
 95
        8
302
GRIDFORMAT
  1
GRIDFORMAT_BEGIN
 90
        0
 91
        1
 62
     0
 92
       -2
340
14
 93
        0
 40
0.045
309
GRIDFORMAT_END
 95
       16
302
GRIDFORMAT
  1
GRIDFORMAT_BEGIN
 90
        0
 91
        1
 62
     0
 92
       -2
340
14
 93
        0
 40
0.045
309
GRIDFORMAT_END
 95
       32
302
GRIDFORMAT
  1
GRIDFORMAT_BEGIN
 90
        0
 91
        1
 62
     0
 92
       -2
340
14
 93
        0
 40
0.045
309
GRIDFORMAT_END
309
TABLEFORMAT_END
  1
CELLSTYLE_BEGIN
 90
        3
 91
        2
300
_DATA
309
CELLSTYLE_END
  0
ENDSEC
  0
EOF