0
SECTION
  2
HEADER
  9
$ACADVER
  1
AC1027
  9
$ACADMAINTVER
 70
     8
  9
$DWGCODEPAGE
  3
ANSI_1252
  9
$REQUIREDVERSIONS
160
                 0
  9
$COMMENTS
  1
File was created by Cadenas
  9
$CUSTOMPROPERTYTAG
  1
NN
  9
$CUSTOMPROPERTY
  1
Imperial - IP Flange - Round Labyrinth Seal
  9
$CUSTOMPROPERTYTAG
  1
NT
  9
$CUSTOMPROPERTY
  1
Imperial 3 & 4 Bolt Round Flange Bearings
  9
$CUSTOMPROPERTYTAG
  1
NB
  9
$CUSTOMPROPERTY
  1
069669
  9
$CUSTOMPROPERTYTAG
  1
NBSYN
  9
$CUSTOMPROPERTY
  1
$PN.
  9
$CUSTOMPROPERTYTAG
  1
LINA
  9
$CUSTOMPROPERTY
  1
069669
  9
$CUSTOMPROPERTYTAG
  1
SS
  9
$CUSTOMPROPERTY
  1
2-3/4
  9
$CUSTOMPROPERTYTAG
  1
PN
  9
$CUSTOMPROPERTY
  1
069669
  9
$CUSTOMPROPERTYTAG
  1
DESCRIPTION
  9
$CUSTOMPROPERTY
  1
F4R-IP-212L
  9
$CUSTOMPROPERTYTAG
  1
EF
  9
$CUSTOMPROPERTY
  1
Non-Expansion Type
  9
$CUSTOMPROPERTYTAG
  1
ST
  9
$CUSTOMPROPERTY
  1
Labyrinth Seal
  9
$CUSTOMPROPERTYTAG
  1
A
  9
$CUSTOMPROPERTY
  1
3-1/2
  9
$CUSTOMPROPERTYTAG
  1
B
  9
$CUSTOMPROPERTY
  1
9-1/4
  9
$CUSTOMPROPERTYTAG
  1
C
  9
$CUSTOMPROPERTY
  1
3-13/16
  9
$CUSTOMPROPERTYTAG
  1
D
  9
$CUSTOMPROPERTY
  1
5-9/16
  9
$CUSTOMPROPERTYTAG
  1
DD
  9
$CUSTOMPROPERTY
  1
7-7/8
  9
$CUSTOMPROPERTYTAG
  1
E
  9
$CUSTOMPROPERTY
  1
2-25/64
  9
$CUSTOMPROPERTYTAG
  1
F
  9
$CUSTOMPROPERTY
  1
3/4
  9
$CUSTOMPROPERTYTAG
  1
H
  9
$CUSTOMPROPERTY
  1
3/4
  9
$CUSTOMPROPERTYTAG
  1
J
  9
$CUSTOMPROPERTY
  1
6-1/4
  9
$CUSTOMPROPERTYTAG
  1
L
  9
$CUSTOMPROPERTY
  1
4-9/32
  9
$CUSTOMPROPERTYTAG
  1
P
  9
$CUSTOMPROPERTY
  1
5/16
  9
$CUSTOMPROPERTYTAG
  1
X
  9
$CUSTOMPROPERTY
  1
1/4
  9
$CUSTOMPROPERTYTAG
  1
Y
  9
$CUSTOMPROPERTY
  1
0.025
  9
$CUSTOMPROPERTYTAG
  1
Z
  9
$CUSTOMPROPERTY
  1
3-15/32
  9
$CUSTOMPROPERTYTAG
  1
COMPANY
  9
$CUSTOMPROPERTY
  1
baldor
  9
$INSBASE
 10
0.0
 20
0.0
 30
0.0
  9
$EXTMIN
 10
1.000000000000000E+20
 20
1.000000000000000E+20
 30
1.000000000000000E+20
  9
$EXTMAX
 10
-1.000000000000000E+20
 20
-1.000000000000000E+20
 30
-1.000000000000000E+20
  9
$LIMMIN
 10
0.0
 20
0.0
  9
$LIMMAX
 10
12.0
 20
9.0
  9
$ORTHOMODE
 70
     0
  9
$REGENMODE
 70
     1
  9
$FILLMODE
 70
     1
  9
$QTEXTMODE
 70
     0
  9
$MIRRTEXT
 70
     1
  9
$LTSCALE
 40
1.0
  9
$ATTMODE
 70
     1
  9
$TEXTSIZE
 40
0.2
  9
$TRACEWID
 40
0.05
  9
$TEXTSTYLE
  7
Standard
  9
$CLAYER
  8
0
  9
$CELTYPE
  6
ByLayer
  9
$CECOLOR
 62
   256
  9
$CELTSCALE
 40
1.0
  9
$DISPSILH
 70
     0
  9
$DIMSCALE
 40
1.0
  9
$DIMASZ
 40
0.18
  9
$DIMEXO
 40
0.0625
  9
$DIMDLI
 40
0.38
  9
$DIMRND
 40
0.0
  9
$DIMDLE
 40
0.0
  9
$DIMEXE
 40
0.18
  9
$DIMTP
 40
0.0
  9
$DIMTM
 40
0.0
  9
$DIMTXT
 40
0.18
  9
$DIMCEN
 40
0.09
  9
$DIMTSZ
 40
0.0
  9
$DIMTOL
 70
     0
  9
$DIMLIM
 70
     0
  9
$DIMTIH
 70
     1
  9
$DIMTOH
 70
     1
  9
$DIMSE1
 70
     0
  9
$DIMSE2
 70
     0
  9
$DIMTAD
 70
     0
  9
$DIMZIN
 70
     0
  9
$DIMBLK
  1

  9
$DIMASO
 70
     1
  9
$DIMSHO
 70
     1
  9
$DIMPOST
  1

  9
$DIMAPOST
  1

  9
$DIMALT
 70
     0
  9
$DIMALTD
 70
     2
  9
$DIMALTF
 40
25.4
  9
$DIMLFAC
 40
1.0
  9
$DIMTOFL
 70
     0
  9
$DIMTVP
 40
0.0
  9
$DIMTIX
 70
     0
  9
$DIMSOXD
 70
     0
  9
$DIMSAH
 70
     0
  9
$DIMBLK1
  1

  9
$DIMBLK2
  1

  9
$DIMSTYLE
  2
Standard
  9
$DIMCLRD
 70
     0
  9
$DIMCLRE
 70
     0
  9
$DIMCLRT
 70
     0
  9
$DIMTFAC
 40
1.0
  9
$DIMGAP
 40
0.09
  9
$DIMJUST
 70
     0
  9
$DIMSD1
 70
     0
  9
$DIMSD2
 70
     0
  9
$DIMTOLJ
 70
     1
  9
$DIMTZIN
 70
     0
  9
$DIMALTZ
 70
     0
  9
$DIMALTTZ
 70
     0
  9
$DIMUPT
 70
     0
  9
$DIMDEC
 70
     4
  9
$DIMTDEC
 70
     4
  9
$DIMALTU
 70
     2
  9
$DIMALTTD
 70
     2
  9
$DIMTXSTY
  7
Standard
  9
$DIMAUNIT
 70
     0
  9
$DIMADEC
 70
     0
  9
$DIMALTRND
 40
0.0
  9
$DIMAZIN
 70
     0
  9
$DIMDSEP
 70
    46
  9
$DIMATFIT
 70
     3
  9
$DIMFRAC
 70
     0
  9
$DIMLDRBLK
  1

  9
$DIMLUNIT
 70
     2
  9
$DIMLWD
 70
    -2
  9
$DIMLWE
 70
    -2
  9
$DIMTMOVE
 70
     0
  9
$DIMFXL
 40
1.0
  9
$DIMFXLON
 70
     0
  9
$DIMJOGANG
 40
0.7853981633974483
  9
$DIMTFILL
 70
     0
  9
$DIMTFILLCLR
 70
     0
  9
$DIMARCSYM
 70
     0
  9
$DIMLTYPE
  6

  9
$DIMLTEX1
  6

  9
$DIMLTEX2
  6

  9
$DIMTXTDIRECTION
 70
     0
  9
$LUNITS
 70
     2
  9
$LUPREC
 70
     4
  9
$SKETCHINC
 40
0.1
  9
$FILLETRAD
 40
0.5
  9
$AUNITS
 70
     0
  9
$AUPREC
 70
     0
  9
$MENU
  1
.
  9
$ELEVATION
 40
0.0
  9
$PELEVATION
 40
0.0
  9
$THICKNESS
 40
0.0
  9
$LIMCHECK
 70
     0
  9
$CHAMFERA
 40
0.0
  9
$CHAMFERB
 40
0.0
  9
$CHAMFERC
 40
0.0
  9
$CHAMFERD
 40
0.0
  9
$SKPOLY
 70
     0
  9
$TDCREATE
 40
2458168.990795359
  9
$TDUCREATE
 40
2458168.949128692
  9
$TDUPDATE
 40
2458168.990795359
  9
$TDUUPDATE
 40
2458168.949128692
  9
$TDINDWG
 40
0.0000000116
  9
$TDUSRTIMER
 40
0.0000000116
  9
$USRTIMER
 70
     1
  9
$ANGBASE
 50
0.0
  9
$ANGDIR
 70
     0
  9
$PDMODE
 70
     0
  9
$PDSIZE
 40
0.0
  9
$PLINEWID
 40
0.0
  9
$SPLFRAME
 70
     0
  9
$SPLINETYPE
 70
     6
  9
$SPLINESEGS
 70
     8
  9
$HANDSEED
  5
22E
  9
$SURFTAB1
 70
     6
  9
$SURFTAB2
 70
     6
  9
$SURFTYPE
 70
     6
  9
$SURFU
 70
     6
  9
$SURFV
 70
     6
  9
$UCSBASE
  2

  9
$UCSNAME
  2

  9
$UCSORG
 10
0.0
 20
0.0
 30
0.0
  9
$UCSXDIR
 10
1.0
 20
0.0
 30
0.0
  9
$UCSYDIR
 10
0.0
 20
1.0
 30
0.0
  9
$UCSORTHOREF
  2

  9
$UCSORTHOVIEW
 70
     0
  9
$UCSORGTOP
 10
0.0
 20
0.0
 30
0.0
  9
$UCSORGBOTTOM
 10
0.0
 20
0.0
 30
0.0
  9
$UCSORGLEFT
 10
0.0
 20
0.0
 30
0.0
  9
$UCSORGRIGHT
 10
0.0
 20
0.0
 30
0.0
  9
$UCSORGFRONT
 10
0.0
 20
0.0
 30
0.0
  9
$UCSORGBACK
 10
0.0
 20
0.0
 30
0.0
  9
$PUCSBASE
  2

  9
$PUCSNAME
  2

  9
$PUCSORG
 10
0.0
 20
0.0
 30
0.0
  9
$PUCSXDIR
 10
1.0
 20
0.0
 30
0.0
  9
$PUCSYDIR
 10
0.0
 20
1.0
 30
0.0
  9
$PUCSORTHOREF
  2

  9
$PUCSORTHOVIEW
 70
     0
  9
$PUCSORGTOP
 10
0.0
 20
0.0
 30
0.0
  9
$PUCSORGBOTTOM
 10
0.0
 20
0.0
 30
0.0
  9
$PUCSORGLEFT
 10
0.0
 20
0.0
 30
0.0
  9
$PUCSORGRIGHT
 10
0.0
 20
0.0
 30
0.0
  9
$PUCSORGFRONT
 10
0.0
 20
0.0
 30
0.0
  9
$PUCSORGBACK
 10
0.0
 20
0.0
 30
0.0
  9
$USERI1
 70
     0
  9
$USERI2
 70
     0
  9
$USERI3
 70
     0
  9
$USERI4
 70
     0
  9
$USERI5
 70
     0
  9
$USERR1
 40
0.0
  9
$USERR2
 40
0.0
  9
$USERR3
 40
0.0
  9
$USERR4
 40
0.0
  9
$USERR5
 40
0.0
  9
$WORLDVIEW
 70
     1
  9
$SHADEDGE
 70
     3
  9
$SHADEDIF
 70
    70
  9
$TILEMODE
 70
     1
  9
$MAXACTVP
 70
    64
  9
$PINSBASE
 10
0.0
 20
0.0
 30
0.0
  9
$PLIMCHECK
 70
     0
  9
$PEXTMIN
 10
1.000000000000000E+20
 20
1.000000000000000E+20
 30
1.000000000000000E+20
  9
$PEXTMAX
 10
-1.000000000000000E+20
 20
-1.000000000000000E+20
 30
-1.000000000000000E+20
  9
$PLIMMIN
 10
0.0
 20
0.0
  9
$PLIMMAX
 10
12.0
 20
9.0
  9
$UNITMODE
 70
     0
  9
$VISRETAIN
 70
     1
  9
$PLINEGEN
 70
     0
  9
$PSLTSCALE
 70
     1
  9
$TREEDEPTH
 70
  3020
  9
$CMLSTYLE
  2
Standard
  9
$CMLJUST
 70
     0
  9
$CMLSCALE
 40
1.0
  9
$PROXYGRAPHICS
 70
     1
  9
$MEASUREMENT
 70
     0
  9
$CELWEIGHT
370
    -1
  9
$ENDCAPS
280
     0
  9
$JOINSTYLE
280
     0
  9
$LWDISPLAY
290
     0
  9
$INSUNITS
 70
     1
  9
$HYPERLINKBASE
  1

  9
$STYLESHEET
  1

  9
$XEDIT
290
     1
  9
$CEPSNTYPE
380
     0
  9
$PSTYLEMODE
290
     1
  9
$FINGERPRINTGUID
  2
{4DAE1BED-4A6B-442E-A576-E1AF80CC02B3}
  9
$VERSIONGUID
  2
{FAEB1C32-E019-11D5-929B-00C0DF256EC4}
  9
$EXTNAMES
290
     1
  9
$PSVPSCALE
 40
0.0
  9
$OLESTARTUP
290
     0
  9
$SORTENTS
280
   127
  9
$INDEXCTL
280
     0
  9
$HIDETEXT
280
     1
  9
$XCLIPFRAME
280
     2
  9
$HALOGAP
280
     0
  9
$OBSCOLOR
 70
   257
  9
$OBSLTYPE
280
     0
  9
$INTERSECTIONDISPLAY
280
     0
  9
$INTERSECTIONCOLOR
 70
   257
  9
$DIMASSOC
280
     2
  9
$PROJECTNAME
  1

  9
$CAMERADISPLAY
290
     0
  9
$LENSLENGTH
 40
50.0
  9
$CAMERAHEIGHT
 40
0.0
  9
$STEPSPERSEC
 40
2.0
  9
$STEPSIZE
 40
6.0
  9
$3DDWFPREC
 40
2.0
  9
$PSOLWIDTH
 40
0.25
  9
$PSOLHEIGHT
 40
4.0
  9
$LOFTANG1
 40
1.570796326794897
  9
$LOFTANG2
 40
1.570796326794897
  9
$LOFTMAG1
 40
0.0
  9
$LOFTMAG2
 40
0.0
  9
$LOFTPARAM
 70
     7
  9
$LOFTNORMALS
280
     1
  9
$LATITUDE
 40
37.795
  9
$LONGITUDE
 40
-122.394
  9
$NORTHDIRECTION
 40
0.0
  9
$TIMEZONE
 70
 -8000
  9
$LIGHTGLYPHDISPLAY
280
     1
  9
$TILEMODELIGHTSYNCH
280
     1
  9
$CMATERIAL
347
44
  9
$SOLIDHIST
280
     0
  9
$SHOWHIST
280
     1
  9
$DWFFRAME
280
     2
  9
$DGNFRAME
280
     2
  9
$REALWORLDSCALE
290
     1
  9
$INTERFERECOLOR
 62
   256
  9
$CSHADOW
280
     0
  9
$SHADOWPLANELOCATION
 40
0.0
  0
ENDSEC
  0
SECTION
  2
CLASSES
  0
CLASS
  1
ACDBDICTIONARYWDFLT
  2
AcDbDictionaryWithDefault
  3
ObjectDBX Classes
 90
        0
 91
        4
280
     0
281
     0
  0
CLASS
  1
VISUALSTYLE
  2
AcDbVisualStyle
  3
ObjectDBX Classes
 90
     4095
 91
        4
280
     0
281
     0
  0
CLASS
  1
MATERIAL
  2
AcDbMaterial
  3
ObjectDBX Classes
 90
     1153
 91
        4
280
     0
281
     0
  0
CLASS
  1
SCALE
  2
AcDbScale
  3
ObjectDBX Classes
 90
     1153
 91
        4
280
     0
281
     0
  0
CLASS
  1
TABLESTYLE
  2
AcDbTableStyle
  3
ObjectDBX Classes
 90
     4095
 91
        4
280
     0
281
     0
  0
CLASS
  1
MLEADERSTYLE
  2
AcDbMLeaderStyle
  3
ACDB_MLEADERSTYLE_CLASS
 90
     4095
 91
        4
280
     0
281
     0
  0
CLASS
  1
SUN
  2
AcDbSun
  3
SCENEOE
 90
     1153
 91
        4
280
     0
281
     0
  0
CLASS
  1
DICTIONARYVAR
  2
AcDbDictionaryVar
  3
ObjectDBX Classes
 90
        0
 91
        4
280
     0
281
     0
  0
CLASS
  1
CELLSTYLEMAP
  2
AcDbCellStyleMap
  3
ObjectDBX Classes
 90
     1152
 91
        4
280
     0
281
     0
  0
ENDSEC
  0
SECTION
  2
TABLES
  0
TABLE
  2
VPORT
  5
8
330
0
100
AcDbSymbolTable
 70
     1
  0
VPORT
  5
29
330
8
100
AcDbSymbolTableRecord
100
AcDbViewportTableRecord
  2
*Active
 70
     0
 10
0.0
 20
0.0
 11
1.0
 21
1.0
 12
0.0
 22
-1.93162109375
 13
0.0
 23
0.0
 14
0.5
 24
0.5
 15
0.5
 25
0.5
 16
0.0
 26
0.0
 36
1.0
 17
0.0
 27
0.0
 37
0.0
 40
4.19654296875
 41
2.248279136007596
 42
50.0
 43
0.0
 44
0.0
 50
0.0
 51
0.0
 71
     0
 72
   100
 73
     1
 74
     3
 75
     0
 76
     0
 77
     0
 78
     0
281
     0
 65
     1
110
0.0
120
0.0
130
0.0
111
1.0
121
0.0
131
0.0
112
0.0
122
1.0
132
0.0
 79
     0
146
0.0
348
2F
 60
     3
 61
     5
292
     1
282
     1
141
0.0
142
0.0
 63
   250
361
6D
  0
ENDTAB
  0
TABLE
  2
LTYPE
  5
5
330
0
100
AcDbSymbolTable
 70
     3
  0
LTYPE
  5
14
330
5
100
AcDbSymbolTableRecord
100
AcDbLinetypeTableRecord
  2
ByBlock
 70
     0
  3

 72
    65
 73
     0
 40
0.0
  0
LTYPE
  5
15
330
5
100
AcDbSymbolTableRecord
100
AcDbLinetypeTableRecord
  2
ByLayer
 70
     0
  3

 72
    65
 73
     0
 40
0.0
  0
LTYPE
  5
16
330
5
100
AcDbSymbolTableRecord
100
AcDbLinetypeTableRecord
  2
Continuous
 70
     0
  3
Solid line
 72
    65
 73
     0
 40
0.0
  0
LTYPE
  5
9C
330
5
100
AcDbSymbolTableRecord
100
AcDbLinetypeTableRecord
  2
Dashed
 70
     0
  3

 72
    65
 73
     2
 40
2.0
 49
1.0
 74
     0
 49
-1.0
 74
     0
  0
LTYPE
  5
B4
330
5
100
AcDbSymbolTableRecord
100
AcDbLinetypeTableRecord
  2
Center
 70
     0
  3

 72
    65
 73
     4
 40
1.5
 49
0.45
 74
     0
 49
-0.5
 74
     0
 49
0.05
 74
     0
 49
-0.5
 74
     0
  0
ENDTAB
  0
TABLE
  2
LAYER
  5
2
330
0
100
AcDbSymbolTable
 70
     7
  0
LAYER
  5
10
330
2
100
AcDbSymbolTableRecord
100
AcDbLayerTableRecord
  2
0
 70
     0
 62
     7
  6
Continuous
370
    -3
390
F
347
46
348
0
  0
LAYER
  5
72
330
2
100
AcDbSymbolTableRecord
100
AcDbLayerTableRecord
  2
AM_6
 70
     0
 62
    -2
  6
Continuous
370
    35
390
F
347
46
348
0
  0
LAYER
  5
9D
330
2
100
AcDbSymbolTableRecord
100
AcDbLayerTableRecord
  2
AM_9
 70
     0
 62
     6
  6
Dashed
370
    25
390
F
347
46
348
0
  0
LAYER
  5
B0
330
2
100
AcDbSymbolTableRecord
100
AcDbLayerTableRecord
  2
AM_5
 70
     0
 62
     3
  6
Continuous
370
    25
390
F
347
46
348
0
  0
LAYER
  5
B5
330
2
100
AcDbSymbolTableRecord
100
AcDbLayerTableRecord
  2
AM_7
 70
     0
 62
     7
  6
Center
370
    25
390
F
347
46
348
0
  0
LAYER
  5
B7
330
2
100
AcDbSymbolTableRecord
100
AcDbLayerTableRecord
  2
AM_4
 70
     0
 62
     7
  6
Continuous
370
    50
390
F
347
46
348
0
  0
LAYER
  5
217
330
2
100
AcDbSymbolTableRecord
100
AcDbLayerTableRecord
  2
ConnectionPoints
 70
     0
 62
     7
  6
Continuous
370
    50
390
F
347
46
348
0
  0
ENDTAB
  0
TABLE
  2
STYLE
  5
3
330
0
100
AcDbSymbolTable
 70
     1
  0
STYLE
  5
11
330
3
100
AcDbSymbolTableRecord
100
AcDbTextStyleTableRecord
  2
Standard
 70
     0
 40
0.0
 41
1.0
 50
0.0
 71
     0
 42
0.2
  3
txt
  4

  0
ENDTAB
  0
TABLE
  2
VIEW
  5
6
330
0
100
AcDbSymbolTable
 70
     0
  0
ENDTAB
  0
TABLE
  2
UCS
  5
7
330
0
100
AcDbSymbolTable
 70
     0
  0
ENDTAB
  0
TABLE
  2
APPID
  5
9
330
0
100
AcDbSymbolTable
 70
     1
  0
APPID
  5
12
330
9
100
AcDbSymbolTableRecord
100
AcDbRegAppTableRecord
  2
ACAD
 70
     0
  0
ENDTAB
  0
TABLE
  2
DIMSTYLE
  5
A
330
0
100
AcDbSymbolTable
 70
     1
100
AcDbDimStyleTable
  0
DIMSTYLE
105
27
330
A
100
AcDbSymbolTableRecord
100
AcDbDimStyleTableRecord
  2
Standard
 70
     0
178
     0
340
11
  0
ENDTAB
  0
TABLE
  2
BLOCK_RECORD
  5
1
330
0
100
AcDbSymbolTable
 70
     8
  0
BLOCK_RECORD
  5
1F
330
1
100
AcDbSymbolTableRecord
100
AcDbBlockTableRecord
  2
*Model_Space
340
22
 70
     0
280
     1
281
     0
  0
BLOCK_RECORD
  5
1B
330
1
100
AcDbSymbolTableRecord
100
AcDbBlockTableRecord
  2
*Paper_Space
340
1E
 70
     0
280
     1
281
     0
  0
BLOCK_RECORD
  5
23
330
1
100
AcDbSymbolTableRecord
100
AcDbBlockTableRecord
  2
*Paper_Space0
340
26
 70
     0
280
     1
281
     0
  0
BLOCK_RECORD
  5
6E
330
1
100
AcDbSymbolTableRecord
100
AcDbBlockTableRecord
  2
1_069669_4
340
0
102
{BLKREFS
331
6F
102
}
 70
     0
280
     1
281
     0
  0
BLOCK_RECORD
  5
8C
330
1
100
AcDbSymbolTableRecord
100
AcDbBlockTableRecord
  2
2_ASME_B18_3_10_1_0_in_069669_4
340
0
102
{BLKREFS
331
8D
102
}
 70
     0
280
     1
281
     0
  0
BLOCK_RECORD
  5
BB
330
1
100
AcDbSymbolTableRecord
100
AcDbBlockTableRecord
  2
3_ASME_B18_3_10_2_0_in_069669_4
340
0
102
{BLKREFS
331
BC
102
}
 70
     0
280
     1
281
     0
  0
BLOCK_RECORD
  5
E1
330
1
100
AcDbSymbolTableRecord
100
AcDbBlockTableRecord
  2
4_070898LW_0_in_069669_4
340
0
102
{BLKREFS
331
E2
102
}
 70
     0
280
     1
281
     0
  0
BLOCK_RECORD
  5
117
330
1
100
AcDbSymbolTableRecord
100
AcDbBlockTableRecord
  2
5_070930I_0_in_069669_4
340
0
102
{BLKREFS
331
118
102
}
 70
     0
280
     1
281
     0
  0
BLOCK_RECORD
  5
19A
330
1
100
AcDbSymbolTableRecord
100
AcDbBlockTableRecord
  2
6_405015E_Inch_0_in_069669_4
340
0
102
{BLKREFS
331
19B
102
}
 70
     0
280
     1
281
     0
  0
BLOCK_RECORD
  5
1B7
330
1
100
AcDbSymbolTableRecord
100
AcDbBlockTableRecord
  2
7_069669H_0_in_069669_4
340
0
102
{BLKREFS
331
1B8
102
}
 70
     0
280
     1
281
     0
  0
ENDTAB
  0
ENDSEC
  0
SECTION
  2
BLOCKS
  0
BLOCK
  5
20
330
1F
100
AcDbEntity
  8
0
100
AcDbBlockBegin
  2
*Model_Space
 70
     0
 10
0.0
 20
0.0
 30
0.0
  3
*Model_Space
  1

  0
ENDBLK
  5
21
330
1F
100
AcDbEntity
  8
0
100
AcDbBlockEnd
  0
BLOCK
  5
1C
330
1B
100
AcDbEntity
 67
     1
  8
0
100
AcDbBlockBegin
  2
*Paper_Space
 70
     0
 10
0.0
 20
0.0
 30
0.0
  3
*Paper_Space
  1

  0
ENDBLK
  5
1D
330
1B
100
AcDbEntity
 67
     1
  8
0
100
AcDbBlockEnd
  0
BLOCK
  5
24
330
23
100
AcDbEntity
  8
0
100
AcDbBlockBegin
  2
*Paper_Space0
 70
     0
 10
0.0
 20
0.0
 30
0.0
  3
*Paper_Space0
  1

  0
ENDBLK
  5
25
330
23
100
AcDbEntity
  8
0
100
AcDbBlockEnd
  0
BLOCK
  5
70
330
6E
100
AcDbEntity
  8
0
100
AcDbBlockBegin
  2
1_069669_4
 70
     2
 10
0.0
 20
0.0
 30
0.0
  3
1_069669_4
  1

  0
ATTDEF
  5
73
330
6E
100
AcDbEntity
  8
AM_6
100
AcDbText
 10
9.625
 20
0.1255078125
 30
0.0
 40
0.5
  1
Imperial - IP Flange - Round Labyrinth Seal
100
AcDbAttributeDefinition
  3

  2
NN
 70
     8
280
     0
  0
ATTDEF
  5
74
330
6E
100
AcDbEntity
  8
AM_6
100
AcDbText
 10
9.625
 20
-0.3744921875
 30
0.0
 40
0.5
  1
Imperial 3 & 4 Bolt Round Flange Bearings
100
AcDbAttributeDefinition
  3

  2
NT
 70
     8
280
     0
  0
ATTDEF
  5
75
330
6E
100
AcDbEntity
  8
AM_6
100
AcDbText
 10
9.625
 20
-0.8744921875
 30
0.0
 40
0.5
  1
069669
100
AcDbAttributeDefinition
  3

  2
NB
 70
     8
280
     0
  0
ATTDEF
  5
76
330
6E
100
AcDbEntity
  8
AM_6
100
AcDbText
 10
9.625
 20
-1.3744921875
 30
0.0
 40
0.5
  1
$PN.
100
AcDbAttributeDefinition
  3

  2
NBSYN
 70
     8
280
     0
  0
ATTDEF
  5
77
330
6E
100
AcDbEntity
  8
AM_6
100
AcDbText
 10
9.625
 20
-1.8744921875
 30
0.0
 40
0.5
  1
069669
100
AcDbAttributeDefinition
  3

  2
LINA
 70
     8
280
     0
  0
ATTDEF
  5
78
330
6E
100
AcDbEntity
  8
AM_6
100
AcDbText
 10
9.625
 20
-2.3744921875
 30
0.0
 40
0.5
  1
2-3/4
100
AcDbAttributeDefinition
  3

  2
SS
 70
     8
280
     0
  0
ATTDEF
  5
79
330
6E
100
AcDbEntity
  8
AM_6
100
AcDbText
 10
9.625
 20
-2.8744921875
 30
0.0
 40
0.5
  1
069669
100
AcDbAttributeDefinition
  3

  2
PN
 70
     8
280
     0
  0
ATTDEF
  5
7A
330
6E
100
AcDbEntity
  8
AM_6
100
AcDbText
 10
9.625
 20
-3.3744921875
 30
0.0
 40
0.5
  1
F4R-IP-212L
100
AcDbAttributeDefinition
  3

  2
DESCRIPTION
 70
     8
280
     0
  0
ATTDEF
  5
7B
330
6E
100
AcDbEntity
  8
AM_6
100
AcDbText
 10
9.625
 20
-3.8744921875
 30
0.0
 40
0.5
  1
Non-Expansion Type
100
AcDbAttributeDefinition
  3

  2
EF
 70
     8
280
     0
  0
ATTDEF
  5
7C
330
6E
100
AcDbEntity
  8
AM_6
100
AcDbText
 10
9.625
 20
-4.3744921875
 30
0.0
 40
0.5
  1
Labyrinth Seal
100
AcDbAttributeDefinition
  3

  2
ST
 70
     8
280
     0
  0
ATTDEF
  5
7D
330
6E
100
AcDbEntity
  8
AM_6
100
AcDbText
 10
9.625
 20
-4.8744921875
 30
0.0
 40
0.5
  1
3-1/2
100
AcDbAttributeDefinition
  3

  2
A
 70
     8
280
     0
  0
ATTDEF
  5
7E
330
6E
100
AcDbEntity
  8
AM_6
100
AcDbText
 10
9.625
 20
-5.3744921875
 30
0.0
 40
0.5
  1
9-1/4
100
AcDbAttributeDefinition
  3

  2
B
 70
     8
280
     0
  0
ATTDEF
  5
7F
330
6E
100
AcDbEntity
  8
AM_6
100
AcDbText
 10
9.625
 20
-5.8744921875
 30
0.0
 40
0.5
  1
3-13/16
100
AcDbAttributeDefinition
  3

  2
C
 70
     8
280
     0
  0
ATTDEF
  5
80
330
6E
100
AcDbEntity
  8
AM_6
100
AcDbText
 10
9.625
 20
-6.3744921875
 30
0.0
 40
0.5
  1
5-9/16
100
AcDbAttributeDefinition
  3

  2
D
 70
     8
280
     0
  0
ATTDEF
  5
81
330
6E
100
AcDbEntity
  8
AM_6
100
AcDbText
 10
9.625
 20
-6.8744921875
 30
0.0
 40
0.5
  1
7-7/8
100
AcDbAttributeDefinition
  3

  2
DD
 70
     8
280
     0
  0
ATTDEF
  5
82
330
6E
100
AcDbEntity
  8
AM_6
100
AcDbText
 10
9.625
 20
-7.3744921875
 30
0.0
 40
0.5
  1
2-25/64
100
AcDbAttributeDefinition
  3

  2
E
 70
     8
280
     0
  0
ATTDEF
  5
83
330
6E
100
AcDbEntity
  8
AM_6
100
AcDbText
 10
9.625
 20
-7.8744921875
 30
0.0
 40
0.5
  1
3/4
100
AcDbAttributeDefinition
  3

  2
F
 70
     8
280
     0
  0
ATTDEF
  5
84
330
6E
100
AcDbEntity
  8
AM_6
100
AcDbText
 10
9.625
 20
-8.3744921875
 30
0.0
 40
0.5
  1
3/4
100
AcDbAttributeDefinition
  3

  2
H
 70
     8
280
     0
  0
ATTDEF
  5
85
330
6E
100
AcDbEntity
  8
AM_6
100
AcDbText
 10
9.625
 20
-8.8744921875
 30
0.0
 40
0.5
  1
6-1/4
100
AcDbAttributeDefinition
  3

  2
J
 70
     8
280
     0
  0
ATTDEF
  5
86
330
6E
100
AcDbEntity
  8
AM_6
100
AcDbText
 10
9.625
 20
-9.3744921875
 30
0.0
 40
0.5
  1
4-9/32
100
AcDbAttributeDefinition
  3

  2
L
 70
     8
280
     0
  0
ATTDEF
  5
87
330
6E
100
AcDbEntity
  8
AM_6
100
AcDbText
 10
9.625
 20
-9.8744921875
 30
0.0
 40
0.5
  1
5/16
100
AcDbAttributeDefinition
  3

  2
P
 70
     8
280
     0
  0
ATTDEF
  5
88
330
6E
100
AcDbEntity
  8
AM_6
100
AcDbText
 10
9.625
 20
-10.3744921875
 30
0.0
 40
0.5
  1
1/4
100
AcDbAttributeDefinition
  3

  2
X
 70
     8
280
     0
  0
ATTDEF
  5
89
330
6E
100
AcDbEntity
  8
AM_6
100
AcDbText
 10
9.625
 20
-10.8744921875
 30
0.0
 40
0.5
  1
0.025
100
AcDbAttributeDefinition
  3

  2
Y
 70
     8
280
     0
  0
ATTDEF
  5
8A
330
6E
100
AcDbEntity
  8
AM_6
100
AcDbText
 10
9.625
 20
-11.3744921875
 30
0.0
 40
0.5
  1
3-15/32
100
AcDbAttributeDefinition
  3

  2
Z
 70
     8
280
     0
  0
ATTDEF
  5
8B
330
6E
100
AcDbEntity
  8
AM_6
100
AcDbText
 10
9.625
 20
-11.8744921875
 30
0.0
 40
0.5
  1
baldor
100
AcDbAttributeDefinition
  3

  2
COMPANY
 70
     8
280
     0
  0
INSERT
  5
8D
330
6E
100
AcDbEntity
  8
0
100
AcDbBlockReference
  2
2_ASME_B18_3_10_1_0_in_069669_4
 10
0.0
 20
0.0
 30
0.0
  0
INSERT
  5
BC
330
6E
100
AcDbEntity
  8
0
100
AcDbBlockReference
  2
3_ASME_B18_3_10_2_0_in_069669_4
 10
0.0
 20
0.0
 30
0.0
  0
INSERT
  5
E2
330
6E
100
AcDbEntity
  8
0
100
AcDbBlockReference
  2
4_070898LW_0_in_069669_4
 10
0.0
 20
0.0
 30
0.0
  0
INSERT
  5
118
330
6E
100
AcDbEntity
  8
0
100
AcDbBlockReference
  2
5_070930I_0_in_069669_4
 10
0.0
 20
0.0
 30
0.0
  0
INSERT
  5
19B
330
6E
100
AcDbEntity
  8
0
100
AcDbBlockReference
  2
6_405015E_Inch_0_in_069669_4
 10
0.0
 20
0.0
 30
0.0
  0
INSERT
  5
1B8
330
6E
100
AcDbEntity
  8
0
100
AcDbBlockReference
  2
7_069669H_0_in_069669_4
 10
0.0
 20
0.0
 30
0.0
  0
ENDBLK
  5
71
330
6E
100
AcDbEntity
  8
0
100
AcDbBlockEnd
  0
BLOCK
  5
8E
330
8C
100
AcDbEntity
  8
0
100
AcDbBlockBegin
  2
2_ASME_B18_3_10_1_0_in_069669_4
 70
     2
 10
0.0
 20
0.0
 30
0.0
  3
2_ASME_B18_3_10_1_0_in_069669_4
  1

  0
ATTDEF
  5
90
330
8C
100
AcDbEntity
  8
AM_6
100
AcDbText
 10
6.477476240145117
 20
-2.657333333333337
 30
0.0
 40
0.5
  1
ANSI/ASME B18.3-1998
100
AcDbAttributeDefinition
  3

  2
NN
 70
     8
280
     0
  0
ATTDEF
  5
91
330
8C
100
AcDbEntity
  8
AM_6
100
AcDbText
 10
6.477476240145117
 20
-3.157333333333337
 30
0.0
 40
0.5
  1
Socket Button Head Cap Screws
100
AcDbAttributeDefinition
  3

  2
NT
 70
     8
280
     0
  0
ATTDEF
  5
92
330
8C
100
AcDbEntity
  8
AM_6
100
AcDbText
 10
6.477476240145117
 20
-3.657333333333337
 30
0.0
 40
0.5
  1
ASME B18.3-10
100
AcDbAttributeDefinition
  3

  2
NB
 70
     8
280
     0
  0
ATTDEF
  5
93
330
8C
100
AcDbEntity
  8
AM_6
100
AcDbText
 10
6.477476240145117
 20
-4.157333333333337
 30
0.0
 40
0.5
  1
ASME B18.3-$NS.
100
AcDbAttributeDefinition
  3

  2
NBSYN
 70
     8
280
     0
  0
ATTDEF
  5
94
330
8C
100
AcDbEntity
  8
AM_6
100
AcDbText
 10
6.477476240145117
 20
-4.657333333333337
 30
0.0
 40
0.5
  1
ASME B18.3-10
100
AcDbAttributeDefinition
  3

  2
LINA
 70
     8
280
     0
  0
ATTDEF
  5
95
330
8C
100
AcDbEntity
  8
AM_6
100
AcDbText
 10
6.477476240145117
 20
-5.157333333333337
 30
0.0
 40
0.5
  1
10
100
AcDbAttributeDefinition
  3

  2
NS
 70
     8
280
     0
  0
ATTDEF
  5
96
330
8C
100
AcDbEntity
  8
AM_6
100
AcDbText
 10
6.477476240145117
 20
-5.657333333333337
 30
0.0
 40
0.5
  1
0.361
100
AcDbAttributeDefinition
  3

  2
A
 70
     8
280
     0
  0
ATTDEF
  5
97
330
8C
100
AcDbEntity
  8
AM_6
100
AcDbText
 10
6.477476240145117
 20
-6.157333333333337
 30
0.0
 40
0.5
  1
0.101
100
AcDbAttributeDefinition
  3

  2
H
 70
     8
280
     0
  0
ATTDEF
  5
98
330
8C
100
AcDbEntity
  8
AM_6
100
AcDbText
 10
6.477476240145117
 20
-6.657333333333337
 30
0.0
 40
0.5
  1
0.800
100
AcDbAttributeDefinition
  3

  2
L
 70
     8
280
     0
  0
ATTDEF
  5
99
330
8C
100
AcDbEntity
  8
AM_6
100
AcDbText
 10
6.477476240145117
 20
-7.157333333333337
 30
0.0
 40
0.5
  1
0.020
100
AcDbAttributeDefinition
  3

  2
S
 70
     8
280
     0
  0
ATTDEF
  5
9A
330
8C
100
AcDbEntity
  8
AM_6
100
AcDbText
 10
6.477476240145117
 20
-7.657333333333337
 30
0.0
 40
0.5
  1
0.125000
100
AcDbAttributeDefinition
  3

  2
J
 70
     8
280
     0
  0
ATTDEF
  5
9B
330
8C
100
AcDbEntity
  8
AM_6
100
AcDbText
 10
6.477476240145117
 20
-8.157333333333337
 30
0.0
 40
0.5
  1
baldor
100
AcDbAttributeDefinition
  3

  2
COMPANY
 70
     8
280
     0
  0
LINE
  5
9E
330
8C
100
AcDbEntity
  8
AM_9
100
AcDbLine
 10
1.227266548166966
 20
-3.649333333333334
 30
0.0
 11
1.227266548166966
 21
-3.710333333333333
 31
0.0
  0
LINE
  5
9F
330
8C
100
AcDbEntity
  8
AM_9
100
AcDbLine
 10
1.278297584474949
 20
-3.649333333333334
 30
0.0
 11
1.278297584474949
 21
-3.710333333333333
 31
0.0
  0
LINE
  5
A0
330
8C
100
AcDbEntity
  8
AM_9
100
AcDbLine
 10
1.366685932123268
 20
-3.649333333333334
 30
0.0
 11
1.366685932123268
 21
-3.710333333333333
 31
0.0
  0
LINE
  5
A1
330
8C
100
AcDbEntity
  8
AM_9
100
AcDbLine
 10
1.3480072764531
 20
-3.649333333333334
 30
0.0
 11
1.3480072764531
 21
-3.710333333333333
 31
0.0
  0
LINE
  5
A2
330
8C
100
AcDbEntity
  8
AM_9
100
AcDbLine
 10
1.245945203837134
 20
-3.649333333333334
 30
0.0
 11
1.245945203837134
 21
-3.710333333333333
 31
0.0
  0
LINE
  5
A3
330
8C
100
AcDbEntity
  8
AM_9
100
AcDbLine
 10
1.315654895815285
 20
-3.649333333333334
 30
0.0
 11
1.315654895815285
 21
-3.710333333333333
 31
0.0
  0
LINE
  5
A4
330
8C
100
AcDbEntity
  8
AM_9
100
AcDbLine
 10
1.227266548166966
 20
-3.649333333333334
 30
0.0
 11
1.366685932123268
 21
-3.649333333333334
 31
0.0
  0
LINE
  5
A5
330
8C
100
AcDbEntity
  8
AM_9
100
AcDbLine
 10
1.220576240145117
 20
-2.809333333333333
 30
0.0
 11
1.373376240145117
 21
-2.809333333333333
 31
0.0
  0
LINE
  5
A6
330
8C
100
AcDbEntity
  8
AM_9
100
AcDbLine
 10
1.220576240145117
 20
-2.809333333333333
 30
0.0
 11
1.201976240145117
 21
-2.827933333333334
 31
0.0
  0
LINE
  5
A7
330
8C
100
AcDbEntity
  8
AM_9
100
AcDbLine
 10
1.391976240145117
 20
-2.827933333333334
 30
0.0
 11
1.373376240145117
 21
-2.809333333333333
 31
0.0
  0
LINE
  5
A8
330
8C
100
AcDbEntity
  8
AM_9
100
AcDbLine
 10
1.201976240145117
 20
-2.827933333333334
 30
0.0
 11
1.391976240145117
 21
-2.827933333333334
 31
0.0
  0
LINE
  5
A9
330
8C
100
AcDbEntity
  8
AM_9
100
AcDbLine
 10
1.391976240145117
 20
-3.609333333333333
 30
0.0
 11
1.391976240145117
 21
-2.827933333333334
 31
0.0
  0
LINE
  5
AA
330
8C
100
AcDbEntity
  8
AM_9
100
AcDbLine
 10
1.201976240145117
 20
-2.827933333333334
 30
0.0
 11
1.201976240145117
 21
-3.609333333333333
 31
0.0
  0
LINE
  5
AB
330
8C
100
AcDbEntity
  8
AM_9
100
AcDbLine
 10
1.116476240145117
 20
-3.609333333333333
 30
0.0
 11
1.116476240145117
 21
-3.629333333333333
 31
0.0
  0
LINE
  5
AC
330
8C
100
AcDbEntity
  8
AM_9
100
AcDbLine
 10
1.197476240145117
 20
-3.710333333333333
 30
0.0
 11
1.396476240145117
 21
-3.710333333333333
 31
0.0
  0
LINE
  5
AD
330
8C
100
AcDbEntity
  8
AM_9
100
AcDbLine
 10
1.116476240145117
 20
-3.629333333333333
 30
0.0
 11
1.447368421052632
 21
-3.629333333333333
 31
0.0
  0
ARC
  5
AE
330
8C
100
AcDbEntity
  8
AM_9
100
AcDbCircle
 10
1.39647624014512
 20
-3.629333333333341
 30
0.0
 40
0.080999999999992
100
AcDbArc
 50
270.0
 51
308.924702406332
  0
ARC
  5
AF
330
8C
100
AcDbEntity
  8
AM_9
100
AcDbCircle
 10
1.197476240145117
 20
-3.629333333333334
 30
0.0
 40
0.0809999999999995
100
AcDbArc
 50
180.0
 51
270.0
  0
LINE
  5
B1
330
8C
100
AcDbEntity
  8
AM_5
100
AcDbLine
 10
1.373376240145117
 20
-3.529333333333333
 30
0.0
 11
1.391976240145117
 21
-3.561549478354115
 31
0.0
  0
LINE
  5
B2
330
8C
100
AcDbEntity
  8
AM_5
100
AcDbLine
 10
1.201976240145117
 20
-3.529333333333333
 30
0.0
 11
1.391976247700122
 21
-3.529333333333333
 31
0.0
  0
LINE
  5
B3
330
8C
100
AcDbEntity
  8
AM_5
100
AcDbLine
 10
1.220576240145117
 20
-3.529333333333333
 30
0.0
 11
1.201976240145117
 21
-3.561549478354114
 31
0.0
  0
LINE
  5
B6
330
8C
100
AcDbEntity
  8
AM_7
100
AcDbLine
 10
1.296976240145117
 20
-3.755383333333333
 30
0.0
 11
1.296976240145117
 21
-2.657333333333337
 31
0.0
  0
LINE
  5
B8
330
8C
100
AcDbEntity
  8
AM_4
100
AcDbLine
 10
1.477476240145117
 20
-3.629333333333333
 30
0.0
 11
1.477476240145117
 21
-3.609333333333333
 31
0.0
  0
LINE
  5
B9
330
8C
100
AcDbEntity
  8
AM_4
100
AcDbLine
 10
1.447368421052632
 20
-3.629333333333333
 30
0.0
 11
1.477476240145117
 21
-3.629333333333333
 31
0.0
  0
ARC
  5
BA
330
8C
100
AcDbEntity
  8
AM_4
100
AcDbCircle
 10
1.396476240145119
 20
-3.629333333333334
 30
0.0
 40
0.0809999999999978
100
AcDbArc
 50
308.9247024063291
 51
0.0
  0
ENDBLK
  5
8F
330
8C
100
AcDbEntity
  8
0
100
AcDbBlockEnd
  0
BLOCK
  5
BD
330
BB
100
AcDbEntity
  8
0
100
AcDbBlockBegin
  2
3_ASME_B18_3_10_2_0_in_069669_4
 70
     2
 10
0.0
 20
0.0
 30
0.0
  3
3_ASME_B18_3_10_2_0_in_069669_4
  1

  0
ATTDEF
  5
BF
330
BB
100
AcDbEntity
  8
AM_6
100
AcDbText
 10
3.883523759854883
 20
-2.809333333333333
 30
0.0
 40
0.5
  1
ANSI/ASME B18.3-1998
100
AcDbAttributeDefinition
  3

  2
NN
 70
     8
280
     0
  0
ATTDEF
  5
C0
330
BB
100
AcDbEntity
  8
AM_6
100
AcDbText
 10
3.883523759854883
 20
-3.309333333333333
 30
0.0
 40
0.5
  1
Socket Button Head Cap Screws
100
AcDbAttributeDefinition
  3

  2
NT
 70
     8
280
     0
  0
ATTDEF
  5
C1
330
BB
100
AcDbEntity
  8
AM_6
100
AcDbText
 10
3.883523759854883
 20
-3.809333333333333
 30
0.0
 40
0.5
  1
ASME B18.3-10
100
AcDbAttributeDefinition
  3

  2
NB
 70
     8
280
     0
  0
ATTDEF
  5
C2
330
BB
100
AcDbEntity
  8
AM_6
100
AcDbText
 10
3.883523759854883
 20
-4.309333333333333
 30
0.0
 40
0.5
  1
ASME B18.3-$NS.
100
AcDbAttributeDefinition
  3

  2
NBSYN
 70
     8
280
     0
  0
ATTDEF
  5
C3
330
BB
100
AcDbEntity
  8
AM_6
100
AcDbText
 10
3.883523759854883
 20
-4.809333333333333
 30
0.0
 40
0.5
  1
ASME B18.3-10
100
AcDbAttributeDefinition
  3

  2
LINA
 70
     8
280
     0
  0
ATTDEF
  5
C4
330
BB
100
AcDbEntity
  8
AM_6
100
AcDbText
 10
3.883523759854883
 20
-5.309333333333333
 30
0.0
 40
0.5
  1
10
100
AcDbAttributeDefinition
  3

  2
NS
 70
     8
280
     0
  0
ATTDEF
  5
C5
330
BB
100
AcDbEntity
  8
AM_6
100
AcDbText
 10
3.883523759854883
 20
-5.809333333333333
 30
0.0
 40
0.5
  1
0.361
100
AcDbAttributeDefinition
  3

  2
A
 70
     8
280
     0
  0
ATTDEF
  5
C6
330
BB
100
AcDbEntity
  8
AM_6
100
AcDbText
 10
3.883523759854883
 20
-6.309333333333333
 30
0.0
 40
0.5
  1
0.101
100
AcDbAttributeDefinition
  3

  2
H
 70
     8
280
     0
  0
ATTDEF
  5
C7
330
BB
100
AcDbEntity
  8
AM_6
100
AcDbText
 10
3.883523759854883
 20
-6.809333333333333
 30
0.0
 40
0.5
  1
0.800
100
AcDbAttributeDefinition
  3

  2
L
 70
     8
280
     0
  0
ATTDEF
  5
C8
330
BB
100
AcDbEntity
  8
AM_6
100
AcDbText
 10
3.883523759854883
 20
-7.309333333333333
 30
0.0
 40
0.5
  1
0.020
100
AcDbAttributeDefinition
  3

  2
S
 70
     8
280
     0
  0
ATTDEF
  5
C9
330
BB
100
AcDbEntity
  8
AM_6
100
AcDbText
 10
3.883523759854883
 20
-7.809333333333333
 30
0.0
 40
0.5
  1
0.125000
100
AcDbAttributeDefinition
  3

  2
J
 70
     8
280
     0
  0
ATTDEF
  5
CA
330
BB
100
AcDbEntity
  8
AM_6
100
AcDbText
 10
3.883523759854883
 20
-8.309333333333333
 30
0.0
 40
0.5
  1
baldor
100
AcDbAttributeDefinition
  3

  2
COMPANY
 70
     8
280
     0
  0
LINE
  5
CB
330
BB
100
AcDbEntity
  8
AM_9
100
AcDbLine
 10
-1.366685932123268
 20
-3.649333333333334
 30
0.0
 11
-1.366685932123268
 21
-3.710333333333333
 31
0.0
  0
LINE
  5
CC
330
BB
100
AcDbEntity
  8
AM_9
100
AcDbLine
 10
-1.315654895815285
 20
-3.649333333333334
 30
0.0
 11
-1.315654895815285
 21
-3.710333333333333
 31
0.0
  0
LINE
  5
CD
330
BB
100
AcDbEntity
  8
AM_9
100
AcDbLine
 10
-1.227266548166966
 20
-3.649333333333334
 30
0.0
 11
-1.227266548166966
 21
-3.710333333333333
 31
0.0
  0
LINE
  5
CE
330
BB
100
AcDbEntity
  8
AM_9
100
AcDbLine
 10
-1.245945203837134
 20
-3.649333333333334
 30
0.0
 11
-1.245945203837134
 21
-3.710333333333333
 31
0.0
  0
LINE
  5
CF
330
BB
100
AcDbEntity
  8
AM_9
100
AcDbLine
 10
-1.3480072764531
 20
-3.649333333333334
 30
0.0
 11
-1.3480072764531
 21
-3.710333333333333
 31
0.0
  0
LINE
  5
D0
330
BB
100
AcDbEntity
  8
AM_9
100
AcDbLine
 10
-1.278297584474949
 20
-3.649333333333334
 30
0.0
 11
-1.278297584474949
 21
-3.710333333333333
 31
0.0
  0
LINE
  5
D1
330
BB
100
AcDbEntity
  8
AM_9
100
AcDbLine
 10
-1.366685932123268
 20
-3.649333333333334
 30
0.0
 11
-1.227266548166966
 21
-3.649333333333334
 31
0.0
  0
LINE
  5
D2
330
BB
100
AcDbEntity
  8
AM_9
100
AcDbLine
 10
-1.373376240145117
 20
-2.809333333333333
 30
0.0
 11
-1.220576240145117
 21
-2.809333333333333
 31
0.0
  0
LINE
  5
D3
330
BB
100
AcDbEntity
  8
AM_9
100
AcDbLine
 10
-1.373376240145117
 20
-2.809333333333333
 30
0.0
 11
-1.391976240145117
 21
-2.827933333333334
 31
0.0
  0
LINE
  5
D4
330
BB
100
AcDbEntity
  8
AM_9
100
AcDbLine
 10
-1.201976240145117
 20
-2.827933333333334
 30
0.0
 11
-1.220576240145117
 21
-2.809333333333333
 31
0.0
  0
LINE
  5
D5
330
BB
100
AcDbEntity
  8
AM_9
100
AcDbLine
 10
-1.391976240145117
 20
-2.827933333333334
 30
0.0
 11
-1.201976240145117
 21
-2.827933333333334
 31
0.0
  0
LINE
  5
D6
330
BB
100
AcDbEntity
  8
AM_9
100
AcDbLine
 10
-1.201976240145117
 20
-3.609333333333333
 30
0.0
 11
-1.201976240145117
 21
-2.827933333333334
 31
0.0
  0
LINE
  5
D7
330
BB
100
AcDbEntity
  8
AM_9
100
AcDbLine
 10
-1.391976240145117
 20
-2.827933333333334
 30
0.0
 11
-1.391976240145117
 21
-3.609333333333333
 31
0.0
  0
LINE
  5
D8
330
BB
100
AcDbEntity
  8
AM_5
100
AcDbLine
 10
-1.220576240145117
 20
-3.529333333333333
 30
0.0
 11
-1.201976240145117
 21
-3.561549478354115
 31
0.0
  0
LINE
  5
D9
330
BB
100
AcDbEntity
  8
AM_5
100
AcDbLine
 10
-1.391976247700121
 20
-3.529333333333333
 30
0.0
 11
-1.20197624482461
 21
-3.529333333333333
 31
0.0
  0
LINE
  5
DA
330
BB
100
AcDbEntity
  8
AM_5
100
AcDbLine
 10
-1.373376240145117
 20
-3.529333333333333
 30
0.0
 11
-1.391976240145117
 21
-3.561549478354115
 31
0.0
  0
LINE
  5
DB
330
BB
100
AcDbEntity
  8
AM_4
100
AcDbLine
 10
-1.396476240145117
 20
-3.710333333333333
 30
0.0
 11
-1.197476240145117
 21
-3.710333333333333
 31
0.0
  0
ARC
  5
DC
330
BB
100
AcDbEntity
  8
AM_4
100
AcDbCircle
 10
-1.197476240145117
 20
-3.629333333333334
 30
0.0
 40
0.0809999999999995
100
AcDbArc
 50
270.0
 51
0.0
  0
ARC
  5
DD
330
BB
100
AcDbEntity
  8
AM_4
100
AcDbCircle
 10
-1.396476240145117
 20
-3.629333333333334
 30
0.0
 40
0.0810000000000002
100
AcDbArc
 50
179.9999991462263
 51
270.0
  0
LINE
  5
DE
330
BB
100
AcDbEntity
  8
AM_4
100
AcDbLine
 10
-1.477476240145117
 20
-3.629333333333333
 30
0.0
 11
-1.116476240145117
 21
-3.629333333333333
 31
0.0
  0
LINE
  5
DF
330
BB
100
AcDbEntity
  8
AM_4
100
AcDbLine
 10
-1.116476240145117
 20
-3.629333333333333
 30
0.0
 11
-1.116476240145117
 21
-3.609333333333333
 31
0.0
  0
LINE
  5
E0
330
BB
100
AcDbEntity
  8
AM_4
100
AcDbLine
 10
-1.477476240145117
 20
-3.609333333333333
 30
0.0
 11
-1.477476240145117
 21
-3.629333333333333
 31
0.0
  0
ENDBLK
  5
BE
330
BB
100
AcDbEntity
  8
0
100
AcDbBlockEnd
  0
BLOCK
  5
E3
330
E1
100
AcDbEntity
  8
0
100
AcDbBlockBegin
  2
4_070898LW_0_in_069669_4
 70
     2
 10
0.0
 20
0.0
 30
0.0
  3
4_070898LW_0_in_069669_4
  1

  0
ATTDEF
  5
E5
330
E1
100
AcDbEntity
  8
AM_6
100
AcDbText
 10
7.140625
 20
-3.169333333333333
 30
0.0
 40
0.5
  1
Imperial Insert Lockwasher -Inch
100
AcDbAttributeDefinition
  3

  2
NN
 70
     8
280
     0
  0
ATTDEF
  5
E6
330
E1
100
AcDbEntity
  8
AM_6
100
AcDbText
 10
7.140625
 20
-3.669333333333333
 30
0.0
 40
0.5
  1
Imperial Bearings
100
AcDbAttributeDefinition
  3

  2
NT
 70
     8
280
     0
  0
ATTDEF
  5
E7
330
E1
100
AcDbEntity
  8
AM_6
100
AcDbText
 10
7.140625
 20
-4.169333333333333
 30
0.0
 40
0.5
  1
070898LW
100
AcDbAttributeDefinition
  3

  2
NB
 70
     8
280
     0
  0
ATTDEF
  5
E8
330
E1
100
AcDbEntity
  8
AM_6
100
AcDbText
 10
7.140625
 20
-4.669333333333333
 30
0.0
 40
0.5
  1
$PN.LW
100
AcDbAttributeDefinition
  3

  2
NBSYN
 70
     8
280
     0
  0
ATTDEF
  5
E9
330
E1
100
AcDbEntity
  8
AM_6
100
AcDbText
 10
7.140625
 20
-5.169333333333333
 30
0.0
 40
0.5
  1
070898
100
AcDbAttributeDefinition
  3

  2
LINA
 70
     8
280
     0
  0
ATTDEF
  5
EA
330
E1
100
AcDbEntity
  8
AM_6
100
AcDbText
 10
7.140625
 20
-5.669333333333333
 30
0.0
 40
0.5
  1
2-3/4
100
AcDbAttributeDefinition
  3

  2
SS
 70
     8
280
     0
  0
ATTDEF
  5
EB
330
E1
100
AcDbEntity
  8
AM_6
100
AcDbText
 10
7.140625
 20
-6.169333333333333
 30
0.0
 40
0.5
  1
2.750000
100
AcDbAttributeDefinition
  3

  2
SS1
 70
     8
280
     0
  0
ATTDEF
  5
EC
330
E1
100
AcDbEntity
  8
AM_6
100
AcDbText
 10
7.140625
 20
-6.669333333333333
 30
0.0
 40
0.5
  1
070898
100
AcDbAttributeDefinition
  3

  2
PN
 70
     8
280
     0
  0
ATTDEF
  5
ED
330
E1
100
AcDbEntity
  8
AM_6
100
AcDbText
 10
7.140625
 20
-7.169333333333333
 30
0.0
 40
0.5
  1
INS-IP-212R
100
AcDbAttributeDefinition
  3

  2
DESCRIPTION
 70
     8
280
     0
  0
ATTDEF
  5
EE
330
E1
100
AcDbEntity
  8
AM_6
100
AcDbText
 10
7.140625
 20
-7.669333333333333
 30
0.0
 40
0.5
  1
5.1181
100
AcDbAttributeDefinition
  3

  2
A
 70
     8
280
     0
  0
ATTDEF
  5
EF
330
E1
100
AcDbEntity
  8
AM_6
100
AcDbText
 10
7.140625
 20
-8.169333333333334
 30
0.0
 40
0.5
  1
1-9/32
100
AcDbAttributeDefinition
  3

  2
B
 70
     8
280
     0
  0
ATTDEF
  5
F0
330
E1
100
AcDbEntity
  8
AM_6
100
AcDbText
 10
7.140625
 20
-8.669333333333334
 30
0.0
 40
0.5
  1
3-1/2
100
AcDbAttributeDefinition
  3

  2
C
 70
     8
280
     0
  0
ATTDEF
  5
F1
330
E1
100
AcDbEntity
  8
AM_6
100
AcDbText
 10
7.140625
 20
-9.169333333333334
 30
0.0
 40
0.5
  1
1.219
100
AcDbAttributeDefinition
  3

  2
D
 70
     8
280
     0
  0
ATTDEF
  5
F2
330
E1
100
AcDbEntity
  8
AM_6
100
AcDbText
 10
7.140625
 20
-9.669333333333334
 30
0.0
 40
0.5
  1
4-9/32
100
AcDbAttributeDefinition
  3

  2
E
 70
     8
280
     0
  0
ATTDEF
  5
F3
330
E1
100
AcDbEntity
  8
AM_6
100
AcDbText
 10
7.140625
 20
-10.16933333333333
 30
0.0
 40
0.5
  1
0.1900
100
AcDbAttributeDefinition
  3

  2
NDM
 70
     8
280
     0
  0
ATTDEF
  5
F4
330
E1
100
AcDbEntity
  8
AM_6
100
AcDbText
 10
7.140625
 20
-10.66933333333333
 30
0.0
 40
0.5
  1
0.1450
100
AcDbAttributeDefinition
  3

  2
KDM
 70
     8
280
     0
  0
ATTDEF
  5
F5
330
E1
100
AcDbEntity
  8
AM_6
100
AcDbText
 10
7.140625
 20
-11.16933333333333
 30
0.0
 40
0.5
  1
3.74
100
AcDbAttributeDefinition
  3

  2
AL
 70
     8
280
     0
  0
ATTDEF
  5
F6
330
E1
100
AcDbEntity
  8
AM_6
100
AcDbText
 10
7.140625
 20
-11.66933333333333
 30
0.0
 40
0.5
  1
0.50
100
AcDbAttributeDefinition
  3

  2
BL
 70
     8
280
     0
  0
ATTDEF
  5
F7
330
E1
100
AcDbEntity
  8
AM_6
100
AcDbText
 10
7.140625
 20
-12.16933333333333
 30
0.0
 40
0.5
  1
0.07
100
AcDbAttributeDefinition
  3

  2
CL
 70
     8
280
     0
  0
ATTDEF
  5
F8
330
E1
100
AcDbEntity
  8
AM_6
100
AcDbText
 10
7.140625
 20
-12.66933333333333
 30
0.0
 40
0.5
  1
0.44
100
AcDbAttributeDefinition
  3

  2
DL
 70
     8
280
     0
  0
ATTDEF
  5
F9
330
E1
100
AcDbEntity
  8
AM_6
100
AcDbText
 10
7.140625
 20
-13.16933333333333
 30
0.0
 40
0.5
  1
baldor
100
AcDbAttributeDefinition
  3

  2
COMPANY
 70
     8
280
     0
  0
LINE
  5
FA
330
E1
100
AcDbEntity
  8
AM_9
100
AcDbLine
 10
-1.483447698608528
 20
-3.539333333333333
 30
0.0
 11
-1.483447698608528
 21
-3.609333333333333
 31
0.0
  0
LINE
  5
FB
330
E1
100
AcDbEntity
  8
AM_9
100
AcDbLine
 10
1.483447698608528
 20
-3.539333333333333
 30
0.0
 11
1.483447698608528
 21
-3.609333333333333
 31
0.0
  0
LINE
  5
FC
330
E1
100
AcDbEntity
  8
AM_9
100
AcDbLine
 10
-1.834201388888902
 20
-3.539333333333333
 30
0.0
 11
-1.834201388888902
 21
-3.609333333333333
 31
0.0
  0
LINE
  5
FD
330
E1
100
AcDbEntity
  8
AM_9
100
AcDbLine
 10
-1.929233282008483
 20
-3.539333333333333
 30
0.0
 11
-1.929233282008483
 21
-3.609333333333333
 31
0.0
  0
LINE
  5
FE
330
E1
100
AcDbEntity
  8
AM_9
100
AcDbLine
 10
1.834201388888889
 20
-3.539333333333333
 30
0.0
 11
1.834201388888889
 21
-3.609333333333333
 31
0.0
  0
LINE
  5
FF
330
E1
100
AcDbEntity
  8
AM_9
100
AcDbLine
 10
1.929233282008483
 20
-3.609333333333333
 30
0.0
 11
1.929233282008483
 21
-3.539333333333333
 31
0.0
  0
LINE
  5
100
330
E1
100
AcDbEntity
  8
AM_9
100
AcDbLine
 10
-1.416305638061869
 20
-3.539333333333333
 30
0.0
 11
-1.416305638061869
 21
-3.609333333333333
 31
0.0
  0
LINE
  5
101
330
E1
100
AcDbEntity
  8
AM_9
100
AcDbLine
 10
-1.312909579980035
 20
-3.169333333333333
 30
0.0
 11
-1.312909579980035
 21
-3.609333333333333
 31
0.0
  0
LINE
  5
102
330
E1
100
AcDbEntity
  8
AM_9
100
AcDbLine
 10
-1.380033305842771
 20
-3.169333333333333
 30
0.0
 11
-1.380033305842771
 21
-3.539333333333333
 31
0.0
  0
LINE
  5
103
330
E1
100
AcDbEntity
  8
AM_9
100
AcDbLine
 10
-1.320634779970597
 20
-3.539333333333333
 30
0.0
 11
-1.320634779970597
 21
-3.609333333333333
 31
0.0
  0
LINE
  5
104
330
E1
100
AcDbEntity
  8
AM_9
100
AcDbLine
 10
-1.284362447751498
 20
-3.539333333333333
 30
0.0
 11
-1.284362447751499
 21
-3.169333333333333
 31
0.0
  0
LINE
  5
105
330
E1
100
AcDbEntity
  8
AM_9
100
AcDbLine
 10
-1.217238721888762
 20
-3.169333333333333
 30
0.0
 11
-1.217238721888762
 21
-3.609333333333333
 31
0.0
  0
LINE
  5
106
330
E1
100
AcDbEntity
  8
AM_9
100
AcDbLine
 10
-1.217238721888762
 20
-3.169333333333333
 30
0.0
 11
-1.380033305842771
 21
-3.169333333333333
 31
0.0
  0
LINE
  5
107
330
E1
100
AcDbEntity
  8
AM_9
100
AcDbLine
 10
-1.11613107143439
 20
-3.539333333333333
 30
0.0
 11
-1.11613107143439
 21
-3.609333333333333
 31
0.0
  0
LINE
  5
108
330
E1
100
AcDbEntity
  8
AM_9
100
AcDbLine
 10
1.11613107143439
 20
-3.539333333333333
 30
0.0
 11
1.11613107143439
 21
-3.609333333333333
 31
0.0
  0
LINE
  5
109
330
E1
100
AcDbEntity
  8
AM_9
100
AcDbLine
 10
-0.9817807830089461
 20
-3.539333333333333
 30
0.0
 11
-0.9817807830089461
 21
-3.609333333333333
 31
0.0
  0
LINE
  5
10A
330
E1
100
AcDbEntity
  8
AM_9
100
AcDbLine
 10
0.9817807830089453
 20
-3.539333333333333
 30
0.0
 11
0.9817807830089453
 21
-3.609333333333333
 31
0.0
  0
LINE
  5
10B
330
E1
100
AcDbEntity
  8
AM_9
100
AcDbLine
 10
-1.364151384357839
 20
-3.539333333333333
 30
0.0
 11
-1.364151384357839
 21
-3.609333333333333
 31
0.0
  0
LINE
  5
10C
330
E1
100
AcDbEntity
  8
AM_9
100
AcDbLine
 10
-1.229801095932395
 20
-3.539333333333333
 30
0.0
 11
-1.229801095932395
 21
-3.609333333333333
 31
0.0
  0
LINE
  5
10D
330
E1
100
AcDbEntity
  8
AM_9
100
AcDbLine
 10
-1.391998793553742
 20
-3.539333333333333
 30
0.0
 11
-1.391998793553742
 21
-3.609333333333333
 31
0.0
  0
LINE
  5
10E
330
E1
100
AcDbEntity
  8
AM_9
100
AcDbLine
 10
1.229801095932395
 20
-3.539333333333333
 30
0.0
 11
1.229801095932395
 21
-3.609333333333333
 31
0.0
  0
LINE
  5
10F
330
E1
100
AcDbEntity
  8
AM_9
100
AcDbLine
 10
1.364151384357839
 20
-3.539333333333333
 30
0.0
 11
1.364151384357839
 21
-3.609333333333333
 31
0.0
  0
LINE
  5
110
330
E1
100
AcDbEntity
  8
AM_9
100
AcDbLine
 10
1.391998793553742
 20
-3.609333333333333
 30
0.0
 11
1.391998793553742
 21
-3.539333333333333
 31
0.0
  0
LINE
  5
111
330
E1
100
AcDbEntity
  8
AM_9
100
AcDbLine
 10
-0.0950000000000003
 20
-3.539333333333333
 30
0.0
 11
-0.0950000000000003
 21
-3.609333333333333
 31
0.0
  0
LINE
  5
112
330
E1
100
AcDbEntity
  8
AM_9
100
AcDbLine
 10
0.0949999999999996
 20
-3.539333333333333
 30
0.0
 11
0.0949999999999996
 21
-3.609333333333333
 31
0.0
  0
LINE
  5
113
330
E1
100
AcDbEntity
  8
AM_4
100
AcDbLine
 10
-2.140625
 20
-3.539333333333333
 30
0.0
 11
-2.140625
 21
-3.609333333333333
 31
0.0
  0
LINE
  5
114
330
E1
100
AcDbEntity
  8
AM_4
100
AcDbLine
 10
2.140625
 20
-3.609333333333333
 30
0.0
 11
2.140625
 21
-3.539333333333333
 31
0.0
  0
LINE
  5
115
330
E1
100
AcDbEntity
  8
AM_4
100
AcDbLine
 10
-2.140625
 20
-3.609333333333333
 30
0.0
 11
2.140625
 21
-3.609333333333333
 31
0.0
  0
LINE
  5
116
330
E1
100
AcDbEntity
  8
AM_4
100
AcDbLine
 10
-2.140625
 20
-3.539333333333333
 30
0.0
 11
2.140625
 21
-3.539333333333333
 31
0.0
  0
ENDBLK
  5
E4
330
E1
100
AcDbEntity
  8
0
100
AcDbBlockEnd
  0
BLOCK
  5
119
330
117
100
AcDbEntity
  8
0
100
AcDbBlockBegin
  2
5_070930I_0_in_069669_4
 70
     2
 10
0.0
 20
0.0
 30
0.0
  3
5_070930I_0_in_069669_4
  1

  0
ATTDEF
  5
11B
330
117
100
AcDbEntity
  8
AM_6
100
AcDbText
 10
7.559050000000001
 20
-0.2875000000000004
 30
0.0
 40
0.5
  1
Imperial Insert -Inch
100
AcDbAttributeDefinition
  3

  2
NN
 70
     8
280
     0
  0
ATTDEF
  5
11C
330
117
100
AcDbEntity
  8
AM_6
100
AcDbText
 10
7.559050000000001
 20
-0.7875000000000004
 30
0.0
 40
0.5
  1
Imperial Bearings
100
AcDbAttributeDefinition
  3

  2
NT
 70
     8
280
     0
  0
ATTDEF
  5
11D
330
117
100
AcDbEntity
  8
AM_6
100
AcDbText
 10
7.559050000000001
 20
-1.287500000000001
 30
0.0
 40
0.5
  1
070930I
100
AcDbAttributeDefinition
  3

  2
NB
 70
     8
280
     0
  0
ATTDEF
  5
11E
330
117
100
AcDbEntity
  8
AM_6
100
AcDbText
 10
7.559050000000001
 20
-1.787500000000001
 30
0.0
 40
0.5
  1
$PN.I
100
AcDbAttributeDefinition
  3

  2
NBSYN
 70
     8
280
     0
  0
ATTDEF
  5
11F
330
117
100
AcDbEntity
  8
AM_6
100
AcDbText
 10
7.559050000000001
 20
-2.287500000000001
 30
0.0
 40
0.5
  1
070930
100
AcDbAttributeDefinition
  3

  2
LINA
 70
     8
280
     0
  0
ATTDEF
  5
120
330
117
100
AcDbEntity
  8
AM_6
100
AcDbText
 10
7.559050000000001
 20
-2.787500000000001
 30
0.0
 40
0.5
  1
2-3/4
100
AcDbAttributeDefinition
  3

  2
SS
 70
     8
280
     0
  0
ATTDEF
  5
121
330
117
100
AcDbEntity
  8
AM_6
100
AcDbText
 10
7.559050000000001
 20
-3.287500000000001
 30
0.0
 40
0.5
  1
2.750000
100
AcDbAttributeDefinition
  3

  2
SS1
 70
     8
280
     0
  0
ATTDEF
  5
122
330
117
100
AcDbEntity
  8
AM_6
100
AcDbText
 10
7.559050000000001
 20
-3.787500000000001
 30
0.0
 40
0.5
  1
070930
100
AcDbAttributeDefinition
  3

  2
PN
 70
     8
280
     0
  0
ATTDEF
  5
123
330
117
100
AcDbEntity
  8
AM_6
100
AcDbText
 10
7.559050000000001
 20
-4.287500000000001
 30
0.0
 40
0.5
  1
INS-IP-212L
100
AcDbAttributeDefinition
  3

  2
DESCRIPTION
 70
     8
280
     0
  0
ATTDEF
  5
124
330
117
100
AcDbEntity
  8
AM_6
100
AcDbText
 10
7.559050000000001
 20
-4.787500000000001
 30
0.0
 40
0.5
  1
Labyrinth Seal
100
AcDbAttributeDefinition
  3

  2
ST
 70
     8
280
     0
  0
ATTDEF
  5
125
330
117
100
AcDbEntity
  8
AM_6
100
AcDbText
 10
7.559050000000001
 20
-5.287500000000001
 30
0.0
 40
0.5
  1
5.1181
100
AcDbAttributeDefinition
  3

  2
A
 70
     8
280
     0
  0
ATTDEF
  5
126
330
117
100
AcDbEntity
  8
AM_6
100
AcDbText
 10
7.559050000000001
 20
-5.787500000000001
 30
0.0
 40
0.5
  1
1-9/32
100
AcDbAttributeDefinition
  3

  2
B
 70
     8
280
     0
  0
ATTDEF
  5
127
330
117
100
AcDbEntity
  8
AM_6
100
AcDbText
 10
7.559050000000001
 20
-6.287500000000001
 30
0.0
 40
0.5
  1
3-1/2
100
AcDbAttributeDefinition
  3

  2
C
 70
     8
280
     0
  0
ATTDEF
  5
128
330
117
100
AcDbEntity
  8
AM_6
100
AcDbText
 10
7.559050000000001
 20
-6.787500000000001
 30
0.0
 40
0.5
  1
1.219
100
AcDbAttributeDefinition
  3

  2
D
 70
     8
280
     0
  0
ATTDEF
  5
129
330
117
100
AcDbEntity
  8
AM_6
100
AcDbText
 10
7.559050000000001
 20
-7.287500000000001
 30
0.0
 40
0.5
  1
4-9/32
100
AcDbAttributeDefinition
  3

  2
E
 70
     8
280
     0
  0
ATTDEF
  5
12A
330
117
100
AcDbEntity
  8
AM_6
100
AcDbText
 10
7.559050000000001
 20
-7.787500000000001
 30
0.0
 40
0.5
  1
0.1900
100
AcDbAttributeDefinition
  3

  2
NDM
 70
     8
280
     0
  0
ATTDEF
  5
12B
330
117
100
AcDbEntity
  8
AM_6
100
AcDbText
 10
7.559050000000001
 20
-8.287500000000001
 30
0.0
 40
0.5
  1
0.101
100
AcDbAttributeDefinition
  3

  2
H
 70
     8
280
     0
  0
ATTDEF
  5
12C
330
117
100
AcDbEntity
  8
AM_6
100
AcDbText
 10
7.559050000000001
 20
-8.787500000000001
 30
0.0
 40
0.5
  1
0.1450
100
AcDbAttributeDefinition
  3

  2
KDM
 70
     8
280
     0
  0
ATTDEF
  5
12D
330
117
100
AcDbEntity
  8
AM_6
100
AcDbText
 10
7.559050000000001
 20
-9.287500000000001
 30
0.0
 40
0.5
  1
3.74
100
AcDbAttributeDefinition
  3

  2
AL
 70
     8
280
     0
  0
ATTDEF
  5
12E
330
117
100
AcDbEntity
  8
AM_6
100
AcDbText
 10
7.559050000000001
 20
-9.787500000000001
 30
0.0
 40
0.5
  1
0.50
100
AcDbAttributeDefinition
  3

  2
BL
 70
     8
280
     0
  0
ATTDEF
  5
12F
330
117
100
AcDbEntity
  8
AM_6
100
AcDbText
 10
7.559050000000001
 20
-10.2875
 30
0.0
 40
0.5
  1
0.07
100
AcDbAttributeDefinition
  3

  2
CL
 70
     8
280
     0
  0
ATTDEF
  5
130
330
117
100
AcDbEntity
  8
AM_6
100
AcDbText
 10
7.559050000000001
 20
-10.7875
 30
0.0
 40
0.5
  1
0.44
100
AcDbAttributeDefinition
  3

  2
DL
 70
     8
280
     0
  0
ATTDEF
  5
131
330
117
100
AcDbEntity
  8
AM_6
100
AcDbText
 10
7.559050000000001
 20
-11.2875
 30
0.0
 40
0.5
  1
0.8000
100
AcDbAttributeDefinition
  3

  2
LL
 70
     8
280
     0
  0
ATTDEF
  5
132
330
117
100
AcDbEntity
  8
AM_6
100
AcDbText
 10
7.559050000000001
 20
-11.7875
 30
0.0
 40
0.5
  1
0.025
100
AcDbAttributeDefinition
  3

  2
Y
 70
     8
280
     0
  0
ATTDEF
  5
133
330
117
100
AcDbEntity
  8
AM_6
100
AcDbText
 10
7.559050000000001
 20
-12.2875
 30
0.0
 40
0.5
  1
0.025000
100
AcDbAttributeDefinition
  3

  2
Y1
 70
     8
280
     0
  0
ATTDEF
  5
134
330
117
100
AcDbEntity
  8
AM_6
100
AcDbText
 10
7.559050000000001
 20
-12.7875
 30
0.0
 40
0.5
  1
3-15/32
100
AcDbAttributeDefinition
  3

  2
Z
 70
     8
280
     0
  0
ATTDEF
  5
135
330
117
100
AcDbEntity
  8
AM_6
100
AcDbText
 10
7.559050000000001
 20
-13.2875
 30
0.0
 40
0.5
  1
3.468750
100
AcDbAttributeDefinition
  3

  2
Z1
 70
     8
280
     0
  0
ATTDEF
  5
136
330
117
100
AcDbEntity
  8
AM_6
100
AcDbText
 10
7.559050000000001
 20
-13.7875
 30
0.0
 40
0.5
  1
baldor
100
AcDbAttributeDefinition
  3

  2
COMPANY
 70
     8
280
     0
  0
LINE
  5
137
330
117
100
AcDbEntity
  8
AM_9
100
AcDbLine
 10
1.296976240145117
 20
-2.699333333333336
 30
0.0
 11
1.224526240145117
 21
-2.733117323166669
 31
0.0
  0
LINE
  5
138
330
117
100
AcDbEntity
  8
AM_9
100
AcDbLine
 10
1.369426240145117
 20
-2.733117323166669
 30
0.0
 11
1.296976240145117
 21
-2.699333333333336
 31
0.0
  0
LINE
  5
139
330
117
100
AcDbEntity
  8
AM_9
100
AcDbLine
 10
1.369426240145117
 20
-3.516783333333337
 30
0.0
 11
1.369426240145117
 21
-2.733117323166669
 31
0.0
  0
LINE
  5
13A
330
117
100
AcDbEntity
  8
AM_9
100
AcDbLine
 10
1.224526240145117
 20
-2.733117323166669
 30
0.0
 11
1.224526240145117
 21
-3.516783333333337
 31
0.0
  0
LINE
  5
13B
330
117
100
AcDbEntity
  8
AM_9
100
AcDbLine
 10
1.224526240145117
 20
-2.733117323166669
 30
0.0
 11
1.369426240145117
 21
-2.733117323166669
 31
0.0
  0
LINE
  5
13C
330
117
100
AcDbEntity
  8
AM_9
100
AcDbLine
 10
1.224526240145117
 20
-3.516783333333337
 30
0.0
 11
1.201976240145117
 21
-3.539333333333314
 31
0.0
  0
LINE
  5
13D
330
117
100
AcDbEntity
  8
AM_9
100
AcDbLine
 10
1.391976240145117
 20
-3.539333333333314
 30
0.0
 11
1.369426240145117
 21
-3.516783333333337
 31
0.0
  0
LINE
  5
13E
330
117
100
AcDbEntity
  8
AM_9
100
AcDbLine
 10
1.224526240145117
 20
-3.516783333333337
 30
0.0
 11
1.369426240145117
 21
-3.516783333333337
 31
0.0
  0
LINE
  5
13F
330
117
100
AcDbEntity
  8
AM_9
100
AcDbLine
 10
1.87
 20
-3.099333333333334
 30
0.0
 11
1.87
 21
-3.539333333333333
 31
0.0
  0
LINE
  5
140
330
117
100
AcDbEntity
  8
AM_9
100
AcDbLine
 10
-1.870000000000001
 20
-3.099333333333334
 30
0.0
 11
-1.870000000000001
 21
-3.539333333333333
 31
0.0
  0
LINE
  5
141
330
117
100
AcDbEntity
  8
AM_9
100
AcDbLine
 10
1.87
 20
-3.099333333333334
 30
0.0
 11
2.141446585287281
 21
-3.099333333333334
 31
0.0
  0
LINE
  5
142
330
117
100
AcDbEntity
  8
AM_9
100
AcDbLine
 10
-2.141446585287281
 20
-3.099333333333334
 30
0.0
 11
-1.870000000000001
 21
-3.099333333333334
 31
0.0
  0
LINE
  5
143
330
117
100
AcDbEntity
  8
AM_9
100
AcDbLine
 10
-1.38357471932494
 20
-0.8908750000000004
 30
0.0
 11
-1.38357471932494
 21
-3.539333333333333
 31
0.0
  0
LINE
  5
144
330
117
100
AcDbEntity
  8
AM_9
100
AcDbLine
 10
-1.287903861233668
 20
-0.8908750000000004
 30
0.0
 11
-1.287903861233668
 21
-3.539333333333333
 31
0.0
  0
LINE
  5
145
330
117
100
AcDbEntity
  8
AM_9
100
AcDbLine
 10
-1.296976240145117
 20
-2.699333333333333
 30
0.0
 11
-1.369426240145117
 21
-2.733117323166663
 31
0.0
  0
LINE
  5
146
330
117
100
AcDbEntity
  8
AM_9
100
AcDbLine
 10
-1.224526240145117
 20
-2.733117323166663
 30
0.0
 11
-1.296976240145117
 21
-2.699333333333333
 31
0.0
  0
LINE
  5
147
330
117
100
AcDbEntity
  8
AM_9
100
AcDbLine
 10
-1.224526240145117
 20
-2.733117323166663
 30
0.0
 11
-1.369426240145117
 21
-2.733117323166663
 31
0.0
  0
LINE
  5
148
330
117
100
AcDbEntity
  8
AM_9
100
AcDbLine
 10
-1.369426240145117
 20
-2.733117323166663
 30
0.0
 11
-1.369426240145117
 21
-3.516783333333334
 31
0.0
  0
LINE
  5
149
330
117
100
AcDbEntity
  8
AM_9
100
AcDbLine
 10
-1.224526240145117
 20
-3.516783333333334
 30
0.0
 11
-1.224526240145117
 21
-2.733117323166663
 31
0.0
  0
LINE
  5
14A
330
117
100
AcDbEntity
  8
AM_9
100
AcDbLine
 10
-1.224526240145117
 20
-3.516783333333334
 30
0.0
 11
-1.369426240145117
 21
-3.516783333333334
 31
0.0
  0
LINE
  5
14B
330
117
100
AcDbEntity
  8
AM_9
100
AcDbLine
 10
-1.369426240145117
 20
-3.516783333333334
 30
0.0
 11
-1.391976240145117
 21
-3.539333333333333
 31
0.0
  0
LINE
  5
14C
330
117
100
AcDbEntity
  8
AM_9
100
AcDbLine
 10
-1.201976240145117
 20
-3.539333333333333
 30
0.0
 11
-1.224526240145117
 21
-3.516783333333334
 31
0.0
  0
LINE
  5
14D
330
117
100
AcDbEntity
  8
AM_9
100
AcDbLine
 10
-1.217238721888762
 20
-0.8908750000000004
 30
0.0
 11
-1.217238721888761
 21
-3.8125
 31
0.0
  0
LINE
  5
14E
330
117
100
AcDbEntity
  8
AM_9
100
AcDbLine
 10
-1.312909579980035
 20
-3.710333333333333
 30
0.0
 11
-1.312909579980035
 21
-0.8908750000000004
 31
0.0
  0
LINE
  5
14F
330
117
100
AcDbEntity
  8
AM_9
100
AcDbLine
 10
-1.375
 20
-0.8908750000000004
 30
0.0
 11
-1.375
 21
-3.8125
 31
0.0
  0
LINE
  5
150
330
117
100
AcDbEntity
  8
AM_9
100
AcDbLine
 10
1.375
 20
-3.8125
 30
0.0
 11
1.375
 21
-0.8908750000000004
 31
0.0
  0
LINE
  5
151
330
117
100
AcDbEntity
  8
AM_9
100
AcDbLine
 10
-1.447368421052632
 20
-0.3124999999999997
 30
0.0
 11
-1.447368421052632
 21
-0.8908750000000004
 31
0.0
  0
LINE
  5
152
330
117
100
AcDbEntity
  8
AM_9
100
AcDbLine
 10
1.447368421052632
 20
-0.8908750000000004
 30
0.0
 11
1.447368421052632
 21
-0.3124999999999997
 31
0.0
  0
LINE
  5
153
330
117
100
AcDbEntity
  8
AM_9
100
AcDbLine
 10
-1.284362447751498
 20
-3.710333333333333
 30
0.0
 11
-1.284362447751498
 21
-3.539333333333333
 31
0.0
  0
LINE
  5
154
330
117
100
AcDbEntity
  8
AM_9
100
AcDbLine
 10
-1.380033305842771
 20
-3.539333333333333
 30
0.0
 11
-1.380033305842771
 21
-3.710333333333333
 31
0.0
  0
LINE
  5
155
330
117
100
AcDbEntity
  8
AM_9
100
AcDbLine
 10
-1.447368421052632
 20
-3.539333333333333
 30
0.0
 11
-1.447368421052632
 21
-3.692349092651751
 31
0.0
  0
LINE
  5
156
330
117
100
AcDbEntity
  8
AM_9
100
AcDbLine
 10
1.447368421052632
 20
-3.609333333333333
 30
0.0
 11
1.447368421052632
 21
-3.539333333333333
 31
0.0
  0
LINE
  5
157
330
117
100
AcDbEntity
  8
AM_9
100
AcDbLine
 10
1.734375
 20
-0.3124999999999997
 30
0.0
 11
-1.734375
 21
-0.3124999999999997
 31
0.0
  0
LINE
  5
158
330
117
100
AcDbEntity
  8
AM_9
100
AcDbLine
 10
-1.734375
 20
-0.287500000000002
 30
0.0
 11
-1.734375
 21
-0.3124999999999997
 31
0.0
  0
LINE
  5
159
330
117
100
AcDbEntity
  8
AM_9
100
AcDbLine
 10
1.734375
 20
-0.3124999999999997
 30
0.0
 11
1.734375
 21
-0.287500000000002
 31
0.0
  0
LINE
  5
15A
330
117
100
AcDbEntity
  8
AM_9
100
AcDbLine
 10
1.882612179487178
 20
-0.2875000000000004
 30
0.0
 11
-1.882612179487178
 21
-0.2875000000000004
 31
0.0
  0
ARC
  5
15B
330
117
100
AcDbEntity
  8
AM_9
100
AcDbCircle
 10
-1.88261217948718
 20
-0.3319711538461543
 30
0.0
 40
0.0444711538461536
100
AcDbArc
 50
90.0
 51
180.0
  0
ARC
  5
15C
330
117
100
AcDbEntity
  8
AM_9
100
AcDbCircle
 10
1.88261217948718
 20
-0.3319711538461545
 30
0.0
 40
0.0444711538461535
100
AcDbArc
 50
0.0
 51
90.0
  0
LINE
  5
15D
330
117
100
AcDbEntity
  8
AM_9
100
AcDbLine
 10
1.927083333333333
 20
-0.3319711538461539
 30
0.0
 11
-1.927083333333333
 21
-0.3319711538461539
 31
0.0
  0
LINE
  5
15E
330
117
100
AcDbEntity
  8
AM_9
100
AcDbLine
 10
-1.927083333333333
 20
-0.3319711538461539
 30
0.0
 11
-1.927083333333333
 21
-0.6346250000000001
 31
0.0
  0
LINE
  5
15F
330
117
100
AcDbEntity
  8
AM_9
100
AcDbLine
 10
1.927083333333333
 20
-0.6346250000000001
 30
0.0
 11
1.927083333333333
 21
-0.3319711538461539
 31
0.0
  0
LINE
  5
160
330
117
100
AcDbEntity
  8
AM_9
100
AcDbLine
 10
2.180738778921584
 20
-2.390625
 30
0.0
 11
2.18836896705553
 21
-2.172125
 31
0.0
  0
LINE
  5
161
330
117
100
AcDbEntity
  8
AM_9
100
AcDbLine
 10
-2.18836896705553
 20
-2.172125
 30
0.0
 11
-2.180738778921584
 21
-2.390625
 31
0.0
  0
LINE
  5
162
330
117
100
AcDbEntity
  8
AM_9
100
AcDbLine
 10
2.153368966601195
 20
-0.6346250000000007
 30
0.0
 11
-2.153368966601195
 21
-0.6346250000000007
 31
0.0
  0
ARC
  5
163
330
117
100
AcDbEntity
  8
AM_9
100
AcDbCircle
 10
-2.153368966601181
 20
-0.7346250000000263
 30
0.0
 40
0.1000000000000256
100
AcDbArc
 50
90.0
 51
149.9999999999914
  0
ARC
  5
164
330
117
100
AcDbEntity
  8
AM_9
100
AcDbCircle
 10
2.153368966601195
 20
-0.7346250000000012
 30
0.0
 40
0.1000000000000008
100
AcDbArc
 50
30.00000000000028
 51
90.0
  0
LINE
  5
165
330
117
100
AcDbEntity
  8
AM_9
100
AcDbLine
 10
2.23997150697964
 20
-0.6846250000000004
 30
0.0
 11
-2.23997150697964
 21
-0.6846250000000004
 31
0.0
  0
LINE
  5
166
330
117
100
AcDbEntity
  8
AM_9
100
AcDbLine
 10
-2.23997150697964
 20
-0.6846250000000004
 30
0.0
 11
-2.35905
 21
-0.8908750000000004
 31
0.0
  0
LINE
  5
167
330
117
100
AcDbEntity
  8
AM_9
100
AcDbLine
 10
2.35905
 20
-0.8908750000000004
 30
0.0
 11
2.23997150697964
 21
-0.6846250000000004
 31
0.0
  0
LINE
  5
168
330
117
100
AcDbEntity
  8
AM_9
100
AcDbLine
 10
-2.4949875
 20
-1.49451349838004
 30
0.0
 11
-2.4949875
 21
-1.568486501619961
 31
0.0
  0
LINE
  5
169
330
117
100
AcDbEntity
  8
AM_9
100
AcDbLine
 10
2.4949875
 20
-1.568486501619961
 30
0.0
 11
2.4949875
 21
-1.49451349838004
 31
0.0
  0
LINE
  5
16A
330
117
100
AcDbEntity
  8
AM_9
100
AcDbLine
 10
2.4949875
 20
-1.49451349838004
 30
0.0
 11
2.55905
 21
-1.45752699676008
 31
0.0
  0
LINE
  5
16B
330
117
100
AcDbEntity
  8
AM_9
100
AcDbLine
 10
-2.55905
 20
-1.45752699676008
 30
0.0
 11
-2.4949875
 21
-1.49451349838004
 31
0.0
  0
LINE
  5
16C
330
117
100
AcDbEntity
  8
AM_9
100
AcDbLine
 10
2.4949875
 20
-1.49451349838004
 30
0.0
 11
-2.4949875
 21
-1.49451349838004
 31
0.0
  0
LINE
  5
16D
330
117
100
AcDbEntity
  8
AM_9
100
AcDbLine
 10
-2.55905
 20
-0.9408750000000001
 30
0.0
 11
-2.55905
 21
-1.45752699676008
 31
0.0
  0
LINE
  5
16E
330
117
100
AcDbEntity
  8
AM_9
100
AcDbLine
 10
2.55905
 20
-1.45752699676008
 30
0.0
 11
2.55905
 21
-0.9408750000000001
 31
0.0
  0
LINE
  5
16F
330
117
100
AcDbEntity
  8
AM_9
100
AcDbLine
 10
2.55905
 20
-1.45752699676008
 30
0.0
 11
-2.55905
 21
-1.45752699676008
 31
0.0
  0
LINE
  5
170
330
117
100
AcDbEntity
  8
AM_9
100
AcDbLine
 10
2.50905
 20
-0.8908750000000004
 30
0.0
 11
-2.50905
 21
-0.8908750000000004
 31
0.0
  0
LINE
  5
171
330
117
100
AcDbEntity
  8
AM_9
100
AcDbLine
 10
2.55905
 20
-0.9408750000000001
 30
0.0
 11
-2.55905
 21
-0.9408750000000001
 31
0.0
  0
ARC
  5
172
330
117
100
AcDbEntity
  8
AM_9
100
AcDbCircle
 10
-2.509050000000002
 20
-0.9408749999999997
 30
0.0
 40
0.0499999999999992
100
AcDbArc
 50
90.0
 51
180.0
  0
ARC
  5
173
330
117
100
AcDbEntity
  8
AM_9
100
AcDbCircle
 10
2.509050000000002
 20
-0.9408749999999997
 30
0.0
 40
0.0499999999999985
100
AcDbArc
 50
0.0
 51
90.0
  0
LINE
  5
174
330
117
100
AcDbEntity
  8
AM_9
100
AcDbLine
 10
-2.4949875
 20
-1.568486501619961
 30
0.0
 11
-2.55905
 21
-1.605473003239921
 31
0.0
  0
LINE
  5
175
330
117
100
AcDbEntity
  8
AM_9
100
AcDbLine
 10
2.55905
 20
-1.605473003239921
 30
0.0
 11
2.4949875
 21
-1.568486501619961
 31
0.0
  0
LINE
  5
176
330
117
100
AcDbEntity
  8
AM_9
100
AcDbLine
 10
2.4949875
 20
-1.568486501619961
 30
0.0
 11
-2.4949875
 21
-1.568486501619961
 31
0.0
  0
LINE
  5
177
330
117
100
AcDbEntity
  8
AM_9
100
AcDbLine
 10
-2.55905
 20
-1.605473003239921
 30
0.0
 11
-2.55905
 21
-2.122125
 31
0.0
  0
LINE
  5
178
330
117
100
AcDbEntity
  8
AM_9
100
AcDbLine
 10
2.55905
 20
-2.122125
 30
0.0
 11
2.55905
 21
-1.605473003239921
 31
0.0
  0
LINE
  5
179
330
117
100
AcDbEntity
  8
AM_9
100
AcDbLine
 10
2.55905
 20
-1.605473003239921
 30
0.0
 11
-2.55905
 21
-1.605473003239921
 31
0.0
  0
LINE
  5
17A
330
117
100
AcDbEntity
  8
AM_9
100
AcDbLine
 10
2.55905
 20
-2.122125
 30
0.0
 11
-2.55905
 21
-2.122125
 31
0.0
  0
LINE
  5
17B
330
117
100
AcDbEntity
  8
AM_9
100
AcDbLine
 10
2.50905
 20
-2.172125
 30
0.0
 11
-2.50905
 21
-2.172125
 31
0.0
  0
ARC
  5
17C
330
117
100
AcDbEntity
  8
AM_9
100
AcDbCircle
 10
-2.509050000000001
 20
-2.122125
 30
0.0
 40
0.0499999999999998
100
AcDbArc
 50
180.0
 51
270.0
  0
ARC
  5
17D
330
117
100
AcDbEntity
  8
AM_9
100
AcDbCircle
 10
2.509050000000001
 20
-2.122125
 30
0.0
 40
0.0500000000000003
100
AcDbArc
 50
270.0
 51
0.0
  0
LINE
  5
17E
330
117
100
AcDbEntity
  8
AM_5
100
AcDbLine
 10
-1.369426240145117
 20
-2.779333333333333
 30
0.0
 11
-1.391976240145117
 21
-2.779333333333333
 31
0.0
  0
LINE
  5
17F
330
117
100
AcDbEntity
  8
AM_5
100
AcDbLine
 10
-1.391976240145117
 20
-2.779333333333333
 30
0.0
 11
-1.369426240145117
 21
-2.766314084763107
 31
0.0
  0
LINE
  5
180
330
117
100
AcDbEntity
  8
AM_5
100
AcDbLine
 10
-1.224526240145117
 20
-2.779333333333333
 30
0.0
 11
-1.201976240145117
 21
-2.779333333333333
 31
0.0
  0
LINE
  5
181
330
117
100
AcDbEntity
  8
AM_5
100
AcDbLine
 10
-1.201976240145117
 20
-2.779333333333333
 30
0.0
 11
-1.224526240145117
 21
-2.766314084763108
 31
0.0
  0
LINE
  5
182
330
117
100
AcDbEntity
  8
AM_5
100
AcDbLine
 10
1.369426240145117
 20
-2.779333333333318
 30
0.0
 11
1.391976240145117
 21
-2.779333333333318
 31
0.0
  0
LINE
  5
183
330
117
100
AcDbEntity
  8
AM_5
100
AcDbLine
 10
1.391976240145117
 20
-2.779333333333318
 30
0.0
 11
1.369426240145117
 21
-2.76631408476311
 31
0.0
  0
LINE
  5
184
330
117
100
AcDbEntity
  8
AM_5
100
AcDbLine
 10
1.224526240145117
 20
-2.779333333333318
 30
0.0
 11
1.201976240145117
 21
-2.779333333333318
 31
0.0
  0
LINE
  5
185
330
117
100
AcDbEntity
  8
AM_5
100
AcDbLine
 10
1.201976240145117
 20
-2.779333333333318
 30
0.0
 11
1.224526240145117
 21
-2.76631408476311
 31
0.0
  0
LINE
  5
186
330
117
100
AcDbEntity
  8
AM_7
100
AcDbLine
 10
-1.296976240145117
 20
-2.657333333333334
 30
0.0
 11
-1.296976240145117
 21
-3.755383333333333
 31
0.0
  0
LINE
  5
187
330
117
100
AcDbEntity
  8
AM_4
100
AcDbLine
 10
-1.312909579980034
 20
-3.8125
 30
0.0
 11
-1.312909579980035
 21
-3.710333333333333
 31
0.0
  0
LINE
  5
188
330
117
100
AcDbEntity
  8
AM_4
100
AcDbLine
 10
-1.284362447751498
 20
-3.8125
 30
0.0
 11
-1.284362447751498
 21
-3.710333333333333
 31
0.0
  0
LINE
  5
189
330
117
100
AcDbEntity
  8
AM_4
100
AcDbLine
 10
-1.380033305842771
 20
-3.710333333333333
 30
0.0
 11
-1.380033305842771
 21
-3.8125
 31
0.0
  0
LINE
  5
18A
330
117
100
AcDbEntity
  8
AM_4
100
AcDbLine
 10
-1.447368421052632
 20
-3.692349092651751
 30
0.0
 11
-1.447368421052632
 21
-3.8125
 31
0.0
  0
LINE
  5
18B
330
117
100
AcDbEntity
  8
AM_4
100
AcDbLine
 10
1.447368421052632
 20
-3.8125
 30
0.0
 11
1.447368421052632
 21
-3.609333333333333
 31
0.0
  0
LINE
  5
18C
330
117
100
AcDbEntity
  8
AM_4
100
AcDbLine
 10
1.447368421052632
 20
-3.8125
 30
0.0
 11
-1.447368421052632
 21
-3.8125
 31
0.0
  0
LINE
  5
18D
330
117
100
AcDbEntity
  8
AM_4
100
AcDbLine
 10
0.2500000000000002
 20
-3.099333333333334
 30
0.0
 11
0.2500000000000002
 21
-3.539333333333333
 31
0.0
  0
LWPOLYLINE
  5
18E
330
117
100
AcDbEntity
  8
AM_4
100
AcDbPolyline
 90
        6
 70
     0
 43
0.0
 10
2.077351444578488
 20
-3.539333333333333
 10
2.084663944763332
 20
-3.538803406027257
 10
2.100862371987432
 20
-3.533549174789223
 10
2.11436486156678
 20
-3.52323359551393
 10
2.123606203429095
 20
-3.50909150615002
 10
2.127673042492066
 20
-3.491078308168459
  0
LINE
  5
18F
330
117
100
AcDbEntity
  8
AM_4
100
AcDbLine
 10
-0.2499999999999993
 20
-3.539333333333333
 30
0.0
 11
-0.2499999999999993
 21
-3.099333333333334
 31
0.0
  0
LWPOLYLINE
  5
190
330
117
100
AcDbEntity
  8
AM_4
100
AcDbPolyline
 90
        6
 70
     0
 43
0.0
 10
-2.127673042492066
 20
-3.491078308168459
 10
-2.124289436921441
 20
-3.507432855520174
 10
-2.115685705593954
 20
-3.521753833641606
 10
-2.1028028749141
 20
-3.532476839941751
 10
-2.087006014153751
 20
-3.538405870670556
 10
-2.077351444578488
 20
-3.539333333333333
  0
LINE
  5
191
330
117
100
AcDbEntity
  8
AM_4
100
AcDbLine
 10
2.127673042492066
 20
-3.491078308168459
 30
0.0
 11
0.2500000000000002
 21
-3.491078308168459
 31
0.0
  0
LINE
  5
192
330
117
100
AcDbEntity
  8
AM_4
100
AcDbLine
 10
2.127673042492066
 20
-3.491078308168459
 30
0.0
 11
2.141446585287281
 21
-3.099333333333334
 31
0.0
  0
LINE
  5
193
330
117
100
AcDbEntity
  8
AM_4
100
AcDbLine
 10
2.141446585287281
 20
-3.099333333333334
 30
0.0
 11
2.155990138576369
 21
-3.099333333333334
 31
0.0
  0
LINE
  5
194
330
117
100
AcDbEntity
  8
AM_4
100
AcDbLine
 10
-2.141446585287281
 20
-3.099333333333334
 30
0.0
 11
-2.127673042492066
 21
-3.491078308168459
 31
0.0
  0
LINE
  5
195
330
117
100
AcDbEntity
  8
AM_4
100
AcDbLine
 10
-0.2499999999999995
 20
-3.491078308168459
 30
0.0
 11
-2.127673042492066
 21
-3.491078308168459
 31
0.0
  0
LINE
  5
196
330
117
100
AcDbEntity
  8
AM_4
100
AcDbLine
 10
-0.2499999999999993
 20
-3.099333333333334
 30
0.0
 11
0.2500000000000002
 21
-3.099333333333334
 31
0.0
  0
LINE
  5
197
330
117
100
AcDbEntity
  8
AM_4
100
AcDbLine
 10
2.155990138576369
 20
-3.099333333333334
 30
0.0
 11
2.180738778921584
 21
-2.390625
 31
0.0
  0
LINE
  5
198
330
117
100
AcDbEntity
  8
AM_4
100
AcDbLine
 10
-2.180738778921584
 20
-2.390625
 30
0.0
 11
-2.155990138576369
 21
-3.099333333333334
 31
0.0
  0
LINE
  5
199
330
117
100
AcDbEntity
  8
AM_4
100
AcDbLine
 10
-2.155990138576369
 20
-3.099333333333334
 30
0.0
 11
-2.141446585287281
 21
-3.099333333333334
 31
0.0
  0
ENDBLK
  5
11A
330
117
100
AcDbEntity
  8
0
100
AcDbBlockEnd
  0
BLOCK
  5
19C
330
19A
100
AcDbEntity
  8
0
100
AcDbBlockBegin
  2
6_405015E_Inch_0_in_069669_4
 70
     2
 10
0.0
 20
0.0
 30
0.0
  3
6_405015E_Inch_0_in_069669_4
  1

  0
ATTDEF
  5
19E
330
19A
100
AcDbEntity
  8
AM_6
100
AcDbText
 10
5.218750000000001
 20
-1.317721757229538
 30
0.0
 40
0.5
  1
405015E -Inch
100
AcDbAttributeDefinition
  3

  2
NN
 70
     8
280
     0
  0
ATTDEF
  5
19F
330
19A
100
AcDbEntity
  8
AM_6
100
AcDbText
 10
5.218750000000001
 20
-1.817721757229538
 30
0.0
 40
0.5
  1
Grease Fitting
100
AcDbAttributeDefinition
  3

  2
NT
 70
     8
280
     0
  0
ATTDEF
  5
1A0
330
19A
100
AcDbEntity
  8
AM_6
100
AcDbText
 10
5.218750000000001
 20
-2.317721757229538
 30
0.0
 40
0.5
  1
405015E-Inch
100
AcDbAttributeDefinition
  3

  2
NB
 70
     8
280
     0
  0
ATTDEF
  5
1A1
330
19A
100
AcDbEntity
  8
AM_6
100
AcDbText
 10
5.218750000000001
 20
-2.817721757229538
 30
0.0
 40
0.5
  1
$MN.-Inch
100
AcDbAttributeDefinition
  3

  2
NBSYN
 70
     8
280
     0
  0
ATTDEF
  5
1A2
330
19A
100
AcDbEntity
  8
AM_6
100
AcDbText
 10
5.218750000000001
 20
-3.317721757229538
 30
0.0
 40
0.5
  1
405015E
100
AcDbAttributeDefinition
  3

  2
LINA
 70
     8
280
     0
  0
ATTDEF
  5
1A3
330
19A
100
AcDbEntity
  8
AM_6
100
AcDbText
 10
5.218750000000001
 20
-3.817721757229538
 30
0.0
 40
0.5
  1
405015E
100
AcDbAttributeDefinition
  3

  2
MN
 70
     8
280
     0
  0
ATTDEF
  5
1A4
330
19A
100
AcDbEntity
  8
AM_6
100
AcDbText
 10
5.218750000000001
 20
-4.317721757229538
 30
0.0
 40
0.5
  1
1/8 x 27PTF
100
AcDbAttributeDefinition
  3

  2
T
 70
     8
280
     0
  0
ATTDEF
  5
1A5
330
19A
100
AcDbEntity
  8
AM_6
100
AcDbText
 10
5.218750000000001
 20
-4.817721757229538
 30
0.0
 40
0.5
  1
baldor
100
AcDbAttributeDefinition
  3

  2
COMPANY
 70
     8
280
     0
  0
CIRCLE
  5
1A6
330
19A
100
AcDbEntity
  8
AM_9
100
AcDbCircle
 10
0.0
 20
-1.5703125
 30
0.0
 40
0.161902872472269
  0
CIRCLE
  5
1A7
330
19A
100
AcDbEntity
  8
AM_9
100
AcDbCircle
 10
0.0
 20
-1.5703125
 30
0.0
 40
0.1986176267812154
  0
CIRCLE
  5
1A8
330
19A
100
AcDbEntity
  8
AM_9
100
AcDbCircle
 10
0.0
 20
-1.5703125
 30
0.0
 40
0.2057518972230696
  0
CIRCLE
  5
1A9
330
19A
100
AcDbEntity
  8
AM_9
100
AcDbCircle
 10
0.0
 20
-1.5703125
 30
0.0
 40
0.1188200907348975
  0
CIRCLE
  5
1AA
330
19A
100
AcDbEntity
  8
AM_9
100
AcDbCircle
 10
0.0
 20
-1.5703125
 30
0.0
 40
0.105
  0
LINE
  5
1AB
330
19A
100
AcDbEntity
  8
AM_4
100
AcDbLine
 10
-0.21875
 20
-1.69660787138523
 30
0.0
 11
0.0
 21
-1.822903242770461
 31
0.0
  0
LINE
  5
1AC
330
19A
100
AcDbEntity
  8
AM_4
100
AcDbLine
 10
-0.21875
 20
-1.444017128614769
 30
0.0
 11
-0.21875
 21
-1.69660787138523
 31
0.0
  0
LINE
  5
1AD
330
19A
100
AcDbEntity
  8
AM_4
100
AcDbLine
 10
0.21875
 20
-1.444017128614769
 30
0.0
 11
0.0
 21
-1.317721757229538
 31
0.0
  0
LINE
  5
1AE
330
19A
100
AcDbEntity
  8
AM_4
100
AcDbLine
 10
0.21875
 20
-1.69660787138523
 30
0.0
 11
0.21875
 21
-1.444017128614769
 31
0.0
  0
LINE
  5
1AF
330
19A
100
AcDbEntity
  8
AM_4
100
AcDbLine
 10
0.0
 20
-1.317721757229538
 30
0.0
 11
-0.21875
 21
-1.444017128614769
 31
0.0
  0
LINE
  5
1B0
330
19A
100
AcDbEntity
  8
AM_4
100
AcDbLine
 10
0.0
 20
-1.822903242770461
 30
0.0
 11
0.21875
 21
-1.69660787138523
 31
0.0
  0
CIRCLE
  5
1B1
330
19A
100
AcDbEntity
  8
AM_4
100
AcDbCircle
 10
0.0
 20
-1.5703125
 30
0.0
 40
0.21375
  0
CIRCLE
  5
1B2
330
19A
100
AcDbEntity
  8
AM_4
100
AcDbCircle
 10
0.0
 20
-1.5703125
 30
0.0
 40
0.1725340532830154
  0
CIRCLE
  5
1B3
330
19A
100
AcDbEntity
  8
AM_4
100
AcDbCircle
 10
0.0
 20
-1.5703125
 30
0.0
 40
0.1026779019331875
  0
CIRCLE
  5
1B4
330
19A
100
AcDbEntity
  8
AM_4
100
AcDbCircle
 10
0.0
 20
-1.5703125
 30
0.0
 40
0.135
  0
ARC
  5
1B5
330
19A
100
AcDbEntity
  8
AM_5
100
AcDbCircle
 10
-0.0000000000000001
 20
-1.5703125
 30
0.0
 40
0.2025000050000003
100
AcDbArc
 50
75.00000000000001
 51
15.00000000000007
  0
CIRCLE
  5
1B6
330
19A
100
AcDbEntity
  8
AM_4
100
AcDbCircle
 10
0.0000000000000003
 20
-1.5703125
 30
0.0
 40
0.2187500000000003
  0
ENDBLK
  5
19D
330
19A
100
AcDbEntity
  8
0
100
AcDbBlockEnd
  0
BLOCK
  5
1B9
330
1B7
100
AcDbEntity
  8
0
100
AcDbBlockBegin
  2
7_069669H_0_in_069669_4
 70
     2
 10
0.0
 20
0.0
 30
0.0
  3
7_069669H_0_in_069669_4
  1

  0
ATTDEF
  5
1BB
330
1B7
100
AcDbEntity
  8
AM_6
100
AcDbText
 10
9.625
 20
0.1255078125
 30
0.0
 40
0.5
  1
F3&4R-IP -(Labyrinth Seal)-Housing -Inch
100
AcDbAttributeDefinition
  3

  2
NN
 70
     8
280
     0
  0
ATTDEF
  5
1BC
330
1B7
100
AcDbEntity
  8
AM_6
100
AcDbText
 10
9.625
 20
-0.3744921875
 30
0.0
 40
0.5
  1
Imperial 3 & 4 Bolt Round Flange Bearings
100
AcDbAttributeDefinition
  3

  2
NT
 70
     8
280
     0
  0
ATTDEF
  5
1BD
330
1B7
100
AcDbEntity
  8
AM_6
100
AcDbText
 10
9.625
 20
-0.8744921875
 30
0.0
 40
0.5
  1
069669H
100
AcDbAttributeDefinition
  3

  2
NB
 70
     8
280
     0
  0
ATTDEF
  5
1BE
330
1B7
100
AcDbEntity
  8
AM_6
100
AcDbText
 10
9.625
 20
-1.3744921875
 30
0.0
 40
0.5
  1
$PN.H
100
AcDbAttributeDefinition
  3

  2
NBSYN
 70
     8
280
     0
  0
ATTDEF
  5
1BF
330
1B7
100
AcDbEntity
  8
AM_6
100
AcDbText
 10
9.625
 20
-1.8744921875
 30
0.0
 40
0.5
  1
069669
100
AcDbAttributeDefinition
  3

  2
LINA
 70
     8
280
     0
  0
ATTDEF
  5
1C0
330
1B7
100
AcDbEntity
  8
AM_6
100
AcDbText
 10
9.625
 20
-2.3744921875
 30
0.0
 40
0.5
  1
2-3/4
100
AcDbAttributeDefinition
  3

  2
SS
 70
     8
280
     0
  0
ATTDEF
  5
1C1
330
1B7
100
AcDbEntity
  8
AM_6
100
AcDbText
 10
9.625
 20
-2.8744921875
 30
0.0
 40
0.5
  1
069669
100
AcDbAttributeDefinition
  3

  2
PN
 70
     8
280
     0
  0
ATTDEF
  5
1C2
330
1B7
100
AcDbEntity
  8
AM_6
100
AcDbText
 10
9.625
 20
-3.3744921875
 30
0.0
 40
0.5
  1
F4R-IP-212L
100
AcDbAttributeDefinition
  3

  2
DESCRIPTION
 70
     8
280
     0
  0
ATTDEF
  5
1C3
330
1B7
100
AcDbEntity
  8
AM_6
100
AcDbText
 10
9.625
 20
-3.8744921875
 30
0.0
 40
0.5
  1
Non-Expansion Type
100
AcDbAttributeDefinition
  3

  2
EF
 70
     8
280
     0
  0
ATTDEF
  5
1C4
330
1B7
100
AcDbEntity
  8
AM_6
100
AcDbText
 10
9.625
 20
-4.3744921875
 30
0.0
 40
0.5
  1
Labyrinth Seal
100
AcDbAttributeDefinition
  3

  2
ST
 70
     8
280
     0
  0
ATTDEF
  5
1C5
330
1B7
100
AcDbEntity
  8
AM_6
100
AcDbText
 10
9.625
 20
-4.8744921875
 30
0.0
 40
0.5
  1
3-1/2
100
AcDbAttributeDefinition
  3

  2
A
 70
     8
280
     0
  0
ATTDEF
  5
1C6
330
1B7
100
AcDbEntity
  8
AM_6
100
AcDbText
 10
9.625
 20
-5.3744921875
 30
0.0
 40
0.5
  1
9-1/4
100
AcDbAttributeDefinition
  3

  2
B
 70
     8
280
     0
  0
ATTDEF
  5
1C7
330
1B7
100
AcDbEntity
  8
AM_6
100
AcDbText
 10
9.625
 20
-5.8744921875
 30
0.0
 40
0.5
  1
3-13/16
100
AcDbAttributeDefinition
  3

  2
C
 70
     8
280
     0
  0
ATTDEF
  5
1C8
330
1B7
100
AcDbEntity
  8
AM_6
100
AcDbText
 10
9.625
 20
-6.3744921875
 30
0.0
 40
0.5
  1
5-9/16
100
AcDbAttributeDefinition
  3

  2
D
 70
     8
280
     0
  0
ATTDEF
  5
1C9
330
1B7
100
AcDbEntity
  8
AM_6
100
AcDbText
 10
9.625
 20
-6.8744921875
 30
0.0
 40
0.5
  1
7-7/8
100
AcDbAttributeDefinition
  3

  2
DD
 70
     8
280
     0
  0
ATTDEF
  5
1CA
330
1B7
100
AcDbEntity
  8
AM_6
100
AcDbText
 10
9.625
 20
-7.3744921875
 30
0.0
 40
0.5
  1
2-25/64
100
AcDbAttributeDefinition
  3

  2
E
 70
     8
280
     0
  0
ATTDEF
  5
1CB
330
1B7
100
AcDbEntity
  8
AM_6
100
AcDbText
 10
9.625
 20
-7.8744921875
 30
0.0
 40
0.5
  1
3/4
100
AcDbAttributeDefinition
  3

  2
F
 70
     8
280
     0
  0
ATTDEF
  5
1CC
330
1B7
100
AcDbEntity
  8
AM_6
100
AcDbText
 10
9.625
 20
-8.3744921875
 30
0.0
 40
0.5
  1
3/4
100
AcDbAttributeDefinition
  3

  2
H
 70
     8
280
     0
  0
ATTDEF
  5
1CD
330
1B7
100
AcDbEntity
  8
AM_6
100
AcDbText
 10
9.625
 20
-8.8744921875
 30
0.0
 40
0.5
  1
6-1/4
100
AcDbAttributeDefinition
  3

  2
J
 70
     8
280
     0
  0
ATTDEF
  5
1CE
330
1B7
100
AcDbEntity
  8
AM_6
100
AcDbText
 10
9.625
 20
-9.3744921875
 30
0.0
 40
0.5
  1
4-9/32
100
AcDbAttributeDefinition
  3

  2
L
 70
     8
280
     0
  0
ATTDEF
  5
1CF
330
1B7
100
AcDbEntity
  8
AM_6
100
AcDbText
 10
9.625
 20
-9.8744921875
 30
0.0
 40
0.5
  1
5/16
100
AcDbAttributeDefinition
  3

  2
P
 70
     8
280
     0
  0
ATTDEF
  5
1D0
330
1B7
100
AcDbEntity
  8
AM_6
100
AcDbText
 10
9.625
 20
-10.3744921875
 30
0.0
 40
0.5
  1
1/4
100
AcDbAttributeDefinition
  3

  2
X
 70
     8
280
     0
  0
ATTDEF
  5
1D1
330
1B7
100
AcDbEntity
  8
AM_6
100
AcDbText
 10
9.625
 20
-10.8744921875
 30
0.0
 40
0.5
  1
0.025
100
AcDbAttributeDefinition
  3

  2
Y
 70
     8
280
     0
  0
ATTDEF
  5
1D2
330
1B7
100
AcDbEntity
  8
AM_6
100
AcDbText
 10
9.625
 20
-11.3744921875
 30
0.0
 40
0.5
  1
3-15/32
100
AcDbAttributeDefinition
  3

  2
Z
 70
     8
280
     0
  0
ATTDEF
  5
1D3
330
1B7
100
AcDbEntity
  8
AM_6
100
AcDbText
 10
9.625
 20
-11.8744921875
 30
0.0
 40
0.5
  1
baldor
100
AcDbAttributeDefinition
  3

  2
COMPANY
 70
     8
280
     0
  0
LINE
  5
1D4
330
1B7
100
AcDbEntity
  8
AM_9
100
AcDbLine
 10
2.890975746229755
 20
-0.6749999999999997
 30
0.0
 11
2.890975746229755
 21
-0.7499999999999998
 31
0.0
  0
LINE
  5
1D5
330
1B7
100
AcDbEntity
  8
AM_9
100
AcDbLine
 10
2.863848552873103
 20
-0.6749999999999997
 30
0.0
 11
2.863848552873103
 21
-0.7499999999999998
 31
0.0
  0
LINE
  5
1D6
330
1B7
100
AcDbEntity
  8
AM_9
100
AcDbLine
 10
-2.890975746229755
 20
-0.6749999999999997
 30
0.0
 11
-2.890975746229755
 21
-0.7499999999999998
 31
0.0
  0
LINE
  5
1D7
330
1B7
100
AcDbEntity
  8
AM_9
100
AcDbLine
 10
-2.863848552873103
 20
-0.7499999999999998
 30
0.0
 11
-2.863848552873103
 21
-0.6749999999999997
 31
0.0
  0
LINE
  5
1D8
330
1B7
100
AcDbEntity
  8
AM_9
100
AcDbLine
 10
2.875809687856014
 20
-0.6749999999999997
 30
0.0
 11
2.875809687856014
 21
-0.7499999999999998
 31
0.0
  0
LINE
  5
1D9
330
1B7
100
AcDbEntity
  8
AM_9
100
AcDbLine
 10
3.125
 20
-0.7499999999999998
 30
0.0
 11
3.125
 21
-0.6749999999999999
 31
0.0
  0
LINE
  5
1DA
330
1B7
100
AcDbEntity
  8
AM_9
100
AcDbLine
 10
-2.875809687856014
 20
-0.6749999999999997
 30
0.0
 11
-2.875809687856014
 21
-0.7499999999999998
 31
0.0
  0
LINE
  5
1DB
330
1B7
100
AcDbEntity
  8
AM_9
100
AcDbLine
 10
-3.125
 20
-0.6749999999999999
 30
0.0
 11
-3.125
 21
-0.7500000000000001
 31
0.0
  0
LINE
  5
1DC
330
1B7
100
AcDbEntity
  8
AM_9
100
AcDbLine
 10
2.55905
 20
-2.390625
 30
0.0
 11
2.55905
 21
-0.075
 31
0.0
  0
LINE
  5
1DD
330
1B7
100
AcDbEntity
  8
AM_9
100
AcDbLine
 10
-2.55905
 20
-0.075
 30
0.0
 11
-2.55905
 21
-2.390625
 31
0.0
  0
LINE
  5
1DE
330
1B7
100
AcDbEntity
  8
AM_9
100
AcDbLine
 10
-2.976190476190476
 20
-0.075
 30
0.0
 11
2.976190476190476
 21
-0.075
 31
0.0
  0
LINE
  5
1DF
330
1B7
100
AcDbEntity
  8
AM_9
100
AcDbLine
 10
2.976190476190476
 20
-0.075
 30
0.0
 11
2.976190476190476
 21
0.0
 31
0.0
  0
LINE
  5
1E0
330
1B7
100
AcDbEntity
  8
AM_9
100
AcDbLine
 10
-2.976190476190476
 20
0.0
 30
0.0
 11
-2.976190476190476
 21
-0.075
 31
0.0
  0
LINE
  5
1E1
330
1B7
100
AcDbEntity
  8
AM_9
100
AcDbLine
 10
3.159232950922031
 20
-0.7499999999999998
 30
0.0
 11
3.159232950922031
 21
0.0000000000000002
 31
0.0
  0
LINE
  5
1E2
330
1B7
100
AcDbEntity
  8
AM_9
100
AcDbLine
 10
2.409232950922031
 20
0.0000000000000002
 30
0.0
 11
2.409232950922031
 21
-0.7499999999999998
 31
0.0
  0
LINE
  5
1E3
330
1B7
100
AcDbEntity
  8
AM_9
100
AcDbLine
 10
-2.409232950922031
 20
-0.7499999999999998
 30
0.0
 11
-2.409232950922031
 21
0.0000000000000002
 31
0.0
  0
LINE
  5
1E4
330
1B7
100
AcDbEntity
  8
AM_9
100
AcDbLine
 10
-3.159232950922031
 20
0.0000000000000002
 30
0.0
 11
-3.159232950922031
 21
-0.7499999999999998
 31
0.0
  0
LINE
  5
1E5
330
1B7
100
AcDbEntity
  8
AM_7
100
AcDbLine
 10
-2.784232950922031
 20
0.0393749999999998
 30
0.0
 11
-2.784232950922031
 21
-0.8268750000000004
 31
0.0
  0
LINE
  5
1E6
330
1B7
100
AcDbEntity
  8
AM_7
100
AcDbLine
 10
2.784232950922031
 20
0.0393749999999998
 30
0.0
 11
2.784232950922031
 21
-0.8268750000000004
 31
0.0
  0
LINE
  5
1E7
330
1B7
100
AcDbEntity
  8
AM_7
100
AcDbLine
 10
0.0
 20
-3.98875
 30
0.0
 11
0.0
 21
0.1255078125
 31
0.0
  0
LINE
  5
1E8
330
1B7
100
AcDbEntity
  8
AM_7
100
AcDbLine
 10
-0.5250000000000001
 20
-1.5703125
 30
0.0
 11
0.5249999999999999
 21
-1.5703125
 31
0.0
  0
LINE
  5
1E9
330
1B7
100
AcDbEntity
  8
AM_4
100
AcDbLine
 10
3.125
 20
-2.315624999999998
 30
0.0
 11
3.125
 21
-0.7499999999999998
 31
0.0
  0
LINE
  5
1EA
330
1B7
100
AcDbEntity
  8
AM_4
100
AcDbLine
 10
-3.125
 20
-0.7500000000000001
 30
0.0
 11
-3.125
 21
-2.315624999999998
 31
0.0
  0
LINE
  5
1EB
330
1B7
100
AcDbEntity
  8
AM_4
100
AcDbLine
 10
2.646771670747251
 20
-2.315624999999998
 30
0.0
 11
2.646771670747251
 21
-0.7499999999999998
 31
0.0
  0
LINE
  5
1EC
330
1B7
100
AcDbEntity
  8
AM_4
100
AcDbLine
 10
-2.646771670747248
 20
-2.315624999999998
 30
0.0
 11
-2.646771670747248
 21
-0.7499999999999998
 31
0.0
  0
LWPOLYLINE
  5
1ED
330
1B7
100
AcDbEntity
  8
AM_4
100
AcDbPolyline
 90
        3
 70
     0
 43
0.0
 10
-2.646771670747248
 20
-2.315624999999998
 10
-2.646655151163992
 20
-2.315890345531324
 10
-2.631735245982067
 20
-2.341299041322118
  0
LINE
  5
1EE
330
1B7
100
AcDbEntity
  8
AM_4
100
AcDbLine
 10
-3.05
 20
-2.390625
 30
0.0
 11
3.05
 21
-2.390625
 31
0.0
  0
ARC
  5
1EF
330
1B7
100
AcDbEntity
  8
AM_4
100
AcDbCircle
 10
-3.049999999999999
 20
-2.315624999999999
 30
0.0
 40
0.0750000000000011
100
AcDbArc
 50
180.0
 51
270.0
  0
LINE
  5
1F0
330
1B7
100
AcDbEntity
  8
AM_4
100
AcDbLine
 10
-3.125
 20
-2.315624999999998
 30
0.0
 11
-2.646771670747248
 21
-2.315624999999998
 31
0.0
  0
LWPOLYLINE
  5
1F1
330
1B7
100
AcDbEntity
  8
AM_4
100
AcDbPolyline
 90
        3
 70
     0
 43
0.0
 10
2.631735245982072
 20
-2.341299041321594
 10
2.646655151157154
 20
-2.315890345520919
 10
2.64677167074725
 20
-2.315624999999998
  0
LINE
  5
1F2
330
1B7
100
AcDbEntity
  8
AM_4
100
AcDbLine
 10
2.646771670747251
 20
-2.315624999999998
 30
0.0
 11
3.125
 21
-2.315624999999998
 31
0.0
  0
ARC
  5
1F3
330
1B7
100
AcDbEntity
  8
AM_4
100
AcDbCircle
 10
3.049999999999999
 20
-2.315624999999999
 30
0.0
 40
0.0750000000000011
100
AcDbArc
 50
270.0
 51
0.0
  0
LINE
  5
1F4
330
1B7
100
AcDbEntity
  8
AM_4
100
AcDbLine
 10
2.631735245982072
 20
-2.341299041321594
 30
0.0
 11
2.631735245982072
 21
-0.7499999999999998
 31
0.0
  0
LWPOLYLINE
  5
1F5
330
1B7
100
AcDbEntity
  8
AM_4
100
AcDbPolyline
 90
        7
 70
     0
 43
0.0
 10
2.631735245982072
 20
-2.341299041321594
 10
2.621827703402623
 20
-2.351948752613674
 10
2.610119708321074
 20
-2.360667852072786
 10
2.586932876997317
 20
-2.372357733797328
 10
2.562268587584908
 20
-2.380368850634861
 10
2.516412238357712
 20
-2.388380042624676
 10
2.470105824904343
 20
-2.390625
  0
LINE
  5
1F6
330
1B7
100
AcDbEntity
  8
AM_4
100
AcDbLine
 10
-2.631735245982067
 20
-2.341299041322118
 30
0.0
 11
-2.631735245982067
 21
-0.7499999999999998
 31
0.0
  0
LWPOLYLINE
  5
1F7
330
1B7
100
AcDbEntity
  8
AM_4
100
AcDbPolyline
 90
        8
 70
     0
 43
0.0
 10
-2.470105824904346
 20
-2.390625
 10
-2.509925518257294
 20
-2.389026769475906
 10
-2.549884934907818
 20
-2.383265439188473
 10
-2.572165389209359
 20
-2.377578327971413
 10
-2.593995378369494
 20
-2.369342237766322
 10
-2.608231376008538
 20
-2.361866284472748
 10
-2.621531328097632
 20
-2.352207912005653
 10
-2.631735245982067
 20
-2.341299041322118
  0
LINE
  5
1F8
330
1B7
100
AcDbEntity
  8
AM_4
100
AcDbLine
 10
1.676691612967166
 20
-2.341299041322106
 30
0.0
 11
1.676691612967166
 21
-0.7499999999999998
 31
0.0
  0
LINE
  5
1F9
330
1B7
100
AcDbEntity
  8
AM_4
100
AcDbLine
 10
-1.676691612967162
 20
-2.341299041321593
 30
0.0
 11
-1.676691612967162
 21
-0.7499999999999998
 31
0.0
  0
LINE
  5
1FA
330
1B7
100
AcDbEntity
  8
AM_4
100
AcDbLine
 10
-1.222842442522131
 20
-0.6749999999999997
 30
0.0
 11
-1.222842442522131
 21
-0.7499999999999998
 31
0.0
  0
LINE
  5
1FB
330
1B7
100
AcDbEntity
  8
AM_4
100
AcDbLine
 10
-1.661392404860996
 20
-2.315624999999998
 30
0.0
 11
-1.661392404860996
 21
-0.7499999999999998
 31
0.0
  0
LINE
  5
1FC
330
1B7
100
AcDbEntity
  8
AM_4
100
AcDbLine
 10
1.661392404861003
 20
-2.315624999999998
 30
0.0
 11
1.661392404861003
 21
-0.7499999999999998
 31
0.0
  0
LINE
  5
1FD
330
1B7
100
AcDbEntity
  8
AM_4
100
AcDbLine
 10
1.222842442522131
 20
-0.6749999999999997
 30
0.0
 11
1.222842442522131
 21
-0.7499999999999998
 31
0.0
  0
LWPOLYLINE
  5
1FE
330
1B7
100
AcDbEntity
  8
AM_4
100
AcDbPolyline
 90
        3
 70
     0
 43
0.0
 10
1.661392404861003
 20
-2.315624999999998
 10
1.661577135474293
 20
-2.315890345531348
 10
1.676691612967166
 20
-2.341299041322106
  0
LINE
  5
1FF
330
1B7
100
AcDbEntity
  8
AM_4
100
AcDbLine
 10
-1.661392404860996
 20
-2.315624999999998
 30
0.0
 11
1.661392404861003
 21
-2.315624999999998
 31
0.0
  0
LWPOLYLINE
  5
200
330
1B7
100
AcDbEntity
  8
AM_4
100
AcDbPolyline
 90
        3
 70
     0
 43
0.0
 10
-1.676691612967162
 20
-2.341299041321593
 10
-1.66157713548543
 20
-2.315890345520905
 10
-1.661392404861
 20
-2.315624999999998
  0
LWPOLYLINE
  5
201
330
1B7
100
AcDbEntity
  8
AM_4
100
AcDbPolyline
 90
        7
 70
     0
 43
0.0
 10
-1.676691612967162
 20
-2.341299041321593
 10
-1.683178099325233
 20
-2.351948752613674
 10
-1.69090953499822
 20
-2.360667852072786
 10
-1.70643500571869
 20
-2.372357733797327
 10
-1.723266425524656
 20
-2.38036885063486
 10
-1.755448331161645
 20
-2.388380042624676
 10
-1.789155447068147
 20
-2.390625
  0
LWPOLYLINE
  5
202
330
1B7
100
AcDbEntity
  8
AM_4
100
AcDbPolyline
 90
        8
 70
     0
 43
0.0
 10
1.789155447068152
 20
-2.390625
 10
1.760203170811473
 20
-2.389005808562398
 10
1.731842263003919
 20
-2.383265439188473
 10
1.716544984157762
 20
-2.377591097663942
 10
1.701675771447962
 20
-2.369342237766323
 10
1.692249316864255
 20
-2.361923826132842
 10
1.683372925569412
 20
-2.352207912005656
 10
1.676691612967166
 20
-2.341299041322106
  0
CIRCLE
  5
203
330
1B7
100
AcDbEntity
  8
AM_4
100
AcDbCircle
 10
0.0
 20
-1.5703125
 30
0.0
 40
0.3999999999999999
  0
LINE
  5
204
330
1B7
100
AcDbEntity
  8
AM_4
100
AcDbLine
 10
1.222842442522131
 20
-0.7499999999999998
 30
0.0
 11
3.743898996811646
 21
-0.7499999999999998
 31
0.0
  0
LWPOLYLINE
  5
205
330
1B7
100
AcDbEntity
  8
AM_4
100
AcDbPolyline
 90
        7
 70
     0
 43
0.0
 10
3.743898996811646
 20
-0.7499999999999998
 10
3.746830895551208
 20
-0.7498467350527048
 10
3.762784830420888
 20
-0.7433470204172752
 10
3.776391176628819
 20
-0.7279175520181846
 10
3.785575917279873
 20
-0.7062335360071259
 10
3.789538807684012
 20
-0.6819454104571933
 10
3.789735557897157
 20
-0.6749999999999997
  0
LINE
  5
206
330
1B7
100
AcDbEntity
  8
AM_4
100
AcDbLine
 10
1.367575345215849
 20
-0.6749999999999997
 30
0.0
 11
1.367575345215849
 21
-0.7499999999999998
 31
0.0
  0
LWPOLYLINE
  5
207
330
1B7
100
AcDbEntity
  8
AM_4
100
AcDbPolyline
 90
        6
 70
     0
 43
0.0
 10
2.651137378788569
 20
-0.6749999999999996
 10
2.647787719787198
 20
-0.698696058381652
 10
2.638242651434752
 20
-0.719714215379782
 10
2.623348764215671
 20
-0.7363495776191857
 10
2.603879168053103
 20
-0.7470467874179039
 10
2.585675985438384
 20
-0.7499999999999997
  0
LWPOLYLINE
  5
208
330
1B7
100
AcDbEntity
  8
AM_4
100
AcDbPolyline
 90
        6
 70
     0
 43
0.0
 10
-3.789735557897157
 20
-0.675000000000001
 10
-3.787390101413965
 20
-0.6986960583816523
 10
-3.780706572600856
 20
-0.7197142153797818
 10
-3.770277760496809
 20
-0.7363495776191858
 10
-3.75664500249788
 20
-0.7470467874179042
 10
-3.743898996811647
 20
-0.7499999999999998
  0
LINE
  5
209
330
1B7
100
AcDbEntity
  8
AM_4
100
AcDbLine
 10
-3.743898996811647
 20
-0.7499999999999998
 30
0.0
 11
-1.222842442522131
 21
-0.7499999999999998
 31
0.0
  0
LINE
  5
20A
330
1B7
100
AcDbEntity
  8
AM_4
100
AcDbLine
 10
-1.367575345215849
 20
-0.6749999999999997
 30
0.0
 11
-1.367575345215849
 21
-0.7499999999999998
 31
0.0
  0
LWPOLYLINE
  5
20B
330
1B7
100
AcDbEntity
  8
AM_4
100
AcDbPolyline
 90
        7
 70
     0
 43
0.0
 10
-2.585675985438384
 20
-0.7499999999999997
 10
-2.589863170779259
 20
-0.7498467350527047
 10
-2.612647751063084
 20
-0.7433470204172749
 10
-2.632079627278984
 20
-0.7279175520181846
 10
-2.645196796332231
 20
-0.7062335360071252
 10
-2.65085639036384
 20
-0.6819454104571931
 10
-2.651137378788569
 20
-0.6749999999999996
  0
LINE
  5
20C
330
1B7
100
AcDbEntity
  8
AM_4
100
AcDbLine
 10
2.651137378788569
 20
-0.6749999999999996
 30
0.0
 11
3.789735557897157
 21
-0.6749999999999997
 31
0.0
  0
LINE
  5
20D
330
1B7
100
AcDbEntity
  8
AM_4
100
AcDbLine
 10
3.789735557897157
 20
-0.6749999999999997
 30
0.0
 11
4.625
 21
-0.6750000000000012
 31
0.0
  0
LINE
  5
20E
330
1B7
100
AcDbEntity
  8
AM_4
100
AcDbLine
 10
-3.789735557897157
 20
-0.675000000000001
 30
0.0
 11
-2.651137378788569
 21
-0.6749999999999996
 31
0.0
  0
LINE
  5
20F
330
1B7
100
AcDbEntity
  8
AM_4
100
AcDbLine
 10
-2.651137378788569
 20
-0.6749999999999996
 30
0.0
 11
2.651137378788569
 21
-0.6749999999999996
 31
0.0
  0
LINE
  5
210
330
1B7
100
AcDbEntity
  8
AM_4
100
AcDbLine
 10
4.625
 20
-0.6750000000000012
 30
0.0
 11
4.625
 21
0.0
 31
0.0
  0
LINE
  5
211
330
1B7
100
AcDbEntity
  8
AM_4
100
AcDbLine
 10
-4.625
 20
0.0
 30
0.0
 11
-4.625
 21
-0.6750000000000012
 31
0.0
  0
LINE
  5
212
330
1B7
100
AcDbEntity
  8
AM_4
100
AcDbLine
 10
-4.625
 20
-0.6750000000000012
 30
0.0
 11
-3.789735557897157
 21
-0.675000000000001
 31
0.0
  0
LINE
  5
213
330
1B7
100
AcDbEntity
  8
AM_4
100
AcDbLine
 10
-4.625
 20
0.0
 30
0.0
 11
4.625
 21
0.0
 31
0.0
  0
LINE
  5
214
330
1B7
100
AcDbEntity
  8
AM_4
100
AcDbLine
 10
0.3181815593525354
 20
-0.6749999999999996
 30
0.0
 11
0.3181815593525328
 21
0.0000000000000003
 31
0.0
  0
LINE
  5
215
330
1B7
100
AcDbEntity
  8
AM_4
100
AcDbLine
 10
-0.3181815593525328
 20
0.0000000000000003
 30
0.0
 11
-0.3181815593525354
 21
-0.6749999999999996
 31
0.0
  0
CIRCLE
  5
216
330
1B7
100
AcDbEntity
  8
AM_4
100
AcDbCircle
 10
-0.0000000000000001
 20
-1.5703125
 30
0.0
 40
0.5
  0
ENDBLK
  5
1BA
330
1B7
100
AcDbEntity
  8
0
100
AcDbBlockEnd
  0
ENDSEC
  0
SECTION
  2
ENTITIES
  0
INSERT
  5
6F
330
1F
100
AcDbEntity
  8
0
100
AcDbBlockReference
  2
1_069669_4
 10
0.0
 20
0.0
 30
0.0
  0
POINT
  5
218
330
1F
100
AcDbEntity
  8
ConnectionPoints
100
AcDbPoint
 10
-1.296976240145117
 20
-3.609333333333333
 30
1.296976240145117
  0
POINT
  5
219
330
1F
100
AcDbEntity
  8
ConnectionPoints
100
AcDbPoint
 10
0.0
 20
-3.539333333333333
 30
0.0000000000000002
  0
POINT
  5
21A
330
1F
100
AcDbEntity
  8
ConnectionPoints
100
AcDbPoint
 10
0.0
 20
-3.8125
 30
0.0000000000000002
  0
POINT
  5
21B
330
1F
100
AcDbEntity
  8
ConnectionPoints
100
AcDbPoint
 10
0.0
 20
-3.738333333333333
 30
0.0000000000000002
  0
POINT
  5
21C
330
1F
100
AcDbEntity
  8
ConnectionPoints
100
AcDbPoint
 10
-1.296976240145117
 20
-3.539333333333333
 30
1.296976240145117
  0
POINT
  5
21D
330
1F
100
AcDbEntity
  8
ConnectionPoints
100
AcDbPoint
 10
-1.296976240145117
 20
-3.7115
 30
1.296976240145117
  0
POINT
  5
21E
330
1F
100
AcDbEntity
  8
ConnectionPoints
100
AcDbPoint
 10
1.296976240145117
 20
-3.539333333333333
 30
-1.296976240145117
  0
POINT
  5
21F
330
1F
100
AcDbEntity
  8
ConnectionPoints
100
AcDbPoint
 10
1.296976240145117
 20
-3.7115
 30
-1.296976240145117
  0
POINT
  5
220
330
1F
100
AcDbEntity
  8
ConnectionPoints
100
AcDbPoint
 10
0.0
 20
-3.539333333333333
 30
0.0000000000000002
  0
POINT
  5
221
330
1F
100
AcDbEntity
  8
ConnectionPoints
100
AcDbPoint
 10
0.0
 20
-1.5703125
 30
3.225
  0
POINT
  5
222
330
1F
100
AcDbEntity
  8
ConnectionPoints
100
AcDbPoint
 10
0.0
 20
-1.5703125
 30
3.225
  0
POINT
  5
223
330
1F
100
AcDbEntity
  8
ConnectionPoints
100
AcDbPoint
 10
0.0
 20
-3.5625
 30
0.0000000000000002
  0
POINT
  5
224
330
1F
100
AcDbEntity
  8
ConnectionPoints
100
AcDbPoint
 10
0.0
 20
-3.8125
 30
0.0000000000000002
  0
ENDSEC
  0
SECTION
  2
OBJECTS
  0
DICTIONARY
  5
C
330
0
100
AcDbDictionary
281
     1
  3
ACAD_DETAILVIEWSTYLE
350
22C
  3
ACAD_GROUP
350
D
  3
ACAD_LAYOUT
350
1A
  3
ACAD_MATERIAL
350
43
  3
ACAD_MLEADERSTYLE
350
6B
  3
ACAD_MLINESTYLE
350
17
  3
ACAD_PLOTSETTINGS
350
19
  3
ACAD_PLOTSTYLENAME
350
E
  3
ACAD_SCALELIST
350
47
  3
ACAD_SECTIONVIEWSTYLE
350
22D
  3
ACAD_TABLESTYLE
350
69
  3
ACAD_VISUALSTYLE
350
2A
  3
ACDB_RECOMPOSE_DATA
350
229
  3
AcDbVariableDictionary
350
225
  0
SUN
  5
6D
330
29
100
AcDbSun
 90
        1
290
     0
 63
     7
421
 16777215
 40
1.0
291
     1
 91
  2455826
 92
 54000000
292
     0
 70
     2
 71
   256
280
     1
  0
DICTIONARY
  5
22C
102
{ACAD_REACTORS
330
C
102
}
330
C
100
AcDbDictionary
281
     1
  0
DICTIONARY
  5
D
102
{ACAD_REACTORS
330
C
102
}
330
C
100
AcDbDictionary
281
     1
  0
DICTIONARY
  5
1A
102
{ACAD_REACTORS
330
C
102
}
330
C
100
AcDbDictionary
281
     1
  3
Layout1
350
1E
  3
Layout2
350
26
  3
Model
350
22
  0
DICTIONARY
  5
43
102
{ACAD_REACTORS
330
C
102
}
330
C
100
AcDbDictionary
281
     1
  3
ByBlock
350
45
  3
ByLayer
350
44
  3
Global
350
46
  0
DICTIONARY
  5
6B
102
{ACAD_REACTORS
330
C
102
}
330
C
100
AcDbDictionary
281
     1
  3
Standard
350
6C
  0
DICTIONARY
  5
17
102
{ACAD_REACTORS
330
C
102
}
330
C
100
AcDbDictionary
281
     1
  3
Standard
350
18
  0
DICTIONARY
  5
19
102
{ACAD_REACTORS
330
C
102
}
330
C
100
AcDbDictionary
281
     1
  0
ACDBDICTIONARYWDFLT
  5
E
102
{ACAD_REACTORS
330
C
102
}
330
C
100
AcDbDictionary
281
     1
  3
Normal
350
F
100
AcDbDictionaryWithDefault
340
F
  0
DICTIONARY
  5
47
102
{ACAD_REACTORS
330
C
102
}
330
C
100
AcDbDictionary
281
     1
  3
A0
350
48
  3
A1
350
49
  3
A2
350
4A
  3
A3
350
4B
  3
A4
350
4C
  3
A5
350
4D
  3
A6
350
4E
  3
A7
350
4F
  3
A8
350
50
  3
A9
350
51
  3
B0
350
52
  3
B1
350
53
  3
B2
350
54
  3
B3
350
55
  3
B4
350
56
  3
B5
350
57
  3
B6
350
58
  3
B7
350
59
  3
B8
350
5A
  3
B9
350
5B
  3
C0
350
5C
  3
C1
350
5D
  3
C2
350
5E
  3
C3
350
5F
  3
C4
350
60
  3
C5
350
61
  3
C6
350
62
  3
C7
350
63
  3
C8
350
64
  3
C9
350
65
  3
D0
350
66
  3
D1
350
67
  3
D2
350
68
  0
DICTIONARY
  5
22D
102
{ACAD_REACTORS
330
C
102
}
330
C
100
AcDbDictionary
281
     1
  0
DICTIONARY
  5
69
102
{ACAD_REACTORS
330
C
102
}
330
C
100
AcDbDictionary
281
     1
  3
Standard
350
6A
  0
DICTIONARY
  5
2A
102
{ACAD_REACTORS
330
C
102
}
330
C
100
AcDbDictionary
281
     1
  3
2dWireframe
350
2F
  3
Basic
350
32
  3
Brighten
350
36
  3
ColorChange
350
3A
  3
Conceptual
350
34
  3
Dim
350
35
  3
EdgeColorOff
350
3D
  3
Facepattern
350
39
  3
Flat
350
2B
  3
FlatWithEdges
350
2C
  3
Gouraud
350
2D
  3
GouraudWithEdges
350
2E
  3
Hidden
350
31
  3
JitterOff
350
3B
  3
Linepattern
350
38
  3
OverhangOff
350
3C
  3
Realistic
350
33
  3
Shaded
350
42
  3
Shaded with edges
350
41
  3
Shades of Gray
350
3E
  3
Sketchy
350
3F
  3
Thicken
350
37
  3
Wireframe
350
30
  3
X-Ray
350
40
  0
XRECORD
  5
229
102
{ACAD_REACTORS
330
C
102
}
330
C
100
AcDbXrecord
280
     1
 90
        1
330
6A
  0
DICTIONARY
  5
225
102
{ACAD_REACTORS
330
C
102
}
330
C
100
AcDbDictionary
281
     1
  3
CANNOSCALE
350
226
  3
CMLEADERSTYLE
350
22B
  3
CTABLESTYLE
350
22A
  0
LAYOUT
  5
1E
102
{ACAD_REACTORS
330
1A
102
}
330
1A
100
AcDbPlotSettings
  1

  2
none_device
  4

  6

 40
0.0
 41
0.0
 42
0.0
 43
0.0
 44
0.0
 45
0.0
 46
0.0
 47
0.0
 48
0.0
 49
0.0
140
0.0
141
0.0
142
1.0
143
1.0
 70
   688
 72
     0
 73
     0
 74
     5
  7

 75
    16
 76
     0
 77
     2
 78
   300
147
1.0
148
0.0
149
0.0
100
AcDbLayout
  1
Layout1
 70
     1
 71
     1
 10
0.0
 20
0.0
 11
12.0
 21
9.0
 12
0.0
 22
0.0
 32
0.0
 14
1.000000000000000E+20
 24
1.000000000000000E+20
 34
1.000000000000000E+20
 15
-1.000000000000000E+20
 25
-1.000000000000000E+20
 35
-1.000000000000000E+20
146
0.0
 13
0.0
 23
0.0
 33
0.0
 16
1.0
 26
0.0
 36
0.0
 17
0.0
 27
1.0
 37
0.0
 76
     0
330
1B
  0
LAYOUT
  5
26
102
{ACAD_REACTORS
330
1A
102
}
330
1A
100
AcDbPlotSettings
  1

  2
none_device
  4

  6

 40
0.0
 41
0.0
 42
0.0
 43
0.0
 44
0.0
 45
0.0
 46
0.0
 47
0.0
 48
0.0
 49
0.0
140
0.0
141
0.0
142
1.0
143
1.0
 70
   688
 72
     0
 73
     0
 74
     5
  7

 75
    16
 76
     0
 77
     2
 78
   300
147
1.0
148
0.0
149
0.0
100
AcDbLayout
  1
Layout2
 70
     1
 71
     2
 10
0.0
 20
0.0
 11
0.0
 21
0.0
 12
0.0
 22
0.0
 32
0.0
 14
0.0
 24
0.0
 34
0.0
 15
0.0
 25
0.0
 35
0.0
146
0.0
 13
0.0
 23
0.0
 33
0.0
 16
1.0
 26
0.0
 36
0.0
 17
0.0
 27
1.0
 37
0.0
 76
     0
330
23
  0
LAYOUT
  5
22
102
{ACAD_REACTORS
330
1A
102
}
330
1A
100
AcDbPlotSettings
  1

  2
none_device
  4
Letter_(8.50_x_11.00_Inches)
  6

 40
6.35
 41
6.35
 42
6.35000508
 43
6.35000508
 44
215.9
 45
279.4
 46
0.0
 47
0.0
 48
0.0
 49
0.0
140
0.0
141
0.0
142
1.0
143
1.0
 70
  1712
 72
     0
 73
     0
 74
     0
  7

 75
     0
 76
     0
 77
     2
 78
   300
147
1.0
148
0.0
149
0.0
100
AcDbLayout
  1
Model
 70
     1
 71
     0
 10
0.0
 20
0.0
 11
12.0
 21
9.0
 12
0.0
 22
0.0
 32
0.0
 14
1.000000000000000E+20
 24
1.000000000000000E+20
 34
1.000000000000000E+20
 15
-1.000000000000000E+20
 25
-1.000000000000000E+20
 35
-1.000000000000000E+20
146
0.0
 13
0.0
 23
0.0
 33
0.0
 16
1.0
 26
0.0
 36
0.0
 17
0.0
 27
1.0
 37
0.0
 76
     0
330
1F
331
29
  0
MATERIAL
  5
45
102
{ACAD_REACTORS
330
43
102
}
330
43
100
AcDbMaterial
  1
ByBlock
 72
     1
 94
      127
  0
MATERIAL
  5
44
102
{ACAD_REACTORS
330
43
102
}
330
43
100
AcDbMaterial
  1
ByLayer
 72
     1
 94
      127
  0
MATERIAL
  5
46
102
{ACAD_REACTORS
330
43
102
}
330
43
100
AcDbMaterial
  1
Global
 72
     1
 94
      127
  0
MLEADERSTYLE
  5
6C
102
{ACAD_REACTORS
330
6B
102
}
330
6B
100
AcDbMLeaderStyle
179
     2
170
     2
171
     1
172
     0
 90
        2
 40
0.0
 41
0.0
173
     1
 91
-1056964608
340
14
 92
       -2
290
     1
 42
0.09
291
     1
 43
0.36
  3
Standard
341
0
 44
0.18
300

342
11
174
     1
178
     6
175
     1
176
     0
 93
-1056964608
 45
0.18
292
     0
297
     0
 46
0.18
343
0
 94
-1056964608
 47
1.0
 49
1.0
140
1.0
293
     1
141
0.0
294
     1
177
     0
142
1.0
295
     0
296
     0
143
0.125
271
     0
272
     9
273
     9
298
     0
  0
MLINESTYLE
  5
18
102
{ACAD_REACTORS
330
17
102
}
330
17
100
AcDbMlineStyle
  2
Standard
 70
     0
  3

 62
   256
 51
90.0
 52
90.0
 71
     2
 49
0.5
 62
   256
  6
BYLAYER
 49
-0.5
 62
   256
  6
BYLAYER
  0
ACDBPLACEHOLDER
  5
F
102
{ACAD_REACTORS
330
E
102
}
330
E
  0
SCALE
  5
48
102
{ACAD_REACTORS
330
47
102
}
330
47
100
AcDbScale
 70
     0
300
1:1
140
1.0
141
1.0
290
     1
  0
SCALE
  5
49
102
{ACAD_REACTORS
330
47
102
}
330
47
100
AcDbScale
 70
     0
300
1:2
140
1.0
141
2.0
290
     0
  0
SCALE
  5
4A
102
{ACAD_REACTORS
330
47
102
}
330
47
100
AcDbScale
 70
     0
300
1:4
140
1.0
141
4.0
290
     0
  0
SCALE
  5
4B
102
{ACAD_REACTORS
330
47
102
}
330
47
100
AcDbScale
 70
     0
300
1:5
140
1.0
141
5.0
290
     0
  0
SCALE
  5
4C
102
{ACAD_REACTORS
330
47
102
}
330
47
100
AcDbScale
 70
     0
300
1:8
140
1.0
141
8.0
290
     0
  0
SCALE
  5
4D
102
{ACAD_REACTORS
330
47
102
}
330
47
100
AcDbScale
 70
     0
300
1:10
140
1.0
141
10.0
290
     0
  0
SCALE
  5
4E
102
{ACAD_REACTORS
330
47
102
}
330
47
100
AcDbScale
 70
     0
300
1:16
140
1.0
141
16.0
290
     0
  0
SCALE
  5
4F
102
{ACAD_REACTORS
330
47
102
}
330
47
100
AcDbScale
 70
     0
300
1:20
140
1.0
141
20.0
290
     0
  0
SCALE
  5
50
102
{ACAD_REACTORS
330
47
102
}
330
47
100
AcDbScale
 70
     0
300
1:30
140
1.0
141
30.0
290
     0
  0
SCALE
  5
51
102
{ACAD_REACTORS
330
47
102
}
330
47
100
AcDbScale
 70
     0
300
1:40
140
1.0
141
40.0
290
     0
  0
SCALE
  5
52
102
{ACAD_REACTORS
330
47
102
}
330
47
100
AcDbScale
 70
     0
300
1:50
140
1.0
141
50.0
290
     0
  0
SCALE
  5
53
102
{ACAD_REACTORS
330
47
102
}
330
47
100
AcDbScale
 70
     0
300
1:100
140
1.0
141
100.0
290
     0
  0
SCALE
  5
54
102
{ACAD_REACTORS
330
47
102
}
330
47
100
AcDbScale
 70
     0
300
2:1
140
2.0
141
1.0
290
     0
  0
SCALE
  5
55
102
{ACAD_REACTORS
330
47
102
}
330
47
100
AcDbScale
 70
     0
300
4:1
140
4.0
141
1.0
290
     0
  0
SCALE
  5
56
102
{ACAD_REACTORS
330
47
102
}
330
47
100
AcDbScale
 70
     0
300
8:1
140
8.0
141
1.0
290
     0
  0
SCALE
  5
57
102
{ACAD_REACTORS
330
47
102
}
330
47
100
AcDbScale
 70
     0
300
10:1
140
10.0
141
1.0
290
     0
  0
SCALE
  5
58
102
{ACAD_REACTORS
330
47
102
}
330
47
100
AcDbScale
 70
     0
300
100:1
140
100.0
141
1.0
290
     0
  0
SCALE
  5
59
102
{ACAD_REACTORS
330
47
102
}
330
47
100
AcDbScale
 70
     0
300
1/128" = 1'-0"
140
0.0078125
141
12.0
290
     0
  0
SCALE
  5
5A
102
{ACAD_REACTORS
330
47
102
}
330
47
100
AcDbScale
 70
     0
300
1/64" = 1'-0"
140
0.015625
141
12.0
290
     0
  0
SCALE
  5
5B
102
{ACAD_REACTORS
330
47
102
}
330
47
100
AcDbScale
 70
     0
300
1/32" = 1'-0"
140
0.03125
141
12.0
290
     0
  0
SCALE
  5
5C
102
{ACAD_REACTORS
330
47
102
}
330
47
100
AcDbScale
 70
     0
300
1/16" = 1'-0"
140
0.0625
141
12.0
290
     0
  0
SCALE
  5
5D
102
{ACAD_REACTORS
330
47
102
}
330
47
100
AcDbScale
 70
     0
300
3/32" = 1'-0"
140
0.09375
141
12.0
290
     0
  0
SCALE
  5
5E
102
{ACAD_REACTORS
330
47
102
}
330
47
100
AcDbScale
 70
     0
300
1/8" = 1'-0"
140
0.125
141
12.0
290
     0
  0
SCALE
  5
5F
102
{ACAD_REACTORS
330
47
102
}
330
47
100
AcDbScale
 70
     0
300
3/16" = 1'-0"
140
0.1875
141
12.0
290
     0
  0
SCALE
  5
60
102
{ACAD_REACTORS
330
47
102
}
330
47
100
AcDbScale
 70
     0
300
1/4" = 1'-0"
140
0.25
141
12.0
290
     0
  0
SCALE
  5
61
102
{ACAD_REACTORS
330
47
102
}
330
47
100
AcDbScale
 70
     0
300
3/8" = 1'-0"
140
0.375
141
12.0
290
     0
  0
SCALE
  5
62
102
{ACAD_REACTORS
330
47
102
}
330
47
100
AcDbScale
 70
     0
300
1/2" = 1'-0"
140
0.5
141
12.0
290
     0
  0
SCALE
  5
63
102
{ACAD_REACTORS
330
47
102
}
330
47
100
AcDbScale
 70
     0
300
3/4" = 1'-0"
140
0.75
141
12.0
290
     0
  0
SCALE
  5
64
102
{ACAD_REACTORS
330
47
102
}
330
47
100
AcDbScale
 70
     0
300
1" = 1'-0"
140
1.0
141
12.0
290
     0
  0
SCALE
  5
65
102
{ACAD_REACTORS
330
47
102
}
330
47
100
AcDbScale
 70
     0
300
1-1/2" = 1'-0"
140
1.5
141
12.0
290
     0
  0
SCALE
  5
66
102
{ACAD_REACTORS
330
47
102
}
330
47
100
AcDbScale
 70
     0
300
3" = 1'-0"
140
3.0
141
12.0
290
     0
  0
SCALE
  5
67
102
{ACAD_REACTORS
330
47
102
}
330
47
100
AcDbScale
 70
     0
300
6" = 1'-0"
140
6.0
141
12.0
290
     0
  0
SCALE
  5
68
102
{ACAD_REACTORS
330
47
102
}
330
47
100
AcDbScale
 70
     0
300
1'-0" = 1'-0"
140
12.0
141
12.0
290
     0
  0
TABLESTYLE
  5
6A
102
{ACAD_REACTORS
330
69
102
}
102
{ACAD_XDICTIONARY
360
227
102
}
330
69
100
AcDbTableStyle
  3
Standard
 70
     0
 71
     0
 40
0.06
 41
0.06
280
     0
281
     0
  7
Standard
140
0.18
170
     2
 62
     0
 63
   257
283
     0
 90
        4
 91
        0
  1

274
    -2
284
     1
 64
     0
275
    -2
285
     1
 65
     0
276
    -2
286
     1
 66
     0
277
    -2
287
     1
 67
     0
278
    -2
288
     1
 68
     0
279
    -2
289
     1
 69
     0
  7
Standard
140
0.25
170
     5
 62
     0
 63
   257
283
     0
 90
        4
 91
        0
  1

274
    -2
284
     1
 64
     0
275
    -2
285
     1
 65
     0
276
    -2
286
     1
 66
     0
277
    -2
287
     1
 67
     0
278
    -2
288
     1
 68
     0
279
    -2
289
     1
 69
     0
  7
Standard
140
0.18
170
     5
 62
     0
 63
   257
283
     0
 90
        4
 91
        0
  1

274
    -2
284
     1
 64
     0
275
    -2
285
     1
 65
     0
276
    -2
286
     1
 66
     0
277
    -2
287
     1
 67
     0
278
    -2
288
     1
 68
     0
279
    -2
289
     1
 69
     0
  0
VISUALSTYLE
  5
2F
102
{ACAD_REACTORS
330
2A
102
}
330
2A
100
AcDbVisualStyle
  2
2dWireframe
 70
     4
177
     3
291
     0
 70
    58
 90
        0
176
     1
 90
        2
176
     1
 90
        0
176
     1
 90
        0
176
     1
 40
0.6
176
     1
 40
30.0
176
     1
 62
     7
420
 16777215
176
     1
 90
        1
176
     1
 90
        4
176
     1
 62
     7
176
     1
 62
   257
176
     1
 90
        1
176
     1
 90
        1
176
     1
 40
1.0
176
     1
 90
        0
176
     1
 62
   257
176
     1
 40
1.0
176
     1
 90
        1
176
     1
 90
        6
176
     1
 90
        2
176
     1
 62
     7
176
     1
 90
        5
176
     1
 90
        0
176
     1
 90
        0
176
     1
290
     0
176
     1
 90
        1
176
     1
 40
0.0
176
     1
 90
        0
176
     1
290
     1
176
     1
290
     1
176
     1
290
     0
176
     1
290
     0
176
     1
290
     0
176
     1
290
     0
176
     1
290
     0
176
     1
290
     0
176
     1
290
     0
176
     1
 90
       50
176
     1
 40
0.0
176
     1
 40
1.0
176
     1
 90
        0
176
     1
 62
    18
420
        0
176
     1
 90
       50
176
     1
 90
        3
176
     1
 62
     5
420
      255
176
     1
290
     0
176
     1
 90
       50
176
     1
 90
       50
176
     1
 90
       50
176
     1
290
     0
176
     1
 90
       50
176
     1
 62
   256
176
     0
 40
1.0
176
     0
 90
        2
176
     1
  1
strokes_ogs.tif
176
     1
290
     0
176
     1
 40
1.0
176
     1
 40
1.0
176
     1
  0
VISUALSTYLE
  5
32
102
{ACAD_REACTORS
330
2A
102
}
330
2A
100
AcDbVisualStyle
  2
Basic
 70
     7
177
     3
291
     1
 70
    58
 90
        1
176
     1
 90
        0
176
     1
 90
        1
176
     1
 90
        0
176
     1
 40
0.6
176
     1
 40
30.0
176
     1
 62
     7
420
 16777215
176
     1
 90
        0
176
     1
 90
        4
176
     1
 62
     7
176
     1
 62
   257
176
     1
 90
        1
176
     1
 90
        1
176
     1
 40
1.0
176
     1
 90
        8
176
     1
 62
     7
176
     1
 40
1.0
176
     1
 90
        1
176
     1
 90
        6
176
     1
 90
        2
176
     1
 62
     7
176
     1
 90
        5
176
     1
 90
        0
176
     1
 90
        0
176
     1
290
     0
176
     1
 90
        1
176
     1
 40
0.0
176
     1
 90
        0
176
     1
290
     0
176
     1
290
     1
176
     1
290
     1
176
     1
290
     0
176
     1
290
     0
176
     1
290
     0
176
     1
290
     0
176
     1
290
     0
176
     1
290
     0
176
     1
 90
       50
176
     1
 40
0.0
176
     1
 40
1.0
176
     1
 90
        0
176
     1
 62
    18
420
        0
176
     1
 90
       50
176
     1
 90
        3
176
     1
 62
     5
420
      255
176
     1
290
     0
176
     1
 90
       50
176
     1
 90
       50
176
     1
 90
       50
176
     1
290
     0
176
     1
 90
       50
176
     1
 62
   256
176
     0
 40
1.0
176
     0
 90
        2
176
     1
  1
strokes_ogs.tif
176
     1
290
     0
176
     1
 40
1.0
176
     1
 40
1.0
176
     1
  0
VISUALSTYLE
  5
36
102
{ACAD_REACTORS
330
2A
102
}
330
2A
100
AcDbVisualStyle
  2
Brighten
 70
    12
177
     3
291
     1
 70
    58
 90
        2
176
     1
 90
        2
176
     1
 90
        0
176
     1
 90
        0
176
     1
 40
0.6
176
     1
 40
30.0
176
     1
 62
     7
420
 16777215
176
     1
 90
        1
176
     1
 90
        4
176
     1
 62
     7
176
     1
 62
   257
176
     1
 90
        1
176
     1
 90
        1
176
     1
 40
1.0
176
     1
 90
        8
176
     1
 62
     7
176
     1
 40
1.0
176
     1
 90
        1
176
     1
 90
        6
176
     1
 90
        2
176
     1
 62
     7
176
     1
 90
        5
176
     1
 90
        0
176
     1
 90
        0
176
     1
290
     0
176
     1
 90
        1
176
     1
 40
50.0
176
     1
 90
        0
176
     1
290
     0
176
     1
290
     1
176
     1
290
     1
176
     1
290
     0
176
     1
290
     0
176
     1
290
     0
176
     1
290
     0
176
     1
290
     0
176
     1
290
     0
176
     1
 90
       50
176
     1
 40
0.0
176
     1
 40
1.0
176
     1
 90
        0
176
     1
 62
    18
420
        0
176
     1
 90
       50
176
     1
 90
        3
176
     1
 62
     5
420
      255
176
     1
290
     0
176
     1
 90
       50
176
     1
 90
       50
176
     1
 90
       50
176
     1
290
     0
176
     1
 90
       50
176
     1
 62
   256
176
     0
 40
1.0
176
     0
 90
        2
176
     1
  1
strokes_ogs.tif
176
     1
290
     0
176
     1
 40
1.0
176
     1
 40
1.0
176
     1
  0
VISUALSTYLE
  5
3A
102
{ACAD_REACTORS
330
2A
102
}
330
2A
100
AcDbVisualStyle
  2
ColorChange
 70
    16
177
     3
291
     1
 70
    58
 90
        2
176
     1
 90
        2
176
     1
 90
        3
176
     1
 90
        0
176
     1
 40
0.6
176
     1
 40
30.0
176
     1
 62
     8
420
  8421504
176
     1
 90
        1
176
     1
 90
        4
176
     1
 62
     7
176
     1
 62
   257
176
     1
 90
        1
176
     1
 90
        1
176
     1
 40
1.0
176
     1
 90
        8
176
     1
 62
     8
420
  8421504
176
     1
 40
1.0
176
     1
 90
        1
176
     1
 90
        6
176
     1
 90
        2
176
     1
 62
     7
176
     1
 90
        5
176
     1
 90
        0
176
     1
 90
        0
176
     1
290
     0
176
     1
 90
        1
176
     1
 40
0.0
176
     1
 90
        0
176
     1
290
     0
176
     1
290
     1
176
     1
290
     1
176
     1
290
     0
176
     1
290
     0
176
     1
290
     0
176
     1
290
     0
176
     1
290
     0
176
     1
290
     0
176
     1
 90
       50
176
     1
 40
0.0
176
     1
 40
1.0
176
     1
 90
        0
176
     1
 62
    18
420
        0
176
     1
 90
       50
176
     1
 90
        3
176
     1
 62
     5
420
      255
176
     1
290
     0
176
     1
 90
       50
176
     1
 90
       50
176
     1
 90
       50
176
     1
290
     0
176
     1
 90
       50
176
     1
 62
   256
176
     0
 40
1.0
176
     0
 90
        2
176
     1
  1
strokes_ogs.tif
176
     1
290
     0
176
     1
 40
1.0
176
     1
 40
1.0
176
     1
  0
VISUALSTYLE
  5
34
102
{ACAD_REACTORS
330
2A
102
}
330
2A
100
AcDbVisualStyle
  2
Conceptual
 70
     9
177
     3
291
     0
 70
    58
 90
        3
176
     1
 90
        2
176
     1
 90
        0
176
     1
 90
        0
176
     1
 40
0.6
176
     1
 40
30.0
176
     1
 62
     7
420
 16777215
176
     1
 90
        2
176
     1
 90
        2
176
     1
 62
     7
176
     1
 62
   257
176
     1
 90
        1
176
     1
 90
        1
176
     1
 40
179.0
176
     1
 90
        8
176
     1
 62
     7
176
     1
 40
1.0
176
     1
 90
        1
176
     1
 90
        6
176
     1
 90
        2
176
     1
 62
     7
176
     1
 90
        3
176
     1
 90
        0
176
     1
 90
        0
176
     1
290
     0
176
     1
 90
        1
176
     1
 40
0.0
176
     1
 90
        0
176
     1
290
     0
176
     1
290
     1
176
     1
290
     1
176
     1
290
     0
176
     1
290
     0
176
     1
290
     0
176
     1
290
     0
176
     1
290
     0
176
     1
290
     0
176
     1
 90
       50
176
     1
 40
0.0
176
     1
 40
1.0
176
     1
 90
        0
176
     1
 62
    18
420
        0
176
     1
 90
       50
176
     1
 90
        3
176
     1
 62
     5
420
      255
176
     1
290
     0
176
     1
 90
       50
176
     1
 90
       50
176
     1
 90
       50
176
     1
290
     0
176
     1
 90
       50
176
     1
 62
   256
176
     0
 40
1.0
176
     0
 90
        2
176
     1
  1
strokes_ogs.tif
176
     1
290
     0
176
     1
 40
1.0
176
     1
 40
1.0
176
     1
  0
VISUALSTYLE
  5
35
102
{ACAD_REACTORS
330
2A
102
}
330
2A
100
AcDbVisualStyle
  2
Dim
 70
    11
177
     3
291
     1
 70
    58
 90
        2
176
     1
 90
        2
176
     1
 90
        0
176
     1
 90
        0
176
     1
 40
0.6
176
     1
 40
30.0
176
     1
 62
     7
420
 16777215
176
     1
 90
        1
176
     1
 90
        4
176
     1
 62
     7
176
     1
 62
   257
176
     1
 90
        1
176
     1
 90
        1
176
     1
 40
1.0
176
     1
 90
        8
176
     1
 62
     7
176
     1
 40
1.0
176
     1
 90
        1
176
     1
 90
        6
176
     1
 90
        2
176
     1
 62
     7
176
     1
 90
        5
176
     1
 90
        0
176
     1
 90
        0
176
     1
290
     0
176
     1
 90
        1
176
     1
 40
-50.0
176
     1
 90
        0
176
     1
290
     0
176
     1
290
     1
176
     1
290
     1
176
     1
290
     0
176
     1
290
     0
176
     1
290
     0
176
     1
290
     0
176
     1
290
     0
176
     1
290
     0
176
     1
 90
       50
176
     1
 40
0.0
176
     1
 40
1.0
176
     1
 90
        0
176
     1
 62
    18
420
        0
176
     1
 90
       50
176
     1
 90
        3
176
     1
 62
     5
420
      255
176
     1
290
     0
176
     1
 90
       50
176
     1
 90
       50
176
     1
 90
       50
176
     1
290
     0
176
     1
 90
       50
176
     1
 62
   256
176
     0
 40
1.0
176
     0
 90
        2
176
     1
  1
strokes_ogs.tif
176
     1
290
     0
176
     1
 40
1.0
176
     1
 40
1.0
176
     1
  0
VISUALSTYLE
  5
3D
102
{ACAD_REACTORS
330
2A
102
}
330
2A
100
AcDbVisualStyle
  2
EdgeColorOff
 70
    22
177
     3
291
     1
 70
    58
 90
        2
176
     0
 90
        2
176
     0
 90
        0
176
     0
 90
        0
176
     0
 40
0.6
176
     0
 40
30.0
176
     0
 62
     7
420
 16777215
176
     0
 90
        1
176
     0
 90
        4
176
     0
 62
     7
176
     0
 62
   257
176
     0
 90
        1
176
     0
 90
        1
176
     0
 40
1.0
176
     0
 90
        8
176
     2
 62
     7
176
     0
 40
1.0
176
     0
 90
        1
176
     0
 90
        6
176
     0
 90
        2
176
     0
 62
     7
176
     0
 90
        5
176
     0
 90
        0
176
     0
 90
        0
176
     0
290
     0
176
     0
 90
        1
176
     0
 40
0.0
176
     0
 90
        0
176
     0
290
     0
176
     0
290
     1
176
     0
290
     1
176
     0
290
     0
176
     0
290
     0
176
     0
290
     0
176
     0
290
     0
176
     0
290
     0
176
     0
290
     0
176
     0
 90
       50
176
     0
 40
0.0
176
     0
 40
1.0
176
     0
 90
        0
176
     0
 62
    18
420
        0
176
     0
 90
       50
176
     0
 90
        3
176
     0
 62
     5
420
      255
176
     0
290
     0
176
     0
 90
       50
176
     0
 90
       50
176
     0
 90
       50
176
     0
290
     0
176
     0
 90
       50
176
     0
 62
   256
176
     0
 40
1.0
176
     0
 90
        2
176
     0
  1
strokes_ogs.tif
176
     0
290
     0
176
     0
 40
1.0
176
     0
 40
1.0
176
     0
  0
VISUALSTYLE
  5
39
102
{ACAD_REACTORS
330
2A
102
}
330
2A
100
AcDbVisualStyle
  2
Facepattern
 70
    15
177
     3
291
     1
 70
    58
 90
        2
176
     1
 90
        2
176
     1
 90
        0
176
     1
 90
        0
176
     1
 40
0.6
176
     1
 40
30.0
176
     1
 62
     7
420
 16777215
176
     1
 90
        1
176
     1
 90
        4
176
     1
 62
     7
176
     1
 62
   257
176
     1
 90
        1
176
     1
 90
        1
176
     1
 40
1.0
176
     1
 90
        8
176
     1
 62
     7
176
     1
 40
1.0
176
     1
 90
        1
176
     1
 90
        6
176
     1
 90
        2
176
     1
 62
     7
176
     1
 90
        5
176
     1
 90
        0
176
     1
 90
        0
176
     1
290
     0
176
     1
 90
        1
176
     1
 40
0.0
176
     1
 90
        0
176
     1
290
     0
176
     1
290
     1
176
     1
290
     1
176
     1
290
     0
176
     1
290
     0
176
     1
290
     0
176
     1
290
     0
176
     1
290
     0
176
     1
290
     0
176
     1
 90
       50
176
     1
 40
0.0
176
     1
 40
1.0
176
     1
 90
        0
176
     1
 62
    18
420
        0
176
     1
 90
       50
176
     1
 90
        3
176
     1
 62
     5
420
      255
176
     1
290
     0
176
     1
 90
       50
176
     1
 90
       50
176
     1
 90
       50
176
     1
290
     0
176
     1
 90
       50
176
     1
 62
   256
176
     0
 40
1.0
176
     0
 90
        2
176
     1
  1
strokes_ogs.tif
176
     1
290
     0
176
     1
 40
1.0
176
     1
 40
1.0
176
     1
  0
VISUALSTYLE
  5
2B
102
{ACAD_REACTORS
330
2A
102
}
330
2A
100
AcDbVisualStyle
  2
Flat
 70
     0
177
     3
291
     1
 70
    58
 90
        2
176
     1
 90
        1
176
     1
 90
        1
176
     1
 90
        2
176
     1
 40
0.6
176
     1
 40
30.0
176
     1
 62
     7
420
 16777215
176
     1
 90
        0
176
     1
 90
        0
176
     1
 62
     7
176
     1
 62
   257
176
     1
 90
        1
176
     1
 90
        1
176
     1
 40
1.0
176
     1
 90
        8
176
     1
 62
     7
176
     1
 40
1.0
176
     1
 90
        1
176
     1
 90
        6
176
     1
 90
        2
176
     1
 62
     7
176
     1
 90
        5
176
     1
 90
        0
176
     1
 90
        0
176
     1
290
     0
176
     1
 90
       13
176
     1
 40
0.0
176
     1
 90
        0
176
     1
290
     0
176
     1
290
     1
176
     1
290
     1
176
     1
290
     0
176
     1
290
     0
176
     1
290
     0
176
     1
290
     0
176
     1
290
     0
176
     1
290
     0
176
     1
 90
       50
176
     1
 40
0.0
176
     1
 40
1.0
176
     1
 90
        0
176
     1
 62
    18
420
        0
176
     1
 90
       50
176
     1
 90
        3
176
     1
 62
     5
420
      255
176
     1
290
     0
176
     1
 90
       50
176
     1
 90
       50
176
     1
 90
       50
176
     1
290
     0
176
     1
 90
       50
176
     1
 62
   256
176
     0
 40
1.0
176
     0
 90
        2
176
     1
  1
strokes_ogs.tif
176
     1
290
     0
176
     1
 40
1.0
176
     1
 40
1.0
176
     1
  0
VISUALSTYLE
  5
2C
102
{ACAD_REACTORS
330
2A
102
}
330
2A
100
AcDbVisualStyle
  2
FlatWithEdges
 70
     1
177
     3
291
     1
 70
    58
 90
        2
176
     1
 90
        1
176
     1
 90
        1
176
     1
 90
        2
176
     1
 40
0.6
176
     1
 40
30.0
176
     1
 62
     7
420
 16777215
176
     1
 90
        1
176
     1
 90
        0
176
     1
 62
     7
176
     1
 62
   257
176
     1
 90
        1
176
     1
 90
        1
176
     1
 40
1.0
176
     1
 90
        0
176
     1
 62
   257
176
     1
 40
1.0
176
     1
 90
        1
176
     1
 90
        6
176
     1
 90
        2
176
     1
 62
     7
176
     1
 90
        5
176
     1
 90
        0
176
     1
 90
        0
176
     1
290
     0
176
     1
 90
       13
176
     1
 40
0.0
176
     1
 90
        0
176
     1
290
     0
176
     1
290
     1
176
     1
290
     1
176
     1
290
     0
176
     1
290
     0
176
     1
290
     0
176
     1
290
     0
176
     1
290
     0
176
     1
290
     0
176
     1
 90
       50
176
     1
 40
0.0
176
     1
 40
1.0
176
     1
 90
        0
176
     1
 62
    18
420
        0
176
     1
 90
       50
176
     1
 90
        3
176
     1
 62
     5
420
      255
176
     1
290
     0
176
     1
 90
       50
176
     1
 90
       50
176
     1
 90
       50
176
     1
290
     0
176
     1
 90
       50
176
     1
 62
   256
176
     0
 40
1.0
176
     0
 90
        2
176
     1
  1
strokes_ogs.tif
176
     1
290
     0
176
     1
 40
1.0
176
     1
 40
1.0
176
     1
  0
VISUALSTYLE
  5
2D
102
{ACAD_REACTORS
330
2A
102
}
330
2A
100
AcDbVisualStyle
  2
Gouraud
 70
     2
177
     3
291
     1
 70
    58
 90
        2
176
     1
 90
        2
176
     1
 90
        1
176
     1
 90
        2
176
     1
 40
0.6
176
     1
 40
30.0
176
     1
 62
     7
420
 16777215
176
     1
 90
        0
176
     1
 90
        0
176
     1
 62
     7
176
     1
 62
   257
176
     1
 90
        1
176
     1
 90
        1
176
     1
 40
1.0
176
     1
 90
        0
176
     1
 62
     7
176
     1
 40
1.0
176
     1
 90
        1
176
     1
 90
        6
176
     1
 90
        2
176
     1
 62
     7
176
     1
 90
        5
176
     1
 90
        0
176
     1
 90
        0
176
     1
290
     0
176
     1
 90
       13
176
     1
 40
0.0
176
     1
 90
        0
176
     1
290
     0
176
     1
290
     1
176
     1
290
     1
176
     1
290
     0
176
     1
290
     0
176
     1
290
     0
176
     1
290
     0
176
     1
290
     0
176
     1
290
     0
176
     1
 90
       50
176
     1
 40
0.0
176
     1
 40
1.0
176
     1
 90
        0
176
     1
 62
    18
420
        0
176
     1
 90
       50
176
     1
 90
        3
176
     1
 62
     5
420
      255
176
     1
290
     0
176
     1
 90
       50
176
     1
 90
       50
176
     1
 90
       50
176
     1
290
     0
176
     1
 90
       50
176
     1
 62
   256
176
     0
 40
1.0
176
     0
 90
        2
176
     1
  1
strokes_ogs.tif
176
     1
290
     0
176
     1
 40
1.0
176
     1
 40
1.0
176
     1
  0
VISUALSTYLE
  5
2E
102
{ACAD_REACTORS
330
2A
102
}
330
2A
100
AcDbVisualStyle
  2
GouraudWithEdges
 70
     3
177
     3
291
     1
 70
    58
 90
        2
176
     1
 90
        2
176
     1
 90
        1
176
     1
 90
        2
176
     1
 40
0.6
176
     1
 40
30.0
176
     1
 62
     7
420
 16777215
176
     1
 90
        1
176
     1
 90
        0
176
     1
 62
     7
176
     1
 62
   257
176
     1
 90
        1
176
     1
 90
        1
176
     1
 40
1.0
176
     1
 90
        0
176
     1
 62
   257
176
     1
 40
1.0
176
     1
 90
        1
176
     1
 90
        6
176
     1
 90
        2
176
     1
 62
     7
176
     1
 90
        5
176
     1
 90
        0
176
     1
 90
        0
176
     1
290
     0
176
     1
 90
       13
176
     1
 40
0.0
176
     1
 90
        0
176
     1
290
     0
176
     1
290
     1
176
     1
290
     1
176
     1
290
     0
176
     1
290
     0
176
     1
290
     0
176
     1
290
     0
176
     1
290
     0
176
     1
290
     0
176
     1
 90
       50
176
     1
 40
0.0
176
     1
 40
1.0
176
     1
 90
        0
176
     1
 62
    18
420
        0
176
     1
 90
       50
176
     1
 90
        3
176
     1
 62
     5
420
      255
176
     1
290
     0
176
     1
 90
       50
176
     1
 90
       50
176
     1
 90
       50
176
     1
290
     0
176
     1
 90
       50
176
     1
 62
   256
176
     0
 40
1.0
176
     0
 90
        2
176
     1
  1
strokes_ogs.tif
176
     1
290
     0
176
     1
 40
1.0
176
     1
 40
1.0
176
     1
  0
VISUALSTYLE
  5
31
102
{ACAD_REACTORS
330
2A
102
}
330
2A
100
AcDbVisualStyle
  2
Hidden
 70
     6
177
     3
291
     0
 70
    58
 90
        1
176
     1
 90
        2
176
     1
 90
        2
176
     1
 90
        0
176
     1
 40
0.6
176
     1
 40
30.0
176
     1
 62
     7
420
 16777215
176
     1
 90
        2
176
     1
 90
        2
176
     1
 62
     7
176
     1
 62
   257
176
     1
 90
        2
176
     1
 90
        1
176
     1
 40
40.0
176
     1
 90
        0
176
     1
 62
   257
176
     1
 40
1.0
176
     1
 90
        1
176
     1
 90
        6
176
     1
 90
        2
176
     1
 62
     7
176
     1
 90
        3
176
     1
 90
        0
176
     1
 90
        0
176
     1
290
     0
176
     1
 90
        1
176
     1
 40
0.0
176
     1
 90
        0
176
     1
290
     0
176
     1
290
     1
176
     1
290
     1
176
     1
290
     0
176
     1
290
     0
176
     1
290
     0
176
     1
290
     0
176
     1
290
     0
176
     1
290
     0
176
     1
 90
       50
176
     1
 40
0.0
176
     1
 40
1.0
176
     1
 90
        0
176
     1
 62
    18
420
        0
176
     1
 90
       50
176
     1
 90
        3
176
     1
 62
     5
420
      255
176
     1
290
     0
176
     1
 90
       50
176
     1
 90
       50
176
     1
 90
       50
176
     1
290
     0
176
     1
 90
       50
176
     1
 62
   256
176
     0
 40
1.0
176
     0
 90
        2
176
     1
  1
strokes_ogs.tif
176
     1
290
     0
176
     1
 40
1.0
176
     1
 40
1.0
176
     1
  0
VISUALSTYLE
  5
3B
102
{ACAD_REACTORS
330
2A
102
}
330
2A
100
AcDbVisualStyle
  2
JitterOff
 70
    20
177
     3
291
     1
 70
    58
 90
        2
176
     0
 90
        2
176
     0
 90
        0
176
     0
 90
        0
176
     0
 40
0.6
176
     0
 40
30.0
176
     0
 62
     7
420
 16777215
176
     0
 90
        1
176
     0
 90
        4
176
     0
 62
     7
176
     0
 62
   257
176
     0
 90
        1
176
     0
 90
        1
176
     0
 40
1.0
176
     0
 90
       10
176
     2
 62
     7
176
     0
 40
1.0
176
     0
 90
        1
176
     0
 90
        6
176
     0
 90
        2
176
     0
 62
     7
176
     0
 90
        5
176
     0
 90
        0
176
     0
 90
        0
176
     0
290
     0
176
     0
 90
        1
176
     0
 40
0.0
176
     0
 90
        0
176
     0
290
     0
176
     0
290
     1
176
     0
290
     1
176
     0
290
     0
176
     0
290
     0
176
     0
290
     0
176
     0
290
     0
176
     0
290
     0
176
     0
290
     0
176
     0
 90
       50
176
     0
 40
0.0
176
     0
 40
1.0
176
     0
 90
        0
176
     0
 62
    18
420
        0
176
     0
 90
       50
176
     0
 90
        3
176
     0
 62
     5
420
      255
176
     0
290
     0
176
     0
 90
       50
176
     0
 90
       50
176
     0
 90
       50
176
     0
290
     0
176
     0
 90
       50
176
     0
 62
   256
176
     0
 40
1.0
176
     0
 90
        2
176
     0
  1
strokes_ogs.tif
176
     0
290
     0
176
     0
 40
1.0
176
     0
 40
1.0
176
     0
  0
VISUALSTYLE
  5
38
102
{ACAD_REACTORS
330
2A
102
}
330
2A
100
AcDbVisualStyle
  2
Linepattern
 70
    14
177
     3
291
     1
 70
    58
 90
        2
176
     1
 90
        2
176
     1
 90
        0
176
     1
 90
        0
176
     1
 40
0.6
176
     1
 40
30.0
176
     1
 62
     7
420
 16777215
176
     1
 90
        1
176
     1
 90
        4
176
     1
 62
     7
176
     1
 62
   257
176
     1
 90
        7
176
     1
 90
        7
176
     1
 40
1.0
176
     1
 90
        8
176
     1
 62
     7
176
     1
 40
1.0
176
     1
 90
        1
176
     1
 90
        6
176
     1
 90
        2
176
     1
 62
     7
176
     1
 90
        5
176
     1
 90
        0
176
     1
 90
        0
176
     1
290
     0
176
     1
 90
        1
176
     1
 40
0.0
176
     1
 90
        0
176
     1
290
     0
176
     1
290
     1
176
     1
290
     1
176
     1
290
     0
176
     1
290
     0
176
     1
290
     0
176
     1
290
     0
176
     1
290
     0
176
     1
290
     0
176
     1
 90
       50
176
     1
 40
0.0
176
     1
 40
1.0
176
     1
 90
        0
176
     1
 62
    18
420
        0
176
     1
 90
       50
176
     1
 90
        3
176
     1
 62
     5
420
      255
176
     1
290
     0
176
     1
 90
       50
176
     1
 90
       50
176
     1
 90
       50
176
     1
290
     0
176
     1
 90
       50
176
     1
 62
   256
176
     0
 40
1.0
176
     0
 90
        2
176
     1
  1
strokes_ogs.tif
176
     1
290
     0
176
     1
 40
1.0
176
     1
 40
1.0
176
     1
  0
VISUALSTYLE
  5
3C
102
{ACAD_REACTORS
330
2A
102
}
330
2A
100
AcDbVisualStyle
  2
OverhangOff
 70
    21
177
     3
291
     1
 70
    58
 90
        2
176
     0
 90
        2
176
     0
 90
        0
176
     0
 90
        0
176
     0
 40
0.6
176
     0
 40
30.0
176
     0
 62
     7
420
 16777215
176
     0
 90
        1
176
     0
 90
        4
176
     0
 62
     7
176
     0
 62
   257
176
     0
 90
        1
176
     0
 90
        1
176
     0
 40
1.0
176
     0
 90
        9
176
     2
 62
     7
176
     0
 40
1.0
176
     0
 90
        1
176
     0
 90
        6
176
     0
 90
        2
176
     0
 62
     7
176
     0
 90
        5
176
     0
 90
        0
176
     0
 90
        0
176
     0
290
     0
176
     0
 90
        1
176
     0
 40
0.0
176
     0
 90
        0
176
     0
290
     0
176
     0
290
     1
176
     0
290
     1
176
     0
290
     0
176
     0
290
     0
176
     0
290
     0
176
     0
290
     0
176
     0
290
     0
176
     0
290
     0
176
     0
 90
       50
176
     0
 40
0.0
176
     0
 40
1.0
176
     0
 90
        0
176
     0
 62
    18
420
        0
176
     0
 90
       50
176
     0
 90
        3
176
     0
 62
     5
420
      255
176
     0
290
     0
176
     0
 90
       50
176
     0
 90
       50
176
     0
 90
       50
176
     0
290
     0
176
     0
 90
       50
176
     0
 62
   256
176
     0
 40
1.0
176
     0
 90
        2
176
     0
  1
strokes_ogs.tif
176
     0
290
     0
176
     0
 40
1.0
176
     0
 40
1.0
176
     0
  0
VISUALSTYLE
  5
33
102
{ACAD_REACTORS
330
2A
102
}
330
2A
100
AcDbVisualStyle
  2
Realistic
 70
     8
177
     3
291
     0
 70
    58
 90
        2
176
     1
 90
        3
176
     1
 90
        0
176
     1
 90
        2
176
     1
 40
0.6
176
     1
 40
30.0
176
     1
 62
     7
420
 16777215
176
     1
 90
        0
176
     1
 90
        0
176
     1
 62
     7
176
     1
 62
   257
176
     1
 90
        1
176
     1
 90
        1
176
     1
 40
1.0
176
     1
 90
        8
176
     1
 62
   257
176
     1
 40
1.0
176
     1
 90
        1
176
     1
 90
        6
176
     1
 90
        2
176
     1
 62
     7
176
     1
 90
        3
176
     1
 90
        0
176
     1
 90
        0
176
     1
290
     0
176
     1
 90
       13
176
     1
 40
0.0
176
     1
 90
        0
176
     1
290
     0
176
     1
290
     1
176
     1
290
     1
176
     1
290
     0
176
     1
290
     0
176
     1
290
     0
176
     1
290
     0
176
     1
290
     0
176
     1
290
     0
176
     1
 90
       50
176
     1
 40
0.0
176
     1
 40
1.0
176
     1
 90
        0
176
     1
 62
    18
420
        0
176
     1
 90
       50
176
     1
 90
        3
176
     1
 62
     5
420
      255
176
     1
290
     0
176
     1
 90
       50
176
     1
 90
       50
176
     1
 90
       50
176
     1
290
     0
176
     1
 90
       50
176
     1
 62
   256
176
     0
 40
1.0
176
     0
 90
        2
176
     1
  1
strokes_ogs.tif
176
     1
290
     0
176
     1
 40
1.0
176
     1
 40
1.0
176
     1
  0
VISUALSTYLE
  5
42
102
{ACAD_REACTORS
330
2A
102
}
330
2A
100
AcDbVisualStyle
  2
Shaded
 70
    27
177
     3
291
     0
 70
    58
 90
        2
176
     1
 90
        2
176
     1
 90
        1
176
     1
 90
        2
176
     1
 40
0.6
176
     1
 40
30.0
176
     1
 62
     7
420
 16777215
176
     1
 90
        0
176
     1
 90
        4
176
     1
 62
     7
176
     1
 62
   257
176
     1
 90
        1
176
     1
 90
        1
176
     1
 40
1.0
176
     1
 90
        8
176
     1
 62
   257
176
     1
 40
1.0
176
     1
 90
        1
176
     1
 90
        6
176
     1
 90
        2
176
     1
 62
     8
420
  7895160
176
     1
 90
        3
176
     1
 90
        0
176
     1
 90
        0
176
     1
290
     0
176
     1
 90
        5
176
     1
 40
0.0
176
     1
 90
        0
176
     1
290
     0
176
     1
290
     1
176
     1
290
     1
176
     1
290
     0
176
     1
290
     0
176
     1
290
     0
176
     1
290
     0
176
     1
290
     0
176
     1
290
     0
176
     1
 90
       50
176
     1
 40
0.0
176
     1
 40
1.0
176
     1
 90
        0
176
     1
 62
    18
420
        0
176
     1
 90
       50
176
     1
 90
        3
176
     1
 62
     5
420
      255
176
     1
290
     0
176
     1
 90
       50
176
     1
 90
       50
176
     1
 90
       50
176
     1
290
     0
176
     1
 90
       50
176
     1
 62
   256
176
     0
 40
1.0
176
     0
 90
        2
176
     1
  1
strokes_ogs.tif
176
     1
290
     0
176
     1
 40
1.0
176
     1
 40
1.0
176
     1
  0
VISUALSTYLE
  5
41
102
{ACAD_REACTORS
330
2A
102
}
330
2A
100
AcDbVisualStyle
  2
Shaded with edges
 70
    26
177
     3
291
     0
 70
    58
 90
        2
176
     1
 90
        2
176
     1
 90
        1
176
     1
 90
        2
176
     1
 40
0.6
176
     1
 40
30.0
176
     1
 62
     7
420
 16777215
176
     1
 90
        1
176
     1
 90
       10
176
     1
 62
     7
176
     1
 62
   257
176
     1
 90
        2
176
     1
 90
        1
176
     1
 40
1.0
176
     1
 90
        8
176
     1
 62
   257
176
     1
 40
1.0
176
     1
 90
        1
176
     1
 90
        6
176
     1
 90
        2
176
     1
 62
     7
176
     1
 90
        3
176
     1
 90
        0
176
     1
 90
        0
176
     1
290
     0
176
     1
 90
        5
176
     1
 40
0.0
176
     1
 90
        0
176
     1
290
     0
176
     1
290
     1
176
     1
290
     1
176
     1
290
     0
176
     1
290
     0
176
     1
290
     0
176
     1
290
     0
176
     1
290
     0
176
     1
290
     0
176
     1
 90
       50
176
     1
 40
0.0
176
     1
 40
1.0
176
     1
 90
        0
176
     1
 62
    18
420
        0
176
     1
 90
       50
176
     1
 90
        3
176
     1
 62
     5
420
      255
176
     1
290
     0
176
     1
 90
       50
176
     1
 90
       50
176
     1
 90
       50
176
     1
290
     0
176
     1
 90
       50
176
     1
 62
   256
176
     0
 40
1.0
176
     0
 90
        2
176
     1
  1
strokes_ogs.tif
176
     1
290
     0
176
     1
 40
1.0
176
     1
 40
1.0
176
     1
  0
VISUALSTYLE
  5
3E
102
{ACAD_REACTORS
330
2A
102
}
330
2A
100
AcDbVisualStyle
  2
Shades of Gray
 70
    23
177
     3
291
     0
 70
    58
 90
        2
176
     1
 90
        2
176
     1
 90
        3
176
     1
 90
        0
176
     1
 40
0.6
176
     1
 40
30.0
176
     1
 62
     7
420
 16777215
176
     1
 90
        2
176
     1
 90
        2
176
     1
 62
     7
176
     1
 62
     7
176
     1
 90
        1
176
     1
 90
        1
176
     1
 40
40.0
176
     1
 90
        8
176
     1
 62
     7
176
     1
 40
1.0
176
     1
 90
        1
176
     1
 90
        6
176
     1
 90
        2
176
     1
 62
     7
176
     1
 90
        3
176
     1
 90
        0
176
     1
 90
        0
176
     1
290
     0
176
     1
 90
        1
176
     1
 40
0.0
176
     1
 90
        0
176
     1
290
     0
176
     1
290
     1
176
     1
290
     1
176
     1
290
     0
176
     1
290
     0
176
     1
290
     0
176
     1
290
     0
176
     1
290
     0
176
     1
290
     0
176
     1
 90
       50
176
     1
 40
0.0
176
     1
 40
1.0
176
     1
 90
        0
176
     1
 62
    18
420
        0
176
     1
 90
       50
176
     1
 90
        3
176
     1
 62
     5
420
      255
176
     1
290
     0
176
     1
 90
       50
176
     1
 90
       50
176
     1
 90
       50
176
     1
290
     0
176
     1
 90
       50
176
     1
 62
   256
176
     0
 40
1.0
176
     0
 90
        2
176
     1
  1
strokes_ogs.tif
176
     1
290
     0
176
     1
 40
1.0
176
     1
 40
1.0
176
     1
  0
VISUALSTYLE
  5
3F
102
{ACAD_REACTORS
330
2A
102
}
330
2A
100
AcDbVisualStyle
  2
Sketchy
 70
    24
177
     3
291
     0
 70
    58
 90
        1
176
     1
 90
        2
176
     1
 90
        2
176
     1
 90
        0
176
     1
 40
0.6
176
     1
 40
30.0
176
     1
 62
     7
420
 16777215
176
     1
 90
        2
176
     1
 90
        2
176
     1
 62
     7
176
     1
 62
     7
176
     1
 90
        1
176
     1
 90
        1
176
     1
 40
40.0
176
     1
 90
       11
176
     1
 62
     7
176
     1
 40
1.0
176
     1
 90
        1
176
     1
 90
        6
176
     1
 90
        2
176
     1
 62
     7
176
     1
 90
        6
176
     1
 90
        0
176
     1
 90
        0
176
     1
290
     0
176
     1
 90
        1
176
     1
 40
0.0
176
     1
 90
        0
176
     1
290
     0
176
     1
290
     1
176
     1
290
     1
176
     1
290
     0
176
     1
290
     0
176
     1
290
     0
176
     1
290
     0
176
     1
290
     0
176
     1
290
     0
176
     1
 90
       50
176
     1
 40
0.0
176
     1
 40
1.0
176
     1
 90
        0
176
     1
 62
    18
420
        0
176
     1
 90
       50
176
     1
 90
        3
176
     1
 62
     5
420
      255
176
     1
290
     0
176
     1
 90
       50
176
     1
 90
       50
176
     1
 90
       50
176
     1
290
     0
176
     1
 90
       50
176
     1
 62
   256
176
     0
 40
1.0
176
     0
 90
        2
176
     1
  1
strokes_ogs.tif
176
     1
290
     0
176
     1
 40
1.0
176
     1
 40
1.0
176
     1
  0
VISUALSTYLE
  5
37
102
{ACAD_REACTORS
330
2A
102
}
330
2A
100
AcDbVisualStyle
  2
Thicken
 70
    13
177
     3
291
     1
 70
    58
 90
        2
176
     1
 90
        2
176
     1
 90
        0
176
     1
 90
        0
176
     1
 40
0.6
176
     1
 40
30.0
176
     1
 62
     7
420
 16777215
176
     1
 90
        1
176
     1
 90
        4
176
     1
 62
     7
176
     1
 62
   257
176
     1
 90
        1
176
     1
 90
        1
176
     1
 40
1.0
176
     1
 90
       12
176
     1
 62
     7
176
     1
 40
1.0
176
     1
 90
        1
176
     1
 90
        6
176
     1
 90
        2
176
     1
 62
     7
176
     1
 90
        5
176
     1
 90
        0
176
     1
 90
        0
176
     1
290
     0
176
     1
 90
        1
176
     1
 40
0.0
176
     1
 90
        0
176
     1
290
     0
176
     1
290
     1
176
     1
290
     1
176
     1
290
     0
176
     1
290
     0
176
     1
290
     0
176
     1
290
     0
176
     1
290
     0
176
     1
290
     0
176
     1
 90
       50
176
     1
 40
0.0
176
     1
 40
1.0
176
     1
 90
        0
176
     1
 62
    18
420
        0
176
     1
 90
       50
176
     1
 90
        3
176
     1
 62
     5
420
      255
176
     1
290
     0
176
     1
 90
       50
176
     1
 90
       50
176
     1
 90
       50
176
     1
290
     0
176
     1
 90
       50
176
     1
 62
   256
176
     0
 40
1.0
176
     0
 90
        2
176
     1
  1
strokes_ogs.tif
176
     1
290
     0
176
     1
 40
1.0
176
     1
 40
1.0
176
     1
  0
VISUALSTYLE
  5
30
102
{ACAD_REACTORS
330
2A
102
}
330
2A
100
AcDbVisualStyle
  2
Wireframe
 70
     5
177
     3
291
     0
 70
    58
 90
        0
176
     1
 90
        2
176
     1
 90
        0
176
     1
 90
        0
176
     1
 40
0.6
176
     1
 40
30.0
176
     1
 62
     7
420
 16777215
176
     1
 90
        1
176
     1
 90
        4
176
     1
 62
     7
176
     1
 62
   257
176
     1
 90
        1
176
     1
 90
        1
176
     1
 40
1.0
176
     1
 90
        0
176
     1
 62
   257
176
     1
 40
1.0
176
     1
 90
        1
176
     1
 90
        6
176
     1
 90
        2
176
     1
 62
     7
176
     1
 90
        3
176
     1
 90
        0
176
     1
 90
        0
176
     1
290
     0
176
     1
 90
        1
176
     1
 40
0.0
176
     1
 90
        0
176
     1
290
     0
176
     1
290
     1
176
     1
290
     1
176
     1
290
     0
176
     1
290
     0
176
     1
290
     0
176
     1
290
     0
176
     1
290
     0
176
     1
290
     0
176
     1
 90
       50
176
     1
 40
0.0
176
     1
 40
1.0
176
     1
 90
        0
176
     1
 62
    18
420
        0
176
     1
 90
       50
176
     1
 90
        3
176
     1
 62
     5
420
      255
176
     1
290
     0
176
     1
 90
       50
176
     1
 90
       50
176
     1
 90
       50
176
     1
290
     0
176
     1
 90
       50
176
     1
 62
   256
176
     0
 40
1.0
176
     0
 90
        2
176
     1
  1
strokes_ogs.tif
176
     1
290
     0
176
     1
 40
1.0
176
     1
 40
1.0
176
     1
  0
VISUALSTYLE
  5
40
102
{ACAD_REACTORS
330
2A
102
}
330
2A
100
AcDbVisualStyle
  2
X-Ray
 70
    25
177
     3
291
     0
 70
    58
 90
        2
176
     1
 90
        2
176
     1
 90
        1
176
     1
 90
        1
176
     1
 40
0.5
176
     1
 40
30.0
176
     1
 62
     7
420
 16777215
176
     1
 90
        1
176
     1
 90
        0
176
     1
 62
     7
176
     1
 62
   257
176
     1
 90
        1
176
     1
 90
        1
176
     1
 40
1.0
176
     1
 90
        8
176
     1
 62
     7
176
     1
 40
1.0
176
     1
 90
        1
176
     1
 90
        6
176
     1
 90
        2
176
     1
 62
     7
176
     1
 90
        3
176
     1
 90
        0
176
     1
 90
        0
176
     1
290
     0
176
     1
 90
       13
176
     1
 40
0.0
176
     1
 90
        0
176
     1
290
     0
176
     1
290
     1
176
     1
290
     1
176
     1
290
     0
176
     1
290
     0
176
     1
290
     0
176
     1
290
     0
176
     1
290
     0
176
     1
290
     0
176
     1
 90
       50
176
     1
 40
0.0
176
     1
 40
1.0
176
     1
 90
        0
176
     1
 62
    18
420
        0
176
     1
 90
       50
176
     1
 90
        3
176
     1
 62
     5
420
      255
176
     1
290
     0
176
     1
 90
       50
176
     1
 90
       50
176
     1
 90
       50
176
     1
290
     0
176
     1
 90
       50
176
     1
 62
   256
176
     0
 40
1.0
176
     0
 90
        2
176
     1
  1
strokes_ogs.tif
176
     1
290
     0
176
     1
 40
1.0
176
     1
 40
1.0
176
     1
  0
DICTIONARYVAR
  5
226
102
{ACAD_REACTORS
330
225
102
}
330
225
100
DictionaryVariables
280
     0
  1
1:1
  0
DICTIONARYVAR
  5
22B
102
{ACAD_REACTORS
330
225
102
}
330
225
100
DictionaryVariables
280
     0
  1
Standard
  0
DICTIONARYVAR
  5
22A
102
{ACAD_REACTORS
330
225
102
}
330
225
100
DictionaryVariables
280
     0
  1
Standard
  0
DICTIONARY
  5
227
330
6A
100
AcDbDictionary
280
     1
281
     1
  3
ACAD_ROUNDTRIP_2008_TABLESTYLE_CELLSTYLEMAP
360
228
  0
CELLSTYLEMAP
  5
228
102
{ACAD_REACTORS
330
227
102
}
330
227
100
AcDbCellStyleMap
 90
        3
300
CELLSTYLE
  1
TABLEFORMAT_BEGIN
 90
        5
170
     1
 91
        0
 92
    32768
 62
   257
 93
        1
300
CONTENTFORMAT
  1
CONTENTFORMAT_BEGIN
 90
        0
 91
        0
 92
        4
 93
        0
300

 40
0.0
140
1.0
 94
        5
 62
     0
340
11
144
0.25
309
CONTENTFORMAT_END
171
     1
301
MARGIN
  1
CELLMARGIN_BEGIN
 40
0.06
 40
0.06
 40
0.06
 40
0.06
 40
0.06
 40
0.06
309
CELLMARGIN_END
 94
        6
 95
        1
302
GRIDFORMAT
  1
GRIDFORMAT_BEGIN
 90
        0
 91
        1
 62
     0
 92
       -2
340
14
 93
        0
 40
0.045
309
GRIDFORMAT_END
 95
        2
302
GRIDFORMAT
  1
GRIDFORMAT_BEGIN
 90
        0
 91
        1
 62
     0
 92
       -2
340
14
 93
        0
 40
0.045
309
GRIDFORMAT_END
 95
        4
302
GRIDFORMAT
  1
GRIDFORMAT_BEGIN
 90
        0
 91
        1
 62
     0
 92
       -2
340
14
 93
        0
 40
0.045
309
GRIDFORMAT_END
 95
        8
302
GRIDFORMAT
  1
GRIDFORMAT_BEGIN
 90
        0
 91
        1
 62
     0
 92
       -2
340
14
 93
        0
 40
0.045
309
GRIDFORMAT_END
 95
       16
302
GRIDFORMAT
  1
GRIDFORMAT_BEGIN
 90
        0
 91
        1
 62
     0
 92
       -2
340
14
 93
        0
 40
0.045
309
GRIDFORMAT_END
 95
       32
302
GRIDFORMAT
  1
GRIDFORMAT_BEGIN
 90
        0
 91
        1
 62
     0
 92
       -2
340
14
 93
        0
 40
0.045
309
GRIDFORMAT_END
309
TABLEFORMAT_END
  1
CELLSTYLE_BEGIN
 90
        1
 91
        1
300
_TITLE
309
CELLSTYLE_END
300
CELLSTYLE
  1
TABLEFORMAT_BEGIN
 90
        5
170
     1
 91
        0
 92
        0
 62
   257
 93
        1
300
CONTENTFORMAT
  1
CONTENTFORMAT_BEGIN
 90
        0
 91
        0
 92
        4
 93
        0
300

 40
0.0
140
1.0
 94
        5
 62
     0
340
11
144
0.18
309
CONTENTFORMAT_END
171
     1
301
MARGIN
  1
CELLMARGIN_BEGIN
 40
0.06
 40
0.06
 40
0.06
 40
0.06
 40
0.06
 40
0.06
309
CELLMARGIN_END
 94
        6
 95
        1
302
GRIDFORMAT
  1
GRIDFORMAT_BEGIN
 90
        0
 91
        1
 62
     0
 92
       -2
340
14
 93
        0
 40
0.045
309
GRIDFORMAT_END
 95
        2
302
GRIDFORMAT
  1
GRIDFORMAT_BEGIN
 90
        0
 91
        1
 62
     0
 92
       -2
340
14
 93
        0
 40
0.045
309
GRIDFORMAT_END
 95
        4
302
GRIDFORMAT
  1
GRIDFORMAT_BEGIN
 90
        0
 91
        1
 62
     0
 92
       -2
340
14
 93
        0
 40
0.045
309
GRIDFORMAT_END
 95
        8
302
GRIDFORMAT
  1
GRIDFORMAT_BEGIN
 90
        0
 91
        1
 62
     0
 92
       -2
340
14
 93
        0
 40
0.045
309
GRIDFORMAT_END
 95
       16
302
GRIDFORMAT
  1
GRIDFORMAT_BEGIN
 90
        0
 91
        1
 62
     0
 92
       -2
340
14
 93
        0
 40
0.045
309
GRIDFORMAT_END
 95
       32
302
GRIDFORMAT
  1
GRIDFORMAT_BEGIN
 90
        0
 91
        1
 62
     0
 92
       -2
340
14
 93
        0
 40
0.045
309
GRIDFORMAT_END
309
TABLEFORMAT_END
  1
CELLSTYLE_BEGIN
 90
        2
 91
        1
300
_HEADER
309
CELLSTYLE_END
300
CELLSTYLE
  1
TABLEFORMAT_BEGIN
 90
        5
170
     1
 91
        0
 92
        0
 62
   257
 93
        1
300
CONTENTFORMAT
  1
CONTENTFORMAT_BEGIN
 90
        0
 91
        0
 92
        4
 93
        0
300

 40
0.0
140
1.0
 94
        2
 62
     0
340
11
144
0.18
309
CONTENTFORMAT_END
171
     1
301
MARGIN
  1
CELLMARGIN_BEGIN
 40
0.06
 40
0.06
 40
0.06
 40
0.06
 40
0.06
 40
0.06
309
CELLMARGIN_END
 94
        6
 95
        1
302
GRIDFORMAT
  1
GRIDFORMAT_BEGIN
 90
        0
 91
        1
 62
     0
 92
       -2
340
14
 93
        0
 40
0.045
309
GRIDFORMAT_END
 95
        2
302
GRIDFORMAT
  1
GRIDFORMAT_BEGIN
 90
        0
 91
        1
 62
     0
 92
       -2
340
14
 93
        0
 40
0.045
309
GRIDFORMAT_END
 95
        4
302
GRIDFORMAT
  1
GRIDFORMAT_BEGIN
 90
        0
 91
        1
 62
     0
 92
       -2
340
14
 93
        0
 40
0.045
309
GRIDFORMAT_END
 95
        8
302
GRIDFORMAT
  1
GRIDFORMAT_BEGIN
 90
        0
 91
        1
 62
     0
 92
       -2
340
14
 93
        0
 40
0.045
309
GRIDFORMAT_END
 95
       16
302
GRIDFORMAT
  1
GRIDFORMAT_BEGIN
 90
        0
 91
        1
 62
     0
 92
       -2
340
14
 93
        0
 40
0.045
309
GRIDFORMAT_END
 95
       32
302
GRIDFORMAT
  1
GRIDFORMAT_BEGIN
 90
        0
 91
        1
 62
     0
 92
       -2
340
14
 93
        0
 40
0.045
309
GRIDFORMAT_END
309
TABLEFORMAT_END
  1
CELLSTYLE_BEGIN
 90
        3
 91
        2
300
_DATA
309
CELLSTYLE_END
  0
ENDSEC
  0
EOF