0
SECTION
  2
HEADER
  9
$ACADVER
  1
AC1027
  9
$ACADMAINTVER
 70
     8
  9
$DWGCODEPAGE
  3
ANSI_1252
  9
$REQUIREDVERSIONS
160
                 0
  9
$COMMENTS
  1
File was created by Cadenas
  9
$CUSTOMPROPERTYTAG
  1
NN
  9
$CUSTOMPROPERTY
  1
Imperial - IP Flange - Round Labyrinth Seal
  9
$CUSTOMPROPERTYTAG
  1
NT
  9
$CUSTOMPROPERTY
  1
Imperial 3 & 4 Bolt Round Flange Bearings
  9
$CUSTOMPROPERTYTAG
  1
NB
  9
$CUSTOMPROPERTY
  1
069664
  9
$CUSTOMPROPERTYTAG
  1
NBSYN
  9
$CUSTOMPROPERTY
  1
$PN.
  9
$CUSTOMPROPERTYTAG
  1
LINA
  9
$CUSTOMPROPERTY
  1
069664
  9
$CUSTOMPROPERTYTAG
  1
SS
  9
$CUSTOMPROPERTY
  1
2-1/4
  9
$CUSTOMPROPERTYTAG
  1
PN
  9
$CUSTOMPROPERTY
  1
069664
  9
$CUSTOMPROPERTYTAG
  1
DESCRIPTION
  9
$CUSTOMPROPERTY
  1
F4R-IP-204L
  9
$CUSTOMPROPERTYTAG
  1
EF
  9
$CUSTOMPROPERTY
  1
Non-Expansion Type
  9
$CUSTOMPROPERTYTAG
  1
ST
  9
$CUSTOMPROPERTY
  1
Labyrinth Seal
  9
$CUSTOMPROPERTYTAG
  1
A
  9
$CUSTOMPROPERTY
  1
3-1/32
  9
$CUSTOMPROPERTYTAG
  1
B
  9
$CUSTOMPROPERTY
  1
7-3/8
  9
$CUSTOMPROPERTYTAG
  1
C
  9
$CUSTOMPROPERTY
  1
3-11/32
  9
$CUSTOMPROPERTYTAG
  1
D
  9
$CUSTOMPROPERTY
  1
4-1/2
  9
$CUSTOMPROPERTYTAG
  1
DD
  9
$CUSTOMPROPERTY
  1
6-3/8
  9
$CUSTOMPROPERTYTAG
  1
E
  9
$CUSTOMPROPERTY
  1
2-3/64
  9
$CUSTOMPROPERTYTAG
  1
F
  9
$CUSTOMPROPERTY
  1
5/8
  9
$CUSTOMPROPERTYTAG
  1
H
  9
$CUSTOMPROPERTY
  1
9/16
  9
$CUSTOMPROPERTYTAG
  1
J
  9
$CUSTOMPROPERTY
  1
4-7/8
  9
$CUSTOMPROPERTYTAG
  1
L
  9
$CUSTOMPROPERTY
  1
3-1/2
  9
$CUSTOMPROPERTYTAG
  1
P
  9
$CUSTOMPROPERTY
  1
5/16
  9
$CUSTOMPROPERTYTAG
  1
X
  9
$CUSTOMPROPERTY
  1
1/4
  9
$CUSTOMPROPERTYTAG
  1
Y
  9
$CUSTOMPROPERTY
  1
0.025
  9
$CUSTOMPROPERTYTAG
  1
Z
  9
$CUSTOMPROPERTY
  1
2-19/32
  9
$CUSTOMPROPERTYTAG
  1
COMPANY
  9
$CUSTOMPROPERTY
  1
baldor
  9
$INSBASE
 10
0.0
 20
0.0
 30
0.0
  9
$EXTMIN
 10
1.000000000000000E+20
 20
1.000000000000000E+20
 30
1.000000000000000E+20
  9
$EXTMAX
 10
-1.000000000000000E+20
 20
-1.000000000000000E+20
 30
-1.000000000000000E+20
  9
$LIMMIN
 10
0.0
 20
0.0
  9
$LIMMAX
 10
12.0
 20
9.0
  9
$ORTHOMODE
 70
     0
  9
$REGENMODE
 70
     1
  9
$FILLMODE
 70
     1
  9
$QTEXTMODE
 70
     0
  9
$MIRRTEXT
 70
     1
  9
$LTSCALE
 40
1.0
  9
$ATTMODE
 70
     1
  9
$TEXTSIZE
 40
0.2
  9
$TRACEWID
 40
0.05
  9
$TEXTSTYLE
  7
Standard
  9
$CLAYER
  8
0
  9
$CELTYPE
  6
ByLayer
  9
$CECOLOR
 62
   256
  9
$CELTSCALE
 40
1.0
  9
$DISPSILH
 70
     0
  9
$DIMSCALE
 40
1.0
  9
$DIMASZ
 40
0.18
  9
$DIMEXO
 40
0.0625
  9
$DIMDLI
 40
0.38
  9
$DIMRND
 40
0.0
  9
$DIMDLE
 40
0.0
  9
$DIMEXE
 40
0.18
  9
$DIMTP
 40
0.0
  9
$DIMTM
 40
0.0
  9
$DIMTXT
 40
0.18
  9
$DIMCEN
 40
0.09
  9
$DIMTSZ
 40
0.0
  9
$DIMTOL
 70
     0
  9
$DIMLIM
 70
     0
  9
$DIMTIH
 70
     1
  9
$DIMTOH
 70
     1
  9
$DIMSE1
 70
     0
  9
$DIMSE2
 70
     0
  9
$DIMTAD
 70
     0
  9
$DIMZIN
 70
     0
  9
$DIMBLK
  1

  9
$DIMASO
 70
     1
  9
$DIMSHO
 70
     1
  9
$DIMPOST
  1

  9
$DIMAPOST
  1

  9
$DIMALT
 70
     0
  9
$DIMALTD
 70
     2
  9
$DIMALTF
 40
25.4
  9
$DIMLFAC
 40
1.0
  9
$DIMTOFL
 70
     0
  9
$DIMTVP
 40
0.0
  9
$DIMTIX
 70
     0
  9
$DIMSOXD
 70
     0
  9
$DIMSAH
 70
     0
  9
$DIMBLK1
  1

  9
$DIMBLK2
  1

  9
$DIMSTYLE
  2
Standard
  9
$DIMCLRD
 70
     0
  9
$DIMCLRE
 70
     0
  9
$DIMCLRT
 70
     0
  9
$DIMTFAC
 40
1.0
  9
$DIMGAP
 40
0.09
  9
$DIMJUST
 70
     0
  9
$DIMSD1
 70
     0
  9
$DIMSD2
 70
     0
  9
$DIMTOLJ
 70
     1
  9
$DIMTZIN
 70
     0
  9
$DIMALTZ
 70
     0
  9
$DIMALTTZ
 70
     0
  9
$DIMUPT
 70
     0
  9
$DIMDEC
 70
     4
  9
$DIMTDEC
 70
     4
  9
$DIMALTU
 70
     2
  9
$DIMALTTD
 70
     2
  9
$DIMTXSTY
  7
Standard
  9
$DIMAUNIT
 70
     0
  9
$DIMADEC
 70
     0
  9
$DIMALTRND
 40
0.0
  9
$DIMAZIN
 70
     0
  9
$DIMDSEP
 70
    46
  9
$DIMATFIT
 70
     3
  9
$DIMFRAC
 70
     0
  9
$DIMLDRBLK
  1

  9
$DIMLUNIT
 70
     2
  9
$DIMLWD
 70
    -2
  9
$DIMLWE
 70
    -2
  9
$DIMTMOVE
 70
     0
  9
$DIMFXL
 40
1.0
  9
$DIMFXLON
 70
     0
  9
$DIMJOGANG
 40
0.7853981633974483
  9
$DIMTFILL
 70
     0
  9
$DIMTFILLCLR
 70
     0
  9
$DIMARCSYM
 70
     0
  9
$DIMLTYPE
  6

  9
$DIMLTEX1
  6

  9
$DIMLTEX2
  6

  9
$DIMTXTDIRECTION
 70
     0
  9
$LUNITS
 70
     2
  9
$LUPREC
 70
     4
  9
$SKETCHINC
 40
0.1
  9
$FILLETRAD
 40
0.5
  9
$AUNITS
 70
     0
  9
$AUPREC
 70
     0
  9
$MENU
  1
.
  9
$ELEVATION
 40
0.0
  9
$PELEVATION
 40
0.0
  9
$THICKNESS
 40
0.0
  9
$LIMCHECK
 70
     0
  9
$CHAMFERA
 40
0.0
  9
$CHAMFERB
 40
0.0
  9
$CHAMFERC
 40
0.0
  9
$CHAMFERD
 40
0.0
  9
$SKPOLY
 70
     0
  9
$TDCREATE
 40
2458168.990911007
  9
$TDUCREATE
 40
2458168.94924434
  9
$TDUPDATE
 40
2458168.990911192
  9
$TDUUPDATE
 40
2458168.949244525
  9
$TDINDWG
 40
0.0000000116
  9
$TDUSRTIMER
 40
0.0000000116
  9
$USRTIMER
 70
     1
  9
$ANGBASE
 50
0.0
  9
$ANGDIR
 70
     0
  9
$PDMODE
 70
     0
  9
$PDSIZE
 40
0.0
  9
$PLINEWID
 40
0.0
  9
$SPLFRAME
 70
     0
  9
$SPLINETYPE
 70
     6
  9
$SPLINESEGS
 70
     8
  9
$HANDSEED
  5
24D
  9
$SURFTAB1
 70
     6
  9
$SURFTAB2
 70
     6
  9
$SURFTYPE
 70
     6
  9
$SURFU
 70
     6
  9
$SURFV
 70
     6
  9
$UCSBASE
  2

  9
$UCSNAME
  2

  9
$UCSORG
 10
0.0
 20
0.0
 30
0.0
  9
$UCSXDIR
 10
1.0
 20
0.0
 30
0.0
  9
$UCSYDIR
 10
0.0
 20
1.0
 30
0.0
  9
$UCSORTHOREF
  2

  9
$UCSORTHOVIEW
 70
     0
  9
$UCSORGTOP
 10
0.0
 20
0.0
 30
0.0
  9
$UCSORGBOTTOM
 10
0.0
 20
0.0
 30
0.0
  9
$UCSORGLEFT
 10
0.0
 20
0.0
 30
0.0
  9
$UCSORGRIGHT
 10
0.0
 20
0.0
 30
0.0
  9
$UCSORGFRONT
 10
0.0
 20
0.0
 30
0.0
  9
$UCSORGBACK
 10
0.0
 20
0.0
 30
0.0
  9
$PUCSBASE
  2

  9
$PUCSNAME
  2

  9
$PUCSORG
 10
0.0
 20
0.0
 30
0.0
  9
$PUCSXDIR
 10
1.0
 20
0.0
 30
0.0
  9
$PUCSYDIR
 10
0.0
 20
1.0
 30
0.0
  9
$PUCSORTHOREF
  2

  9
$PUCSORTHOVIEW
 70
     0
  9
$PUCSORGTOP
 10
0.0
 20
0.0
 30
0.0
  9
$PUCSORGBOTTOM
 10
0.0
 20
0.0
 30
0.0
  9
$PUCSORGLEFT
 10
0.0
 20
0.0
 30
0.0
  9
$PUCSORGRIGHT
 10
0.0
 20
0.0
 30
0.0
  9
$PUCSORGFRONT
 10
0.0
 20
0.0
 30
0.0
  9
$PUCSORGBACK
 10
0.0
 20
0.0
 30
0.0
  9
$USERI1
 70
     0
  9
$USERI2
 70
     0
  9
$USERI3
 70
     0
  9
$USERI4
 70
     0
  9
$USERI5
 70
     0
  9
$USERR1
 40
0.0
  9
$USERR2
 40
0.0
  9
$USERR3
 40
0.0
  9
$USERR4
 40
0.0
  9
$USERR5
 40
0.0
  9
$WORLDVIEW
 70
     1
  9
$SHADEDGE
 70
     3
  9
$SHADEDIF
 70
    70
  9
$TILEMODE
 70
     1
  9
$MAXACTVP
 70
    64
  9
$PINSBASE
 10
0.0
 20
0.0
 30
0.0
  9
$PLIMCHECK
 70
     0
  9
$PEXTMIN
 10
1.000000000000000E+20
 20
1.000000000000000E+20
 30
1.000000000000000E+20
  9
$PEXTMAX
 10
-1.000000000000000E+20
 20
-1.000000000000000E+20
 30
-1.000000000000000E+20
  9
$PLIMMIN
 10
0.0
 20
0.0
  9
$PLIMMAX
 10
12.0
 20
9.0
  9
$UNITMODE
 70
     0
  9
$VISRETAIN
 70
     1
  9
$PLINEGEN
 70
     0
  9
$PSLTSCALE
 70
     1
  9
$TREEDEPTH
 70
  3020
  9
$CMLSTYLE
  2
Standard
  9
$CMLJUST
 70
     0
  9
$CMLSCALE
 40
1.0
  9
$PROXYGRAPHICS
 70
     1
  9
$MEASUREMENT
 70
     0
  9
$CELWEIGHT
370
    -1
  9
$ENDCAPS
280
     0
  9
$JOINSTYLE
280
     0
  9
$LWDISPLAY
290
     0
  9
$INSUNITS
 70
     1
  9
$HYPERLINKBASE
  1

  9
$STYLESHEET
  1

  9
$XEDIT
290
     1
  9
$CEPSNTYPE
380
     0
  9
$PSTYLEMODE
290
     1
  9
$FINGERPRINTGUID
  2
{A7BE00F6-443E-4D5F-B697-54CBE2B4FB8A}
  9
$VERSIONGUID
  2
{FAEB1C32-E019-11D5-929B-00C0DF256EC4}
  9
$EXTNAMES
290
     1
  9
$PSVPSCALE
 40
0.0
  9
$OLESTARTUP
290
     0
  9
$SORTENTS
280
   127
  9
$INDEXCTL
280
     0
  9
$HIDETEXT
280
     1
  9
$XCLIPFRAME
280
     2
  9
$HALOGAP
280
     0
  9
$OBSCOLOR
 70
   257
  9
$OBSLTYPE
280
     0
  9
$INTERSECTIONDISPLAY
280
     0
  9
$INTERSECTIONCOLOR
 70
   257
  9
$DIMASSOC
280
     2
  9
$PROJECTNAME
  1

  9
$CAMERADISPLAY
290
     0
  9
$LENSLENGTH
 40
50.0
  9
$CAMERAHEIGHT
 40
0.0
  9
$STEPSPERSEC
 40
2.0
  9
$STEPSIZE
 40
6.0
  9
$3DDWFPREC
 40
2.0
  9
$PSOLWIDTH
 40
0.25
  9
$PSOLHEIGHT
 40
4.0
  9
$LOFTANG1
 40
1.570796326794897
  9
$LOFTANG2
 40
1.570796326794897
  9
$LOFTMAG1
 40
0.0
  9
$LOFTMAG2
 40
0.0
  9
$LOFTPARAM
 70
     7
  9
$LOFTNORMALS
280
     1
  9
$LATITUDE
 40
37.795
  9
$LONGITUDE
 40
-122.394
  9
$NORTHDIRECTION
 40
0.0
  9
$TIMEZONE
 70
 -8000
  9
$LIGHTGLYPHDISPLAY
280
     1
  9
$TILEMODELIGHTSYNCH
280
     1
  9
$CMATERIAL
347
44
  9
$SOLIDHIST
280
     0
  9
$SHOWHIST
280
     1
  9
$DWFFRAME
280
     2
  9
$DGNFRAME
280
     2
  9
$REALWORLDSCALE
290
     1
  9
$INTERFERECOLOR
 62
   256
  9
$CSHADOW
280
     0
  9
$SHADOWPLANELOCATION
 40
0.0
  0
ENDSEC
  0
SECTION
  2
CLASSES
  0
CLASS
  1
ACDBDICTIONARYWDFLT
  2
AcDbDictionaryWithDefault
  3
ObjectDBX Classes
 90
        0
 91
        4
280
     0
281
     0
  0
CLASS
  1
VISUALSTYLE
  2
AcDbVisualStyle
  3
ObjectDBX Classes
 90
     4095
 91
        4
280
     0
281
     0
  0
CLASS
  1
MATERIAL
  2
AcDbMaterial
  3
ObjectDBX Classes
 90
     1153
 91
        4
280
     0
281
     0
  0
CLASS
  1
SCALE
  2
AcDbScale
  3
ObjectDBX Classes
 90
     1153
 91
        4
280
     0
281
     0
  0
CLASS
  1
TABLESTYLE
  2
AcDbTableStyle
  3
ObjectDBX Classes
 90
     4095
 91
        4
280
     0
281
     0
  0
CLASS
  1
MLEADERSTYLE
  2
AcDbMLeaderStyle
  3
ACDB_MLEADERSTYLE_CLASS
 90
     4095
 91
        4
280
     0
281
     0
  0
CLASS
  1
SUN
  2
AcDbSun
  3
SCENEOE
 90
     1153
 91
        4
280
     0
281
     0
  0
CLASS
  1
DICTIONARYVAR
  2
AcDbDictionaryVar
  3
ObjectDBX Classes
 90
        0
 91
        4
280
     0
281
     0
  0
CLASS
  1
CELLSTYLEMAP
  2
AcDbCellStyleMap
  3
ObjectDBX Classes
 90
     1152
 91
        4
280
     0
281
     0
  0
ENDSEC
  0
SECTION
  2
TABLES
  0
TABLE
  2
VPORT
  5
8
330
0
100
AcDbSymbolTable
 70
     1
  0
VPORT
  5
29
330
8
100
AcDbSymbolTableRecord
100
AcDbViewportTableRecord
  2
*Active
 70
     0
 10
0.0
 20
0.0
 11
1.0
 21
1.0
 12
-1.694550781249999
 22
0.078125
 13
0.0
 23
0.0
 14
0.5
 24
0.5
 15
0.5
 25
0.5
 16
0.0
 26
0.0
 36
1.0
 17
0.0
 27
0.0
 37
0.0
 40
7.681875
 41
0.4785425311203321
 42
50.0
 43
0.0
 44
0.0
 50
0.0
 51
0.0
 71
     0
 72
   100
 73
     1
 74
     3
 75
     0
 76
     0
 77
     0
 78
     0
281
     0
 65
     1
110
0.0
120
0.0
130
0.0
111
1.0
121
0.0
131
0.0
112
0.0
122
1.0
132
0.0
 79
     0
146
0.0
348
2F
 60
     3
 61
     5
292
     1
282
     1
141
0.0
142
0.0
 63
   250
361
6D
  0
ENDTAB
  0
TABLE
  2
LTYPE
  5
5
330
0
100
AcDbSymbolTable
 70
     3
  0
LTYPE
  5
14
330
5
100
AcDbSymbolTableRecord
100
AcDbLinetypeTableRecord
  2
ByBlock
 70
     0
  3

 72
    65
 73
     0
 40
0.0
  0
LTYPE
  5
15
330
5
100
AcDbSymbolTableRecord
100
AcDbLinetypeTableRecord
  2
ByLayer
 70
     0
  3

 72
    65
 73
     0
 40
0.0
  0
LTYPE
  5
16
330
5
100
AcDbSymbolTableRecord
100
AcDbLinetypeTableRecord
  2
Continuous
 70
     0
  3
Solid line
 72
    65
 73
     0
 40
0.0
  0
LTYPE
  5
9C
330
5
100
AcDbSymbolTableRecord
100
AcDbLinetypeTableRecord
  2
Dashed
 70
     0
  3

 72
    65
 73
     2
 40
2.0
 49
1.0
 74
     0
 49
-1.0
 74
     0
  0
LTYPE
  5
180
330
5
100
AcDbSymbolTableRecord
100
AcDbLinetypeTableRecord
  2
Center
 70
     0
  3

 72
    65
 73
     4
 40
1.5
 49
0.45
 74
     0
 49
-0.5
 74
     0
 49
0.05
 74
     0
 49
-0.5
 74
     0
  0
ENDTAB
  0
TABLE
  2
LAYER
  5
2
330
0
100
AcDbSymbolTable
 70
     7
  0
LAYER
  5
10
330
2
100
AcDbSymbolTableRecord
100
AcDbLayerTableRecord
  2
0
 70
     0
 62
     7
  6
Continuous
370
    -3
390
F
347
46
348
0
  0
LAYER
  5
72
330
2
100
AcDbSymbolTableRecord
100
AcDbLayerTableRecord
  2
AM_6
 70
     0
 62
    -2
  6
Continuous
370
    35
390
F
347
46
348
0
  0
LAYER
  5
9D
330
2
100
AcDbSymbolTableRecord
100
AcDbLayerTableRecord
  2
AM_9
 70
     0
 62
     6
  6
Dashed
370
    25
390
F
347
46
348
0
  0
LAYER
  5
AB
330
2
100
AcDbSymbolTableRecord
100
AcDbLayerTableRecord
  2
AM_5
 70
     0
 62
     3
  6
Continuous
370
    25
390
F
347
46
348
0
  0
LAYER
  5
AF
330
2
100
AcDbSymbolTableRecord
100
AcDbLayerTableRecord
  2
AM_4
 70
     0
 62
     7
  6
Continuous
370
    50
390
F
347
46
348
0
  0
LAYER
  5
181
330
2
100
AcDbSymbolTableRecord
100
AcDbLayerTableRecord
  2
AM_7
 70
     0
 62
     7
  6
Center
370
    25
390
F
347
46
348
0
  0
LAYER
  5
236
330
2
100
AcDbSymbolTableRecord
100
AcDbLayerTableRecord
  2
ConnectionPoints
 70
     0
 62
     7
  6
Continuous
370
    50
390
F
347
46
348
0
  0
ENDTAB
  0
TABLE
  2
STYLE
  5
3
330
0
100
AcDbSymbolTable
 70
     1
  0
STYLE
  5
11
330
3
100
AcDbSymbolTableRecord
100
AcDbTextStyleTableRecord
  2
Standard
 70
     0
 40
0.0
 41
1.0
 50
0.0
 71
     0
 42
0.2
  3
txt
  4

  0
ENDTAB
  0
TABLE
  2
VIEW
  5
6
330
0
100
AcDbSymbolTable
 70
     0
  0
ENDTAB
  0
TABLE
  2
UCS
  5
7
330
0
100
AcDbSymbolTable
 70
     0
  0
ENDTAB
  0
TABLE
  2
APPID
  5
9
330
0
100
AcDbSymbolTable
 70
     1
  0
APPID
  5
12
330
9
100
AcDbSymbolTableRecord
100
AcDbRegAppTableRecord
  2
ACAD
 70
     0
  0
ENDTAB
  0
TABLE
  2
DIMSTYLE
  5
A
330
0
100
AcDbSymbolTable
 70
     1
100
AcDbDimStyleTable
  0
DIMSTYLE
105
27
330
A
100
AcDbSymbolTableRecord
100
AcDbDimStyleTableRecord
  2
Standard
 70
     0
178
     0
340
11
  0
ENDTAB
  0
TABLE
  2
BLOCK_RECORD
  5
1
330
0
100
AcDbSymbolTable
 70
     8
  0
BLOCK_RECORD
  5
1F
330
1
100
AcDbSymbolTableRecord
100
AcDbBlockTableRecord
  2
*Model_Space
340
22
 70
     0
280
     1
281
     0
  0
BLOCK_RECORD
  5
1B
330
1
100
AcDbSymbolTableRecord
100
AcDbBlockTableRecord
  2
*Paper_Space
340
1E
 70
     0
280
     1
281
     0
  0
BLOCK_RECORD
  5
23
330
1
100
AcDbSymbolTableRecord
100
AcDbBlockTableRecord
  2
*Paper_Space0
340
26
 70
     0
280
     1
281
     0
  0
BLOCK_RECORD
  5
6E
330
1
100
AcDbSymbolTableRecord
100
AcDbBlockTableRecord
  2
1_069664_2
340
0
102
{BLKREFS
331
6F
102
}
 70
     0
280
     1
281
     0
  0
BLOCK_RECORD
  5
8C
330
1
100
AcDbSymbolTableRecord
100
AcDbBlockTableRecord
  2
2_ASME_B18_3_10_1_0_in_069664_2
340
0
102
{BLKREFS
331
8D
102
}
 70
     0
280
     1
281
     0
  0
BLOCK_RECORD
  5
B6
330
1
100
AcDbSymbolTableRecord
100
AcDbBlockTableRecord
  2
3_ASME_B18_3_10_2_0_in_069664_2
340
0
102
{BLKREFS
331
B7
102
}
 70
     0
280
     1
281
     0
  0
BLOCK_RECORD
  5
DE
330
1
100
AcDbSymbolTableRecord
100
AcDbBlockTableRecord
  2
4_070893LW_0_in_069664_2
340
0
102
{BLKREFS
331
DF
102
}
 70
     0
280
     1
281
     0
  0
BLOCK_RECORD
  5
114
330
1
100
AcDbSymbolTableRecord
100
AcDbBlockTableRecord
  2
5_070925I_0_in_069664_2
340
0
102
{BLKREFS
331
115
102
}
 70
     0
280
     1
281
     0
  0
BLOCK_RECORD
  5
194
330
1
100
AcDbSymbolTableRecord
100
AcDbBlockTableRecord
  2
6_405015E_Inch_0_in_069664_2
340
0
102
{BLKREFS
331
195
102
}
 70
     0
280
     1
281
     0
  0
BLOCK_RECORD
  5
1D2
330
1
100
AcDbSymbolTableRecord
100
AcDbBlockTableRecord
  2
7_069664H_0_in_069664_2
340
0
102
{BLKREFS
331
1D3
102
}
 70
     0
280
     1
281
     0
  0
ENDTAB
  0
ENDSEC
  0
SECTION
  2
BLOCKS
  0
BLOCK
  5
20
330
1F
100
AcDbEntity
  8
0
100
AcDbBlockBegin
  2
*Model_Space
 70
     0
 10
0.0
 20
0.0
 30
0.0
  3
*Model_Space
  1

  0
ENDBLK
  5
21
330
1F
100
AcDbEntity
  8
0
100
AcDbBlockEnd
  0
BLOCK
  5
1C
330
1B
100
AcDbEntity
 67
     1
  8
0
100
AcDbBlockBegin
  2
*Paper_Space
 70
     0
 10
0.0
 20
0.0
 30
0.0
  3
*Paper_Space
  1

  0
ENDBLK
  5
1D
330
1B
100
AcDbEntity
 67
     1
  8
0
100
AcDbBlockEnd
  0
BLOCK
  5
24
330
23
100
AcDbEntity
  8
0
100
AcDbBlockBegin
  2
*Paper_Space0
 70
     0
 10
0.0
 20
0.0
 30
0.0
  3
*Paper_Space0
  1

  0
ENDBLK
  5
25
330
23
100
AcDbEntity
  8
0
100
AcDbBlockEnd
  0
BLOCK
  5
70
330
6E
100
AcDbEntity
  8
0
100
AcDbBlockBegin
  2
1_069664_2
 70
     2
 10
0.0
 20
0.0
 30
0.0
  3
1_069664_2
  1

  0
ATTDEF
  5
73
330
6E
100
AcDbEntity
  8
AM_6
100
AcDbText
 10
5.1074609375
 20
3.84375
 30
0.0
 40
0.5
  1
Imperial - IP Flange - Round Labyrinth Seal
100
AcDbAttributeDefinition
  3

  2
NN
 70
     8
280
     0
  0
ATTDEF
  5
74
330
6E
100
AcDbEntity
  8
AM_6
100
AcDbText
 10
5.1074609375
 20
3.34375
 30
0.0
 40
0.5
  1
Imperial 3 & 4 Bolt Round Flange Bearings
100
AcDbAttributeDefinition
  3

  2
NT
 70
     8
280
     0
  0
ATTDEF
  5
75
330
6E
100
AcDbEntity
  8
AM_6
100
AcDbText
 10
5.1074609375
 20
2.84375
 30
0.0
 40
0.5
  1
069664
100
AcDbAttributeDefinition
  3

  2
NB
 70
     8
280
     0
  0
ATTDEF
  5
76
330
6E
100
AcDbEntity
  8
AM_6
100
AcDbText
 10
5.1074609375
 20
2.34375
 30
0.0
 40
0.5
  1
$PN.
100
AcDbAttributeDefinition
  3

  2
NBSYN
 70
     8
280
     0
  0
ATTDEF
  5
77
330
6E
100
AcDbEntity
  8
AM_6
100
AcDbText
 10
5.1074609375
 20
1.84375
 30
0.0
 40
0.5
  1
069664
100
AcDbAttributeDefinition
  3

  2
LINA
 70
     8
280
     0
  0
ATTDEF
  5
78
330
6E
100
AcDbEntity
  8
AM_6
100
AcDbText
 10
5.1074609375
 20
1.34375
 30
0.0
 40
0.5
  1
2-1/4
100
AcDbAttributeDefinition
  3

  2
SS
 70
     8
280
     0
  0
ATTDEF
  5
79
330
6E
100
AcDbEntity
  8
AM_6
100
AcDbText
 10
5.1074609375
 20
0.84375
 30
0.0
 40
0.5
  1
069664
100
AcDbAttributeDefinition
  3

  2
PN
 70
     8
280
     0
  0
ATTDEF
  5
7A
330
6E
100
AcDbEntity
  8
AM_6
100
AcDbText
 10
5.1074609375
 20
0.34375
 30
0.0
 40
0.5
  1
F4R-IP-204L
100
AcDbAttributeDefinition
  3

  2
DESCRIPTION
 70
     8
280
     0
  0
ATTDEF
  5
7B
330
6E
100
AcDbEntity
  8
AM_6
100
AcDbText
 10
5.1074609375
 20
-0.15625
 30
0.0
 40
0.5
  1
Non-Expansion Type
100
AcDbAttributeDefinition
  3

  2
EF
 70
     8
280
     0
  0
ATTDEF
  5
7C
330
6E
100
AcDbEntity
  8
AM_6
100
AcDbText
 10
5.1074609375
 20
-0.65625
 30
0.0
 40
0.5
  1
Labyrinth Seal
100
AcDbAttributeDefinition
  3

  2
ST
 70
     8
280
     0
  0
ATTDEF
  5
7D
330
6E
100
AcDbEntity
  8
AM_6
100
AcDbText
 10
5.1074609375
 20
-1.15625
 30
0.0
 40
0.5
  1
3-1/32
100
AcDbAttributeDefinition
  3

  2
A
 70
     8
280
     0
  0
ATTDEF
  5
7E
330
6E
100
AcDbEntity
  8
AM_6
100
AcDbText
 10
5.1074609375
 20
-1.65625
 30
0.0
 40
0.5
  1
7-3/8
100
AcDbAttributeDefinition
  3

  2
B
 70
     8
280
     0
  0
ATTDEF
  5
7F
330
6E
100
AcDbEntity
  8
AM_6
100
AcDbText
 10
5.1074609375
 20
-2.15625
 30
0.0
 40
0.5
  1
3-11/32
100
AcDbAttributeDefinition
  3

  2
C
 70
     8
280
     0
  0
ATTDEF
  5
80
330
6E
100
AcDbEntity
  8
AM_6
100
AcDbText
 10
5.1074609375
 20
-2.65625
 30
0.0
 40
0.5
  1
4-1/2
100
AcDbAttributeDefinition
  3

  2
D
 70
     8
280
     0
  0
ATTDEF
  5
81
330
6E
100
AcDbEntity
  8
AM_6
100
AcDbText
 10
5.1074609375
 20
-3.15625
 30
0.0
 40
0.5
  1
6-3/8
100
AcDbAttributeDefinition
  3

  2
DD
 70
     8
280
     0
  0
ATTDEF
  5
82
330
6E
100
AcDbEntity
  8
AM_6
100
AcDbText
 10
5.1074609375
 20
-3.65625
 30
0.0
 40
0.5
  1
2-3/64
100
AcDbAttributeDefinition
  3

  2
E
 70
     8
280
     0
  0
ATTDEF
  5
83
330
6E
100
AcDbEntity
  8
AM_6
100
AcDbText
 10
5.1074609375
 20
-4.15625
 30
0.0
 40
0.5
  1
5/8
100
AcDbAttributeDefinition
  3

  2
F
 70
     8
280
     0
  0
ATTDEF
  5
84
330
6E
100
AcDbEntity
  8
AM_6
100
AcDbText
 10
5.1074609375
 20
-4.65625
 30
0.0
 40
0.5
  1
9/16
100
AcDbAttributeDefinition
  3

  2
H
 70
     8
280
     0
  0
ATTDEF
  5
85
330
6E
100
AcDbEntity
  8
AM_6
100
AcDbText
 10
5.1074609375
 20
-5.15625
 30
0.0
 40
0.5
  1
4-7/8
100
AcDbAttributeDefinition
  3

  2
J
 70
     8
280
     0
  0
ATTDEF
  5
86
330
6E
100
AcDbEntity
  8
AM_6
100
AcDbText
 10
5.1074609375
 20
-5.65625
 30
0.0
 40
0.5
  1
3-1/2
100
AcDbAttributeDefinition
  3

  2
L
 70
     8
280
     0
  0
ATTDEF
  5
87
330
6E
100
AcDbEntity
  8
AM_6
100
AcDbText
 10
5.1074609375
 20
-6.15625
 30
0.0
 40
0.5
  1
5/16
100
AcDbAttributeDefinition
  3

  2
P
 70
     8
280
     0
  0
ATTDEF
  5
88
330
6E
100
AcDbEntity
  8
AM_6
100
AcDbText
 10
5.1074609375
 20
-6.65625
 30
0.0
 40
0.5
  1
1/4
100
AcDbAttributeDefinition
  3

  2
X
 70
     8
280
     0
  0
ATTDEF
  5
89
330
6E
100
AcDbEntity
  8
AM_6
100
AcDbText
 10
5.1074609375
 20
-7.15625
 30
0.0
 40
0.5
  1
0.025
100
AcDbAttributeDefinition
  3

  2
Y
 70
     8
280
     0
  0
ATTDEF
  5
8A
330
6E
100
AcDbEntity
  8
AM_6
100
AcDbText
 10
5.1074609375
 20
-7.65625
 30
0.0
 40
0.5
  1
2-19/32
100
AcDbAttributeDefinition
  3

  2
Z
 70
     8
280
     0
  0
ATTDEF
  5
8B
330
6E
100
AcDbEntity
  8
AM_6
100
AcDbText
 10
5.1074609375
 20
-8.15625
 30
0.0
 40
0.5
  1
baldor
100
AcDbAttributeDefinition
  3

  2
COMPANY
 70
     8
280
     0
  0
INSERT
  5
8D
330
6E
100
AcDbEntity
  8
0
100
AcDbBlockReference
  2
2_ASME_B18_3_10_1_0_in_069664_2
 10
0.0
 20
0.0
 30
0.0
  0
INSERT
  5
B7
330
6E
100
AcDbEntity
  8
0
100
AcDbBlockReference
  2
3_ASME_B18_3_10_2_0_in_069664_2
 10
0.0
 20
0.0
 30
0.0
  0
INSERT
  5
DF
330
6E
100
AcDbEntity
  8
0
100
AcDbBlockReference
  2
4_070893LW_0_in_069664_2
 10
0.0
 20
0.0
 30
0.0
  0
INSERT
  5
115
330
6E
100
AcDbEntity
  8
0
100
AcDbBlockReference
  2
5_070925I_0_in_069664_2
 10
0.0
 20
0.0
 30
0.0
  0
INSERT
  5
195
330
6E
100
AcDbEntity
  8
0
100
AcDbBlockReference
  2
6_405015E_Inch_0_in_069664_2
 10
0.0
 20
0.0
 30
0.0
  0
INSERT
  5
1D3
330
6E
100
AcDbEntity
  8
0
100
AcDbBlockReference
  2
7_069664H_0_in_069664_2
 10
0.0
 20
0.0
 30
0.0
  0
ENDBLK
  5
71
330
6E
100
AcDbEntity
  8
0
100
AcDbBlockEnd
  0
BLOCK
  5
8E
330
8C
100
AcDbEntity
  8
0
100
AcDbBlockBegin
  2
2_ASME_B18_3_10_1_0_in_069664_2
 70
     2
 10
0.0
 20
0.0
 30
0.0
  3
2_ASME_B18_3_10_1_0_in_069664_2
  1

  0
ATTDEF
  5
90
330
8C
100
AcDbEntity
  8
AM_6
100
AcDbText
 10
2.63125
 20
-0.8801601717798214
 30
0.0
 40
0.5
  1
ANSI/ASME B18.3-1998
100
AcDbAttributeDefinition
  3

  2
NN
 70
     8
280
     0
  0
ATTDEF
  5
91
330
8C
100
AcDbEntity
  8
AM_6
100
AcDbText
 10
2.63125
 20
-1.380160171779822
 30
0.0
 40
0.5
  1
Socket Button Head Cap Screws
100
AcDbAttributeDefinition
  3

  2
NT
 70
     8
280
     0
  0
ATTDEF
  5
92
330
8C
100
AcDbEntity
  8
AM_6
100
AcDbText
 10
2.63125
 20
-1.880160171779822
 30
0.0
 40
0.5
  1
ASME B18.3-10
100
AcDbAttributeDefinition
  3

  2
NB
 70
     8
280
     0
  0
ATTDEF
  5
93
330
8C
100
AcDbEntity
  8
AM_6
100
AcDbText
 10
2.63125
 20
-2.380160171779822
 30
0.0
 40
0.5
  1
ASME B18.3-$NS.
100
AcDbAttributeDefinition
  3

  2
NBSYN
 70
     8
280
     0
  0
ATTDEF
  5
94
330
8C
100
AcDbEntity
  8
AM_6
100
AcDbText
 10
2.63125
 20
-2.880160171779822
 30
0.0
 40
0.5
  1
ASME B18.3-10
100
AcDbAttributeDefinition
  3

  2
LINA
 70
     8
280
     0
  0
ATTDEF
  5
95
330
8C
100
AcDbEntity
  8
AM_6
100
AcDbText
 10
2.63125
 20
-3.380160171779822
 30
0.0
 40
0.5
  1
10
100
AcDbAttributeDefinition
  3

  2
NS
 70
     8
280
     0
  0
ATTDEF
  5
96
330
8C
100
AcDbEntity
  8
AM_6
100
AcDbText
 10
2.63125
 20
-3.880160171779822
 30
0.0
 40
0.5
  1
0.361
100
AcDbAttributeDefinition
  3

  2
A
 70
     8
280
     0
  0
ATTDEF
  5
97
330
8C
100
AcDbEntity
  8
AM_6
100
AcDbText
 10
2.63125
 20
-4.380160171779822
 30
0.0
 40
0.5
  1
0.101
100
AcDbAttributeDefinition
  3

  2
H
 70
     8
280
     0
  0
ATTDEF
  5
98
330
8C
100
AcDbEntity
  8
AM_6
100
AcDbText
 10
2.63125
 20
-4.880160171779822
 30
0.0
 40
0.5
  1
0.800
100
AcDbAttributeDefinition
  3

  2
L
 70
     8
280
     0
  0
ATTDEF
  5
99
330
8C
100
AcDbEntity
  8
AM_6
100
AcDbText
 10
2.63125
 20
-5.380160171779822
 30
0.0
 40
0.5
  1
0.020
100
AcDbAttributeDefinition
  3

  2
S
 70
     8
280
     0
  0
ATTDEF
  5
9A
330
8C
100
AcDbEntity
  8
AM_6
100
AcDbText
 10
2.63125
 20
-5.880160171779822
 30
0.0
 40
0.5
  1
0.125000
100
AcDbAttributeDefinition
  3

  2
J
 70
     8
280
     0
  0
ATTDEF
  5
9B
330
8C
100
AcDbEntity
  8
AM_6
100
AcDbText
 10
2.63125
 20
-6.380160171779822
 30
0.0
 40
0.5
  1
baldor
100
AcDbAttributeDefinition
  3

  2
COMPANY
 70
     8
280
     0
  0
LINE
  5
9E
330
8C
100
AcDbEntity
  8
AM_9
100
AcDbLine
 10
-3.20875
 20
-1.130369863757972
 30
0.0
 11
-3.26975
 21
-1.130369863757972
 31
0.0
  0
LINE
  5
9F
330
8C
100
AcDbEntity
  8
AM_9
100
AcDbLine
 10
-3.20875
 20
-1.079338827449989
 30
0.0
 11
-3.26975
 21
-1.079338827449989
 31
0.0
  0
LINE
  5
A0
330
8C
100
AcDbEntity
  8
AM_9
100
AcDbLine
 10
-3.20875
 20
-0.9909504798016708
 30
0.0
 11
-3.26975
 21
-0.9909504798016708
 31
0.0
  0
LINE
  5
A1
330
8C
100
AcDbEntity
  8
AM_9
100
AcDbLine
 10
-3.20875
 20
-1.009629135471839
 30
0.0
 11
-3.26975
 21
-1.009629135471839
 31
0.0
  0
LINE
  5
A2
330
8C
100
AcDbEntity
  8
AM_9
100
AcDbLine
 10
-3.20875
 20
-1.111691208087804
 30
0.0
 11
-3.26975
 21
-1.111691208087804
 31
0.0
  0
LINE
  5
A3
330
8C
100
AcDbEntity
  8
AM_9
100
AcDbLine
 10
-3.20875
 20
-0.9909504798016708
 30
0.0
 11
-3.20875
 21
-1.130369863757972
 31
0.0
  0
LINE
  5
A4
330
8C
100
AcDbEntity
  8
AM_9
100
AcDbLine
 10
-3.20875
 20
-1.041981516109654
 30
0.0
 11
-3.26975
 21
-1.041981516109654
 31
0.0
  0
LINE
  5
A5
330
8C
100
AcDbEntity
  8
AM_9
100
AcDbLine
 10
-2.36875
 20
-0.9842601717798214
 30
0.0
 11
-2.36875
 21
-1.137060171779821
 31
0.0
  0
LINE
  5
A6
330
8C
100
AcDbEntity
  8
AM_9
100
AcDbLine
 10
-2.36875
 20
-0.9842601717798214
 30
0.0
 11
-2.38735
 21
-0.9656601717798216
 31
0.0
  0
LINE
  5
A7
330
8C
100
AcDbEntity
  8
AM_9
100
AcDbLine
 10
-2.38735
 20
-1.155660171779821
 30
0.0
 11
-2.36875
 21
-1.137060171779821
 31
0.0
  0
LINE
  5
A8
330
8C
100
AcDbEntity
  8
AM_9
100
AcDbLine
 10
-2.38735
 20
-0.9656601717798214
 30
0.0
 11
-2.38735
 21
-1.155660171779822
 31
0.0
  0
LINE
  5
A9
330
8C
100
AcDbEntity
  8
AM_9
100
AcDbLine
 10
-3.16875
 20
-1.155660171779822
 30
0.0
 11
-2.38735
 21
-1.155660171779822
 31
0.0
  0
LINE
  5
AA
330
8C
100
AcDbEntity
  8
AM_9
100
AcDbLine
 10
-2.38735
 20
-0.9656601717798214
 30
0.0
 11
-3.16875
 21
-0.9656601717798214
 31
0.0
  0
LINE
  5
AC
330
8C
100
AcDbEntity
  8
AM_5
100
AcDbLine
 10
-3.08875
 20
-1.137060171779821
 30
0.0
 11
-3.120966145020781
 21
-1.155660171779822
 31
0.0
  0
LINE
  5
AD
330
8C
100
AcDbEntity
  8
AM_5
100
AcDbLine
 10
-3.08875
 20
-0.9656601785124251
 30
0.0
 11
-3.08875
 21
-1.155660183924027
 31
0.0
  0
LINE
  5
AE
330
8C
100
AcDbEntity
  8
AM_5
100
AcDbLine
 10
-3.08875
 20
-0.9842601717798214
 30
0.0
 11
-3.120966145020781
 21
-0.9656601717798217
 31
0.0
  0
LINE
  5
B0
330
8C
100
AcDbEntity
  8
AM_4
100
AcDbLine
 10
-3.18875
 20
-1.241160171779822
 30
0.0
 11
-3.16875
 21
-1.241160171779822
 31
0.0
  0
LINE
  5
B1
330
8C
100
AcDbEntity
  8
AM_4
100
AcDbLine
 10
-3.16875
 20
-0.8801601717798214
 30
0.0
 11
-3.18875
 21
-0.8801601717798214
 31
0.0
  0
LINE
  5
B2
330
8C
100
AcDbEntity
  8
AM_4
100
AcDbLine
 10
-3.26975
 20
-0.9611601717798215
 30
0.0
 11
-3.26975
 21
-1.160160171779822
 31
0.0
  0
LINE
  5
B3
330
8C
100
AcDbEntity
  8
AM_4
100
AcDbLine
 10
-3.18875
 20
-0.8801601717798214
 30
0.0
 11
-3.18875
 21
-1.241160171779822
 31
0.0
  0
ARC
  5
B4
330
8C
100
AcDbEntity
  8
AM_4
100
AcDbCircle
 10
-3.18875
 20
-1.160160171779822
 30
0.0
 40
0.0809999999999995
100
AcDbArc
 50
180.0
 51
270.0
  0
ARC
  5
B5
330
8C
100
AcDbEntity
  8
AM_4
100
AcDbCircle
 10
-3.18875
 20
-0.9611601717798212
 30
0.0
 40
0.0809999999999997
100
AcDbArc
 50
90.0
 51
180.0
  0
ENDBLK
  5
8F
330
8C
100
AcDbEntity
  8
0
100
AcDbBlockEnd
  0
BLOCK
  5
B8
330
B6
100
AcDbEntity
  8
0
100
AcDbBlockBegin
  2
3_ASME_B18_3_10_2_0_in_069664_2
 70
     2
 10
0.0
 20
0.0
 30
0.0
  3
3_ASME_B18_3_10_2_0_in_069664_2
  1

  0
ATTDEF
  5
BA
330
B6
100
AcDbEntity
  8
AM_6
100
AcDbText
 10
2.63125
 20
1.241160171779822
 30
0.0
 40
0.5
  1
ANSI/ASME B18.3-1998
100
AcDbAttributeDefinition
  3

  2
NN
 70
     8
280
     0
  0
ATTDEF
  5
BB
330
B6
100
AcDbEntity
  8
AM_6
100
AcDbText
 10
2.63125
 20
0.7411601717798215
 30
0.0
 40
0.5
  1
Socket Button Head Cap Screws
100
AcDbAttributeDefinition
  3

  2
NT
 70
     8
280
     0
  0
ATTDEF
  5
BC
330
B6
100
AcDbEntity
  8
AM_6
100
AcDbText
 10
2.63125
 20
0.2411601717798215
 30
0.0
 40
0.5
  1
ASME B18.3-10
100
AcDbAttributeDefinition
  3

  2
NB
 70
     8
280
     0
  0
ATTDEF
  5
BD
330
B6
100
AcDbEntity
  8
AM_6
100
AcDbText
 10
2.63125
 20
-0.2588398282201785
 30
0.0
 40
0.5
  1
ASME B18.3-$NS.
100
AcDbAttributeDefinition
  3

  2
NBSYN
 70
     8
280
     0
  0
ATTDEF
  5
BE
330
B6
100
AcDbEntity
  8
AM_6
100
AcDbText
 10
2.63125
 20
-0.7588398282201785
 30
0.0
 40
0.5
  1
ASME B18.3-10
100
AcDbAttributeDefinition
  3

  2
LINA
 70
     8
280
     0
  0
ATTDEF
  5
BF
330
B6
100
AcDbEntity
  8
AM_6
100
AcDbText
 10
2.63125
 20
-1.258839828220178
 30
0.0
 40
0.5
  1
10
100
AcDbAttributeDefinition
  3

  2
NS
 70
     8
280
     0
  0
ATTDEF
  5
C0
330
B6
100
AcDbEntity
  8
AM_6
100
AcDbText
 10
2.63125
 20
-1.758839828220178
 30
0.0
 40
0.5
  1
0.361
100
AcDbAttributeDefinition
  3

  2
A
 70
     8
280
     0
  0
ATTDEF
  5
C1
330
B6
100
AcDbEntity
  8
AM_6
100
AcDbText
 10
2.63125
 20
-2.258839828220179
 30
0.0
 40
0.5
  1
0.101
100
AcDbAttributeDefinition
  3

  2
H
 70
     8
280
     0
  0
ATTDEF
  5
C2
330
B6
100
AcDbEntity
  8
AM_6
100
AcDbText
 10
2.63125
 20
-2.758839828220179
 30
0.0
 40
0.5
  1
0.800
100
AcDbAttributeDefinition
  3

  2
L
 70
     8
280
     0
  0
ATTDEF
  5
C3
330
B6
100
AcDbEntity
  8
AM_6
100
AcDbText
 10
2.63125
 20
-3.258839828220179
 30
0.0
 40
0.5
  1
0.020
100
AcDbAttributeDefinition
  3

  2
S
 70
     8
280
     0
  0
ATTDEF
  5
C4
330
B6
100
AcDbEntity
  8
AM_6
100
AcDbText
 10
2.63125
 20
-3.758839828220179
 30
0.0
 40
0.5
  1
0.125000
100
AcDbAttributeDefinition
  3

  2
J
 70
     8
280
     0
  0
ATTDEF
  5
C5
330
B6
100
AcDbEntity
  8
AM_6
100
AcDbText
 10
2.63125
 20
-4.258839828220179
 30
0.0
 40
0.5
  1
baldor
100
AcDbAttributeDefinition
  3

  2
COMPANY
 70
     8
280
     0
  0
LINE
  5
C6
330
B6
100
AcDbEntity
  8
AM_9
100
AcDbLine
 10
-3.20875
 20
0.9909504798016708
 30
0.0
 11
-3.26975
 21
0.9909504798016708
 31
0.0
  0
LINE
  5
C7
330
B6
100
AcDbEntity
  8
AM_9
100
AcDbLine
 10
-3.20875
 20
1.041981516109654
 30
0.0
 11
-3.26975
 21
1.041981516109654
 31
0.0
  0
LINE
  5
C8
330
B6
100
AcDbEntity
  8
AM_9
100
AcDbLine
 10
-3.20875
 20
1.130369863757972
 30
0.0
 11
-3.26975
 21
1.130369863757972
 31
0.0
  0
LINE
  5
C9
330
B6
100
AcDbEntity
  8
AM_9
100
AcDbLine
 10
-3.20875
 20
1.111691208087804
 30
0.0
 11
-3.26975
 21
1.111691208087804
 31
0.0
  0
LINE
  5
CA
330
B6
100
AcDbEntity
  8
AM_9
100
AcDbLine
 10
-3.20875
 20
1.009629135471839
 30
0.0
 11
-3.26975
 21
1.009629135471839
 31
0.0
  0
LINE
  5
CB
330
B6
100
AcDbEntity
  8
AM_9
100
AcDbLine
 10
-3.20875
 20
1.079338827449989
 30
0.0
 11
-3.26975
 21
1.079338827449989
 31
0.0
  0
LINE
  5
CC
330
B6
100
AcDbEntity
  8
AM_9
100
AcDbLine
 10
-3.20875
 20
1.130369863757972
 30
0.0
 11
-3.20875
 21
0.9909504798016708
 31
0.0
  0
LINE
  5
CD
330
B6
100
AcDbEntity
  8
AM_9
100
AcDbLine
 10
-2.36875
 20
1.137060171779821
 30
0.0
 11
-2.36875
 21
0.9842601717798214
 31
0.0
  0
LINE
  5
CE
330
B6
100
AcDbEntity
  8
AM_9
100
AcDbLine
 10
-2.36875
 20
1.137060171779821
 30
0.0
 11
-2.38735
 21
1.155660171779821
 31
0.0
  0
LINE
  5
CF
330
B6
100
AcDbEntity
  8
AM_9
100
AcDbLine
 10
-2.38735
 20
0.9656601717798216
 30
0.0
 11
-2.36875
 21
0.9842601717798214
 31
0.0
  0
LINE
  5
D0
330
B6
100
AcDbEntity
  8
AM_9
100
AcDbLine
 10
-2.38735
 20
1.155660171779822
 30
0.0
 11
-2.38735
 21
0.9656601717798214
 31
0.0
  0
LINE
  5
D1
330
B6
100
AcDbEntity
  8
AM_9
100
AcDbLine
 10
-3.16875
 20
0.9656601717798214
 30
0.0
 11
-2.38735
 21
0.9656601717798214
 31
0.0
  0
LINE
  5
D2
330
B6
100
AcDbEntity
  8
AM_9
100
AcDbLine
 10
-2.38735
 20
1.155660171779822
 30
0.0
 11
-3.16875
 21
1.155660171779822
 31
0.0
  0
LINE
  5
D3
330
B6
100
AcDbEntity
  8
AM_9
100
AcDbLine
 10
-3.18875
 20
0.8801601717798214
 30
0.0
 11
-3.16875
 21
0.8801601717798214
 31
0.0
  0
LINE
  5
D4
330
B6
100
AcDbEntity
  8
AM_9
100
AcDbLine
 10
-3.26975
 20
1.160160171779822
 30
0.0
 11
-3.26975
 21
0.9611601717798215
 31
0.0
  0
LINE
  5
D5
330
B6
100
AcDbEntity
  8
AM_9
100
AcDbLine
 10
-3.18875
 20
1.18421052631579
 30
0.0
 11
-3.18875
 21
0.8801601717798214
 31
0.0
  0
ARC
  5
D6
330
B6
100
AcDbEntity
  8
AM_9
100
AcDbCircle
 10
-3.18875
 20
0.9611601717798212
 30
0.0
 40
0.0809999999999995
100
AcDbArc
 50
180.0
 51
270.0
  0
ARC
  5
D7
330
B6
100
AcDbEntity
  8
AM_9
100
AcDbCircle
 10
-3.188750000000002
 20
1.160160171779821
 30
0.0
 40
0.0809999999999973
100
AcDbArc
 50
162.7274178170265
 51
180.0
  0
LINE
  5
D8
330
B6
100
AcDbEntity
  8
AM_5
100
AcDbLine
 10
-3.08875
 20
0.9842601717798214
 30
0.0
 11
-3.120966145020781
 21
0.9656601717798217
 31
0.0
  0
LINE
  5
D9
330
B6
100
AcDbEntity
  8
AM_5
100
AcDbLine
 10
-3.08875
 20
1.155660183924028
 30
0.0
 11
-3.08875
 21
0.9656601717798214
 31
0.0
  0
LINE
  5
DA
330
B6
100
AcDbEntity
  8
AM_5
100
AcDbLine
 10
-3.08875
 20
1.137060171779821
 30
0.0
 11
-3.120966145020781
 21
1.155660171779821
 31
0.0
  0
LINE
  5
DB
330
B6
100
AcDbEntity
  8
AM_4
100
AcDbLine
 10
-3.16875
 20
1.241160171779822
 30
0.0
 11
-3.18875
 21
1.241160171779822
 31
0.0
  0
LINE
  5
DC
330
B6
100
AcDbEntity
  8
AM_4
100
AcDbLine
 10
-3.18875
 20
1.241160171779822
 30
0.0
 11
-3.18875
 21
1.18421052631579
 31
0.0
  0
ARC
  5
DD
330
B6
100
AcDbEntity
  8
AM_4
100
AcDbCircle
 10
-3.188749999999999
 20
1.160160171779821
 30
0.0
 40
0.0810000000000002
100
AcDbArc
 50
90.0
 51
162.7274178170273
  0
ENDBLK
  5
B9
330
B6
100
AcDbEntity
  8
0
100
AcDbBlockEnd
  0
BLOCK
  5
E0
330
DE
100
AcDbEntity
  8
0
100
AcDbBlockBegin
  2
4_070893LW_0_in_069664_2
 70
     2
 10
0.0
 20
0.0
 30
0.0
  3
4_070893LW_0_in_069664_2
  1

  0
ATTDEF
  5
E2
330
DE
100
AcDbEntity
  8
AM_6
100
AcDbText
 10
2.27125
 20
1.75
 30
0.0
 40
0.5
  1
Imperial Insert Lockwasher -Inch
100
AcDbAttributeDefinition
  3

  2
NN
 70
     8
280
     0
  0
ATTDEF
  5
E3
330
DE
100
AcDbEntity
  8
AM_6
100
AcDbText
 10
2.27125
 20
1.25
 30
0.0
 40
0.5
  1
Imperial Bearings
100
AcDbAttributeDefinition
  3

  2
NT
 70
     8
280
     0
  0
ATTDEF
  5
E4
330
DE
100
AcDbEntity
  8
AM_6
100
AcDbText
 10
2.27125
 20
0.75
 30
0.0
 40
0.5
  1
070893LW
100
AcDbAttributeDefinition
  3

  2
NB
 70
     8
280
     0
  0
ATTDEF
  5
E5
330
DE
100
AcDbEntity
  8
AM_6
100
AcDbText
 10
2.27125
 20
0.25
 30
0.0
 40
0.5
  1
$PN.LW
100
AcDbAttributeDefinition
  3

  2
NBSYN
 70
     8
280
     0
  0
ATTDEF
  5
E6
330
DE
100
AcDbEntity
  8
AM_6
100
AcDbText
 10
2.27125
 20
-0.25
 30
0.0
 40
0.5
  1
070893
100
AcDbAttributeDefinition
  3

  2
LINA
 70
     8
280
     0
  0
ATTDEF
  5
E7
330
DE
100
AcDbEntity
  8
AM_6
100
AcDbText
 10
2.27125
 20
-0.75
 30
0.0
 40
0.5
  1
2-1/4
100
AcDbAttributeDefinition
  3

  2
SS
 70
     8
280
     0
  0
ATTDEF
  5
E8
330
DE
100
AcDbEntity
  8
AM_6
100
AcDbText
 10
2.27125
 20
-1.25
 30
0.0
 40
0.5
  1
2.250000
100
AcDbAttributeDefinition
  3

  2
SS1
 70
     8
280
     0
  0
ATTDEF
  5
E9
330
DE
100
AcDbEntity
  8
AM_6
100
AcDbText
 10
2.27125
 20
-1.75
 30
0.0
 40
0.5
  1
070893
100
AcDbAttributeDefinition
  3

  2
PN
 70
     8
280
     0
  0
ATTDEF
  5
EA
330
DE
100
AcDbEntity
  8
AM_6
100
AcDbText
 10
2.27125
 20
-2.25
 30
0.0
 40
0.5
  1
INS-IP-204R
100
AcDbAttributeDefinition
  3

  2
DESCRIPTION
 70
     8
280
     0
  0
ATTDEF
  5
EB
330
DE
100
AcDbEntity
  8
AM_6
100
AcDbText
 10
2.27125
 20
-2.75
 30
0.0
 40
0.5
  1
3.9370
100
AcDbAttributeDefinition
  3

  2
A
 70
     8
280
     0
  0
ATTDEF
  5
EC
330
DE
100
AcDbEntity
  8
AM_6
100
AcDbText
 10
2.27125
 20
-3.25
 30
0.0
 40
0.5
  1
1-3/64
100
AcDbAttributeDefinition
  3

  2
B
 70
     8
280
     0
  0
ATTDEF
  5
ED
330
DE
100
AcDbEntity
  8
AM_6
100
AcDbText
 10
2.27125
 20
-3.75
 30
0.0
 40
0.5
  1
3-1/32
100
AcDbAttributeDefinition
  3

  2
C
 70
     8
280
     0
  0
ATTDEF
  5
EE
330
DE
100
AcDbEntity
  8
AM_6
100
AcDbText
 10
2.27125
 20
-4.25
 30
0.0
 40
0.5
  1
1.050
100
AcDbAttributeDefinition
  3

  2
D
 70
     8
280
     0
  0
ATTDEF
  5
EF
330
DE
100
AcDbEntity
  8
AM_6
100
AcDbText
 10
2.27125
 20
-4.75
 30
0.0
 40
0.5
  1
3-1/2
100
AcDbAttributeDefinition
  3

  2
E
 70
     8
280
     0
  0
ATTDEF
  5
F0
330
DE
100
AcDbEntity
  8
AM_6
100
AcDbText
 10
2.27125
 20
-5.25
 30
0.0
 40
0.5
  1
0.1900
100
AcDbAttributeDefinition
  3

  2
NDM
 70
     8
280
     0
  0
ATTDEF
  5
F1
330
DE
100
AcDbEntity
  8
AM_6
100
AcDbText
 10
2.27125
 20
-5.75
 30
0.0
 40
0.5
  1
0.1450
100
AcDbAttributeDefinition
  3

  2
KDM
 70
     8
280
     0
  0
ATTDEF
  5
F2
330
DE
100
AcDbEntity
  8
AM_6
100
AcDbText
 10
2.27125
 20
-6.25
 30
0.0
 40
0.5
  1
2.92
100
AcDbAttributeDefinition
  3

  2
AL
 70
     8
280
     0
  0
ATTDEF
  5
F3
330
DE
100
AcDbEntity
  8
AM_6
100
AcDbText
 10
2.27125
 20
-6.75
 30
0.0
 40
0.5
  1
0.50
100
AcDbAttributeDefinition
  3

  2
BL
 70
     8
280
     0
  0
ATTDEF
  5
F4
330
DE
100
AcDbEntity
  8
AM_6
100
AcDbText
 10
2.27125
 20
-7.25
 30
0.0
 40
0.5
  1
0.07
100
AcDbAttributeDefinition
  3

  2
CL
 70
     8
280
     0
  0
ATTDEF
  5
F5
330
DE
100
AcDbEntity
  8
AM_6
100
AcDbText
 10
2.27125
 20
-7.75
 30
0.0
 40
0.5
  1
0.44
100
AcDbAttributeDefinition
  3

  2
DL
 70
     8
280
     0
  0
ATTDEF
  5
F6
330
DE
100
AcDbEntity
  8
AM_6
100
AcDbText
 10
2.27125
 20
-8.25
 30
0.0
 40
0.5
  1
baldor
100
AcDbAttributeDefinition
  3

  2
COMPANY
 70
     8
280
     0
  0
LINE
  5
F7
330
DE
100
AcDbEntity
  8
AM_9
100
AcDbLine
 10
-3.09875
 20
0.3474761188090757
 30
0.0
 11
-3.16875
 21
0.3474761188090757
 31
0.0
  0
LINE
  5
F8
330
DE
100
AcDbEntity
  8
AM_9
100
AcDbLine
 10
-2.72875
 20
0.3351610878026547
 30
0.0
 11
-3.09875
 21
0.3351610878026547
 31
0.0
  0
LINE
  5
F9
330
DE
100
AcDbEntity
  8
AM_9
100
AcDbLine
 10
-2.72875
 20
0.3123681427517311
 30
0.0
 11
-3.16875
 21
0.3123681427517311
 31
0.0
  0
LINE
  5
FA
330
DE
100
AcDbEntity
  8
AM_9
100
AcDbLine
 10
-2.72875
 20
0.3123681427517311
 30
0.0
 11
-2.72875
 21
0.5661309709304763
 31
0.0
  0
LINE
  5
FB
330
DE
100
AcDbEntity
  8
AM_9
100
AcDbLine
 10
-3.09875
 20
0.5661309709304763
 30
0.0
 11
-2.72875
 21
0.5661309709304763
 31
0.0
  0
LINE
  5
FC
330
DE
100
AcDbEntity
  8
AM_9
100
AcDbLine
 10
-2.72875
 20
0.5433380258795527
 30
0.0
 11
-3.16875
 21
0.5433380258795527
 31
0.0
  0
LINE
  5
FD
330
DE
100
AcDbEntity
  8
AM_9
100
AcDbLine
 10
-3.09875
 20
0.5784460019368972
 30
0.0
 11
-3.16875
 21
0.5784460019368972
 31
0.0
  0
LINE
  5
FE
330
DE
100
AcDbEntity
  8
AM_9
100
AcDbLine
 10
-3.09875
 20
1.212500261685452
 30
0.0
 11
-3.16875
 21
1.212500261685452
 31
0.0
  0
LINE
  5
FF
330
DE
100
AcDbEntity
  8
AM_9
100
AcDbLine
 10
-3.09875
 20
-1.212500261685453
 30
0.0
 11
-3.16875
 21
-1.212500261685453
 31
0.0
  0
LINE
  5
100
330
DE
100
AcDbEntity
  8
AM_9
100
AcDbLine
 10
-3.09875
 20
1.5
 30
0.0
 11
-3.16875
 21
1.5
 31
0.0
  0
LINE
  5
101
330
DE
100
AcDbEntity
  8
AM_9
100
AcDbLine
 10
-3.09875
 20
1.595047715730004
 30
0.0
 11
-3.16875
 21
1.595047715730004
 31
0.0
  0
LINE
  5
102
330
DE
100
AcDbEntity
  8
AM_9
100
AcDbLine
 10
-3.09875
 20
-1.5
 30
0.0
 11
-3.16875
 21
-1.5
 31
0.0
  0
LINE
  5
103
330
DE
100
AcDbEntity
  8
AM_9
100
AcDbLine
 10
-3.16875
 20
-1.595047715730005
 30
0.0
 11
-3.09875
 21
-1.595047715730005
 31
0.0
  0
LINE
  5
104
330
DE
100
AcDbEntity
  8
AM_9
100
AcDbLine
 10
-3.09875
 20
0.9245423014409695
 30
0.0
 11
-3.16875
 21
0.9245423014409695
 31
0.0
  0
LINE
  5
105
330
DE
100
AcDbEntity
  8
AM_9
100
AcDbLine
 10
-3.09875
 20
-0.9245423014409682
 30
0.0
 11
-3.16875
 21
-0.9245423014409684
 31
0.0
  0
LINE
  5
106
330
DE
100
AcDbEntity
  8
AM_9
100
AcDbLine
 10
-3.09875
 20
0.7901920130155248
 30
0.0
 11
-3.16875
 21
0.7901920130155249
 31
0.0
  0
LINE
  5
107
330
DE
100
AcDbEntity
  8
AM_9
100
AcDbLine
 10
-3.09875
 20
-0.7901920130155233
 30
0.0
 11
-3.16875
 21
-0.7901920130155233
 31
0.0
  0
LINE
  5
108
330
DE
100
AcDbEntity
  8
AM_9
100
AcDbLine
 10
-3.09875
 20
1.127835315992544
 30
0.0
 11
-3.16875
 21
1.127835315992544
 31
0.0
  0
LINE
  5
109
330
DE
100
AcDbEntity
  8
AM_9
100
AcDbLine
 10
-3.09875
 20
0.9934850275670996
 30
0.0
 11
-3.16875
 21
0.9934850275670996
 31
0.0
  0
LINE
  5
10A
330
DE
100
AcDbEntity
  8
AM_9
100
AcDbLine
 10
-3.09875
 20
1.155693915404087
 30
0.0
 11
-3.16875
 21
1.155693915404087
 31
0.0
  0
LINE
  5
10B
330
DE
100
AcDbEntity
  8
AM_9
100
AcDbLine
 10
-3.09875
 20
-0.9934850275670988
 30
0.0
 11
-3.16875
 21
-0.9934850275670987
 31
0.0
  0
LINE
  5
10C
330
DE
100
AcDbEntity
  8
AM_9
100
AcDbLine
 10
-3.09875
 20
-1.127835315992543
 30
0.0
 11
-3.16875
 21
-1.127835315992543
 31
0.0
  0
LINE
  5
10D
330
DE
100
AcDbEntity
  8
AM_9
100
AcDbLine
 10
-3.16875
 20
-1.155693915404086
 30
0.0
 11
-3.09875
 21
-1.155693915404086
 31
0.0
  0
LINE
  5
10E
330
DE
100
AcDbEntity
  8
AM_9
100
AcDbLine
 10
-3.09875
 20
0.0950000000000005
 30
0.0
 11
-3.16875
 21
0.0950000000000005
 31
0.0
  0
LINE
  5
10F
330
DE
100
AcDbEntity
  8
AM_9
100
AcDbLine
 10
-3.09875
 20
-0.0949999999999994
 30
0.0
 11
-3.16875
 21
-0.0949999999999994
 31
0.0
  0
LINE
  5
110
330
DE
100
AcDbEntity
  8
AM_4
100
AcDbLine
 10
-3.09875
 20
1.75
 30
0.0
 11
-3.16875
 21
1.75
 31
0.0
  0
LINE
  5
111
330
DE
100
AcDbEntity
  8
AM_4
100
AcDbLine
 10
-3.16875
 20
-1.75
 30
0.0
 11
-3.09875
 21
-1.75
 31
0.0
  0
LINE
  5
112
330
DE
100
AcDbEntity
  8
AM_4
100
AcDbLine
 10
-3.16875
 20
1.75
 30
0.0
 11
-3.16875
 21
-1.75
 31
0.0
  0
LINE
  5
113
330
DE
100
AcDbEntity
  8
AM_4
100
AcDbLine
 10
-3.09875
 20
1.75
 30
0.0
 11
-3.09875
 21
-1.75
 31
0.0
  0
ENDBLK
  5
E1
330
DE
100
AcDbEntity
  8
0
100
AcDbBlockEnd
  0
BLOCK
  5
116
330
114
100
AcDbEntity
  8
0
100
AcDbBlockBegin
  2
5_070925I_0_in_069664_2
 70
     2
 10
0.0
 20
0.0
 30
0.0
  3
5_070925I_0_in_069664_2
  1

  0
ATTDEF
  5
118
330
114
100
AcDbEntity
  8
AM_6
100
AcDbText
 10
4.7125
 20
1.9685
 30
0.0
 40
0.5
  1
Imperial Insert -Inch
100
AcDbAttributeDefinition
  3

  2
NN
 70
     8
280
     0
  0
ATTDEF
  5
119
330
114
100
AcDbEntity
  8
AM_6
100
AcDbText
 10
4.7125
 20
1.4685
 30
0.0
 40
0.5
  1
Imperial Bearings
100
AcDbAttributeDefinition
  3

  2
NT
 70
     8
280
     0
  0
ATTDEF
  5
11A
330
114
100
AcDbEntity
  8
AM_6
100
AcDbText
 10
4.7125
 20
0.9684999999999997
 30
0.0
 40
0.5
  1
070925I
100
AcDbAttributeDefinition
  3

  2
NB
 70
     8
280
     0
  0
ATTDEF
  5
11B
330
114
100
AcDbEntity
  8
AM_6
100
AcDbText
 10
4.7125
 20
0.4684999999999997
 30
0.0
 40
0.5
  1
$PN.I
100
AcDbAttributeDefinition
  3

  2
NBSYN
 70
     8
280
     0
  0
ATTDEF
  5
11C
330
114
100
AcDbEntity
  8
AM_6
100
AcDbText
 10
4.7125
 20
-0.0315000000000003
 30
0.0
 40
0.5
  1
070925
100
AcDbAttributeDefinition
  3

  2
LINA
 70
     8
280
     0
  0
ATTDEF
  5
11D
330
114
100
AcDbEntity
  8
AM_6
100
AcDbText
 10
4.7125
 20
-0.5315000000000003
 30
0.0
 40
0.5
  1
2-1/4
100
AcDbAttributeDefinition
  3

  2
SS
 70
     8
280
     0
  0
ATTDEF
  5
11E
330
114
100
AcDbEntity
  8
AM_6
100
AcDbText
 10
4.7125
 20
-1.0315
 30
0.0
 40
0.5
  1
2.250000
100
AcDbAttributeDefinition
  3

  2
SS1
 70
     8
280
     0
  0
ATTDEF
  5
11F
330
114
100
AcDbEntity
  8
AM_6
100
AcDbText
 10
4.7125
 20
-1.5315
 30
0.0
 40
0.5
  1
070925
100
AcDbAttributeDefinition
  3

  2
PN
 70
     8
280
     0
  0
ATTDEF
  5
120
330
114
100
AcDbEntity
  8
AM_6
100
AcDbText
 10
4.7125
 20
-2.0315
 30
0.0
 40
0.5
  1
INS-IP-204L
100
AcDbAttributeDefinition
  3

  2
DESCRIPTION
 70
     8
280
     0
  0
ATTDEF
  5
121
330
114
100
AcDbEntity
  8
AM_6
100
AcDbText
 10
4.7125
 20
-2.5315
 30
0.0
 40
0.5
  1
Labyrinth Seal
100
AcDbAttributeDefinition
  3

  2
ST
 70
     8
280
     0
  0
ATTDEF
  5
122
330
114
100
AcDbEntity
  8
AM_6
100
AcDbText
 10
4.7125
 20
-3.0315
 30
0.0
 40
0.5
  1
3.9370
100
AcDbAttributeDefinition
  3

  2
A
 70
     8
280
     0
  0
ATTDEF
  5
123
330
114
100
AcDbEntity
  8
AM_6
100
AcDbText
 10
4.7125
 20
-3.5315
 30
0.0
 40
0.5
  1
1-3/64
100
AcDbAttributeDefinition
  3

  2
B
 70
     8
280
     0
  0
ATTDEF
  5
124
330
114
100
AcDbEntity
  8
AM_6
100
AcDbText
 10
4.7125
 20
-4.0315
 30
0.0
 40
0.5
  1
3-1/32
100
AcDbAttributeDefinition
  3

  2
C
 70
     8
280
     0
  0
ATTDEF
  5
125
330
114
100
AcDbEntity
  8
AM_6
100
AcDbText
 10
4.7125
 20
-4.5315
 30
0.0
 40
0.5
  1
1.050
100
AcDbAttributeDefinition
  3

  2
D
 70
     8
280
     0
  0
ATTDEF
  5
126
330
114
100
AcDbEntity
  8
AM_6
100
AcDbText
 10
4.7125
 20
-5.0315
 30
0.0
 40
0.5
  1
3-1/2
100
AcDbAttributeDefinition
  3

  2
E
 70
     8
280
     0
  0
ATTDEF
  5
127
330
114
100
AcDbEntity
  8
AM_6
100
AcDbText
 10
4.7125
 20
-5.5315
 30
0.0
 40
0.5
  1
0.1900
100
AcDbAttributeDefinition
  3

  2
NDM
 70
     8
280
     0
  0
ATTDEF
  5
128
330
114
100
AcDbEntity
  8
AM_6
100
AcDbText
 10
4.7125
 20
-6.0315
 30
0.0
 40
0.5
  1
0.101
100
AcDbAttributeDefinition
  3

  2
H
 70
     8
280
     0
  0
ATTDEF
  5
129
330
114
100
AcDbEntity
  8
AM_6
100
AcDbText
 10
4.7125
 20
-6.5315
 30
0.0
 40
0.5
  1
0.1450
100
AcDbAttributeDefinition
  3

  2
KDM
 70
     8
280
     0
  0
ATTDEF
  5
12A
330
114
100
AcDbEntity
  8
AM_6
100
AcDbText
 10
4.7125
 20
-7.0315
 30
0.0
 40
0.5
  1
2.92
100
AcDbAttributeDefinition
  3

  2
AL
 70
     8
280
     0
  0
ATTDEF
  5
12B
330
114
100
AcDbEntity
  8
AM_6
100
AcDbText
 10
4.7125
 20
-7.5315
 30
0.0
 40
0.5
  1
0.50
100
AcDbAttributeDefinition
  3

  2
BL
 70
     8
280
     0
  0
ATTDEF
  5
12C
330
114
100
AcDbEntity
  8
AM_6
100
AcDbText
 10
4.7125
 20
-8.031500000000001
 30
0.0
 40
0.5
  1
0.07
100
AcDbAttributeDefinition
  3

  2
CL
 70
     8
280
     0
  0
ATTDEF
  5
12D
330
114
100
AcDbEntity
  8
AM_6
100
AcDbText
 10
4.7125
 20
-8.531500000000001
 30
0.0
 40
0.5
  1
0.44
100
AcDbAttributeDefinition
  3

  2
DL
 70
     8
280
     0
  0
ATTDEF
  5
12E
330
114
100
AcDbEntity
  8
AM_6
100
AcDbText
 10
4.7125
 20
-9.031500000000001
 30
0.0
 40
0.5
  1
0.8000
100
AcDbAttributeDefinition
  3

  2
LL
 70
     8
280
     0
  0
ATTDEF
  5
12F
330
114
100
AcDbEntity
  8
AM_6
100
AcDbText
 10
4.7125
 20
-9.531500000000001
 30
0.0
 40
0.5
  1
0.025
100
AcDbAttributeDefinition
  3

  2
Y
 70
     8
280
     0
  0
ATTDEF
  5
130
330
114
100
AcDbEntity
  8
AM_6
100
AcDbText
 10
4.7125
 20
-10.0315
 30
0.0
 40
0.5
  1
0.025000
100
AcDbAttributeDefinition
  3

  2
Y1
 70
     8
280
     0
  0
ATTDEF
  5
131
330
114
100
AcDbEntity
  8
AM_6
100
AcDbText
 10
4.7125
 20
-10.5315
 30
0.0
 40
0.5
  1
2-19/32
100
AcDbAttributeDefinition
  3

  2
Z
 70
     8
280
     0
  0
ATTDEF
  5
132
330
114
100
AcDbEntity
  8
AM_6
100
AcDbText
 10
4.7125
 20
-11.0315
 30
0.0
 40
0.5
  1
2.593750
100
AcDbAttributeDefinition
  3

  2
Z1
 70
     8
280
     0
  0
ATTDEF
  5
133
330
114
100
AcDbEntity
  8
AM_6
100
AcDbText
 10
4.7125
 20
-11.5315
 30
0.0
 40
0.5
  1
baldor
100
AcDbAttributeDefinition
  3

  2
COMPANY
 70
     8
280
     0
  0
LINE
  5
134
330
114
100
AcDbEntity
  8
AM_9
100
AcDbLine
 10
-0.8390624999999996
 20
0.3363635071569309
 30
0.0
 11
-3.09875
 21
0.3363635071569309
 31
0.0
  0
LINE
  5
135
330
114
100
AcDbEntity
  8
AM_9
100
AcDbLine
 10
-0.8390624999999996
 20
0.5673333902847525
 30
0.0
 11
-3.09875
 21
0.5673333902847525
 31
0.0
  0
LINE
  5
136
330
114
100
AcDbEntity
  8
AM_9
100
AcDbLine
 10
-2.25875
 20
1.060660171779821
 30
0.0
 11
-2.29253398983333
 21
1.133110171779821
 31
0.0
  0
LINE
  5
137
330
114
100
AcDbEntity
  8
AM_9
100
AcDbLine
 10
-2.29253398983333
 20
0.9882101717798214
 30
0.0
 11
-2.25875
 21
1.060660171779821
 31
0.0
  0
LINE
  5
138
330
114
100
AcDbEntity
  8
AM_9
100
AcDbLine
 10
-2.29253398983333
 20
0.9882101717798214
 30
0.0
 11
-2.29253398983333
 21
1.133110171779821
 31
0.0
  0
LINE
  5
139
330
114
100
AcDbEntity
  8
AM_9
100
AcDbLine
 10
-2.29253398983333
 20
1.133110171779821
 30
0.0
 11
-3.0762
 21
1.133110171779821
 31
0.0
  0
LINE
  5
13A
330
114
100
AcDbEntity
  8
AM_9
100
AcDbLine
 10
-3.0762
 20
0.9882101717798214
 30
0.0
 11
-2.29253398983333
 21
0.9882101717798214
 31
0.0
  0
LINE
  5
13B
330
114
100
AcDbEntity
  8
AM_9
100
AcDbLine
 10
-3.0762
 20
0.9882101717798214
 30
0.0
 11
-3.0762
 21
1.133110171779821
 31
0.0
  0
LINE
  5
13C
330
114
100
AcDbEntity
  8
AM_9
100
AcDbLine
 10
-3.0762
 20
1.133110171779821
 30
0.0
 11
-3.09875
 21
1.155660171779821
 31
0.0
  0
LINE
  5
13D
330
114
100
AcDbEntity
  8
AM_9
100
AcDbLine
 10
-3.09875
 20
0.9656601717798211
 30
0.0
 11
-3.0762
 21
0.9882101717798214
 31
0.0
  0
LINE
  5
13E
330
114
100
AcDbEntity
  8
AM_9
100
AcDbLine
 10
-2.65875
 20
-1.46
 30
0.0
 11
-3.09875
 21
-1.46
 31
0.0
  0
LINE
  5
13F
330
114
100
AcDbEntity
  8
AM_9
100
AcDbLine
 10
-2.65875
 20
1.46
 30
0.0
 11
-3.09875
 21
1.46
 31
0.0
  0
LINE
  5
140
330
114
100
AcDbEntity
  8
AM_9
100
AcDbLine
 10
-2.65875
 20
-1.46
 30
0.0
 11
-2.65875
 21
-1.747573767398895
 31
0.0
  0
LINE
  5
141
330
114
100
AcDbEntity
  8
AM_9
100
AcDbLine
 10
-2.65875
 20
1.747573767398894
 30
0.0
 11
-2.65875
 21
1.46
 31
0.0
  0
LINE
  5
142
330
114
100
AcDbEntity
  8
AM_9
100
AcDbLine
 10
-2.258750000000004
 20
-1.060660171779821
 30
0.0
 11
-2.292533989833337
 21
-0.9882101717798214
 31
0.0
  0
LINE
  5
143
330
114
100
AcDbEntity
  8
AM_9
100
AcDbLine
 10
-2.292533989833337
 20
-1.133110171779821
 30
0.0
 11
-2.258750000000004
 21
-1.060660171779821
 31
0.0
  0
LINE
  5
144
330
114
100
AcDbEntity
  8
AM_9
100
AcDbLine
 10
-3.076200000000006
 20
-1.133110171779821
 30
0.0
 11
-2.292533989833337
 21
-1.133110171779821
 31
0.0
  0
LINE
  5
145
330
114
100
AcDbEntity
  8
AM_9
100
AcDbLine
 10
-2.292533989833337
 20
-0.9882101717798214
 30
0.0
 11
-3.076200000000006
 21
-0.9882101717798214
 31
0.0
  0
LINE
  5
146
330
114
100
AcDbEntity
  8
AM_9
100
AcDbLine
 10
-2.292533989833337
 20
-0.9882101717798214
 30
0.0
 11
-2.292533989833337
 21
-1.133110171779821
 31
0.0
  0
LINE
  5
147
330
114
100
AcDbEntity
  8
AM_9
100
AcDbLine
 10
-3.076200000000006
 20
-0.9882101717798213
 30
0.0
 11
-3.098749999999997
 21
-0.965660171779821
 31
0.0
  0
LINE
  5
148
330
114
100
AcDbEntity
  8
AM_9
100
AcDbLine
 10
-3.098749999999997
 20
-1.155660171779822
 30
0.0
 11
-3.076200000000006
 21
-1.133110171779821
 31
0.0
  0
LINE
  5
149
330
114
100
AcDbEntity
  8
AM_9
100
AcDbLine
 10
-3.076200000000006
 20
-0.9882101717798213
 30
0.0
 11
-3.076200000000006
 21
-1.133110171779821
 31
0.0
  0
LINE
  5
14A
330
114
100
AcDbEntity
  8
AM_9
100
AcDbLine
 10
-0.8390624999999996
 20
0.5433380258795525
 30
0.0
 11
-3.34375
 21
0.5433380258795527
 31
0.0
  0
LINE
  5
14B
330
114
100
AcDbEntity
  8
AM_9
100
AcDbLine
 10
-3.34375
 20
0.3123681427517312
 30
0.0
 11
-0.8390624999999996
 21
0.312368142751731
 31
0.0
  0
LINE
  5
14C
330
114
100
AcDbEntity
  8
AM_9
100
AcDbLine
 10
-0.8390625000000002
 20
1.125
 30
0.0
 11
-3.34375
 21
1.125
 31
0.0
  0
LINE
  5
14D
330
114
100
AcDbEntity
  8
AM_9
100
AcDbLine
 10
-3.34375
 20
-1.125
 30
0.0
 11
-0.8390625000000002
 21
-1.125
 31
0.0
  0
LINE
  5
14E
330
114
100
AcDbEntity
  8
AM_9
100
AcDbLine
 10
-3.34375
 20
0.5661309709304763
 30
0.0
 11
-3.09875
 21
0.5661309709304765
 31
0.0
  0
LINE
  5
14F
330
114
100
AcDbEntity
  8
AM_9
100
AcDbLine
 10
-3.09875
 20
0.3351610878026548
 30
0.0
 11
-3.34375
 21
0.3351610878026547
 31
0.0
  0
LINE
  5
150
330
114
100
AcDbEntity
  8
AM_9
100
AcDbLine
 10
-3.09875
 20
1.18421052631579
 30
0.0
 11
-3.16875
 21
1.18421052631579
 31
0.0
  0
LINE
  5
151
330
114
100
AcDbEntity
  8
AM_9
100
AcDbLine
 10
-3.266097142459784
 20
-1.18421052631579
 30
0.0
 11
-3.09875
 21
-1.18421052631579
 31
0.0
  0
LINE
  5
152
330
114
100
AcDbEntity
  8
AM_9
100
AcDbLine
 10
-0.3124999999999997
 20
1.18421052631579
 30
0.0
 11
-0.8390625000000002
 21
1.18421052631579
 31
0.0
  0
LINE
  5
153
330
114
100
AcDbEntity
  8
AM_9
100
AcDbLine
 10
-0.8390625000000002
 20
-1.18421052631579
 30
0.0
 11
-0.3124999999999997
 21
-1.18421052631579
 31
0.0
  0
LINE
  5
154
330
114
100
AcDbEntity
  8
AM_9
100
AcDbLine
 10
-0.3124999999999997
 20
-1.296875
 30
0.0
 11
-0.3124999999999997
 21
1.296875
 31
0.0
  0
LINE
  5
155
330
114
100
AcDbEntity
  8
AM_9
100
AcDbLine
 10
-0.287500000000001
 20
1.296875
 30
0.0
 11
-0.3124999999999997
 21
1.296875
 31
0.0
  0
LINE
  5
156
330
114
100
AcDbEntity
  8
AM_9
100
AcDbLine
 10
-0.3124999999999997
 20
-1.296875
 30
0.0
 11
-0.287500000000001
 21
-1.296875
 31
0.0
  0
LINE
  5
157
330
114
100
AcDbEntity
  8
AM_9
100
AcDbLine
 10
-0.2874999999999999
 20
-1.407719017094017
 30
0.0
 11
-0.2874999999999999
 21
1.407719017094017
 31
0.0
  0
ARC
  5
158
330
114
100
AcDbEntity
  8
AM_9
100
AcDbCircle
 10
-0.3207532051282054
 20
1.407719017094017
 30
0.0
 40
0.0332532051282055
100
AcDbArc
 50
0.0
 51
90.0
  0
ARC
  5
159
330
114
100
AcDbEntity
  8
AM_9
100
AcDbCircle
 10
-0.3207532051282054
 20
-1.407719017094017
 30
0.0
 40
0.0332532051282053
100
AcDbArc
 50
270.0
 51
0.0
  0
LINE
  5
15A
330
114
100
AcDbEntity
  8
AM_9
100
AcDbLine
 10
-0.320753205128205
 20
-1.440972222222222
 30
0.0
 11
-0.320753205128205
 21
1.440972222222222
 31
0.0
  0
LINE
  5
15B
330
114
100
AcDbEntity
  8
AM_9
100
AcDbLine
 10
-0.320753205128205
 20
1.440972222222222
 30
0.0
 11
-0.6296875000000004
 21
1.440972222222222
 31
0.0
  0
LINE
  5
15C
330
114
100
AcDbEntity
  8
AM_9
100
AcDbLine
 10
-0.6296875000000004
 20
-1.440972222222222
 30
0.0
 11
-0.320753205128205
 21
-1.440972222222222
 31
0.0
  0
LINE
  5
15D
330
114
100
AcDbEntity
  8
AM_9
100
AcDbLine
 10
-0.6296874999999998
 20
-1.589882260469459
 30
0.0
 11
-0.6296874999999998
 21
1.589882260469459
 31
0.0
  0
ARC
  5
15E
330
114
100
AcDbEntity
  8
AM_9
100
AcDbCircle
 10
-0.7296875000000003
 20
1.589882260469459
 30
0.0
 40
0.1000000000000004
100
AcDbArc
 50
0.0
 51
60.00000000000005
  0
ARC
  5
15F
330
114
100
AcDbEntity
  8
AM_9
100
AcDbCircle
 10
-0.7296875
 20
-1.589882260469459
 30
0.0
 40
0.1000000000000001
100
AcDbArc
 50
300.0
 51
0.0
  0
LINE
  5
160
330
114
100
AcDbEntity
  8
AM_9
100
AcDbLine
 10
-0.6796875000000001
 20
-1.676484800847903
 30
0.0
 11
-0.6796875000000001
 21
1.676484800847903
 31
0.0
  0
LINE
  5
161
330
114
100
AcDbEntity
  8
AM_9
100
AcDbLine
 10
-0.6796875000000001
 20
1.676484800847903
 30
0.0
 11
-0.8390625000000002
 21
1.7685
 31
0.0
  0
LINE
  5
162
330
114
100
AcDbEntity
  8
AM_9
100
AcDbLine
 10
-0.8390625000000002
 20
-1.7685
 30
0.0
 11
-0.6796875000000001
 21
-1.676484800847903
 31
0.0
  0
LINE
  5
163
330
114
100
AcDbEntity
  8
AM_9
100
AcDbLine
 10
-2.046875
 20
-1.786732284409133
 30
0.0
 11
-1.8859375
 21
-1.792352345749211
 31
0.0
  0
LINE
  5
164
330
114
100
AcDbEntity
  8
AM_9
100
AcDbLine
 10
-1.8859375
 20
1.792352345749211
 30
0.0
 11
-2.046875
 21
1.786732284409133
 31
0.0
  0
LINE
  5
165
330
114
100
AcDbEntity
  8
AM_9
100
AcDbLine
 10
-1.332279321847106
 20
1.91615625
 30
0.0
 11
-1.392720678152894
 21
1.91615625
 31
0.0
  0
LINE
  5
166
330
114
100
AcDbEntity
  8
AM_9
100
AcDbLine
 10
-1.392720678152894
 20
-1.91615625
 30
0.0
 11
-1.332279321847106
 21
-1.91615625
 31
0.0
  0
LINE
  5
167
330
114
100
AcDbEntity
  8
AM_9
100
AcDbLine
 10
-1.332279321847106
 20
-1.91615625
 30
0.0
 11
-1.332279321847106
 21
1.91615625
 31
0.0
  0
LINE
  5
168
330
114
100
AcDbEntity
  8
AM_9
100
AcDbLine
 10
-1.332279321847106
 20
-1.91615625
 30
0.0
 11
-1.302058643694211
 21
-1.9685
 31
0.0
  0
LINE
  5
169
330
114
100
AcDbEntity
  8
AM_9
100
AcDbLine
 10
-1.302058643694211
 20
1.968499999999999
 30
0.0
 11
-1.332279321847106
 21
1.91615625
 31
0.0
  0
LINE
  5
16A
330
114
100
AcDbEntity
  8
AM_9
100
AcDbLine
 10
-0.8390625000000002
 20
-1.9185
 30
0.0
 11
-0.8390625000000002
 21
1.9185
 31
0.0
  0
ARC
  5
16B
330
114
100
AcDbEntity
  8
AM_9
100
AcDbCircle
 10
-0.8890624999999985
 20
1.918500000000001
 30
0.0
 40
0.0499999999999984
100
AcDbArc
 50
0.0
 51
90.0
  0
ARC
  5
16C
330
114
100
AcDbEntity
  8
AM_9
100
AcDbCircle
 10
-0.8890624999999985
 20
-1.918500000000001
 30
0.0
 40
0.0499999999999985
100
AcDbArc
 50
270.0
 51
0.0
  0
LINE
  5
16D
330
114
100
AcDbEntity
  8
AM_9
100
AcDbLine
 10
-0.8890625000000002
 20
-1.9685
 30
0.0
 11
-0.8890625000000002
 21
1.9685
 31
0.0
  0
LINE
  5
16E
330
114
100
AcDbEntity
  8
AM_9
100
AcDbLine
 10
-1.302058643694211
 20
-1.9685
 30
0.0
 11
-1.302058643694211
 21
1.9685
 31
0.0
  0
LINE
  5
16F
330
114
100
AcDbEntity
  8
AM_9
100
AcDbLine
 10
-0.8890625000000002
 20
1.9685
 30
0.0
 11
-1.302058643694211
 21
1.9685
 31
0.0
  0
LINE
  5
170
330
114
100
AcDbEntity
  8
AM_9
100
AcDbLine
 10
-1.302058643694211
 20
-1.9685
 30
0.0
 11
-0.8890625000000002
 21
-1.9685
 31
0.0
  0
LINE
  5
171
330
114
100
AcDbEntity
  8
AM_9
100
AcDbLine
 10
-1.8859375
 20
-1.918499999999998
 30
0.0
 11
-1.8859375
 21
1.918499999999998
 31
0.0
  0
ARC
  5
172
330
114
100
AcDbEntity
  8
AM_9
100
AcDbCircle
 10
-1.835937500000002
 20
1.918500000000001
 30
0.0
 40
0.0499999999999983
100
AcDbArc
 50
90.0
 51
180.0
  0
ARC
  5
173
330
114
100
AcDbEntity
  8
AM_9
100
AcDbCircle
 10
-1.835937500000002
 20
-1.918500000000001
 30
0.0
 40
0.0499999999999983
100
AcDbArc
 50
180.0
 51
270.0
  0
LINE
  5
174
330
114
100
AcDbEntity
  8
AM_9
100
AcDbLine
 10
-1.8359375
 20
-1.9685
 30
0.0
 11
-1.8359375
 21
1.9685
 31
0.0
  0
LINE
  5
175
330
114
100
AcDbEntity
  8
AM_9
100
AcDbLine
 10
-1.422941356305789
 20
1.9685
 30
0.0
 11
-1.8359375
 21
1.9685
 31
0.0
  0
LINE
  5
176
330
114
100
AcDbEntity
  8
AM_9
100
AcDbLine
 10
-1.8359375
 20
-1.9685
 30
0.0
 11
-1.422941356305789
 21
-1.9685
 31
0.0
  0
LINE
  5
177
330
114
100
AcDbEntity
  8
AM_9
100
AcDbLine
 10
-1.392720678152894
 20
-1.91615625
 30
0.0
 11
-1.392720678152894
 21
1.91615625
 31
0.0
  0
LINE
  5
178
330
114
100
AcDbEntity
  8
AM_9
100
AcDbLine
 10
-1.422941356305789
 20
-1.968499999999999
 30
0.0
 11
-1.422941356305789
 21
1.9685
 31
0.0
  0
LINE
  5
179
330
114
100
AcDbEntity
  8
AM_9
100
AcDbLine
 10
-1.392720678152894
 20
1.91615625
 30
0.0
 11
-1.422941356305789
 21
1.9685
 31
0.0
  0
LINE
  5
17A
330
114
100
AcDbEntity
  8
AM_9
100
AcDbLine
 10
-1.422941356305789
 20
-1.968499999999999
 30
0.0
 11
-1.392720678152894
 21
-1.91615625
 31
0.0
  0
LINE
  5
17B
330
114
100
AcDbEntity
  8
AM_5
100
AcDbLine
 10
-2.33875
 20
1.060660171779821
 30
0.0
 11
-2.325730751429774
 21
1.060660171779821
 31
0.0
  0
LINE
  5
17C
330
114
100
AcDbEntity
  8
AM_5
100
AcDbLine
 10
-2.338750000000001
 20
-1.133110171779821
 30
0.0
 11
-2.338750000000001
 21
-1.155660171779822
 31
0.0
  0
LINE
  5
17D
330
114
100
AcDbEntity
  8
AM_5
100
AcDbLine
 10
-2.338750000000001
 20
-1.155660171779822
 30
0.0
 11
-2.325730751429765
 21
-1.133110171779821
 31
0.0
  0
LINE
  5
17E
330
114
100
AcDbEntity
  8
AM_5
100
AcDbLine
 10
-2.338750000000001
 20
-0.9882101717798216
 30
0.0
 11
-2.338750000000001
 21
-0.9656601717798214
 31
0.0
  0
LINE
  5
17F
330
114
100
AcDbEntity
  8
AM_5
100
AcDbLine
 10
-2.338750000000001
 20
-0.9656601717798214
 30
0.0
 11
-2.325730751429765
 21
-0.9882101717798214
 31
0.0
  0
LINE
  5
182
330
114
100
AcDbEntity
  8
AM_7
100
AcDbLine
 10
-2.21675
 20
1.060660171779821
 30
0.0
 11
-3.3148
 21
1.060660171779821
 31
0.0
  0
LINE
  5
183
330
114
100
AcDbEntity
  8
AM_7
100
AcDbLine
 10
-2.216750000000005
 20
-1.060660171779821
 30
0.0
 11
-3.3148
 21
-1.060660171779821
 31
0.0
  0
LINE
  5
184
330
114
100
AcDbEntity
  8
AM_4
100
AcDbLine
 10
-3.16875
 20
1.18421052631579
 30
0.0
 11
-3.34375
 21
1.18421052631579
 31
0.0
  0
LINE
  5
185
330
114
100
AcDbEntity
  8
AM_4
100
AcDbLine
 10
-3.34375
 20
-1.18421052631579
 30
0.0
 11
-3.266097142459784
 21
-1.18421052631579
 31
0.0
  0
LINE
  5
186
330
114
100
AcDbEntity
  8
AM_4
100
AcDbLine
 10
-3.34375
 20
-1.18421052631579
 30
0.0
 11
-3.34375
 21
1.18421052631579
 31
0.0
  0
LINE
  5
187
330
114
100
AcDbEntity
  8
AM_4
100
AcDbLine
 10
-2.65875
 20
-0.2500000000000002
 30
0.0
 11
-3.09875
 21
-0.2499999999999999
 31
0.0
  0
LWPOLYLINE
  5
188
330
114
100
AcDbEntity
  8
AM_4
100
AcDbPolyline
 90
        6
 70
     0
 43
0.0
 10
-3.09875
 20
-1.683251571047309
 10
-3.098239130908627
 20
-1.690458671774783
 10
-3.092994884505245
 20
-1.70679280380681
 10
-3.08264621377439
 20
-1.720402688459205
 10
-3.06846955036443
 20
-1.729689250823131
 10
-3.050494974835125
 20
-1.733753355788509
  0
LWPOLYLINE
  5
189
330
114
100
AcDbEntity
  8
AM_4
100
AcDbPolyline
 90
        6
 70
     0
 43
0.0
 10
-3.050494974835125
 20
1.733753355788509
 10
-3.066809537852182
 20
1.73037374886223
 10
-3.081094563500848
 20
1.721789617938352
 10
-3.09181803550237
 20
1.708925713895342
 10
-3.097791447241351
 20
1.693101365641398
 10
-3.09875
 20
1.683251571047309
  0
LINE
  5
18A
330
114
100
AcDbEntity
  8
AM_4
100
AcDbLine
 10
-3.09875
 20
0.2499999999999997
 30
0.0
 11
-2.65875
 21
0.2499999999999997
 31
0.0
  0
LINE
  5
18B
330
114
100
AcDbEntity
  8
AM_4
100
AcDbLine
 10
-3.050494974835125
 20
0.2499999999999997
 30
0.0
 11
-3.050494974835125
 21
1.733753355788509
 31
0.0
  0
LINE
  5
18C
330
114
100
AcDbEntity
  8
AM_4
100
AcDbLine
 10
-2.65875
 20
0.2499999999999997
 30
0.0
 11
-2.65875
 21
-0.2500000000000002
 31
0.0
  0
LINE
  5
18D
330
114
100
AcDbEntity
  8
AM_4
100
AcDbLine
 10
-3.050494974835125
 20
-1.733753355788509
 30
0.0
 11
-3.050494974835125
 21
-0.2500000000000002
 31
0.0
  0
LINE
  5
18E
330
114
100
AcDbEntity
  8
AM_4
100
AcDbLine
 10
-3.050494974835125
 20
-1.733753355788509
 30
0.0
 11
-2.65875
 21
-1.747573767398895
 31
0.0
  0
LINE
  5
18F
330
114
100
AcDbEntity
  8
AM_4
100
AcDbLine
 10
-2.65875
 20
-1.747573767398895
 30
0.0
 11
-2.65875
 21
-1.76536513857637
 31
0.0
  0
LINE
  5
190
330
114
100
AcDbEntity
  8
AM_4
100
AcDbLine
 10
-2.65875
 20
1.747573767398894
 30
0.0
 11
-3.050494974835125
 21
1.733753355788509
 31
0.0
  0
LINE
  5
191
330
114
100
AcDbEntity
  8
AM_4
100
AcDbLine
 10
-2.65875
 20
-1.76536513857637
 30
0.0
 11
-2.046875
 21
-1.786732284409133
 31
0.0
  0
LINE
  5
192
330
114
100
AcDbEntity
  8
AM_4
100
AcDbLine
 10
-2.046875
 20
1.786732284409133
 30
0.0
 11
-2.65875
 21
1.76536513857637
 31
0.0
  0
LINE
  5
193
330
114
100
AcDbEntity
  8
AM_4
100
AcDbLine
 10
-2.65875
 20
1.76536513857637
 30
0.0
 11
-2.65875
 21
1.747573767398894
 31
0.0
  0
ENDBLK
  5
117
330
114
100
AcDbEntity
  8
0
100
AcDbBlockEnd
  0
BLOCK
  5
196
330
194
100
AcDbEntity
  8
0
100
AcDbBlockBegin
  2
6_405015E_Inch_0_in_069664_2
 70
     2
 10
0.0
 20
0.0
 30
0.0
  3
6_405015E_Inch_0_in_069664_2
  1

  0
ATTDEF
  5
198
330
194
100
AcDbEntity
  8
AM_6
100
AcDbText
 10
3.947903242770462
 20
2.9125
 30
0.0
 40
0.5
  1
405015E -Inch
100
AcDbAttributeDefinition
  3

  2
NN
 70
     8
280
     0
  0
ATTDEF
  5
199
330
194
100
AcDbEntity
  8
AM_6
100
AcDbText
 10
3.947903242770462
 20
2.4125
 30
0.0
 40
0.5
  1
Grease Fitting
100
AcDbAttributeDefinition
  3

  2
NT
 70
     8
280
     0
  0
ATTDEF
  5
19A
330
194
100
AcDbEntity
  8
AM_6
100
AcDbText
 10
3.947903242770462
 20
1.9125
 30
0.0
 40
0.5
  1
405015E-Inch
100
AcDbAttributeDefinition
  3

  2
NB
 70
     8
280
     0
  0
ATTDEF
  5
19B
330
194
100
AcDbEntity
  8
AM_6
100
AcDbText
 10
3.947903242770462
 20
1.4125
 30
0.0
 40
0.5
  1
$MN.-Inch
100
AcDbAttributeDefinition
  3

  2
NBSYN
 70
     8
280
     0
  0
ATTDEF
  5
19C
330
194
100
AcDbEntity
  8
AM_6
100
AcDbText
 10
3.947903242770462
 20
0.9125000000000001
 30
0.0
 40
0.5
  1
405015E
100
AcDbAttributeDefinition
  3

  2
LINA
 70
     8
280
     0
  0
ATTDEF
  5
19D
330
194
100
AcDbEntity
  8
AM_6
100
AcDbText
 10
3.947903242770462
 20
0.4125000000000001
 30
0.0
 40
0.5
  1
405015E
100
AcDbAttributeDefinition
  3

  2
MN
 70
     8
280
     0
  0
ATTDEF
  5
19E
330
194
100
AcDbEntity
  8
AM_6
100
AcDbText
 10
3.947903242770462
 20
-0.0874999999999999
 30
0.0
 40
0.5
  1
1/8 x 27PTF
100
AcDbAttributeDefinition
  3

  2
T
 70
     8
280
     0
  0
ATTDEF
  5
19F
330
194
100
AcDbEntity
  8
AM_6
100
AcDbText
 10
3.947903242770462
 20
-0.5874999999999999
 30
0.0
 40
0.5
  1
baldor
100
AcDbAttributeDefinition
  3

  2
COMPANY
 70
     8
280
     0
  0
LINE
  5
1A0
330
194
100
AcDbEntity
  8
AM_9
100
AcDbLine
 10
-1.466590372472269
 20
2.2725
 30
0.0
 11
-1.142784627527731
 21
2.2725
 31
0.0
  0
LINE
  5
1A1
330
194
100
AcDbEntity
  8
AM_9
100
AcDbLine
 10
-1.142784627527731
 20
2.2725
 30
0.0
 11
-1.106069873218785
 21
2.309214754308946
 31
0.0
  0
LINE
  5
1A2
330
194
100
AcDbEntity
  8
AM_9
100
AcDbLine
 10
-1.503305126781215
 20
2.309214754308946
 30
0.0
 11
-1.466590372472269
 21
2.2725
 31
0.0
  0
LINE
  5
1A3
330
194
100
AcDbEntity
  8
AM_9
100
AcDbLine
 10
-1.503305126781215
 20
2.309214754308946
 30
0.0
 11
-1.106069873218785
 21
2.309214754308946
 31
0.0
  0
LINE
  5
1A4
330
194
100
AcDbEntity
  8
AM_9
100
AcDbLine
 10
-1.106069873218785
 20
2.309214754308946
 30
0.0
 11
-1.09893560277693
 21
2.5375
 31
0.0
  0
LINE
  5
1A5
330
194
100
AcDbEntity
  8
AM_9
100
AcDbLine
 10
-1.51043939722307
 20
2.5375
 30
0.0
 11
-1.503305126781215
 21
2.309214754308946
 31
0.0
  0
LINE
  5
1A6
330
194
100
AcDbEntity
  8
AM_5
100
AcDbLine
 10
-1.136538375147652
 20
2.472370087748463
 30
0.0
 11
-1.142784627527731
 21
2.2725
 31
0.0
  0
LINE
  5
1A7
330
194
100
AcDbEntity
  8
AM_5
100
AcDbLine
 10
-1.09893560277693
 20
2.5375
 30
0.0
 11
-1.136538375147652
 21
2.472370087748463
 31
0.0
  0
LINE
  5
1A8
330
194
100
AcDbEntity
  8
AM_5
100
AcDbLine
 10
-1.508403985751557
 20
2.472370087748463
 30
0.0
 11
-1.100971014248443
 21
2.472370087748463
 31
0.0
  0
LINE
  5
1A9
330
194
100
AcDbEntity
  8
AM_5
100
AcDbLine
 10
-1.472836624852348
 20
2.472370087748463
 30
0.0
 11
-1.466590372472269
 21
2.2725
 31
0.0
  0
LINE
  5
1AA
330
194
100
AcDbEntity
  8
AM_5
100
AcDbLine
 10
-1.51043939722307
 20
2.5375
 30
0.0
 11
-1.472836624852348
 21
2.472370087748463
 31
0.0
  0
LINE
  5
1AB
330
194
100
AcDbEntity
  8
AM_4
100
AcDbLine
 10
-1.1996875
 20
2.7425
 30
0.0
 11
-1.1996875
 21
2.7725
 31
0.0
  0
LINE
  5
1AC
330
194
100
AcDbEntity
  8
AM_4
100
AcDbLine
 10
-1.4096875
 20
2.7725
 30
0.0
 11
-1.4096875
 21
2.7425
 31
0.0
  0
LINE
  5
1AD
330
194
100
AcDbEntity
  8
AM_4
100
AcDbLine
 10
-1.5234375
 20
2.6375
 30
0.0
 11
-1.0859375
 21
2.6375
 31
0.0
  0
LINE
  5
1AE
330
194
100
AcDbEntity
  8
AM_4
100
AcDbLine
 10
-1.052096757229539
 20
2.628432400303386
 30
0.0
 11
-1.0859375
 21
2.6375
 31
0.0
  0
LINE
  5
1AF
330
194
100
AcDbEntity
  8
AM_4
100
AcDbLine
 10
-1.5234375
 20
2.6375
 30
0.0
 11
-1.557278242770461
 21
2.628432400303386
 31
0.0
  0
LINE
  5
1B0
330
194
100
AcDbEntity
  8
AM_4
100
AcDbLine
 10
-1.0859375
 20
2.5375
 30
0.0
 11
-1.052096757229539
 21
2.546567599696615
 31
0.0
  0
LINE
  5
1B1
330
194
100
AcDbEntity
  8
AM_4
100
AcDbLine
 10
-1.557278242770461
 20
2.546567599696615
 30
0.0
 11
-1.5234375
 21
2.5375
 31
0.0
  0
LINE
  5
1B2
330
194
100
AcDbEntity
  8
AM_4
100
AcDbLine
 10
-1.4096875
 20
2.7425
 30
0.0
 11
-1.1996875
 21
2.7425
 31
0.0
  0
LINE
  5
1B3
330
194
100
AcDbEntity
  8
AM_4
100
AcDbLine
 10
-1.4096875
 20
2.7425
 30
0.0
 11
-1.423507590734897
 21
2.710253121618573
 31
0.0
  0
LINE
  5
1B4
330
194
100
AcDbEntity
  8
AM_4
100
AcDbLine
 10
-1.185867409265102
 20
2.710253121618573
 30
0.0
 11
-1.1996875
 21
2.7425
 31
0.0
  0
LINE
  5
1B5
330
194
100
AcDbEntity
  8
AM_4
100
AcDbLine
 10
-1.4096875
 20
2.7725
 30
0.0
 11
-1.1996875
 21
2.7725
 31
0.0
  0
LINE
  5
1B6
330
194
100
AcDbEntity
  8
AM_4
100
AcDbLine
 10
-1.1996875
 20
2.7725
 30
0.0
 11
-1.1696875
 21
2.8325
 31
0.0
  0
LINE
  5
1B7
330
194
100
AcDbEntity
  8
AM_4
100
AcDbLine
 10
-1.4396875
 20
2.8325
 30
0.0
 11
-1.4096875
 21
2.7725
 31
0.0
  0
LINE
  5
1B8
330
194
100
AcDbEntity
  8
AM_4
100
AcDbLine
 10
-1.407365401933187
 20
2.9125
 30
0.0
 11
-1.202009598066812
 21
2.9125
 31
0.0
  0
LINE
  5
1B9
330
194
100
AcDbEntity
  8
AM_4
100
AcDbLine
 10
-1.4396875
 20
2.8325
 30
0.0
 11
-1.1696875
 21
2.8325
 31
0.0
  0
LINE
  5
1BA
330
194
100
AcDbEntity
  8
AM_4
100
AcDbLine
 10
-1.407365401933187
 20
2.9125
 30
0.0
 11
-1.4396875
 21
2.8325
 31
0.0
  0
LINE
  5
1BB
330
194
100
AcDbEntity
  8
AM_4
100
AcDbLine
 10
-1.1696875
 20
2.8325
 30
0.0
 11
-1.202009598066812
 21
2.9125
 31
0.0
  0
LINE
  5
1BC
330
194
100
AcDbEntity
  8
AM_4
100
AcDbLine
 10
-1.423507590734897
 20
2.710253121618573
 30
0.0
 11
-1.185867409265102
 21
2.710253121618573
 31
0.0
  0
LINE
  5
1BD
330
194
100
AcDbEntity
  8
AM_4
100
AcDbLine
 10
-1.423507590734897
 20
2.710253121618573
 30
0.0
 11
-1.477221553283015
 21
2.655818198540882
 31
0.0
  0
LINE
  5
1BE
330
194
100
AcDbEntity
  8
AM_4
100
AcDbLine
 10
-1.132153446716984
 20
2.655818198540882
 30
0.0
 11
-1.185867409265102
 21
2.710253121618573
 31
0.0
  0
LINE
  5
1BF
330
194
100
AcDbEntity
  8
AM_4
100
AcDbLine
 10
-1.477221553283015
 20
2.655818198540882
 30
0.0
 11
-1.132153446716984
 21
2.655818198540882
 31
0.0
  0
LINE
  5
1C0
330
194
100
AcDbEntity
  8
AM_4
100
AcDbLine
 10
-1.477221553283015
 20
2.655818198540882
 30
0.0
 11
-1.5184375
 21
2.6375
 31
0.0
  0
LINE
  5
1C1
330
194
100
AcDbEntity
  8
AM_4
100
AcDbLine
 10
-1.0909375
 20
2.6375
 30
0.0
 11
-1.132153446716984
 21
2.655818198540882
 31
0.0
  0
LINE
  5
1C2
330
194
100
AcDbEntity
  8
AM_4
100
AcDbLine
 10
-1.052096757229539
 20
2.628432400303386
 30
0.0
 11
-1.052096757229539
 21
2.546567599696615
 31
0.0
  0
LWPOLYLINE
  5
1C3
330
194
100
AcDbEntity
  8
AM_4
100
AcDbPolyline
 90
        4
 70
     0
 43
0.0
 10
-1.115244442922154
 20
2.6375
 10
-1.099457521499
 20
2.636892585996001
 10
-1.067854440458352
 20
2.632234656844687
 10
-1.052096757229539
 20
2.628432400303386
  0
LWPOLYLINE
  5
1C4
330
194
100
AcDbEntity
  8
AM_4
100
AcDbPolyline
 90
        4
 70
     0
 43
0.0
 10
-1.052096757229539
 20
2.546567599696615
 10
-1.075655587283173
 20
2.541221412808832
 10
-1.099364424397847
 20
2.538114561814227
 10
-1.115244442922154
 20
2.5375
  0
LWPOLYLINE
  5
1C5
330
194
100
AcDbEntity
  8
AM_4
100
AcDbPolyline
 90
        4
 70
     0
 43
0.0
 10
-1.557278242770461
 20
2.628432400303386
 10
-1.533719412716827
 20
2.633778587191168
 10
-1.510010575602153
 20
2.636885438185772
 10
-1.494130557077846
 20
2.6375
  0
LINE
  5
1C6
330
194
100
AcDbEntity
  8
AM_4
100
AcDbLine
 10
-1.557278242770461
 20
2.628432400303386
 30
0.0
 11
-1.557278242770461
 21
2.546567599696615
 31
0.0
  0
LWPOLYLINE
  5
1C7
330
194
100
AcDbEntity
  8
AM_4
100
AcDbPolyline
 90
        4
 70
     0
 43
0.0
 10
-1.494130557077846
 20
2.5375
 10
-1.509917478501
 20
2.538107414003999
 10
-1.525728153240078
 20
2.539896912501074
 10
-1.557278242770461
 20
2.546567599696615
  0
LWPOLYLINE
  5
1C8
330
194
100
AcDbEntity
  8
AM_4
100
AcDbPolyline
 90
        4
 70
     0
 43
0.0
 10
-1.430982871385231
 20
2.546567599696615
 10
-1.454541701438865
 20
2.541221412808832
 10
-1.478250538553539
 20
2.538114561814227
 10
-1.494130557077846
 20
2.5375
  0
LWPOLYLINE
  5
1C9
330
194
100
AcDbEntity
  8
AM_4
100
AcDbPolyline
 90
        4
 70
     0
 43
0.0
 10
-1.494130557077846
 20
2.6375
 10
-1.478343635654692
 20
2.636892585996001
 10
-1.462532960915613
 20
2.635103087498925
 10
-1.430982871385231
 20
2.628432400303386
  0
LWPOLYLINE
  5
1CA
330
194
100
AcDbEntity
  8
AM_4
100
AcDbPolyline
 90
        4
 70
     0
 43
0.0
 10
-1.115244442922154
 20
2.5375
 10
-1.131031364345308
 20
2.538107414003999
 10
-1.146842039084386
 20
2.539896912501074
 10
-1.178392128614769
 20
2.546567599696615
  0
LWPOLYLINE
  5
1CB
330
194
100
AcDbEntity
  8
AM_4
100
AcDbPolyline
 90
        4
 70
     0
 43
0.0
 10
-1.178392128614769
 20
2.628432400303386
 10
-1.154833298561135
 20
2.633778587191168
 10
-1.131124461446461
 20
2.636885438185772
 10
-1.115244442922154
 20
2.6375
  0
LINE
  5
1CC
330
194
100
AcDbEntity
  8
AM_4
100
AcDbLine
 10
-1.178392128614769
 20
2.628432400303386
 30
0.0
 11
-1.178392128614769
 21
2.546567599696615
 31
0.0
  0
LWPOLYLINE
  5
1CD
330
194
100
AcDbEntity
  8
AM_4
100
AcDbPolyline
 90
        4
 70
     0
 43
0.0
 10
-1.3046875
 20
2.6375
 10
-1.256287683944101
 20
2.636082439282863
 10
-1.207887867888202
 20
2.632017587482156
 10
-1.178392128614769
 20
2.628432400303386
  0
LWPOLYLINE
  5
1CE
330
194
100
AcDbEntity
  8
AM_4
100
AcDbPolyline
 90
        5
 70
     0
 43
0.0
 10
-1.430982871385231
 20
2.628432400303386
 10
-1.399612654415046
 20
2.632219184458392
 10
-1.368119114691437
 20
2.63508547505038
 10
-1.336447537048614
 20
2.636885438185772
 10
-1.3046875
 20
2.6375
  0
LINE
  5
1CF
330
194
100
AcDbEntity
  8
AM_4
100
AcDbLine
 10
-1.430982871385231
 20
2.628432400303386
 30
0.0
 11
-1.430982871385231
 21
2.546567599696615
 31
0.0
  0
LWPOLYLINE
  5
1D0
330
194
100
AcDbEntity
  8
AM_4
100
AcDbPolyline
 90
        5
 70
     0
 43
0.0
 10
-1.3046875
 20
2.5375
 10
-1.336261342846308
 20
2.538107414003999
 10
-1.367835185692615
 20
2.539893380785035
 10
-1.399443784056983
 20
2.542762816495164
 10
-1.430982871385231
 20
2.546567599696615
  0
LWPOLYLINE
  5
1D1
330
194
100
AcDbEntity
  8
AM_4
100
AcDbPolyline
 90
        4
 70
     0
 43
0.0
 10
-1.178392128614769
 20
2.546567599696615
 10
-1.207887867888202
 20
2.542982412517844
 10
-1.256145058752246
 20
2.538925828243072
 10
-1.3046875
 20
2.5375
  0
ENDBLK
  5
197
330
194
100
AcDbEntity
  8
0
100
AcDbBlockEnd
  0
BLOCK
  5
1D4
330
1D2
100
AcDbEntity
  8
0
100
AcDbBlockBegin
  2
7_069664H_0_in_069664_2
 70
     2
 10
0.0
 20
0.0
 30
0.0
  3
7_069664H_0_in_069664_2
  1

  0
ATTDEF
  5
1D6
330
1D2
100
AcDbEntity
  8
AM_6
100
AcDbText
 10
5.1074609375
 20
3.84375
 30
0.0
 40
0.5
  1
F3&4R-IP -(Labyrinth Seal)-Housing -Inch
100
AcDbAttributeDefinition
  3

  2
NN
 70
     8
280
     0
  0
ATTDEF
  5
1D7
330
1D2
100
AcDbEntity
  8
AM_6
100
AcDbText
 10
5.1074609375
 20
3.34375
 30
0.0
 40
0.5
  1
Imperial 3 & 4 Bolt Round Flange Bearings
100
AcDbAttributeDefinition
  3

  2
NT
 70
     8
280
     0
  0
ATTDEF
  5
1D8
330
1D2
100
AcDbEntity
  8
AM_6
100
AcDbText
 10
5.1074609375
 20
2.84375
 30
0.0
 40
0.5
  1
069664H
100
AcDbAttributeDefinition
  3

  2
NB
 70
     8
280
     0
  0
ATTDEF
  5
1D9
330
1D2
100
AcDbEntity
  8
AM_6
100
AcDbText
 10
5.1074609375
 20
2.34375
 30
0.0
 40
0.5
  1
$PN.H
100
AcDbAttributeDefinition
  3

  2
NBSYN
 70
     8
280
     0
  0
ATTDEF
  5
1DA
330
1D2
100
AcDbEntity
  8
AM_6
100
AcDbText
 10
5.1074609375
 20
1.84375
 30
0.0
 40
0.5
  1
069664
100
AcDbAttributeDefinition
  3

  2
LINA
 70
     8
280
     0
  0
ATTDEF
  5
1DB
330
1D2
100
AcDbEntity
  8
AM_6
100
AcDbText
 10
5.1074609375
 20
1.34375
 30
0.0
 40
0.5
  1
2-1/4
100
AcDbAttributeDefinition
  3

  2
SS
 70
     8
280
     0
  0
ATTDEF
  5
1DC
330
1D2
100
AcDbEntity
  8
AM_6
100
AcDbText
 10
5.1074609375
 20
0.84375
 30
0.0
 40
0.5
  1
069664
100
AcDbAttributeDefinition
  3

  2
PN
 70
     8
280
     0
  0
ATTDEF
  5
1DD
330
1D2
100
AcDbEntity
  8
AM_6
100
AcDbText
 10
5.1074609375
 20
0.34375
 30
0.0
 40
0.5
  1
F4R-IP-204L
100
AcDbAttributeDefinition
  3

  2
DESCRIPTION
 70
     8
280
     0
  0
ATTDEF
  5
1DE
330
1D2
100
AcDbEntity
  8
AM_6
100
AcDbText
 10
5.1074609375
 20
-0.15625
 30
0.0
 40
0.5
  1
Non-Expansion Type
100
AcDbAttributeDefinition
  3

  2
EF
 70
     8
280
     0
  0
ATTDEF
  5
1DF
330
1D2
100
AcDbEntity
  8
AM_6
100
AcDbText
 10
5.1074609375
 20
-0.65625
 30
0.0
 40
0.5
  1
Labyrinth Seal
100
AcDbAttributeDefinition
  3

  2
ST
 70
     8
280
     0
  0
ATTDEF
  5
1E0
330
1D2
100
AcDbEntity
  8
AM_6
100
AcDbText
 10
5.1074609375
 20
-1.15625
 30
0.0
 40
0.5
  1
3-1/32
100
AcDbAttributeDefinition
  3

  2
A
 70
     8
280
     0
  0
ATTDEF
  5
1E1
330
1D2
100
AcDbEntity
  8
AM_6
100
AcDbText
 10
5.1074609375
 20
-1.65625
 30
0.0
 40
0.5
  1
7-3/8
100
AcDbAttributeDefinition
  3

  2
B
 70
     8
280
     0
  0
ATTDEF
  5
1E2
330
1D2
100
AcDbEntity
  8
AM_6
100
AcDbText
 10
5.1074609375
 20
-2.15625
 30
0.0
 40
0.5
  1
3-11/32
100
AcDbAttributeDefinition
  3

  2
C
 70
     8
280
     0
  0
ATTDEF
  5
1E3
330
1D2
100
AcDbEntity
  8
AM_6
100
AcDbText
 10
5.1074609375
 20
-2.65625
 30
0.0
 40
0.5
  1
4-1/2
100
AcDbAttributeDefinition
  3

  2
D
 70
     8
280
     0
  0
ATTDEF
  5
1E4
330
1D2
100
AcDbEntity
  8
AM_6
100
AcDbText
 10
5.1074609375
 20
-3.15625
 30
0.0
 40
0.5
  1
6-3/8
100
AcDbAttributeDefinition
  3

  2
DD
 70
     8
280
     0
  0
ATTDEF
  5
1E5
330
1D2
100
AcDbEntity
  8
AM_6
100
AcDbText
 10
5.1074609375
 20
-3.65625
 30
0.0
 40
0.5
  1
2-3/64
100
AcDbAttributeDefinition
  3

  2
E
 70
     8
280
     0
  0
ATTDEF
  5
1E6
330
1D2
100
AcDbEntity
  8
AM_6
100
AcDbText
 10
5.1074609375
 20
-4.15625
 30
0.0
 40
0.5
  1
5/8
100
AcDbAttributeDefinition
  3

  2
F
 70
     8
280
     0
  0
ATTDEF
  5
1E7
330
1D2
100
AcDbEntity
  8
AM_6
100
AcDbText
 10
5.1074609375
 20
-4.65625
 30
0.0
 40
0.5
  1
9/16
100
AcDbAttributeDefinition
  3

  2
H
 70
     8
280
     0
  0
ATTDEF
  5
1E8
330
1D2
100
AcDbEntity
  8
AM_6
100
AcDbText
 10
5.1074609375
 20
-5.15625
 30
0.0
 40
0.5
  1
4-7/8
100
AcDbAttributeDefinition
  3

  2
J
 70
     8
280
     0
  0
ATTDEF
  5
1E9
330
1D2
100
AcDbEntity
  8
AM_6
100
AcDbText
 10
5.1074609375
 20
-5.65625
 30
0.0
 40
0.5
  1
3-1/2
100
AcDbAttributeDefinition
  3

  2
L
 70
     8
280
     0
  0
ATTDEF
  5
1EA
330
1D2
100
AcDbEntity
  8
AM_6
100
AcDbText
 10
5.1074609375
 20
-6.15625
 30
0.0
 40
0.5
  1
5/16
100
AcDbAttributeDefinition
  3

  2
P
 70
     8
280
     0
  0
ATTDEF
  5
1EB
330
1D2
100
AcDbEntity
  8
AM_6
100
AcDbText
 10
5.1074609375
 20
-6.65625
 30
0.0
 40
0.5
  1
1/4
100
AcDbAttributeDefinition
  3

  2
X
 70
     8
280
     0
  0
ATTDEF
  5
1EC
330
1D2
100
AcDbEntity
  8
AM_6
100
AcDbText
 10
5.1074609375
 20
-7.15625
 30
0.0
 40
0.5
  1
0.025
100
AcDbAttributeDefinition
  3

  2
Y
 70
     8
280
     0
  0
ATTDEF
  5
1ED
330
1D2
100
AcDbEntity
  8
AM_6
100
AcDbText
 10
5.1074609375
 20
-7.65625
 30
0.0
 40
0.5
  1
2-19/32
100
AcDbAttributeDefinition
  3

  2
Z
 70
     8
280
     0
  0
ATTDEF
  5
1EE
330
1D2
100
AcDbEntity
  8
AM_6
100
AcDbText
 10
5.1074609375
 20
-8.15625
 30
0.0
 40
0.5
  1
baldor
100
AcDbAttributeDefinition
  3

  2
COMPANY
 70
     8
280
     0
  0
LINE
  5
1EF
330
1D2
100
AcDbEntity
  8
AM_9
100
AcDbLine
 10
-0.50625
 20
3.53125
 30
0.0
 11
0.0
 21
3.53125
 31
0.0
  0
LINE
  5
1F0
330
1D2
100
AcDbEntity
  8
AM_9
100
AcDbLine
 10
-0.50625
 20
2.284160005224516
 30
0.0
 11
-0.5624999999999999
 21
2.284160005224516
 31
0.0
  0
LINE
  5
1F1
330
1D2
100
AcDbEntity
  8
AM_9
100
AcDbLine
 10
-0.5624999999999999
 20
2.263814610207028
 30
0.0
 11
-0.50625
 21
2.263814610207028
 31
0.0
  0
LINE
  5
1F2
330
1D2
100
AcDbEntity
  8
AM_9
100
AcDbLine
 10
-0.50625
 20
-2.284160005224516
 30
0.0
 11
-0.5624999999999999
 21
-2.284160005224516
 31
0.0
  0
LINE
  5
1F3
330
1D2
100
AcDbEntity
  8
AM_9
100
AcDbLine
 10
-0.50625
 20
-2.263814610207028
 30
0.0
 11
-0.5624999999999999
 21
-2.263814610207028
 31
0.0
  0
LINE
  5
1F4
330
1D2
100
AcDbEntity
  8
AM_9
100
AcDbLine
 10
-0.50625
 20
-2.271477200933189
 30
0.0
 11
-0.5624999999999999
 21
-2.271477200933189
 31
0.0
  0
LINE
  5
1F5
330
1D2
100
AcDbEntity
  8
AM_9
100
AcDbLine
 10
-0.5624999999999999
 20
-2.4375
 30
0.0
 11
-0.50625
 21
-2.4375
 31
0.0
  0
LINE
  5
1F6
330
1D2
100
AcDbEntity
  8
AM_9
100
AcDbLine
 10
-0.50625
 20
2.271477200933188
 30
0.0
 11
-0.5624999999999999
 21
2.271477200933188
 31
0.0
  0
LINE
  5
1F7
330
1D2
100
AcDbEntity
  8
AM_9
100
AcDbLine
 10
-0.50625
 20
2.4375
 30
0.0
 11
-0.5624999999999999
 21
2.4375
 31
0.0
  0
LINE
  5
1F8
330
1D2
100
AcDbEntity
  8
AM_9
100
AcDbLine
 10
-2.046875
 20
-1.9685
 30
0.0
 11
-0.05625
 21
-1.9685
 31
0.0
  0
LINE
  5
1F9
330
1D2
100
AcDbEntity
  8
AM_9
100
AcDbLine
 10
-0.05625
 20
1.9685
 30
0.0
 11
-2.046875
 21
1.9685
 31
0.0
  0
LINE
  5
1FA
330
1D2
100
AcDbEntity
  8
AM_9
100
AcDbLine
 10
-0.05625
 20
-2.321428571428571
 30
0.0
 11
0.0
 21
-2.321428571428571
 31
0.0
  0
LINE
  5
1FB
330
1D2
100
AcDbEntity
  8
AM_9
100
AcDbLine
 10
0.0
 20
2.321428571428571
 30
0.0
 11
-0.05625
 21
2.321428571428571
 31
0.0
  0
LINE
  5
1FC
330
1D2
100
AcDbEntity
  8
AM_9
100
AcDbLine
 10
-0.05625
 20
2.321428571428571
 30
0.0
 11
-0.05625
 21
-2.321428571428571
 31
0.0
  0
LINE
  5
1FD
330
1D2
100
AcDbEntity
  8
AM_9
100
AcDbLine
 10
-0.5624999999999999
 20
-2.56640286503212
 30
0.0
 11
0.0000000000000001
 21
-2.56640286503212
 31
0.0
  0
LINE
  5
1FE
330
1D2
100
AcDbEntity
  8
AM_9
100
AcDbLine
 10
0.0000000000000001
 20
-1.94140286503212
 30
0.0
 11
-0.5624999999999999
 21
-1.94140286503212
 31
0.0
  0
LINE
  5
1FF
330
1D2
100
AcDbEntity
  8
AM_9
100
AcDbLine
 10
-0.5624999999999999
 20
1.94140286503212
 30
0.0
 11
0.0000000000000001
 21
1.94140286503212
 31
0.0
  0
LINE
  5
200
330
1D2
100
AcDbEntity
  8
AM_9
100
AcDbLine
 10
0.0000000000000001
 20
2.56640286503212
 30
0.0
 11
-0.5624999999999999
 21
2.56640286503212
 31
0.0
  0
LINE
  5
201
330
1D2
100
AcDbEntity
  8
AM_7
100
AcDbLine
 10
0.0295312499999999
 20
2.25390286503212
 30
0.0
 11
-0.6201562500000002
 21
2.25390286503212
 31
0.0
  0
LINE
  5
202
330
1D2
100
AcDbEntity
  8
AM_7
100
AcDbLine
 10
0.0295312499999999
 20
-2.25390286503212
 30
0.0
 11
-0.6201562500000002
 21
-2.25390286503212
 31
0.0
  0
LINE
  5
203
330
1D2
100
AcDbEntity
  8
AM_7
100
AcDbLine
 10
0.02953125
 20
3.84375
 30
0.0
 11
-0.6201562500000001
 21
3.84375
 31
0.0
  0
LINE
  5
204
330
1D2
100
AcDbEntity
  8
AM_7
100
AcDbLine
 10
-1.3046875
 20
2.9445
 30
0.0
 11
-1.3046875
 21
2.0125
 31
0.0
  0
LINE
  5
205
330
1D2
100
AcDbEntity
  8
AM_7
100
AcDbLine
 10
-3.4965625
 20
0.0
 30
0.0
 11
0.1074609375
 21
0.0
 31
0.0
  0
LINE
  5
206
330
1D2
100
AcDbEntity
  8
AM_4
100
AcDbLine
 10
-1.7046875
 20
2.5375
 30
0.0
 11
-0.9046875002462611
 21
2.5375
 31
0.0
  0
ARC
  5
207
330
1D2
100
AcDbEntity
  8
AM_4
100
AcDbCircle
 10
-0.9046874999999999
 20
2.4375
 30
0.0
 40
0.1000000000000001
100
AcDbArc
 50
0.0
 51
90.0
  0
ARC
  5
208
330
1D2
100
AcDbEntity
  8
AM_4
100
AcDbCircle
 10
-1.7046875
 20
2.4375
 30
0.0
 40
0.1000000000000001
100
AcDbArc
 50
90.0
 51
180.0
  0
LINE
  5
209
330
1D2
100
AcDbEntity
  8
AM_4
100
AcDbLine
 10
-1.8046875
 20
2.4375
 30
0.0
 11
-0.8046874999999998
 21
2.4375
 31
0.0
  0
LINE
  5
20A
330
1D2
100
AcDbEntity
  8
AM_4
100
AcDbLine
 10
-1.990624999999999
 20
-2.4375
 30
0.0
 11
-0.5624999999999999
 21
-2.4375
 31
0.0
  0
LWPOLYLINE
  5
20B
330
1D2
100
AcDbEntity
  8
AM_4
100
AcDbPolyline
 90
       38
 70
     0
 43
0.0
 10
-1.8046875
 20
2.4375
 10
-1.802997780221672
 20
2.437153406408131
 10
-1.79795406799833
 20
2.436127697208184
 10
-1.789287403727162
 20
2.43438715734538
 10
-1.777178376546209
 20
2.43200614275939
 10
-1.762200695315512
 20
2.429140416993914
 10
-1.744173671823771
 20
2.425810038981683
 10
-1.72257878725735
 20
2.421990703849386
 10
-1.698049157097058
 20
2.417879162256489
 10
-1.671183883526126
 20
2.413654228612704
 10
-1.641817950181331
 20
2.40936987414541
 10
-1.609201277053245
 20
2.40502337821128
 10
-1.574367837866961
 20
2.40086104025869
 10
-1.538266528873663
 20
2.397075155371073
 10
-1.50050527181332
 20
2.393689798148025
 10
-1.460146901933234
 20
2.390727887581445
 10
-1.418598556773289
 20
2.388384805439695
 10
-1.377986722779708
 20
2.386793868388781
 10
-1.336854377371125
 20
2.385883684926783
 10
-1.294249368121998
 20
2.385691138825
 10
-1.25172326094272
 20
2.38625469315807
 10
-1.211441113208699
 20
2.387489594639753
 10
-1.171799649666702
 20
2.389365068541474
 10
-1.131975168897327
 20
2.391911535187202
 10
-1.093390408100788
 20
2.395005785179874
 10
-1.057063716530719
 20
2.398484330974765
 10
-1.022416132701409
 20
2.402307926723095
 10
-0.9887885740713153
 20
2.406491334153424
 10
-0.957394725123144
 20
2.410812834187189
 10
-0.928706637854033
 20
2.415112530247787
 10
-0.9026092190000744
 20
2.419312545755892
 10
-0.8786559832523403
 20
2.423408429811436
 10
-0.8578081173949598
 20
2.427160364005119
 10
-0.8406655943607998
 20
2.43037463360447
 10
-0.8267390156562895
 20
2.433072338358736
 10
-0.8158800444678559
 20
2.435228147375842
 10
-0.808635567551278
 20
2.436693203849453
 10
-0.8046874999999998
 20
2.4375
  0
LINE
  5
20C
330
1D2
100
AcDbEntity
  8
AM_4
100
AcDbLine
 10
-0.5624999999999999
 20
2.4375
 30
0.0
 11
-0.8046874999999998
 21
2.4375
 31
0.0
  0
LINE
  5
20D
330
1D2
100
AcDbEntity
  8
AM_4
100
AcDbLine
 10
-1.8046875
 20
2.4375
 30
0.0
 11
-1.990624999999999
 21
2.4375
 31
0.0
  0
LINE
  5
20E
330
1D2
100
AcDbEntity
  8
AM_4
100
AcDbLine
 10
-1.990624999999999
 20
-2.065789256615215
 30
0.0
 11
-0.5625
 21
-2.065789256615215
 31
0.0
  0
LINE
  5
20F
330
1D2
100
AcDbEntity
  8
AM_4
100
AcDbLine
 10
-1.990624999999999
 20
2.065789256615215
 30
0.0
 11
-0.5624999999999999
 21
2.065789256615215
 31
0.0
  0
LWPOLYLINE
  5
210
330
1D2
100
AcDbEntity
  8
AM_4
100
AcDbPolyline
 90
        3
 70
     0
 43
0.0
 10
-1.990624999999999
 20
2.065789256615215
 10
-1.990840497231813
 20
2.065679934005833
 10
-2.012700996667863
 20
2.050764907463966
  0
LINE
  5
211
330
1D2
100
AcDbEntity
  8
AM_4
100
AcDbLine
 10
-2.046875
 20
2.381250000000001
 30
0.0
 11
-2.046875
 21
-2.381250000000001
 31
0.0
  0
ARC
  5
212
330
1D2
100
AcDbEntity
  8
AM_4
100
AcDbCircle
 10
-1.990625
 20
2.381249999999999
 30
0.0
 40
0.0562500000000008
100
AcDbArc
 50
90.0
 51
180.0
  0
LINE
  5
213
330
1D2
100
AcDbEntity
  8
AM_4
100
AcDbLine
 10
-1.990624999999999
 20
2.4375
 30
0.0
 11
-1.990624999999999
 21
2.065789256615215
 31
0.0
  0
LWPOLYLINE
  5
214
330
1D2
100
AcDbEntity
  8
AM_4
100
AcDbPolyline
 90
        3
 70
     0
 43
0.0
 10
-2.01270099226984
 20
-2.050764911283361
 10
-1.990840497231862
 20
-2.065679934005861
 10
-1.990624999999999
 20
-2.065789256615215
  0
LINE
  5
215
330
1D2
100
AcDbEntity
  8
AM_4
100
AcDbLine
 10
-1.990624999999999
 20
-2.065789256615215
 30
0.0
 11
-1.990624999999999
 21
-2.4375
 31
0.0
  0
ARC
  5
216
330
1D2
100
AcDbEntity
  8
AM_4
100
AcDbCircle
 10
-1.990625
 20
-2.381249999999999
 30
0.0
 40
0.0562500000000004
100
AcDbArc
 50
180.0
 51
270.0
  0
LWPOLYLINE
  5
217
330
1D2
100
AcDbEntity
  8
AM_4
100
AcDbPolyline
 90
        6
 70
     0
 43
0.0
 10
-2.01270099226984
 20
-2.050764911283361
 10
-2.021424453501935
 20
-2.041220458309651
 10
-2.028069288973953
 20
-2.030541246250859
 10
-2.038536283117936
 20
-2.003468827241543
 10
-2.044242588544664
 20
-1.974908359702341
 10
-2.046875
 20
-1.932634169072467
  0
LINE
  5
218
330
1D2
100
AcDbEntity
  8
AM_4
100
AcDbLine
 10
-2.01270099226984
 20
-2.050764911283361
 30
0.0
 11
-0.5624999999999999
 21
-2.050764911283361
 31
0.0
  0
LINE
  5
219
330
1D2
100
AcDbEntity
  8
AM_4
100
AcDbLine
 10
-2.012700996667863
 20
2.050764907463966
 30
0.0
 11
-0.5624999999999999
 21
2.050764907463966
 31
0.0
  0
LWPOLYLINE
  5
21A
330
1D2
100
AcDbEntity
  8
AM_4
100
AcDbPolyline
 90
        8
 70
     0
 43
0.0
 10
-2.046875
 20
1.932634169072468
 10
-2.046350933674048
 20
1.952224041099476
 10
-2.043993351721194
 20
1.976847662056922
 10
-2.039094065362484
 20
2.001403965302719
 10
-2.033958305217077
 20
2.017544384163057
 10
-2.026634568998424
 20
2.033145405143633
 10
-2.020503473661533
 20
2.042426494413158
 10
-2.012700996667863
 20
2.050764907463966
  0
LINE
  5
21B
330
1D2
100
AcDbEntity
  8
AM_4
100
AcDbLine
 10
-2.012700996667863
 20
-1.30911757851298
 30
0.0
 11
-0.5624999999999999
 21
-1.30911757851298
 31
0.0
  0
LINE
  5
21C
330
1D2
100
AcDbEntity
  8
AM_4
100
AcDbLine
 10
-2.012700992269839
 20
1.3091175760172
 30
0.0
 11
-0.5624999999999999
 21
1.3091175760172
 31
0.0
  0
LINE
  5
21D
330
1D2
100
AcDbEntity
  8
AM_4
100
AcDbLine
 10
-0.5062499999999999
 20
0.8841931777845432
 30
0.0
 11
-0.5624999999999999
 21
0.8841931777845432
 31
0.0
  0
LINE
  5
21E
330
1D2
100
AcDbEntity
  8
AM_4
100
AcDbLine
 10
-1.990624999999999
 20
1.293800988271827
 30
0.0
 11
-0.5624999999999999
 21
1.293800988271827
 31
0.0
  0
LINE
  5
21F
330
1D2
100
AcDbEntity
  8
AM_4
100
AcDbLine
 10
-1.990624999999999
 20
-1.293800988271828
 30
0.0
 11
-0.5624999999999999
 21
-1.293800988271828
 31
0.0
  0
LINE
  5
220
330
1D2
100
AcDbEntity
  8
AM_4
100
AcDbLine
 10
-0.5062499999999999
 20
-0.8841931777845435
 30
0.0
 11
-0.5624999999999999
 21
-0.8841931777845435
 31
0.0
  0
LWPOLYLINE
  5
221
330
1D2
100
AcDbEntity
  8
AM_4
100
AcDbPolyline
 90
        3
 70
     0
 43
0.0
 10
-2.012700992269839
 20
1.3091175760172
 10
-1.990840497231859
 20
1.293974747774935
 10
-1.990624999999999
 20
1.293800988271828
  0
LWPOLYLINE
  5
222
330
1D2
100
AcDbEntity
  8
AM_4
100
AcDbPolyline
 90
        6
 70
     0
 43
0.0
 10
-2.012700992269839
 20
1.3091175760172
 10
-2.02128983626729
 20
1.315289371943776
 10
-2.028069288973953
 20
1.32246991498339
 10
-2.038536283117937
 20
1.340779990788007
 10
-2.044242588544664
 20
1.360650799446373
 10
-2.046875
 20
1.391142239684199
  0
LWPOLYLINE
  5
223
330
1D2
100
AcDbEntity
  8
AM_4
100
AcDbPolyline
 90
        8
 70
     0
 43
0.0
 10
-2.046875
 20
-1.391142239684202
 10
-2.046350933674064
 20
-1.376849494997167
 10
-2.043987780153432
 20
-1.359347385933152
 10
-2.039094065362538
 20
-1.342197341156715
 10
-2.033978498724119
 20
-1.331271398815394
 10
-2.026634568998494
 20
-1.320735085085402
 10
-2.020579100569142
 20
-1.31466956184617
 10
-2.012700996667863
 20
-1.30911757851298
  0
LWPOLYLINE
  5
224
330
1D2
100
AcDbEntity
  8
AM_4
100
AcDbPolyline
 90
        3
 70
     0
 43
0.0
 10
-1.990624999999999
 20
-1.293800988271828
 10
-1.990840497231791
 20
-1.293974747774993
 10
-2.012700996667863
 20
-1.30911757851298
  0
LINE
  5
225
330
1D2
100
AcDbEntity
  8
AM_4
100
AcDbLine
 10
-1.990624999999999
 20
1.293800988271827
 30
0.0
 11
-1.990624999999999
 21
-1.293800988271828
 31
0.0
  0
LINE
  5
226
330
1D2
100
AcDbEntity
  8
AM_4
100
AcDbLine
 10
-0.5624999999999999
 20
-0.8841931777845435
 30
0.0
 11
-0.5624999999999999
 21
-3.011747962897832
 31
0.0
  0
LWPOLYLINE
  5
227
330
1D2
100
AcDbEntity
  8
AM_4
100
AcDbPolyline
 90
        7
 70
     0
 43
0.0
 10
-0.5624999999999999
 20
-3.011747962897832
 10
-0.562397588258874
 20
-3.013832791098747
 10
-0.5575582662479242
 20
-3.02590935495882
 10
-0.5459450122925589
 20
-3.036220231351292
 10
-0.5296173012924394
 20
-3.043159465518965
 10
-0.5113947154028469
 20
-3.046132101778861
 10
-0.5062499999999999
 20
-3.046276665682107
  0
LINE
  5
228
330
1D2
100
AcDbEntity
  8
AM_4
100
AcDbLine
 10
-0.5062499999999999
 20
-0.9895294427717847
 30
0.0
 11
-0.5624999999999999
 21
-0.9895294427717847
 31
0.0
  0
LWPOLYLINE
  5
229
330
1D2
100
AcDbEntity
  8
AM_4
100
AcDbPolyline
 90
        6
 70
     0
 43
0.0
 10
-0.5062499999999996
 20
-2.077944832309249
 10
-0.523963726039198
 20
-2.075438536398508
 10
-0.5396764338102342
 20
-2.068302195233783
 10
-0.5521440247536465
 20
-2.057158494560204
 10
-0.5602204347400008
 20
-2.04253986830305
 10
-0.5624999999999998
 20
-2.028632734252496
  0
LWPOLYLINE
  5
22A
330
1D2
100
AcDbEntity
  8
AM_4
100
AcDbPolyline
 90
        6
 70
     0
 43
0.0
 10
-0.5062499999999999
 20
3.046276665682105
 10
-0.5239637260391982
 20
3.044521738392421
 10
-0.5396764338102343
 20
3.039524818513645
 10
-0.5521440247536464
 20
3.031721915298451
 10
-0.5602204347400009
 20
3.021485842994922
 10
-0.5624999999999999
 20
3.011747962897831
  0
LINE
  5
22B
330
1D2
100
AcDbEntity
  8
AM_4
100
AcDbLine
 10
-0.5624999999999999
 20
3.011747962897831
 30
0.0
 11
-0.5624999999999999
 21
0.8841931777845432
 31
0.0
  0
LINE
  5
22C
330
1D2
100
AcDbEntity
  8
AM_4
100
AcDbLine
 10
-0.5062499999999999
 20
0.989529442771784
 30
0.0
 11
-0.5624999999999999
 21
0.989529442771784
 31
0.0
  0
LWPOLYLINE
  5
22D
330
1D2
100
AcDbEntity
  8
AM_4
100
AcDbPolyline
 90
        7
 70
     0
 43
0.0
 10
-0.5624999999999998
 20
2.028632734252495
 10
-0.5623975882588738
 20
2.031610177492033
 10
-0.5575582662479247
 20
2.048857298097089
 10
-0.5459450122925582
 20
2.063582755664763
 10
-0.52961730129244
 20
2.073493009109641
 10
-0.5113947154028468
 20
2.077738373658981
 10
-0.5062499999999999
 20
2.077944832309248
  0
LINE
  5
22E
330
1D2
100
AcDbEntity
  8
AM_4
100
AcDbLine
 10
-0.5062499999999999
 20
2.077944832309248
 30
0.0
 11
-0.5062499999999996
 21
-2.077944832309249
 31
0.0
  0
LINE
  5
22F
330
1D2
100
AcDbEntity
  8
AM_4
100
AcDbLine
 10
-0.50625
 20
3.677972560975609
 30
0.0
 11
0.0
 21
3.677972560975608
 31
0.0
  0
LINE
  5
230
330
1D2
100
AcDbEntity
  8
AM_4
100
AcDbLine
 10
-0.50625
 20
3.677972560975609
 30
0.0
 11
-0.5062499999999999
 21
3.046276665682105
 31
0.0
  0
LINE
  5
231
330
1D2
100
AcDbEntity
  8
AM_4
100
AcDbLine
 10
-0.5062499999999999
 20
3.046276665682105
 30
0.0
 11
-0.5062499999999999
 21
2.077944832309248
 31
0.0
  0
LINE
  5
232
330
1D2
100
AcDbEntity
  8
AM_4
100
AcDbLine
 10
-0.5062499999999996
 20
-2.077944832309249
 30
0.0
 11
-0.5062499999999999
 21
-3.046276665682107
 31
0.0
  0
LINE
  5
233
330
1D2
100
AcDbEntity
  8
AM_4
100
AcDbLine
 10
-0.5062499999999999
 20
-3.046276665682107
 30
0.0
 11
-0.5062499999999999
 21
-3.6875
 31
0.0
  0
LINE
  5
234
330
1D2
100
AcDbEntity
  8
AM_4
100
AcDbLine
 10
0.0
 20
3.677972560975608
 30
0.0
 11
0.0
 21
-3.6875
 31
0.0
  0
LINE
  5
235
330
1D2
100
AcDbEntity
  8
AM_4
100
AcDbLine
 10
-0.5062499999999999
 20
-3.6875
 30
0.0
 11
0.0
 21
-3.6875
 31
0.0
  0
ENDBLK
  5
1D5
330
1D2
100
AcDbEntity
  8
0
100
AcDbBlockEnd
  0
ENDSEC
  0
SECTION
  2
ENTITIES
  0
INSERT
  5
6F
330
1F
100
AcDbEntity
  8
0
100
AcDbBlockReference
  2
1_069664_2
 10
0.0
 20
0.0
 30
0.0
  0
POINT
  5
237
330
1F
100
AcDbEntity
  8
ConnectionPoints
100
AcDbPoint
 10
-3.16875
 20
1.060660171779821
 30
-1.060660171779821
  0
POINT
  5
238
330
1F
100
AcDbEntity
  8
ConnectionPoints
100
AcDbPoint
 10
-3.09875
 20
0.0
 30
0.0000000000000002
  0
POINT
  5
239
330
1F
100
AcDbEntity
  8
ConnectionPoints
100
AcDbPoint
 10
-3.34375
 20
0.0
 30
0.0000000000000002
  0
POINT
  5
23A
330
1F
100
AcDbEntity
  8
ConnectionPoints
100
AcDbPoint
 10
-3.29775
 20
0.0
 30
0.0000000000000002
  0
POINT
  5
23B
330
1F
100
AcDbEntity
  8
ConnectionPoints
100
AcDbPoint
 10
-3.09875
 20
1.060660171779821
 30
-1.060660171779821
  0
POINT
  5
23C
330
1F
100
AcDbEntity
  8
ConnectionPoints
100
AcDbPoint
 10
-3.24275
 20
1.060660171779821
 30
-1.060660171779821
  0
POINT
  5
23D
330
1F
100
AcDbEntity
  8
ConnectionPoints
100
AcDbPoint
 10
-3.09875
 20
-1.060660171779821
 30
1.060660171779821
  0
POINT
  5
23E
330
1F
100
AcDbEntity
  8
ConnectionPoints
100
AcDbPoint
 10
-3.24275
 20
-1.060660171779821
 30
1.060660171779821
  0
POINT
  5
23F
330
1F
100
AcDbEntity
  8
ConnectionPoints
100
AcDbPoint
 10
-3.09875
 20
0.0
 30
0.0000000000000002
  0
POINT
  5
240
330
1F
100
AcDbEntity
  8
ConnectionPoints
100
AcDbPoint
 10
-1.3046875
 20
2.5375
 30
0.0000000000000001
  0
POINT
  5
241
330
1F
100
AcDbEntity
  8
ConnectionPoints
100
AcDbPoint
 10
-1.3046875
 20
2.5375
 30
0.0000000000000001
  0
POINT
  5
242
330
1F
100
AcDbEntity
  8
ConnectionPoints
100
AcDbPoint
 10
-3.09375
 20
0.0
 30
0.0000000000000002
  0
POINT
  5
243
330
1F
100
AcDbEntity
  8
ConnectionPoints
100
AcDbPoint
 10
-3.34375
 20
0.0
 30
0.0000000000000002
  0
ENDSEC
  0
SECTION
  2
OBJECTS
  0
DICTIONARY
  5
C
330
0
100
AcDbDictionary
281
     1
  3
ACAD_DETAILVIEWSTYLE
350
24B
  3
ACAD_GROUP
350
D
  3
ACAD_LAYOUT
350
1A
  3
ACAD_MATERIAL
350
43
  3
ACAD_MLEADERSTYLE
350
6B
  3
ACAD_MLINESTYLE
350
17
  3
ACAD_PLOTSETTINGS
350
19
  3
ACAD_PLOTSTYLENAME
350
E
  3
ACAD_SCALELIST
350
47
  3
ACAD_SECTIONVIEWSTYLE
350
24C
  3
ACAD_TABLESTYLE
350
69
  3
ACAD_VISUALSTYLE
350
2A
  3
ACDB_RECOMPOSE_DATA
350
248
  3
AcDbVariableDictionary
350
244
  0
SUN
  5
6D
330
29
100
AcDbSun
 90
        1
290
     0
 63
     7
421
 16777215
 40
1.0
291
     1
 91
  2455826
 92
 54000000
292
     0
 70
     2
 71
   256
280
     1
  0
DICTIONARY
  5
24B
102
{ACAD_REACTORS
330
C
102
}
330
C
100
AcDbDictionary
281
     1
  0
DICTIONARY
  5
D
102
{ACAD_REACTORS
330
C
102
}
330
C
100
AcDbDictionary
281
     1
  0
DICTIONARY
  5
1A
102
{ACAD_REACTORS
330
C
102
}
330
C
100
AcDbDictionary
281
     1
  3
Layout1
350
1E
  3
Layout2
350
26
  3
Model
350
22
  0
DICTIONARY
  5
43
102
{ACAD_REACTORS
330
C
102
}
330
C
100
AcDbDictionary
281
     1
  3
ByBlock
350
45
  3
ByLayer
350
44
  3
Global
350
46
  0
DICTIONARY
  5
6B
102
{ACAD_REACTORS
330
C
102
}
330
C
100
AcDbDictionary
281
     1
  3
Standard
350
6C
  0
DICTIONARY
  5
17
102
{ACAD_REACTORS
330
C
102
}
330
C
100
AcDbDictionary
281
     1
  3
Standard
350
18
  0
DICTIONARY
  5
19
102
{ACAD_REACTORS
330
C
102
}
330
C
100
AcDbDictionary
281
     1
  0
ACDBDICTIONARYWDFLT
  5
E
102
{ACAD_REACTORS
330
C
102
}
330
C
100
AcDbDictionary
281
     1
  3
Normal
350
F
100
AcDbDictionaryWithDefault
340
F
  0
DICTIONARY
  5
47
102
{ACAD_REACTORS
330
C
102
}
330
C
100
AcDbDictionary
281
     1
  3
A0
350
48
  3
A1
350
49
  3
A2
350
4A
  3
A3
350
4B
  3
A4
350
4C
  3
A5
350
4D
  3
A6
350
4E
  3
A7
350
4F
  3
A8
350
50
  3
A9
350
51
  3
B0
350
52
  3
B1
350
53
  3
B2
350
54
  3
B3
350
55
  3
B4
350
56
  3
B5
350
57
  3
B6
350
58
  3
B7
350
59
  3
B8
350
5A
  3
B9
350
5B
  3
C0
350
5C
  3
C1
350
5D
  3
C2
350
5E
  3
C3
350
5F
  3
C4
350
60
  3
C5
350
61
  3
C6
350
62
  3
C7
350
63
  3
C8
350
64
  3
C9
350
65
  3
D0
350
66
  3
D1
350
67
  3
D2
350
68
  0
DICTIONARY
  5
24C
102
{ACAD_REACTORS
330
C
102
}
330
C
100
AcDbDictionary
281
     1
  0
DICTIONARY
  5
69
102
{ACAD_REACTORS
330
C
102
}
330
C
100
AcDbDictionary
281
     1
  3
Standard
350
6A
  0
DICTIONARY
  5
2A
102
{ACAD_REACTORS
330
C
102
}
330
C
100
AcDbDictionary
281
     1
  3
2dWireframe
350
2F
  3
Basic
350
32
  3
Brighten
350
36
  3
ColorChange
350
3A
  3
Conceptual
350
34
  3
Dim
350
35
  3
EdgeColorOff
350
3D
  3
Facepattern
350
39
  3
Flat
350
2B
  3
FlatWithEdges
350
2C
  3
Gouraud
350
2D
  3
GouraudWithEdges
350
2E
  3
Hidden
350
31
  3
JitterOff
350
3B
  3
Linepattern
350
38
  3
OverhangOff
350
3C
  3
Realistic
350
33
  3
Shaded
350
42
  3
Shaded with edges
350
41
  3
Shades of Gray
350
3E
  3
Sketchy
350
3F
  3
Thicken
350
37
  3
Wireframe
350
30
  3
X-Ray
350
40
  0
XRECORD
  5
248
102
{ACAD_REACTORS
330
C
102
}
330
C
100
AcDbXrecord
280
     1
 90
        1
330
6A
  0
DICTIONARY
  5
244
102
{ACAD_REACTORS
330
C
102
}
330
C
100
AcDbDictionary
281
     1
  3
CANNOSCALE
350
245
  3
CMLEADERSTYLE
350
24A
  3
CTABLESTYLE
350
249
  0
LAYOUT
  5
1E
102
{ACAD_REACTORS
330
1A
102
}
330
1A
100
AcDbPlotSettings
  1

  2
none_device
  4

  6

 40
0.0
 41
0.0
 42
0.0
 43
0.0
 44
0.0
 45
0.0
 46
0.0
 47
0.0
 48
0.0
 49
0.0
140
0.0
141
0.0
142
1.0
143
1.0
 70
   688
 72
     0
 73
     0
 74
     5
  7

 75
    16
 76
     0
 77
     2
 78
   300
147
1.0
148
0.0
149
0.0
100
AcDbLayout
  1
Layout1
 70
     1
 71
     1
 10
0.0
 20
0.0
 11
12.0
 21
9.0
 12
0.0
 22
0.0
 32
0.0
 14
1.000000000000000E+20
 24
1.000000000000000E+20
 34
1.000000000000000E+20
 15
-1.000000000000000E+20
 25
-1.000000000000000E+20
 35
-1.000000000000000E+20
146
0.0
 13
0.0
 23
0.0
 33
0.0
 16
1.0
 26
0.0
 36
0.0
 17
0.0
 27
1.0
 37
0.0
 76
     0
330
1B
  0
LAYOUT
  5
26
102
{ACAD_REACTORS
330
1A
102
}
330
1A
100
AcDbPlotSettings
  1

  2
none_device
  4

  6

 40
0.0
 41
0.0
 42
0.0
 43
0.0
 44
0.0
 45
0.0
 46
0.0
 47
0.0
 48
0.0
 49
0.0
140
0.0
141
0.0
142
1.0
143
1.0
 70
   688
 72
     0
 73
     0
 74
     5
  7

 75
    16
 76
     0
 77
     2
 78
   300
147
1.0
148
0.0
149
0.0
100
AcDbLayout
  1
Layout2
 70
     1
 71
     2
 10
0.0
 20
0.0
 11
0.0
 21
0.0
 12
0.0
 22
0.0
 32
0.0
 14
0.0
 24
0.0
 34
0.0
 15
0.0
 25
0.0
 35
0.0
146
0.0
 13
0.0
 23
0.0
 33
0.0
 16
1.0
 26
0.0
 36
0.0
 17
0.0
 27
1.0
 37
0.0
 76
     0
330
23
  0
LAYOUT
  5
22
102
{ACAD_REACTORS
330
1A
102
}
330
1A
100
AcDbPlotSettings
  1

  2
none_device
  4
Letter_(8.50_x_11.00_Inches)
  6

 40
6.35
 41
6.35
 42
6.35000508
 43
6.35000508
 44
215.9
 45
279.4
 46
0.0
 47
0.0
 48
0.0
 49
0.0
140
0.0
141
0.0
142
1.0
143
1.0
 70
  1712
 72
     0
 73
     0
 74
     0
  7

 75
     0
 76
     0
 77
     2
 78
   300
147
1.0
148
0.0
149
0.0
100
AcDbLayout
  1
Model
 70
     1
 71
     0
 10
0.0
 20
0.0
 11
12.0
 21
9.0
 12
0.0
 22
0.0
 32
0.0
 14
1.000000000000000E+20
 24
1.000000000000000E+20
 34
1.000000000000000E+20
 15
-1.000000000000000E+20
 25
-1.000000000000000E+20
 35
-1.000000000000000E+20
146
0.0
 13
0.0
 23
0.0
 33
0.0
 16
1.0
 26
0.0
 36
0.0
 17
0.0
 27
1.0
 37
0.0
 76
     0
330
1F
331
29
  0
MATERIAL
  5
45
102
{ACAD_REACTORS
330
43
102
}
330
43
100
AcDbMaterial
  1
ByBlock
 72
     1
 94
      127
  0
MATERIAL
  5
44
102
{ACAD_REACTORS
330
43
102
}
330
43
100
AcDbMaterial
  1
ByLayer
 72
     1
 94
      127
  0
MATERIAL
  5
46
102
{ACAD_REACTORS
330
43
102
}
330
43
100
AcDbMaterial
  1
Global
 72
     1
 94
      127
  0
MLEADERSTYLE
  5
6C
102
{ACAD_REACTORS
330
6B
102
}
330
6B
100
AcDbMLeaderStyle
179
     2
170
     2
171
     1
172
     0
 90
        2
 40
0.0
 41
0.0
173
     1
 91
-1056964608
340
14
 92
       -2
290
     1
 42
0.09
291
     1
 43
0.36
  3
Standard
341
0
 44
0.18
300

342
11
174
     1
178
     6
175
     1
176
     0
 93
-1056964608
 45
0.18
292
     0
297
     0
 46
0.18
343
0
 94
-1056964608
 47
1.0
 49
1.0
140
1.0
293
     1
141
0.0
294
     1
177
     0
142
1.0
295
     0
296
     0
143
0.125
271
     0
272
     9
273
     9
298
     0
  0
MLINESTYLE
  5
18
102
{ACAD_REACTORS
330
17
102
}
330
17
100
AcDbMlineStyle
  2
Standard
 70
     0
  3

 62
   256
 51
90.0
 52
90.0
 71
     2
 49
0.5
 62
   256
  6
BYLAYER
 49
-0.5
 62
   256
  6
BYLAYER
  0
ACDBPLACEHOLDER
  5
F
102
{ACAD_REACTORS
330
E
102
}
330
E
  0
SCALE
  5
48
102
{ACAD_REACTORS
330
47
102
}
330
47
100
AcDbScale
 70
     0
300
1:1
140
1.0
141
1.0
290
     1
  0
SCALE
  5
49
102
{ACAD_REACTORS
330
47
102
}
330
47
100
AcDbScale
 70
     0
300
1:2
140
1.0
141
2.0
290
     0
  0
SCALE
  5
4A
102
{ACAD_REACTORS
330
47
102
}
330
47
100
AcDbScale
 70
     0
300
1:4
140
1.0
141
4.0
290
     0
  0
SCALE
  5
4B
102
{ACAD_REACTORS
330
47
102
}
330
47
100
AcDbScale
 70
     0
300
1:5
140
1.0
141
5.0
290
     0
  0
SCALE
  5
4C
102
{ACAD_REACTORS
330
47
102
}
330
47
100
AcDbScale
 70
     0
300
1:8
140
1.0
141
8.0
290
     0
  0
SCALE
  5
4D
102
{ACAD_REACTORS
330
47
102
}
330
47
100
AcDbScale
 70
     0
300
1:10
140
1.0
141
10.0
290
     0
  0
SCALE
  5
4E
102
{ACAD_REACTORS
330
47
102
}
330
47
100
AcDbScale
 70
     0
300
1:16
140
1.0
141
16.0
290
     0
  0
SCALE
  5
4F
102
{ACAD_REACTORS
330
47
102
}
330
47
100
AcDbScale
 70
     0
300
1:20
140
1.0
141
20.0
290
     0
  0
SCALE
  5
50
102
{ACAD_REACTORS
330
47
102
}
330
47
100
AcDbScale
 70
     0
300
1:30
140
1.0
141
30.0
290
     0
  0
SCALE
  5
51
102
{ACAD_REACTORS
330
47
102
}
330
47
100
AcDbScale
 70
     0
300
1:40
140
1.0
141
40.0
290
     0
  0
SCALE
  5
52
102
{ACAD_REACTORS
330
47
102
}
330
47
100
AcDbScale
 70
     0
300
1:50
140
1.0
141
50.0
290
     0
  0
SCALE
  5
53
102
{ACAD_REACTORS
330
47
102
}
330
47
100
AcDbScale
 70
     0
300
1:100
140
1.0
141
100.0
290
     0
  0
SCALE
  5
54
102
{ACAD_REACTORS
330
47
102
}
330
47
100
AcDbScale
 70
     0
300
2:1
140
2.0
141
1.0
290
     0
  0
SCALE
  5
55
102
{ACAD_REACTORS
330
47
102
}
330
47
100
AcDbScale
 70
     0
300
4:1
140
4.0
141
1.0
290
     0
  0
SCALE
  5
56
102
{ACAD_REACTORS
330
47
102
}
330
47
100
AcDbScale
 70
     0
300
8:1
140
8.0
141
1.0
290
     0
  0
SCALE
  5
57
102
{ACAD_REACTORS
330
47
102
}
330
47
100
AcDbScale
 70
     0
300
10:1
140
10.0
141
1.0
290
     0
  0
SCALE
  5
58
102
{ACAD_REACTORS
330
47
102
}
330
47
100
AcDbScale
 70
     0
300
100:1
140
100.0
141
1.0
290
     0
  0
SCALE
  5
59
102
{ACAD_REACTORS
330
47
102
}
330
47
100
AcDbScale
 70
     0
300
1/128" = 1'-0"
140
0.0078125
141
12.0
290
     0
  0
SCALE
  5
5A
102
{ACAD_REACTORS
330
47
102
}
330
47
100
AcDbScale
 70
     0
300
1/64" = 1'-0"
140
0.015625
141
12.0
290
     0
  0
SCALE
  5
5B
102
{ACAD_REACTORS
330
47
102
}
330
47
100
AcDbScale
 70
     0
300
1/32" = 1'-0"
140
0.03125
141
12.0
290
     0
  0
SCALE
  5
5C
102
{ACAD_REACTORS
330
47
102
}
330
47
100
AcDbScale
 70
     0
300
1/16" = 1'-0"
140
0.0625
141
12.0
290
     0
  0
SCALE
  5
5D
102
{ACAD_REACTORS
330
47
102
}
330
47
100
AcDbScale
 70
     0
300
3/32" = 1'-0"
140
0.09375
141
12.0
290
     0
  0
SCALE
  5
5E
102
{ACAD_REACTORS
330
47
102
}
330
47
100
AcDbScale
 70
     0
300
1/8" = 1'-0"
140
0.125
141
12.0
290
     0
  0
SCALE
  5
5F
102
{ACAD_REACTORS
330
47
102
}
330
47
100
AcDbScale
 70
     0
300
3/16" = 1'-0"
140
0.1875
141
12.0
290
     0
  0
SCALE
  5
60
102
{ACAD_REACTORS
330
47
102
}
330
47
100
AcDbScale
 70
     0
300
1/4" = 1'-0"
140
0.25
141
12.0
290
     0
  0
SCALE
  5
61
102
{ACAD_REACTORS
330
47
102
}
330
47
100
AcDbScale
 70
     0
300
3/8" = 1'-0"
140
0.375
141
12.0
290
     0
  0
SCALE
  5
62
102
{ACAD_REACTORS
330
47
102
}
330
47
100
AcDbScale
 70
     0
300
1/2" = 1'-0"
140
0.5
141
12.0
290
     0
  0
SCALE
  5
63
102
{ACAD_REACTORS
330
47
102
}
330
47
100
AcDbScale
 70
     0
300
3/4" = 1'-0"
140
0.75
141
12.0
290
     0
  0
SCALE
  5
64
102
{ACAD_REACTORS
330
47
102
}
330
47
100
AcDbScale
 70
     0
300
1" = 1'-0"
140
1.0
141
12.0
290
     0
  0
SCALE
  5
65
102
{ACAD_REACTORS
330
47
102
}
330
47
100
AcDbScale
 70
     0
300
1-1/2" = 1'-0"
140
1.5
141
12.0
290
     0
  0
SCALE
  5
66
102
{ACAD_REACTORS
330
47
102
}
330
47
100
AcDbScale
 70
     0
300
3" = 1'-0"
140
3.0
141
12.0
290
     0
  0
SCALE
  5
67
102
{ACAD_REACTORS
330
47
102
}
330
47
100
AcDbScale
 70
     0
300
6" = 1'-0"
140
6.0
141
12.0
290
     0
  0
SCALE
  5
68
102
{ACAD_REACTORS
330
47
102
}
330
47
100
AcDbScale
 70
     0
300
1'-0" = 1'-0"
140
12.0
141
12.0
290
     0
  0
TABLESTYLE
  5
6A
102
{ACAD_REACTORS
330
69
102
}
102
{ACAD_XDICTIONARY
360
246
102
}
330
69
100
AcDbTableStyle
  3
Standard
 70
     0
 71
     0
 40
0.06
 41
0.06
280
     0
281
     0
  7
Standard
140
0.18
170
     2
 62
     0
 63
   257
283
     0
 90
        4
 91
        0
  1

274
    -2
284
     1
 64
     0
275
    -2
285
     1
 65
     0
276
    -2
286
     1
 66
     0
277
    -2
287
     1
 67
     0
278
    -2
288
     1
 68
     0
279
    -2
289
     1
 69
     0
  7
Standard
140
0.25
170
     5
 62
     0
 63
   257
283
     0
 90
        4
 91
        0
  1

274
    -2
284
     1
 64
     0
275
    -2
285
     1
 65
     0
276
    -2
286
     1
 66
     0
277
    -2
287
     1
 67
     0
278
    -2
288
     1
 68
     0
279
    -2
289
     1
 69
     0
  7
Standard
140
0.18
170
     5
 62
     0
 63
   257
283
     0
 90
        4
 91
        0
  1

274
    -2
284
     1
 64
     0
275
    -2
285
     1
 65
     0
276
    -2
286
     1
 66
     0
277
    -2
287
     1
 67
     0
278
    -2
288
     1
 68
     0
279
    -2
289
     1
 69
     0
  0
VISUALSTYLE
  5
2F
102
{ACAD_REACTORS
330
2A
102
}
330
2A
100
AcDbVisualStyle
  2
2dWireframe
 70
     4
177
     3
291
     0
 70
    58
 90
        0
176
     1
 90
        2
176
     1
 90
        0
176
     1
 90
        0
176
     1
 40
0.6
176
     1
 40
30.0
176
     1
 62
     7
420
 16777215
176
     1
 90
        1
176
     1
 90
        4
176
     1
 62
     7
176
     1
 62
   257
176
     1
 90
        1
176
     1
 90
        1
176
     1
 40
1.0
176
     1
 90
        0
176
     1
 62
   257
176
     1
 40
1.0
176
     1
 90
        1
176
     1
 90
        6
176
     1
 90
        2
176
     1
 62
     7
176
     1
 90
        5
176
     1
 90
        0
176
     1
 90
        0
176
     1
290
     0
176
     1
 90
        1
176
     1
 40
0.0
176
     1
 90
        0
176
     1
290
     1
176
     1
290
     1
176
     1
290
     0
176
     1
290
     0
176
     1
290
     0
176
     1
290
     0
176
     1
290
     0
176
     1
290
     0
176
     1
290
     0
176
     1
 90
       50
176
     1
 40
0.0
176
     1
 40
1.0
176
     1
 90
        0
176
     1
 62
    18
420
        0
176
     1
 90
       50
176
     1
 90
        3
176
     1
 62
     5
420
      255
176
     1
290
     0
176
     1
 90
       50
176
     1
 90
       50
176
     1
 90
       50
176
     1
290
     0
176
     1
 90
       50
176
     1
 62
   256
176
     0
 40
1.0
176
     0
 90
        2
176
     1
  1
strokes_ogs.tif
176
     1
290
     0
176
     1
 40
1.0
176
     1
 40
1.0
176
     1
  0
VISUALSTYLE
  5
32
102
{ACAD_REACTORS
330
2A
102
}
330
2A
100
AcDbVisualStyle
  2
Basic
 70
     7
177
     3
291
     1
 70
    58
 90
        1
176
     1
 90
        0
176
     1
 90
        1
176
     1
 90
        0
176
     1
 40
0.6
176
     1
 40
30.0
176
     1
 62
     7
420
 16777215
176
     1
 90
        0
176
     1
 90
        4
176
     1
 62
     7
176
     1
 62
   257
176
     1
 90
        1
176
     1
 90
        1
176
     1
 40
1.0
176
     1
 90
        8
176
     1
 62
     7
176
     1
 40
1.0
176
     1
 90
        1
176
     1
 90
        6
176
     1
 90
        2
176
     1
 62
     7
176
     1
 90
        5
176
     1
 90
        0
176
     1
 90
        0
176
     1
290
     0
176
     1
 90
        1
176
     1
 40
0.0
176
     1
 90
        0
176
     1
290
     0
176
     1
290
     1
176
     1
290
     1
176
     1
290
     0
176
     1
290
     0
176
     1
290
     0
176
     1
290
     0
176
     1
290
     0
176
     1
290
     0
176
     1
 90
       50
176
     1
 40
0.0
176
     1
 40
1.0
176
     1
 90
        0
176
     1
 62
    18
420
        0
176
     1
 90
       50
176
     1
 90
        3
176
     1
 62
     5
420
      255
176
     1
290
     0
176
     1
 90
       50
176
     1
 90
       50
176
     1
 90
       50
176
     1
290
     0
176
     1
 90
       50
176
     1
 62
   256
176
     0
 40
1.0
176
     0
 90
        2
176
     1
  1
strokes_ogs.tif
176
     1
290
     0
176
     1
 40
1.0
176
     1
 40
1.0
176
     1
  0
VISUALSTYLE
  5
36
102
{ACAD_REACTORS
330
2A
102
}
330
2A
100
AcDbVisualStyle
  2
Brighten
 70
    12
177
     3
291
     1
 70
    58
 90
        2
176
     1
 90
        2
176
     1
 90
        0
176
     1
 90
        0
176
     1
 40
0.6
176
     1
 40
30.0
176
     1
 62
     7
420
 16777215
176
     1
 90
        1
176
     1
 90
        4
176
     1
 62
     7
176
     1
 62
   257
176
     1
 90
        1
176
     1
 90
        1
176
     1
 40
1.0
176
     1
 90
        8
176
     1
 62
     7
176
     1
 40
1.0
176
     1
 90
        1
176
     1
 90
        6
176
     1
 90
        2
176
     1
 62
     7
176
     1
 90
        5
176
     1
 90
        0
176
     1
 90
        0
176
     1
290
     0
176
     1
 90
        1
176
     1
 40
50.0
176
     1
 90
        0
176
     1
290
     0
176
     1
290
     1
176
     1
290
     1
176
     1
290
     0
176
     1
290
     0
176
     1
290
     0
176
     1
290
     0
176
     1
290
     0
176
     1
290
     0
176
     1
 90
       50
176
     1
 40
0.0
176
     1
 40
1.0
176
     1
 90
        0
176
     1
 62
    18
420
        0
176
     1
 90
       50
176
     1
 90
        3
176
     1
 62
     5
420
      255
176
     1
290
     0
176
     1
 90
       50
176
     1
 90
       50
176
     1
 90
       50
176
     1
290
     0
176
     1
 90
       50
176
     1
 62
   256
176
     0
 40
1.0
176
     0
 90
        2
176
     1
  1
strokes_ogs.tif
176
     1
290
     0
176
     1
 40
1.0
176
     1
 40
1.0
176
     1
  0
VISUALSTYLE
  5
3A
102
{ACAD_REACTORS
330
2A
102
}
330
2A
100
AcDbVisualStyle
  2
ColorChange
 70
    16
177
     3
291
     1
 70
    58
 90
        2
176
     1
 90
        2
176
     1
 90
        3
176
     1
 90
        0
176
     1
 40
0.6
176
     1
 40
30.0
176
     1
 62
     8
420
  8421504
176
     1
 90
        1
176
     1
 90
        4
176
     1
 62
     7
176
     1
 62
   257
176
     1
 90
        1
176
     1
 90
        1
176
     1
 40
1.0
176
     1
 90
        8
176
     1
 62
     8
420
  8421504
176
     1
 40
1.0
176
     1
 90
        1
176
     1
 90
        6
176
     1
 90
        2
176
     1
 62
     7
176
     1
 90
        5
176
     1
 90
        0
176
     1
 90
        0
176
     1
290
     0
176
     1
 90
        1
176
     1
 40
0.0
176
     1
 90
        0
176
     1
290
     0
176
     1
290
     1
176
     1
290
     1
176
     1
290
     0
176
     1
290
     0
176
     1
290
     0
176
     1
290
     0
176
     1
290
     0
176
     1
290
     0
176
     1
 90
       50
176
     1
 40
0.0
176
     1
 40
1.0
176
     1
 90
        0
176
     1
 62
    18
420
        0
176
     1
 90
       50
176
     1
 90
        3
176
     1
 62
     5
420
      255
176
     1
290
     0
176
     1
 90
       50
176
     1
 90
       50
176
     1
 90
       50
176
     1
290
     0
176
     1
 90
       50
176
     1
 62
   256
176
     0
 40
1.0
176
     0
 90
        2
176
     1
  1
strokes_ogs.tif
176
     1
290
     0
176
     1
 40
1.0
176
     1
 40
1.0
176
     1
  0
VISUALSTYLE
  5
34
102
{ACAD_REACTORS
330
2A
102
}
330
2A
100
AcDbVisualStyle
  2
Conceptual
 70
     9
177
     3
291
     0
 70
    58
 90
        3
176
     1
 90
        2
176
     1
 90
        0
176
     1
 90
        0
176
     1
 40
0.6
176
     1
 40
30.0
176
     1
 62
     7
420
 16777215
176
     1
 90
        2
176
     1
 90
        2
176
     1
 62
     7
176
     1
 62
   257
176
     1
 90
        1
176
     1
 90
        1
176
     1
 40
179.0
176
     1
 90
        8
176
     1
 62
     7
176
     1
 40
1.0
176
     1
 90
        1
176
     1
 90
        6
176
     1
 90
        2
176
     1
 62
     7
176
     1
 90
        3
176
     1
 90
        0
176
     1
 90
        0
176
     1
290
     0
176
     1
 90
        1
176
     1
 40
0.0
176
     1
 90
        0
176
     1
290
     0
176
     1
290
     1
176
     1
290
     1
176
     1
290
     0
176
     1
290
     0
176
     1
290
     0
176
     1
290
     0
176
     1
290
     0
176
     1
290
     0
176
     1
 90
       50
176
     1
 40
0.0
176
     1
 40
1.0
176
     1
 90
        0
176
     1
 62
    18
420
        0
176
     1
 90
       50
176
     1
 90
        3
176
     1
 62
     5
420
      255
176
     1
290
     0
176
     1
 90
       50
176
     1
 90
       50
176
     1
 90
       50
176
     1
290
     0
176
     1
 90
       50
176
     1
 62
   256
176
     0
 40
1.0
176
     0
 90
        2
176
     1
  1
strokes_ogs.tif
176
     1
290
     0
176
     1
 40
1.0
176
     1
 40
1.0
176
     1
  0
VISUALSTYLE
  5
35
102
{ACAD_REACTORS
330
2A
102
}
330
2A
100
AcDbVisualStyle
  2
Dim
 70
    11
177
     3
291
     1
 70
    58
 90
        2
176
     1
 90
        2
176
     1
 90
        0
176
     1
 90
        0
176
     1
 40
0.6
176
     1
 40
30.0
176
     1
 62
     7
420
 16777215
176
     1
 90
        1
176
     1
 90
        4
176
     1
 62
     7
176
     1
 62
   257
176
     1
 90
        1
176
     1
 90
        1
176
     1
 40
1.0
176
     1
 90
        8
176
     1
 62
     7
176
     1
 40
1.0
176
     1
 90
        1
176
     1
 90
        6
176
     1
 90
        2
176
     1
 62
     7
176
     1
 90
        5
176
     1
 90
        0
176
     1
 90
        0
176
     1
290
     0
176
     1
 90
        1
176
     1
 40
-50.0
176
     1
 90
        0
176
     1
290
     0
176
     1
290
     1
176
     1
290
     1
176
     1
290
     0
176
     1
290
     0
176
     1
290
     0
176
     1
290
     0
176
     1
290
     0
176
     1
290
     0
176
     1
 90
       50
176
     1
 40
0.0
176
     1
 40
1.0
176
     1
 90
        0
176
     1
 62
    18
420
        0
176
     1
 90
       50
176
     1
 90
        3
176
     1
 62
     5
420
      255
176
     1
290
     0
176
     1
 90
       50
176
     1
 90
       50
176
     1
 90
       50
176
     1
290
     0
176
     1
 90
       50
176
     1
 62
   256
176
     0
 40
1.0
176
     0
 90
        2
176
     1
  1
strokes_ogs.tif
176
     1
290
     0
176
     1
 40
1.0
176
     1
 40
1.0
176
     1
  0
VISUALSTYLE
  5
3D
102
{ACAD_REACTORS
330
2A
102
}
330
2A
100
AcDbVisualStyle
  2
EdgeColorOff
 70
    22
177
     3
291
     1
 70
    58
 90
        2
176
     0
 90
        2
176
     0
 90
        0
176
     0
 90
        0
176
     0
 40
0.6
176
     0
 40
30.0
176
     0
 62
     7
420
 16777215
176
     0
 90
        1
176
     0
 90
        4
176
     0
 62
     7
176
     0
 62
   257
176
     0
 90
        1
176
     0
 90
        1
176
     0
 40
1.0
176
     0
 90
        8
176
     2
 62
     7
176
     0
 40
1.0
176
     0
 90
        1
176
     0
 90
        6
176
     0
 90
        2
176
     0
 62
     7
176
     0
 90
        5
176
     0
 90
        0
176
     0
 90
        0
176
     0
290
     0
176
     0
 90
        1
176
     0
 40
0.0
176
     0
 90
        0
176
     0
290
     0
176
     0
290
     1
176
     0
290
     1
176
     0
290
     0
176
     0
290
     0
176
     0
290
     0
176
     0
290
     0
176
     0
290
     0
176
     0
290
     0
176
     0
 90
       50
176
     0
 40
0.0
176
     0
 40
1.0
176
     0
 90
        0
176
     0
 62
    18
420
        0
176
     0
 90
       50
176
     0
 90
        3
176
     0
 62
     5
420
      255
176
     0
290
     0
176
     0
 90
       50
176
     0
 90
       50
176
     0
 90
       50
176
     0
290
     0
176
     0
 90
       50
176
     0
 62
   256
176
     0
 40
1.0
176
     0
 90
        2
176
     0
  1
strokes_ogs.tif
176
     0
290
     0
176
     0
 40
1.0
176
     0
 40
1.0
176
     0
  0
VISUALSTYLE
  5
39
102
{ACAD_REACTORS
330
2A
102
}
330
2A
100
AcDbVisualStyle
  2
Facepattern
 70
    15
177
     3
291
     1
 70
    58
 90
        2
176
     1
 90
        2
176
     1
 90
        0
176
     1
 90
        0
176
     1
 40
0.6
176
     1
 40
30.0
176
     1
 62
     7
420
 16777215
176
     1
 90
        1
176
     1
 90
        4
176
     1
 62
     7
176
     1
 62
   257
176
     1
 90
        1
176
     1
 90
        1
176
     1
 40
1.0
176
     1
 90
        8
176
     1
 62
     7
176
     1
 40
1.0
176
     1
 90
        1
176
     1
 90
        6
176
     1
 90
        2
176
     1
 62
     7
176
     1
 90
        5
176
     1
 90
        0
176
     1
 90
        0
176
     1
290
     0
176
     1
 90
        1
176
     1
 40
0.0
176
     1
 90
        0
176
     1
290
     0
176
     1
290
     1
176
     1
290
     1
176
     1
290
     0
176
     1
290
     0
176
     1
290
     0
176
     1
290
     0
176
     1
290
     0
176
     1
290
     0
176
     1
 90
       50
176
     1
 40
0.0
176
     1
 40
1.0
176
     1
 90
        0
176
     1
 62
    18
420
        0
176
     1
 90
       50
176
     1
 90
        3
176
     1
 62
     5
420
      255
176
     1
290
     0
176
     1
 90
       50
176
     1
 90
       50
176
     1
 90
       50
176
     1
290
     0
176
     1
 90
       50
176
     1
 62
   256
176
     0
 40
1.0
176
     0
 90
        2
176
     1
  1
strokes_ogs.tif
176
     1
290
     0
176
     1
 40
1.0
176
     1
 40
1.0
176
     1
  0
VISUALSTYLE
  5
2B
102
{ACAD_REACTORS
330
2A
102
}
330
2A
100
AcDbVisualStyle
  2
Flat
 70
     0
177
     3
291
     1
 70
    58
 90
        2
176
     1
 90
        1
176
     1
 90
        1
176
     1
 90
        2
176
     1
 40
0.6
176
     1
 40
30.0
176
     1
 62
     7
420
 16777215
176
     1
 90
        0
176
     1
 90
        0
176
     1
 62
     7
176
     1
 62
   257
176
     1
 90
        1
176
     1
 90
        1
176
     1
 40
1.0
176
     1
 90
        8
176
     1
 62
     7
176
     1
 40
1.0
176
     1
 90
        1
176
     1
 90
        6
176
     1
 90
        2
176
     1
 62
     7
176
     1
 90
        5
176
     1
 90
        0
176
     1
 90
        0
176
     1
290
     0
176
     1
 90
       13
176
     1
 40
0.0
176
     1
 90
        0
176
     1
290
     0
176
     1
290
     1
176
     1
290
     1
176
     1
290
     0
176
     1
290
     0
176
     1
290
     0
176
     1
290
     0
176
     1
290
     0
176
     1
290
     0
176
     1
 90
       50
176
     1
 40
0.0
176
     1
 40
1.0
176
     1
 90
        0
176
     1
 62
    18
420
        0
176
     1
 90
       50
176
     1
 90
        3
176
     1
 62
     5
420
      255
176
     1
290
     0
176
     1
 90
       50
176
     1
 90
       50
176
     1
 90
       50
176
     1
290
     0
176
     1
 90
       50
176
     1
 62
   256
176
     0
 40
1.0
176
     0
 90
        2
176
     1
  1
strokes_ogs.tif
176
     1
290
     0
176
     1
 40
1.0
176
     1
 40
1.0
176
     1
  0
VISUALSTYLE
  5
2C
102
{ACAD_REACTORS
330
2A
102
}
330
2A
100
AcDbVisualStyle
  2
FlatWithEdges
 70
     1
177
     3
291
     1
 70
    58
 90
        2
176
     1
 90
        1
176
     1
 90
        1
176
     1
 90
        2
176
     1
 40
0.6
176
     1
 40
30.0
176
     1
 62
     7
420
 16777215
176
     1
 90
        1
176
     1
 90
        0
176
     1
 62
     7
176
     1
 62
   257
176
     1
 90
        1
176
     1
 90
        1
176
     1
 40
1.0
176
     1
 90
        0
176
     1
 62
   257
176
     1
 40
1.0
176
     1
 90
        1
176
     1
 90
        6
176
     1
 90
        2
176
     1
 62
     7
176
     1
 90
        5
176
     1
 90
        0
176
     1
 90
        0
176
     1
290
     0
176
     1
 90
       13
176
     1
 40
0.0
176
     1
 90
        0
176
     1
290
     0
176
     1
290
     1
176
     1
290
     1
176
     1
290
     0
176
     1
290
     0
176
     1
290
     0
176
     1
290
     0
176
     1
290
     0
176
     1
290
     0
176
     1
 90
       50
176
     1
 40
0.0
176
     1
 40
1.0
176
     1
 90
        0
176
     1
 62
    18
420
        0
176
     1
 90
       50
176
     1
 90
        3
176
     1
 62
     5
420
      255
176
     1
290
     0
176
     1
 90
       50
176
     1
 90
       50
176
     1
 90
       50
176
     1
290
     0
176
     1
 90
       50
176
     1
 62
   256
176
     0
 40
1.0
176
     0
 90
        2
176
     1
  1
strokes_ogs.tif
176
     1
290
     0
176
     1
 40
1.0
176
     1
 40
1.0
176
     1
  0
VISUALSTYLE
  5
2D
102
{ACAD_REACTORS
330
2A
102
}
330
2A
100
AcDbVisualStyle
  2
Gouraud
 70
     2
177
     3
291
     1
 70
    58
 90
        2
176
     1
 90
        2
176
     1
 90
        1
176
     1
 90
        2
176
     1
 40
0.6
176
     1
 40
30.0
176
     1
 62
     7
420
 16777215
176
     1
 90
        0
176
     1
 90
        0
176
     1
 62
     7
176
     1
 62
   257
176
     1
 90
        1
176
     1
 90
        1
176
     1
 40
1.0
176
     1
 90
        0
176
     1
 62
     7
176
     1
 40
1.0
176
     1
 90
        1
176
     1
 90
        6
176
     1
 90
        2
176
     1
 62
     7
176
     1
 90
        5
176
     1
 90
        0
176
     1
 90
        0
176
     1
290
     0
176
     1
 90
       13
176
     1
 40
0.0
176
     1
 90
        0
176
     1
290
     0
176
     1
290
     1
176
     1
290
     1
176
     1
290
     0
176
     1
290
     0
176
     1
290
     0
176
     1
290
     0
176
     1
290
     0
176
     1
290
     0
176
     1
 90
       50
176
     1
 40
0.0
176
     1
 40
1.0
176
     1
 90
        0
176
     1
 62
    18
420
        0
176
     1
 90
       50
176
     1
 90
        3
176
     1
 62
     5
420
      255
176
     1
290
     0
176
     1
 90
       50
176
     1
 90
       50
176
     1
 90
       50
176
     1
290
     0
176
     1
 90
       50
176
     1
 62
   256
176
     0
 40
1.0
176
     0
 90
        2
176
     1
  1
strokes_ogs.tif
176
     1
290
     0
176
     1
 40
1.0
176
     1
 40
1.0
176
     1
  0
VISUALSTYLE
  5
2E
102
{ACAD_REACTORS
330
2A
102
}
330
2A
100
AcDbVisualStyle
  2
GouraudWithEdges
 70
     3
177
     3
291
     1
 70
    58
 90
        2
176
     1
 90
        2
176
     1
 90
        1
176
     1
 90
        2
176
     1
 40
0.6
176
     1
 40
30.0
176
     1
 62
     7
420
 16777215
176
     1
 90
        1
176
     1
 90
        0
176
     1
 62
     7
176
     1
 62
   257
176
     1
 90
        1
176
     1
 90
        1
176
     1
 40
1.0
176
     1
 90
        0
176
     1
 62
   257
176
     1
 40
1.0
176
     1
 90
        1
176
     1
 90
        6
176
     1
 90
        2
176
     1
 62
     7
176
     1
 90
        5
176
     1
 90
        0
176
     1
 90
        0
176
     1
290
     0
176
     1
 90
       13
176
     1
 40
0.0
176
     1
 90
        0
176
     1
290
     0
176
     1
290
     1
176
     1
290
     1
176
     1
290
     0
176
     1
290
     0
176
     1
290
     0
176
     1
290
     0
176
     1
290
     0
176
     1
290
     0
176
     1
 90
       50
176
     1
 40
0.0
176
     1
 40
1.0
176
     1
 90
        0
176
     1
 62
    18
420
        0
176
     1
 90
       50
176
     1
 90
        3
176
     1
 62
     5
420
      255
176
     1
290
     0
176
     1
 90
       50
176
     1
 90
       50
176
     1
 90
       50
176
     1
290
     0
176
     1
 90
       50
176
     1
 62
   256
176
     0
 40
1.0
176
     0
 90
        2
176
     1
  1
strokes_ogs.tif
176
     1
290
     0
176
     1
 40
1.0
176
     1
 40
1.0
176
     1
  0
VISUALSTYLE
  5
31
102
{ACAD_REACTORS
330
2A
102
}
330
2A
100
AcDbVisualStyle
  2
Hidden
 70
     6
177
     3
291
     0
 70
    58
 90
        1
176
     1
 90
        2
176
     1
 90
        2
176
     1
 90
        0
176
     1
 40
0.6
176
     1
 40
30.0
176
     1
 62
     7
420
 16777215
176
     1
 90
        2
176
     1
 90
        2
176
     1
 62
     7
176
     1
 62
   257
176
     1
 90
        2
176
     1
 90
        1
176
     1
 40
40.0
176
     1
 90
        0
176
     1
 62
   257
176
     1
 40
1.0
176
     1
 90
        1
176
     1
 90
        6
176
     1
 90
        2
176
     1
 62
     7
176
     1
 90
        3
176
     1
 90
        0
176
     1
 90
        0
176
     1
290
     0
176
     1
 90
        1
176
     1
 40
0.0
176
     1
 90
        0
176
     1
290
     0
176
     1
290
     1
176
     1
290
     1
176
     1
290
     0
176
     1
290
     0
176
     1
290
     0
176
     1
290
     0
176
     1
290
     0
176
     1
290
     0
176
     1
 90
       50
176
     1
 40
0.0
176
     1
 40
1.0
176
     1
 90
        0
176
     1
 62
    18
420
        0
176
     1
 90
       50
176
     1
 90
        3
176
     1
 62
     5
420
      255
176
     1
290
     0
176
     1
 90
       50
176
     1
 90
       50
176
     1
 90
       50
176
     1
290
     0
176
     1
 90
       50
176
     1
 62
   256
176
     0
 40
1.0
176
     0
 90
        2
176
     1
  1
strokes_ogs.tif
176
     1
290
     0
176
     1
 40
1.0
176
     1
 40
1.0
176
     1
  0
VISUALSTYLE
  5
3B
102
{ACAD_REACTORS
330
2A
102
}
330
2A
100
AcDbVisualStyle
  2
JitterOff
 70
    20
177
     3
291
     1
 70
    58
 90
        2
176
     0
 90
        2
176
     0
 90
        0
176
     0
 90
        0
176
     0
 40
0.6
176
     0
 40
30.0
176
     0
 62
     7
420
 16777215
176
     0
 90
        1
176
     0
 90
        4
176
     0
 62
     7
176
     0
 62
   257
176
     0
 90
        1
176
     0
 90
        1
176
     0
 40
1.0
176
     0
 90
       10
176
     2
 62
     7
176
     0
 40
1.0
176
     0
 90
        1
176
     0
 90
        6
176
     0
 90
        2
176
     0
 62
     7
176
     0
 90
        5
176
     0
 90
        0
176
     0
 90
        0
176
     0
290
     0
176
     0
 90
        1
176
     0
 40
0.0
176
     0
 90
        0
176
     0
290
     0
176
     0
290
     1
176
     0
290
     1
176
     0
290
     0
176
     0
290
     0
176
     0
290
     0
176
     0
290
     0
176
     0
290
     0
176
     0
290
     0
176
     0
 90
       50
176
     0
 40
0.0
176
     0
 40
1.0
176
     0
 90
        0
176
     0
 62
    18
420
        0
176
     0
 90
       50
176
     0
 90
        3
176
     0
 62
     5
420
      255
176
     0
290
     0
176
     0
 90
       50
176
     0
 90
       50
176
     0
 90
       50
176
     0
290
     0
176
     0
 90
       50
176
     0
 62
   256
176
     0
 40
1.0
176
     0
 90
        2
176
     0
  1
strokes_ogs.tif
176
     0
290
     0
176
     0
 40
1.0
176
     0
 40
1.0
176
     0
  0
VISUALSTYLE
  5
38
102
{ACAD_REACTORS
330
2A
102
}
330
2A
100
AcDbVisualStyle
  2
Linepattern
 70
    14
177
     3
291
     1
 70
    58
 90
        2
176
     1
 90
        2
176
     1
 90
        0
176
     1
 90
        0
176
     1
 40
0.6
176
     1
 40
30.0
176
     1
 62
     7
420
 16777215
176
     1
 90
        1
176
     1
 90
        4
176
     1
 62
     7
176
     1
 62
   257
176
     1
 90
        7
176
     1
 90
        7
176
     1
 40
1.0
176
     1
 90
        8
176
     1
 62
     7
176
     1
 40
1.0
176
     1
 90
        1
176
     1
 90
        6
176
     1
 90
        2
176
     1
 62
     7
176
     1
 90
        5
176
     1
 90
        0
176
     1
 90
        0
176
     1
290
     0
176
     1
 90
        1
176
     1
 40
0.0
176
     1
 90
        0
176
     1
290
     0
176
     1
290
     1
176
     1
290
     1
176
     1
290
     0
176
     1
290
     0
176
     1
290
     0
176
     1
290
     0
176
     1
290
     0
176
     1
290
     0
176
     1
 90
       50
176
     1
 40
0.0
176
     1
 40
1.0
176
     1
 90
        0
176
     1
 62
    18
420
        0
176
     1
 90
       50
176
     1
 90
        3
176
     1
 62
     5
420
      255
176
     1
290
     0
176
     1
 90
       50
176
     1
 90
       50
176
     1
 90
       50
176
     1
290
     0
176
     1
 90
       50
176
     1
 62
   256
176
     0
 40
1.0
176
     0
 90
        2
176
     1
  1
strokes_ogs.tif
176
     1
290
     0
176
     1
 40
1.0
176
     1
 40
1.0
176
     1
  0
VISUALSTYLE
  5
3C
102
{ACAD_REACTORS
330
2A
102
}
330
2A
100
AcDbVisualStyle
  2
OverhangOff
 70
    21
177
     3
291
     1
 70
    58
 90
        2
176
     0
 90
        2
176
     0
 90
        0
176
     0
 90
        0
176
     0
 40
0.6
176
     0
 40
30.0
176
     0
 62
     7
420
 16777215
176
     0
 90
        1
176
     0
 90
        4
176
     0
 62
     7
176
     0
 62
   257
176
     0
 90
        1
176
     0
 90
        1
176
     0
 40
1.0
176
     0
 90
        9
176
     2
 62
     7
176
     0
 40
1.0
176
     0
 90
        1
176
     0
 90
        6
176
     0
 90
        2
176
     0
 62
     7
176
     0
 90
        5
176
     0
 90
        0
176
     0
 90
        0
176
     0
290
     0
176
     0
 90
        1
176
     0
 40
0.0
176
     0
 90
        0
176
     0
290
     0
176
     0
290
     1
176
     0
290
     1
176
     0
290
     0
176
     0
290
     0
176
     0
290
     0
176
     0
290
     0
176
     0
290
     0
176
     0
290
     0
176
     0
 90
       50
176
     0
 40
0.0
176
     0
 40
1.0
176
     0
 90
        0
176
     0
 62
    18
420
        0
176
     0
 90
       50
176
     0
 90
        3
176
     0
 62
     5
420
      255
176
     0
290
     0
176
     0
 90
       50
176
     0
 90
       50
176
     0
 90
       50
176
     0
290
     0
176
     0
 90
       50
176
     0
 62
   256
176
     0
 40
1.0
176
     0
 90
        2
176
     0
  1
strokes_ogs.tif
176
     0
290
     0
176
     0
 40
1.0
176
     0
 40
1.0
176
     0
  0
VISUALSTYLE
  5
33
102
{ACAD_REACTORS
330
2A
102
}
330
2A
100
AcDbVisualStyle
  2
Realistic
 70
     8
177
     3
291
     0
 70
    58
 90
        2
176
     1
 90
        3
176
     1
 90
        0
176
     1
 90
        2
176
     1
 40
0.6
176
     1
 40
30.0
176
     1
 62
     7
420
 16777215
176
     1
 90
        0
176
     1
 90
        0
176
     1
 62
     7
176
     1
 62
   257
176
     1
 90
        1
176
     1
 90
        1
176
     1
 40
1.0
176
     1
 90
        8
176
     1
 62
   257
176
     1
 40
1.0
176
     1
 90
        1
176
     1
 90
        6
176
     1
 90
        2
176
     1
 62
     7
176
     1
 90
        3
176
     1
 90
        0
176
     1
 90
        0
176
     1
290
     0
176
     1
 90
       13
176
     1
 40
0.0
176
     1
 90
        0
176
     1
290
     0
176
     1
290
     1
176
     1
290
     1
176
     1
290
     0
176
     1
290
     0
176
     1
290
     0
176
     1
290
     0
176
     1
290
     0
176
     1
290
     0
176
     1
 90
       50
176
     1
 40
0.0
176
     1
 40
1.0
176
     1
 90
        0
176
     1
 62
    18
420
        0
176
     1
 90
       50
176
     1
 90
        3
176
     1
 62
     5
420
      255
176
     1
290
     0
176
     1
 90
       50
176
     1
 90
       50
176
     1
 90
       50
176
     1
290
     0
176
     1
 90
       50
176
     1
 62
   256
176
     0
 40
1.0
176
     0
 90
        2
176
     1
  1
strokes_ogs.tif
176
     1
290
     0
176
     1
 40
1.0
176
     1
 40
1.0
176
     1
  0
VISUALSTYLE
  5
42
102
{ACAD_REACTORS
330
2A
102
}
330
2A
100
AcDbVisualStyle
  2
Shaded
 70
    27
177
     3
291
     0
 70
    58
 90
        2
176
     1
 90
        2
176
     1
 90
        1
176
     1
 90
        2
176
     1
 40
0.6
176
     1
 40
30.0
176
     1
 62
     7
420
 16777215
176
     1
 90
        0
176
     1
 90
        4
176
     1
 62
     7
176
     1
 62
   257
176
     1
 90
        1
176
     1
 90
        1
176
     1
 40
1.0
176
     1
 90
        8
176
     1
 62
   257
176
     1
 40
1.0
176
     1
 90
        1
176
     1
 90
        6
176
     1
 90
        2
176
     1
 62
     8
420
  7895160
176
     1
 90
        3
176
     1
 90
        0
176
     1
 90
        0
176
     1
290
     0
176
     1
 90
        5
176
     1
 40
0.0
176
     1
 90
        0
176
     1
290
     0
176
     1
290
     1
176
     1
290
     1
176
     1
290
     0
176
     1
290
     0
176
     1
290
     0
176
     1
290
     0
176
     1
290
     0
176
     1
290
     0
176
     1
 90
       50
176
     1
 40
0.0
176
     1
 40
1.0
176
     1
 90
        0
176
     1
 62
    18
420
        0
176
     1
 90
       50
176
     1
 90
        3
176
     1
 62
     5
420
      255
176
     1
290
     0
176
     1
 90
       50
176
     1
 90
       50
176
     1
 90
       50
176
     1
290
     0
176
     1
 90
       50
176
     1
 62
   256
176
     0
 40
1.0
176
     0
 90
        2
176
     1
  1
strokes_ogs.tif
176
     1
290
     0
176
     1
 40
1.0
176
     1
 40
1.0
176
     1
  0
VISUALSTYLE
  5
41
102
{ACAD_REACTORS
330
2A
102
}
330
2A
100
AcDbVisualStyle
  2
Shaded with edges
 70
    26
177
     3
291
     0
 70
    58
 90
        2
176
     1
 90
        2
176
     1
 90
        1
176
     1
 90
        2
176
     1
 40
0.6
176
     1
 40
30.0
176
     1
 62
     7
420
 16777215
176
     1
 90
        1
176
     1
 90
       10
176
     1
 62
     7
176
     1
 62
   257
176
     1
 90
        2
176
     1
 90
        1
176
     1
 40
1.0
176
     1
 90
        8
176
     1
 62
   257
176
     1
 40
1.0
176
     1
 90
        1
176
     1
 90
        6
176
     1
 90
        2
176
     1
 62
     7
176
     1
 90
        3
176
     1
 90
        0
176
     1
 90
        0
176
     1
290
     0
176
     1
 90
        5
176
     1
 40
0.0
176
     1
 90
        0
176
     1
290
     0
176
     1
290
     1
176
     1
290
     1
176
     1
290
     0
176
     1
290
     0
176
     1
290
     0
176
     1
290
     0
176
     1
290
     0
176
     1
290
     0
176
     1
 90
       50
176
     1
 40
0.0
176
     1
 40
1.0
176
     1
 90
        0
176
     1
 62
    18
420
        0
176
     1
 90
       50
176
     1
 90
        3
176
     1
 62
     5
420
      255
176
     1
290
     0
176
     1
 90
       50
176
     1
 90
       50
176
     1
 90
       50
176
     1
290
     0
176
     1
 90
       50
176
     1
 62
   256
176
     0
 40
1.0
176
     0
 90
        2
176
     1
  1
strokes_ogs.tif
176
     1
290
     0
176
     1
 40
1.0
176
     1
 40
1.0
176
     1
  0
VISUALSTYLE
  5
3E
102
{ACAD_REACTORS
330
2A
102
}
330
2A
100
AcDbVisualStyle
  2
Shades of Gray
 70
    23
177
     3
291
     0
 70
    58
 90
        2
176
     1
 90
        2
176
     1
 90
        3
176
     1
 90
        0
176
     1
 40
0.6
176
     1
 40
30.0
176
     1
 62
     7
420
 16777215
176
     1
 90
        2
176
     1
 90
        2
176
     1
 62
     7
176
     1
 62
     7
176
     1
 90
        1
176
     1
 90
        1
176
     1
 40
40.0
176
     1
 90
        8
176
     1
 62
     7
176
     1
 40
1.0
176
     1
 90
        1
176
     1
 90
        6
176
     1
 90
        2
176
     1
 62
     7
176
     1
 90
        3
176
     1
 90
        0
176
     1
 90
        0
176
     1
290
     0
176
     1
 90
        1
176
     1
 40
0.0
176
     1
 90
        0
176
     1
290
     0
176
     1
290
     1
176
     1
290
     1
176
     1
290
     0
176
     1
290
     0
176
     1
290
     0
176
     1
290
     0
176
     1
290
     0
176
     1
290
     0
176
     1
 90
       50
176
     1
 40
0.0
176
     1
 40
1.0
176
     1
 90
        0
176
     1
 62
    18
420
        0
176
     1
 90
       50
176
     1
 90
        3
176
     1
 62
     5
420
      255
176
     1
290
     0
176
     1
 90
       50
176
     1
 90
       50
176
     1
 90
       50
176
     1
290
     0
176
     1
 90
       50
176
     1
 62
   256
176
     0
 40
1.0
176
     0
 90
        2
176
     1
  1
strokes_ogs.tif
176
     1
290
     0
176
     1
 40
1.0
176
     1
 40
1.0
176
     1
  0
VISUALSTYLE
  5
3F
102
{ACAD_REACTORS
330
2A
102
}
330
2A
100
AcDbVisualStyle
  2
Sketchy
 70
    24
177
     3
291
     0
 70
    58
 90
        1
176
     1
 90
        2
176
     1
 90
        2
176
     1
 90
        0
176
     1
 40
0.6
176
     1
 40
30.0
176
     1
 62
     7
420
 16777215
176
     1
 90
        2
176
     1
 90
        2
176
     1
 62
     7
176
     1
 62
     7
176
     1
 90
        1
176
     1
 90
        1
176
     1
 40
40.0
176
     1
 90
       11
176
     1
 62
     7
176
     1
 40
1.0
176
     1
 90
        1
176
     1
 90
        6
176
     1
 90
        2
176
     1
 62
     7
176
     1
 90
        6
176
     1
 90
        0
176
     1
 90
        0
176
     1
290
     0
176
     1
 90
        1
176
     1
 40
0.0
176
     1
 90
        0
176
     1
290
     0
176
     1
290
     1
176
     1
290
     1
176
     1
290
     0
176
     1
290
     0
176
     1
290
     0
176
     1
290
     0
176
     1
290
     0
176
     1
290
     0
176
     1
 90
       50
176
     1
 40
0.0
176
     1
 40
1.0
176
     1
 90
        0
176
     1
 62
    18
420
        0
176
     1
 90
       50
176
     1
 90
        3
176
     1
 62
     5
420
      255
176
     1
290
     0
176
     1
 90
       50
176
     1
 90
       50
176
     1
 90
       50
176
     1
290
     0
176
     1
 90
       50
176
     1
 62
   256
176
     0
 40
1.0
176
     0
 90
        2
176
     1
  1
strokes_ogs.tif
176
     1
290
     0
176
     1
 40
1.0
176
     1
 40
1.0
176
     1
  0
VISUALSTYLE
  5
37
102
{ACAD_REACTORS
330
2A
102
}
330
2A
100
AcDbVisualStyle
  2
Thicken
 70
    13
177
     3
291
     1
 70
    58
 90
        2
176
     1
 90
        2
176
     1
 90
        0
176
     1
 90
        0
176
     1
 40
0.6
176
     1
 40
30.0
176
     1
 62
     7
420
 16777215
176
     1
 90
        1
176
     1
 90
        4
176
     1
 62
     7
176
     1
 62
   257
176
     1
 90
        1
176
     1
 90
        1
176
     1
 40
1.0
176
     1
 90
       12
176
     1
 62
     7
176
     1
 40
1.0
176
     1
 90
        1
176
     1
 90
        6
176
     1
 90
        2
176
     1
 62
     7
176
     1
 90
        5
176
     1
 90
        0
176
     1
 90
        0
176
     1
290
     0
176
     1
 90
        1
176
     1
 40
0.0
176
     1
 90
        0
176
     1
290
     0
176
     1
290
     1
176
     1
290
     1
176
     1
290
     0
176
     1
290
     0
176
     1
290
     0
176
     1
290
     0
176
     1
290
     0
176
     1
290
     0
176
     1
 90
       50
176
     1
 40
0.0
176
     1
 40
1.0
176
     1
 90
        0
176
     1
 62
    18
420
        0
176
     1
 90
       50
176
     1
 90
        3
176
     1
 62
     5
420
      255
176
     1
290
     0
176
     1
 90
       50
176
     1
 90
       50
176
     1
 90
       50
176
     1
290
     0
176
     1
 90
       50
176
     1
 62
   256
176
     0
 40
1.0
176
     0
 90
        2
176
     1
  1
strokes_ogs.tif
176
     1
290
     0
176
     1
 40
1.0
176
     1
 40
1.0
176
     1
  0
VISUALSTYLE
  5
30
102
{ACAD_REACTORS
330
2A
102
}
330
2A
100
AcDbVisualStyle
  2
Wireframe
 70
     5
177
     3
291
     0
 70
    58
 90
        0
176
     1
 90
        2
176
     1
 90
        0
176
     1
 90
        0
176
     1
 40
0.6
176
     1
 40
30.0
176
     1
 62
     7
420
 16777215
176
     1
 90
        1
176
     1
 90
        4
176
     1
 62
     7
176
     1
 62
   257
176
     1
 90
        1
176
     1
 90
        1
176
     1
 40
1.0
176
     1
 90
        0
176
     1
 62
   257
176
     1
 40
1.0
176
     1
 90
        1
176
     1
 90
        6
176
     1
 90
        2
176
     1
 62
     7
176
     1
 90
        3
176
     1
 90
        0
176
     1
 90
        0
176
     1
290
     0
176
     1
 90
        1
176
     1
 40
0.0
176
     1
 90
        0
176
     1
290
     0
176
     1
290
     1
176
     1
290
     1
176
     1
290
     0
176
     1
290
     0
176
     1
290
     0
176
     1
290
     0
176
     1
290
     0
176
     1
290
     0
176
     1
 90
       50
176
     1
 40
0.0
176
     1
 40
1.0
176
     1
 90
        0
176
     1
 62
    18
420
        0
176
     1
 90
       50
176
     1
 90
        3
176
     1
 62
     5
420
      255
176
     1
290
     0
176
     1
 90
       50
176
     1
 90
       50
176
     1
 90
       50
176
     1
290
     0
176
     1
 90
       50
176
     1
 62
   256
176
     0
 40
1.0
176
     0
 90
        2
176
     1
  1
strokes_ogs.tif
176
     1
290
     0
176
     1
 40
1.0
176
     1
 40
1.0
176
     1
  0
VISUALSTYLE
  5
40
102
{ACAD_REACTORS
330
2A
102
}
330
2A
100
AcDbVisualStyle
  2
X-Ray
 70
    25
177
     3
291
     0
 70
    58
 90
        2
176
     1
 90
        2
176
     1
 90
        1
176
     1
 90
        1
176
     1
 40
0.5
176
     1
 40
30.0
176
     1
 62
     7
420
 16777215
176
     1
 90
        1
176
     1
 90
        0
176
     1
 62
     7
176
     1
 62
   257
176
     1
 90
        1
176
     1
 90
        1
176
     1
 40
1.0
176
     1
 90
        8
176
     1
 62
     7
176
     1
 40
1.0
176
     1
 90
        1
176
     1
 90
        6
176
     1
 90
        2
176
     1
 62
     7
176
     1
 90
        3
176
     1
 90
        0
176
     1
 90
        0
176
     1
290
     0
176
     1
 90
       13
176
     1
 40
0.0
176
     1
 90
        0
176
     1
290
     0
176
     1
290
     1
176
     1
290
     1
176
     1
290
     0
176
     1
290
     0
176
     1
290
     0
176
     1
290
     0
176
     1
290
     0
176
     1
290
     0
176
     1
 90
       50
176
     1
 40
0.0
176
     1
 40
1.0
176
     1
 90
        0
176
     1
 62
    18
420
        0
176
     1
 90
       50
176
     1
 90
        3
176
     1
 62
     5
420
      255
176
     1
290
     0
176
     1
 90
       50
176
     1
 90
       50
176
     1
 90
       50
176
     1
290
     0
176
     1
 90
       50
176
     1
 62
   256
176
     0
 40
1.0
176
     0
 90
        2
176
     1
  1
strokes_ogs.tif
176
     1
290
     0
176
     1
 40
1.0
176
     1
 40
1.0
176
     1
  0
DICTIONARYVAR
  5
245
102
{ACAD_REACTORS
330
244
102
}
330
244
100
DictionaryVariables
280
     0
  1
1:1
  0
DICTIONARYVAR
  5
24A
102
{ACAD_REACTORS
330
244
102
}
330
244
100
DictionaryVariables
280
     0
  1
Standard
  0
DICTIONARYVAR
  5
249
102
{ACAD_REACTORS
330
244
102
}
330
244
100
DictionaryVariables
280
     0
  1
Standard
  0
DICTIONARY
  5
246
330
6A
100
AcDbDictionary
280
     1
281
     1
  3
ACAD_ROUNDTRIP_2008_TABLESTYLE_CELLSTYLEMAP
360
247
  0
CELLSTYLEMAP
  5
247
102
{ACAD_REACTORS
330
246
102
}
330
246
100
AcDbCellStyleMap
 90
        3
300
CELLSTYLE
  1
TABLEFORMAT_BEGIN
 90
        5
170
     1
 91
        0
 92
    32768
 62
   257
 93
        1
300
CONTENTFORMAT
  1
CONTENTFORMAT_BEGIN
 90
        0
 91
        0
 92
        4
 93
        0
300

 40
0.0
140
1.0
 94
        5
 62
     0
340
11
144
0.25
309
CONTENTFORMAT_END
171
     1
301
MARGIN
  1
CELLMARGIN_BEGIN
 40
0.06
 40
0.06
 40
0.06
 40
0.06
 40
0.06
 40
0.06
309
CELLMARGIN_END
 94
        6
 95
        1
302
GRIDFORMAT
  1
GRIDFORMAT_BEGIN
 90
        0
 91
        1
 62
     0
 92
       -2
340
14
 93
        0
 40
0.045
309
GRIDFORMAT_END
 95
        2
302
GRIDFORMAT
  1
GRIDFORMAT_BEGIN
 90
        0
 91
        1
 62
     0
 92
       -2
340
14
 93
        0
 40
0.045
309
GRIDFORMAT_END
 95
        4
302
GRIDFORMAT
  1
GRIDFORMAT_BEGIN
 90
        0
 91
        1
 62
     0
 92
       -2
340
14
 93
        0
 40
0.045
309
GRIDFORMAT_END
 95
        8
302
GRIDFORMAT
  1
GRIDFORMAT_BEGIN
 90
        0
 91
        1
 62
     0
 92
       -2
340
14
 93
        0
 40
0.045
309
GRIDFORMAT_END
 95
       16
302
GRIDFORMAT
  1
GRIDFORMAT_BEGIN
 90
        0
 91
        1
 62
     0
 92
       -2
340
14
 93
        0
 40
0.045
309
GRIDFORMAT_END
 95
       32
302
GRIDFORMAT
  1
GRIDFORMAT_BEGIN
 90
        0
 91
        1
 62
     0
 92
       -2
340
14
 93
        0
 40
0.045
309
GRIDFORMAT_END
309
TABLEFORMAT_END
  1
CELLSTYLE_BEGIN
 90
        1
 91
        1
300
_TITLE
309
CELLSTYLE_END
300
CELLSTYLE
  1
TABLEFORMAT_BEGIN
 90
        5
170
     1
 91
        0
 92
        0
 62
   257
 93
        1
300
CONTENTFORMAT
  1
CONTENTFORMAT_BEGIN
 90
        0
 91
        0
 92
        4
 93
        0
300

 40
0.0
140
1.0
 94
        5
 62
     0
340
11
144
0.18
309
CONTENTFORMAT_END
171
     1
301
MARGIN
  1
CELLMARGIN_BEGIN
 40
0.06
 40
0.06
 40
0.06
 40
0.06
 40
0.06
 40
0.06
309
CELLMARGIN_END
 94
        6
 95
        1
302
GRIDFORMAT
  1
GRIDFORMAT_BEGIN
 90
        0
 91
        1
 62
     0
 92
       -2
340
14
 93
        0
 40
0.045
309
GRIDFORMAT_END
 95
        2
302
GRIDFORMAT
  1
GRIDFORMAT_BEGIN
 90
        0
 91
        1
 62
     0
 92
       -2
340
14
 93
        0
 40
0.045
309
GRIDFORMAT_END
 95
        4
302
GRIDFORMAT
  1
GRIDFORMAT_BEGIN
 90
        0
 91
        1
 62
     0
 92
       -2
340
14
 93
        0
 40
0.045
309
GRIDFORMAT_END
 95
        8
302
GRIDFORMAT
  1
GRIDFORMAT_BEGIN
 90
        0
 91
        1
 62
     0
 92
       -2
340
14
 93
        0
 40
0.045
309
GRIDFORMAT_END
 95
       16
302
GRIDFORMAT
  1
GRIDFORMAT_BEGIN
 90
        0
 91
        1
 62
     0
 92
       -2
340
14
 93
        0
 40
0.045
309
GRIDFORMAT_END
 95
       32
302
GRIDFORMAT
  1
GRIDFORMAT_BEGIN
 90
        0
 91
        1
 62
     0
 92
       -2
340
14
 93
        0
 40
0.045
309
GRIDFORMAT_END
309
TABLEFORMAT_END
  1
CELLSTYLE_BEGIN
 90
        2
 91
        1
300
_HEADER
309
CELLSTYLE_END
300
CELLSTYLE
  1
TABLEFORMAT_BEGIN
 90
        5
170
     1
 91
        0
 92
        0
 62
   257
 93
        1
300
CONTENTFORMAT
  1
CONTENTFORMAT_BEGIN
 90
        0
 91
        0
 92
        4
 93
        0
300

 40
0.0
140
1.0
 94
        2
 62
     0
340
11
144
0.18
309
CONTENTFORMAT_END
171
     1
301
MARGIN
  1
CELLMARGIN_BEGIN
 40
0.06
 40
0.06
 40
0.06
 40
0.06
 40
0.06
 40
0.06
309
CELLMARGIN_END
 94
        6
 95
        1
302
GRIDFORMAT
  1
GRIDFORMAT_BEGIN
 90
        0
 91
        1
 62
     0
 92
       -2
340
14
 93
        0
 40
0.045
309
GRIDFORMAT_END
 95
        2
302
GRIDFORMAT
  1
GRIDFORMAT_BEGIN
 90
        0
 91
        1
 62
     0
 92
       -2
340
14
 93
        0
 40
0.045
309
GRIDFORMAT_END
 95
        4
302
GRIDFORMAT
  1
GRIDFORMAT_BEGIN
 90
        0
 91
        1
 62
     0
 92
       -2
340
14
 93
        0
 40
0.045
309
GRIDFORMAT_END
 95
        8
302
GRIDFORMAT
  1
GRIDFORMAT_BEGIN
 90
        0
 91
        1
 62
     0
 92
       -2
340
14
 93
        0
 40
0.045
309
GRIDFORMAT_END
 95
       16
302
GRIDFORMAT
  1
GRIDFORMAT_BEGIN
 90
        0
 91
        1
 62
     0
 92
       -2
340
14
 93
        0
 40
0.045
309
GRIDFORMAT_END
 95
       32
302
GRIDFORMAT
  1
GRIDFORMAT_BEGIN
 90
        0
 91
        1
 62
     0
 92
       -2
340
14
 93
        0
 40
0.045
309
GRIDFORMAT_END
309
TABLEFORMAT_END
  1
CELLSTYLE_BEGIN
 90
        3
 91
        2
300
_DATA
309
CELLSTYLE_END
  0
ENDSEC
  0
EOF