0
SECTION
  2
HEADER
  9
$ACADVER
  1
AC1027
  9
$ACADMAINTVER
 70
     8
  9
$DWGCODEPAGE
  3
ANSI_1252
  9
$REQUIREDVERSIONS
160
                 0
  9
$COMMENTS
  1
File was created by Cadenas
  9
$CUSTOMPROPERTYTAG
  1
NN
  9
$CUSTOMPROPERTY
  1
Imperial - IP Flange - Round Labyrinth Seal
  9
$CUSTOMPROPERTYTAG
  1
NT
  9
$CUSTOMPROPERTY
  1
Imperial 3 & 4 Bolt Round Flange Bearings
  9
$CUSTOMPROPERTYTAG
  1
NB
  9
$CUSTOMPROPERTY
  1
069664
  9
$CUSTOMPROPERTYTAG
  1
NBSYN
  9
$CUSTOMPROPERTY
  1
$PN.
  9
$CUSTOMPROPERTYTAG
  1
LINA
  9
$CUSTOMPROPERTY
  1
069664
  9
$CUSTOMPROPERTYTAG
  1
SS
  9
$CUSTOMPROPERTY
  1
2-1/4
  9
$CUSTOMPROPERTYTAG
  1
PN
  9
$CUSTOMPROPERTY
  1
069664
  9
$CUSTOMPROPERTYTAG
  1
DESCRIPTION
  9
$CUSTOMPROPERTY
  1
F4R-IP-204L
  9
$CUSTOMPROPERTYTAG
  1
EF
  9
$CUSTOMPROPERTY
  1
Non-Expansion Type
  9
$CUSTOMPROPERTYTAG
  1
ST
  9
$CUSTOMPROPERTY
  1
Labyrinth Seal
  9
$CUSTOMPROPERTYTAG
  1
A
  9
$CUSTOMPROPERTY
  1
3-1/32
  9
$CUSTOMPROPERTYTAG
  1
B
  9
$CUSTOMPROPERTY
  1
7-3/8
  9
$CUSTOMPROPERTYTAG
  1
C
  9
$CUSTOMPROPERTY
  1
3-11/32
  9
$CUSTOMPROPERTYTAG
  1
D
  9
$CUSTOMPROPERTY
  1
4-1/2
  9
$CUSTOMPROPERTYTAG
  1
DD
  9
$CUSTOMPROPERTY
  1
6-3/8
  9
$CUSTOMPROPERTYTAG
  1
E
  9
$CUSTOMPROPERTY
  1
2-3/64
  9
$CUSTOMPROPERTYTAG
  1
F
  9
$CUSTOMPROPERTY
  1
5/8
  9
$CUSTOMPROPERTYTAG
  1
H
  9
$CUSTOMPROPERTY
  1
9/16
  9
$CUSTOMPROPERTYTAG
  1
J
  9
$CUSTOMPROPERTY
  1
4-7/8
  9
$CUSTOMPROPERTYTAG
  1
L
  9
$CUSTOMPROPERTY
  1
3-1/2
  9
$CUSTOMPROPERTYTAG
  1
P
  9
$CUSTOMPROPERTY
  1
5/16
  9
$CUSTOMPROPERTYTAG
  1
X
  9
$CUSTOMPROPERTY
  1
1/4
  9
$CUSTOMPROPERTYTAG
  1
Y
  9
$CUSTOMPROPERTY
  1
0.025
  9
$CUSTOMPROPERTYTAG
  1
Z
  9
$CUSTOMPROPERTY
  1
2-19/32
  9
$CUSTOMPROPERTYTAG
  1
COMPANY
  9
$CUSTOMPROPERTY
  1
baldor
  9
$INSBASE
 10
0.0
 20
0.0
 30
0.0
  9
$EXTMIN
 10
1.000000000000000E+20
 20
1.000000000000000E+20
 30
1.000000000000000E+20
  9
$EXTMAX
 10
-1.000000000000000E+20
 20
-1.000000000000000E+20
 30
-1.000000000000000E+20
  9
$LIMMIN
 10
0.0
 20
0.0
  9
$LIMMAX
 10
12.0
 20
9.0
  9
$ORTHOMODE
 70
     0
  9
$REGENMODE
 70
     1
  9
$FILLMODE
 70
     1
  9
$QTEXTMODE
 70
     0
  9
$MIRRTEXT
 70
     1
  9
$LTSCALE
 40
1.0
  9
$ATTMODE
 70
     1
  9
$TEXTSIZE
 40
0.2
  9
$TRACEWID
 40
0.05
  9
$TEXTSTYLE
  7
Standard
  9
$CLAYER
  8
0
  9
$CELTYPE
  6
ByLayer
  9
$CECOLOR
 62
   256
  9
$CELTSCALE
 40
1.0
  9
$DISPSILH
 70
     0
  9
$DIMSCALE
 40
1.0
  9
$DIMASZ
 40
0.18
  9
$DIMEXO
 40
0.0625
  9
$DIMDLI
 40
0.38
  9
$DIMRND
 40
0.0
  9
$DIMDLE
 40
0.0
  9
$DIMEXE
 40
0.18
  9
$DIMTP
 40
0.0
  9
$DIMTM
 40
0.0
  9
$DIMTXT
 40
0.18
  9
$DIMCEN
 40
0.09
  9
$DIMTSZ
 40
0.0
  9
$DIMTOL
 70
     0
  9
$DIMLIM
 70
     0
  9
$DIMTIH
 70
     1
  9
$DIMTOH
 70
     1
  9
$DIMSE1
 70
     0
  9
$DIMSE2
 70
     0
  9
$DIMTAD
 70
     0
  9
$DIMZIN
 70
     0
  9
$DIMBLK
  1

  9
$DIMASO
 70
     1
  9
$DIMSHO
 70
     1
  9
$DIMPOST
  1

  9
$DIMAPOST
  1

  9
$DIMALT
 70
     0
  9
$DIMALTD
 70
     2
  9
$DIMALTF
 40
25.4
  9
$DIMLFAC
 40
1.0
  9
$DIMTOFL
 70
     0
  9
$DIMTVP
 40
0.0
  9
$DIMTIX
 70
     0
  9
$DIMSOXD
 70
     0
  9
$DIMSAH
 70
     0
  9
$DIMBLK1
  1

  9
$DIMBLK2
  1

  9
$DIMSTYLE
  2
Standard
  9
$DIMCLRD
 70
     0
  9
$DIMCLRE
 70
     0
  9
$DIMCLRT
 70
     0
  9
$DIMTFAC
 40
1.0
  9
$DIMGAP
 40
0.09
  9
$DIMJUST
 70
     0
  9
$DIMSD1
 70
     0
  9
$DIMSD2
 70
     0
  9
$DIMTOLJ
 70
     1
  9
$DIMTZIN
 70
     0
  9
$DIMALTZ
 70
     0
  9
$DIMALTTZ
 70
     0
  9
$DIMUPT
 70
     0
  9
$DIMDEC
 70
     4
  9
$DIMTDEC
 70
     4
  9
$DIMALTU
 70
     2
  9
$DIMALTTD
 70
     2
  9
$DIMTXSTY
  7
Standard
  9
$DIMAUNIT
 70
     0
  9
$DIMADEC
 70
     0
  9
$DIMALTRND
 40
0.0
  9
$DIMAZIN
 70
     0
  9
$DIMDSEP
 70
    46
  9
$DIMATFIT
 70
     3
  9
$DIMFRAC
 70
     0
  9
$DIMLDRBLK
  1

  9
$DIMLUNIT
 70
     2
  9
$DIMLWD
 70
    -2
  9
$DIMLWE
 70
    -2
  9
$DIMTMOVE
 70
     0
  9
$DIMFXL
 40
1.0
  9
$DIMFXLON
 70
     0
  9
$DIMJOGANG
 40
0.7853981633974483
  9
$DIMTFILL
 70
     0
  9
$DIMTFILLCLR
 70
     0
  9
$DIMARCSYM
 70
     0
  9
$DIMLTYPE
  6

  9
$DIMLTEX1
  6

  9
$DIMLTEX2
  6

  9
$DIMTXTDIRECTION
 70
     0
  9
$LUNITS
 70
     2
  9
$LUPREC
 70
     4
  9
$SKETCHINC
 40
0.1
  9
$FILLETRAD
 40
0.5
  9
$AUNITS
 70
     0
  9
$AUPREC
 70
     0
  9
$MENU
  1
.
  9
$ELEVATION
 40
0.0
  9
$PELEVATION
 40
0.0
  9
$THICKNESS
 40
0.0
  9
$LIMCHECK
 70
     0
  9
$CHAMFERA
 40
0.0
  9
$CHAMFERB
 40
0.0
  9
$CHAMFERC
 40
0.0
  9
$CHAMFERD
 40
0.0
  9
$SKPOLY
 70
     0
  9
$TDCREATE
 40
2458168.990901782
  9
$TDUCREATE
 40
2458168.949235116
  9
$TDUPDATE
 40
2458168.990901968
  9
$TDUUPDATE
 40
2458168.949235301
  9
$TDINDWG
 40
0.0000000116
  9
$TDUSRTIMER
 40
0.0000000116
  9
$USRTIMER
 70
     1
  9
$ANGBASE
 50
0.0
  9
$ANGDIR
 70
     0
  9
$PDMODE
 70
     0
  9
$PDSIZE
 40
0.0
  9
$PLINEWID
 40
0.0
  9
$SPLFRAME
 70
     0
  9
$SPLINETYPE
 70
     6
  9
$SPLINESEGS
 70
     8
  9
$HANDSEED
  5
225
  9
$SURFTAB1
 70
     6
  9
$SURFTAB2
 70
     6
  9
$SURFTYPE
 70
     6
  9
$SURFU
 70
     6
  9
$SURFV
 70
     6
  9
$UCSBASE
  2

  9
$UCSNAME
  2

  9
$UCSORG
 10
0.0
 20
0.0
 30
0.0
  9
$UCSXDIR
 10
1.0
 20
0.0
 30
0.0
  9
$UCSYDIR
 10
0.0
 20
1.0
 30
0.0
  9
$UCSORTHOREF
  2

  9
$UCSORTHOVIEW
 70
     0
  9
$UCSORGTOP
 10
0.0
 20
0.0
 30
0.0
  9
$UCSORGBOTTOM
 10
0.0
 20
0.0
 30
0.0
  9
$UCSORGLEFT
 10
0.0
 20
0.0
 30
0.0
  9
$UCSORGRIGHT
 10
0.0
 20
0.0
 30
0.0
  9
$UCSORGFRONT
 10
0.0
 20
0.0
 30
0.0
  9
$UCSORGBACK
 10
0.0
 20
0.0
 30
0.0
  9
$PUCSBASE
  2

  9
$PUCSNAME
  2

  9
$PUCSORG
 10
0.0
 20
0.0
 30
0.0
  9
$PUCSXDIR
 10
1.0
 20
0.0
 30
0.0
  9
$PUCSYDIR
 10
0.0
 20
1.0
 30
0.0
  9
$PUCSORTHOREF
  2

  9
$PUCSORTHOVIEW
 70
     0
  9
$PUCSORGTOP
 10
0.0
 20
0.0
 30
0.0
  9
$PUCSORGBOTTOM
 10
0.0
 20
0.0
 30
0.0
  9
$PUCSORGLEFT
 10
0.0
 20
0.0
 30
0.0
  9
$PUCSORGRIGHT
 10
0.0
 20
0.0
 30
0.0
  9
$PUCSORGFRONT
 10
0.0
 20
0.0
 30
0.0
  9
$PUCSORGBACK
 10
0.0
 20
0.0
 30
0.0
  9
$USERI1
 70
     0
  9
$USERI2
 70
     0
  9
$USERI3
 70
     0
  9
$USERI4
 70
     0
  9
$USERI5
 70
     0
  9
$USERR1
 40
0.0
  9
$USERR2
 40
0.0
  9
$USERR3
 40
0.0
  9
$USERR4
 40
0.0
  9
$USERR5
 40
0.0
  9
$WORLDVIEW
 70
     1
  9
$SHADEDGE
 70
     3
  9
$SHADEDIF
 70
    70
  9
$TILEMODE
 70
     1
  9
$MAXACTVP
 70
    64
  9
$PINSBASE
 10
0.0
 20
0.0
 30
0.0
  9
$PLIMCHECK
 70
     0
  9
$PEXTMIN
 10
1.000000000000000E+20
 20
1.000000000000000E+20
 30
1.000000000000000E+20
  9
$PEXTMAX
 10
-1.000000000000000E+20
 20
-1.000000000000000E+20
 30
-1.000000000000000E+20
  9
$PLIMMIN
 10
0.0
 20
0.0
  9
$PLIMMAX
 10
12.0
 20
9.0
  9
$UNITMODE
 70
     0
  9
$VISRETAIN
 70
     1
  9
$PLINEGEN
 70
     0
  9
$PSLTSCALE
 70
     1
  9
$TREEDEPTH
 70
  3020
  9
$CMLSTYLE
  2
Standard
  9
$CMLJUST
 70
     0
  9
$CMLSCALE
 40
1.0
  9
$PROXYGRAPHICS
 70
     1
  9
$MEASUREMENT
 70
     0
  9
$CELWEIGHT
370
    -1
  9
$ENDCAPS
280
     0
  9
$JOINSTYLE
280
     0
  9
$LWDISPLAY
290
     0
  9
$INSUNITS
 70
     1
  9
$HYPERLINKBASE
  1

  9
$STYLESHEET
  1

  9
$XEDIT
290
     1
  9
$CEPSNTYPE
380
     0
  9
$PSTYLEMODE
290
     1
  9
$FINGERPRINTGUID
  2
{11550776-84D5-42FA-9D8F-0BBE2E42C762}
  9
$VERSIONGUID
  2
{FAEB1C32-E019-11D5-929B-00C0DF256EC4}
  9
$EXTNAMES
290
     1
  9
$PSVPSCALE
 40
0.0
  9
$OLESTARTUP
290
     0
  9
$SORTENTS
280
   127
  9
$INDEXCTL
280
     0
  9
$HIDETEXT
280
     1
  9
$XCLIPFRAME
280
     2
  9
$HALOGAP
280
     0
  9
$OBSCOLOR
 70
   257
  9
$OBSLTYPE
280
     0
  9
$INTERSECTIONDISPLAY
280
     0
  9
$INTERSECTIONCOLOR
 70
   257
  9
$DIMASSOC
280
     2
  9
$PROJECTNAME
  1

  9
$CAMERADISPLAY
290
     0
  9
$LENSLENGTH
 40
50.0
  9
$CAMERAHEIGHT
 40
0.0
  9
$STEPSPERSEC
 40
2.0
  9
$STEPSIZE
 40
6.0
  9
$3DDWFPREC
 40
2.0
  9
$PSOLWIDTH
 40
0.25
  9
$PSOLHEIGHT
 40
4.0
  9
$LOFTANG1
 40
1.570796326794897
  9
$LOFTANG2
 40
1.570796326794897
  9
$LOFTMAG1
 40
0.0
  9
$LOFTMAG2
 40
0.0
  9
$LOFTPARAM
 70
     7
  9
$LOFTNORMALS
280
     1
  9
$LATITUDE
 40
37.795
  9
$LONGITUDE
 40
-122.394
  9
$NORTHDIRECTION
 40
0.0
  9
$TIMEZONE
 70
 -8000
  9
$LIGHTGLYPHDISPLAY
280
     1
  9
$TILEMODELIGHTSYNCH
280
     1
  9
$CMATERIAL
347
44
  9
$SOLIDHIST
280
     0
  9
$SHOWHIST
280
     1
  9
$DWFFRAME
280
     2
  9
$DGNFRAME
280
     2
  9
$REALWORLDSCALE
290
     1
  9
$INTERFERECOLOR
 62
   256
  9
$CSHADOW
280
     0
  9
$SHADOWPLANELOCATION
 40
0.0
  0
ENDSEC
  0
SECTION
  2
CLASSES
  0
CLASS
  1
ACDBDICTIONARYWDFLT
  2
AcDbDictionaryWithDefault
  3
ObjectDBX Classes
 90
        0
 91
        4
280
     0
281
     0
  0
CLASS
  1
VISUALSTYLE
  2
AcDbVisualStyle
  3
ObjectDBX Classes
 90
     4095
 91
        4
280
     0
281
     0
  0
CLASS
  1
MATERIAL
  2
AcDbMaterial
  3
ObjectDBX Classes
 90
     1153
 91
        4
280
     0
281
     0
  0
CLASS
  1
SCALE
  2
AcDbScale
  3
ObjectDBX Classes
 90
     1153
 91
        4
280
     0
281
     0
  0
CLASS
  1
TABLESTYLE
  2
AcDbTableStyle
  3
ObjectDBX Classes
 90
     4095
 91
        4
280
     0
281
     0
  0
CLASS
  1
MLEADERSTYLE
  2
AcDbMLeaderStyle
  3
ACDB_MLEADERSTYLE_CLASS
 90
     4095
 91
        4
280
     0
281
     0
  0
CLASS
  1
SUN
  2
AcDbSun
  3
SCENEOE
 90
     1153
 91
        4
280
     0
281
     0
  0
CLASS
  1
DICTIONARYVAR
  2
AcDbDictionaryVar
  3
ObjectDBX Classes
 90
        0
 91
        4
280
     0
281
     0
  0
CLASS
  1
CELLSTYLEMAP
  2
AcDbCellStyleMap
  3
ObjectDBX Classes
 90
     1152
 91
        4
280
     0
281
     0
  0
ENDSEC
  0
SECTION
  2
TABLES
  0
TABLE
  2
VPORT
  5
8
330
0
100
AcDbSymbolTable
 70
     1
  0
VPORT
  5
29
330
8
100
AcDbSymbolTableRecord
100
AcDbViewportTableRecord
  2
*Active
 70
     0
 10
0.0
 20
0.0
 11
1.0
 21
1.0
 12
0.0
 22
0.0
 13
0.0
 23
0.0
 14
0.5
 24
0.5
 15
0.5
 25
0.5
 16
0.0
 26
0.0
 36
1.0
 17
0.0
 27
0.0000000000000009
 37
0.0
 40
7.898625000000001
 41
0.9999999999999999
 42
50.0
 43
0.0
 44
0.0
 50
0.0
 51
0.0
 71
     0
 72
   100
 73
     1
 74
     3
 75
     0
 76
     0
 77
     0
 78
     0
281
     0
 65
     1
110
0.0
120
0.0
130
0.0
111
1.0
121
0.0
131
0.0
112
0.0
122
1.0
132
0.0
 79
     0
146
0.0
348
2F
 60
     3
 61
     5
292
     1
282
     1
141
0.0
142
0.0
 63
   250
361
6D
  0
ENDTAB
  0
TABLE
  2
LTYPE
  5
5
330
0
100
AcDbSymbolTable
 70
     3
  0
LTYPE
  5
14
330
5
100
AcDbSymbolTableRecord
100
AcDbLinetypeTableRecord
  2
ByBlock
 70
     0
  3

 72
    65
 73
     0
 40
0.0
  0
LTYPE
  5
15
330
5
100
AcDbSymbolTableRecord
100
AcDbLinetypeTableRecord
  2
ByLayer
 70
     0
  3

 72
    65
 73
     0
 40
0.0
  0
LTYPE
  5
16
330
5
100
AcDbSymbolTableRecord
100
AcDbLinetypeTableRecord
  2
Continuous
 70
     0
  3
Solid line
 72
    65
 73
     0
 40
0.0
  0
LTYPE
  5
9E
330
5
100
AcDbSymbolTableRecord
100
AcDbLinetypeTableRecord
  2
Center
 70
     0
  3

 72
    65
 73
     4
 40
1.5
 49
0.45
 74
     0
 49
-0.5
 74
     0
 49
0.05
 74
     0
 49
-0.5
 74
     0
  0
LTYPE
  5
E4
330
5
100
AcDbSymbolTableRecord
100
AcDbLinetypeTableRecord
  2
Dashed
 70
     0
  3

 72
    65
 73
     2
 40
2.0
 49
1.0
 74
     0
 49
-1.0
 74
     0
  0
ENDTAB
  0
TABLE
  2
LAYER
  5
2
330
0
100
AcDbSymbolTable
 70
     7
  0
LAYER
  5
10
330
2
100
AcDbSymbolTableRecord
100
AcDbLayerTableRecord
  2
0
 70
     0
 62
     7
  6
Continuous
370
    -3
390
F
347
46
348
0
  0
LAYER
  5
72
330
2
100
AcDbSymbolTableRecord
100
AcDbLayerTableRecord
  2
AM_6
 70
     0
 62
    -2
  6
Continuous
370
    35
390
F
347
46
348
0
  0
LAYER
  5
9C
330
2
100
AcDbSymbolTableRecord
100
AcDbLayerTableRecord
  2
AM_5
 70
     0
 62
     3
  6
Continuous
370
    25
390
F
347
46
348
0
  0
LAYER
  5
9F
330
2
100
AcDbSymbolTableRecord
100
AcDbLayerTableRecord
  2
AM_7
 70
     0
 62
     7
  6
Center
370
    25
390
F
347
46
348
0
  0
LAYER
  5
A2
330
2
100
AcDbSymbolTableRecord
100
AcDbLayerTableRecord
  2
AM_4
 70
     0
 62
     7
  6
Continuous
370
    50
390
F
347
46
348
0
  0
LAYER
  5
E5
330
2
100
AcDbSymbolTableRecord
100
AcDbLayerTableRecord
  2
AM_9
 70
     0
 62
     6
  6
Dashed
370
    25
390
F
347
46
348
0
  0
LAYER
  5
20E
330
2
100
AcDbSymbolTableRecord
100
AcDbLayerTableRecord
  2
ConnectionPoints
 70
     0
 62
     7
  6
Continuous
370
    50
390
F
347
46
348
0
  0
ENDTAB
  0
TABLE
  2
STYLE
  5
3
330
0
100
AcDbSymbolTable
 70
     1
  0
STYLE
  5
11
330
3
100
AcDbSymbolTableRecord
100
AcDbTextStyleTableRecord
  2
Standard
 70
     0
 40
0.0
 41
1.0
 50
0.0
 71
     0
 42
0.2
  3
txt
  4

  0
ENDTAB
  0
TABLE
  2
VIEW
  5
6
330
0
100
AcDbSymbolTable
 70
     0
  0
ENDTAB
  0
TABLE
  2
UCS
  5
7
330
0
100
AcDbSymbolTable
 70
     0
  0
ENDTAB
  0
TABLE
  2
APPID
  5
9
330
0
100
AcDbSymbolTable
 70
     1
  0
APPID
  5
12
330
9
100
AcDbSymbolTableRecord
100
AcDbRegAppTableRecord
  2
ACAD
 70
     0
  0
ENDTAB
  0
TABLE
  2
DIMSTYLE
  5
A
330
0
100
AcDbSymbolTable
 70
     1
100
AcDbDimStyleTable
  0
DIMSTYLE
105
27
330
A
100
AcDbSymbolTableRecord
100
AcDbDimStyleTableRecord
  2
Standard
 70
     0
178
     0
340
11
  0
ENDTAB
  0
TABLE
  2
BLOCK_RECORD
  5
1
330
0
100
AcDbSymbolTable
 70
     8
  0
BLOCK_RECORD
  5
1F
330
1
100
AcDbSymbolTableRecord
100
AcDbBlockTableRecord
  2
*Model_Space
340
22
 70
     0
280
     1
281
     0
  0
BLOCK_RECORD
  5
1B
330
1
100
AcDbSymbolTableRecord
100
AcDbBlockTableRecord
  2
*Paper_Space
340
1E
 70
     0
280
     1
281
     0
  0
BLOCK_RECORD
  5
23
330
1
100
AcDbSymbolTableRecord
100
AcDbBlockTableRecord
  2
*Paper_Space0
340
26
 70
     0
280
     1
281
     0
  0
BLOCK_RECORD
  5
6E
330
1
100
AcDbSymbolTableRecord
100
AcDbBlockTableRecord
  2
1_069664_0
340
0
102
{BLKREFS
331
6F
102
}
 70
     0
280
     1
281
     0
  0
BLOCK_RECORD
  5
8C
330
1
100
AcDbSymbolTableRecord
100
AcDbBlockTableRecord
  2
2_ASME_B18_3_10_1_0_in_069664_0
340
0
102
{BLKREFS
331
8D
102
}
 70
     0
280
     1
281
     0
  0
BLOCK_RECORD
  5
AD
330
1
100
AcDbSymbolTableRecord
100
AcDbBlockTableRecord
  2
3_ASME_B18_3_10_2_0_in_069664_0
340
0
102
{BLKREFS
331
AE
102
}
 70
     0
280
     1
281
     0
  0
BLOCK_RECORD
  5
CB
330
1
100
AcDbSymbolTableRecord
100
AcDbBlockTableRecord
  2
4_070893LW_0_in_069664_0
340
0
102
{BLKREFS
331
CC
102
}
 70
     0
280
     1
281
     0
  0
BLOCK_RECORD
  5
116
330
1
100
AcDbSymbolTableRecord
100
AcDbBlockTableRecord
  2
5_070925I_0_in_069664_0
340
0
102
{BLKREFS
331
117
102
}
 70
     0
280
     1
281
     0
  0
BLOCK_RECORD
  5
174
330
1
100
AcDbSymbolTableRecord
100
AcDbBlockTableRecord
  2
6_405015E_Inch_0_in_069664_0
340
0
102
{BLKREFS
331
175
102
}
 70
     0
280
     1
281
     0
  0
BLOCK_RECORD
  5
1A9
330
1
100
AcDbSymbolTableRecord
100
AcDbBlockTableRecord
  2
7_069664H_0_in_069664_0
340
0
102
{BLKREFS
331
1AA
102
}
 70
     0
280
     1
281
     0
  0
ENDTAB
  0
ENDSEC
  0
SECTION
  2
BLOCKS
  0
BLOCK
  5
20
330
1F
100
AcDbEntity
  8
0
100
AcDbBlockBegin
  2
*Model_Space
 70
     0
 10
0.0
 20
0.0
 30
0.0
  3
*Model_Space
  1

  0
ENDBLK
  5
21
330
1F
100
AcDbEntity
  8
0
100
AcDbBlockEnd
  0
BLOCK
  5
1C
330
1B
100
AcDbEntity
 67
     1
  8
0
100
AcDbBlockBegin
  2
*Paper_Space
 70
     0
 10
0.0
 20
0.0
 30
0.0
  3
*Paper_Space
  1

  0
ENDBLK
  5
1D
330
1B
100
AcDbEntity
 67
     1
  8
0
100
AcDbBlockEnd
  0
BLOCK
  5
24
330
23
100
AcDbEntity
  8
0
100
AcDbBlockBegin
  2
*Paper_Space0
 70
     0
 10
0.0
 20
0.0
 30
0.0
  3
*Paper_Space0
  1

  0
ENDBLK
  5
25
330
23
100
AcDbEntity
  8
0
100
AcDbBlockEnd
  0
BLOCK
  5
70
330
6E
100
AcDbEntity
  8
0
100
AcDbBlockBegin
  2
1_069664_0
 70
     2
 10
0.0
 20
0.0
 30
0.0
  3
1_069664_0
  1

  0
ATTDEF
  5
73
330
6E
100
AcDbEntity
  8
AM_6
100
AcDbText
 10
8.871875000000001
 20
3.871875000000001
 30
0.0
 40
0.5
  1
Imperial - IP Flange - Round Labyrinth Seal
100
AcDbAttributeDefinition
  3

  2
NN
 70
     8
280
     0
  0
ATTDEF
  5
74
330
6E
100
AcDbEntity
  8
AM_6
100
AcDbText
 10
8.871875000000001
 20
3.371875000000001
 30
0.0
 40
0.5
  1
Imperial 3 & 4 Bolt Round Flange Bearings
100
AcDbAttributeDefinition
  3

  2
NT
 70
     8
280
     0
  0
ATTDEF
  5
75
330
6E
100
AcDbEntity
  8
AM_6
100
AcDbText
 10
8.871875000000001
 20
2.871875000000001
 30
0.0
 40
0.5
  1
069664
100
AcDbAttributeDefinition
  3

  2
NB
 70
     8
280
     0
  0
ATTDEF
  5
76
330
6E
100
AcDbEntity
  8
AM_6
100
AcDbText
 10
8.871875000000001
 20
2.371875000000001
 30
0.0
 40
0.5
  1
$PN.
100
AcDbAttributeDefinition
  3

  2
NBSYN
 70
     8
280
     0
  0
ATTDEF
  5
77
330
6E
100
AcDbEntity
  8
AM_6
100
AcDbText
 10
8.871875000000001
 20
1.871875000000001
 30
0.0
 40
0.5
  1
069664
100
AcDbAttributeDefinition
  3

  2
LINA
 70
     8
280
     0
  0
ATTDEF
  5
78
330
6E
100
AcDbEntity
  8
AM_6
100
AcDbText
 10
8.871875000000001
 20
1.371875000000001
 30
0.0
 40
0.5
  1
2-1/4
100
AcDbAttributeDefinition
  3

  2
SS
 70
     8
280
     0
  0
ATTDEF
  5
79
330
6E
100
AcDbEntity
  8
AM_6
100
AcDbText
 10
8.871875000000001
 20
0.8718750000000011
 30
0.0
 40
0.5
  1
069664
100
AcDbAttributeDefinition
  3

  2
PN
 70
     8
280
     0
  0
ATTDEF
  5
7A
330
6E
100
AcDbEntity
  8
AM_6
100
AcDbText
 10
8.871875000000001
 20
0.3718750000000011
 30
0.0
 40
0.5
  1
F4R-IP-204L
100
AcDbAttributeDefinition
  3

  2
DESCRIPTION
 70
     8
280
     0
  0
ATTDEF
  5
7B
330
6E
100
AcDbEntity
  8
AM_6
100
AcDbText
 10
8.871875000000001
 20
-0.1281249999999989
 30
0.0
 40
0.5
  1
Non-Expansion Type
100
AcDbAttributeDefinition
  3

  2
EF
 70
     8
280
     0
  0
ATTDEF
  5
7C
330
6E
100
AcDbEntity
  8
AM_6
100
AcDbText
 10
8.871875000000001
 20
-0.6281249999999989
 30
0.0
 40
0.5
  1
Labyrinth Seal
100
AcDbAttributeDefinition
  3

  2
ST
 70
     8
280
     0
  0
ATTDEF
  5
7D
330
6E
100
AcDbEntity
  8
AM_6
100
AcDbText
 10
8.871875000000001
 20
-1.128124999999999
 30
0.0
 40
0.5
  1
3-1/32
100
AcDbAttributeDefinition
  3

  2
A
 70
     8
280
     0
  0
ATTDEF
  5
7E
330
6E
100
AcDbEntity
  8
AM_6
100
AcDbText
 10
8.871875000000001
 20
-1.628124999999999
 30
0.0
 40
0.5
  1
7-3/8
100
AcDbAttributeDefinition
  3

  2
B
 70
     8
280
     0
  0
ATTDEF
  5
7F
330
6E
100
AcDbEntity
  8
AM_6
100
AcDbText
 10
8.871875000000001
 20
-2.128124999999999
 30
0.0
 40
0.5
  1
3-11/32
100
AcDbAttributeDefinition
  3

  2
C
 70
     8
280
     0
  0
ATTDEF
  5
80
330
6E
100
AcDbEntity
  8
AM_6
100
AcDbText
 10
8.871875000000001
 20
-2.628124999999999
 30
0.0
 40
0.5
  1
4-1/2
100
AcDbAttributeDefinition
  3

  2
D
 70
     8
280
     0
  0
ATTDEF
  5
81
330
6E
100
AcDbEntity
  8
AM_6
100
AcDbText
 10
8.871875000000001
 20
-3.128124999999999
 30
0.0
 40
0.5
  1
6-3/8
100
AcDbAttributeDefinition
  3

  2
DD
 70
     8
280
     0
  0
ATTDEF
  5
82
330
6E
100
AcDbEntity
  8
AM_6
100
AcDbText
 10
8.871875000000001
 20
-3.628124999999999
 30
0.0
 40
0.5
  1
2-3/64
100
AcDbAttributeDefinition
  3

  2
E
 70
     8
280
     0
  0
ATTDEF
  5
83
330
6E
100
AcDbEntity
  8
AM_6
100
AcDbText
 10
8.871875000000001
 20
-4.128124999999999
 30
0.0
 40
0.5
  1
5/8
100
AcDbAttributeDefinition
  3

  2
F
 70
     8
280
     0
  0
ATTDEF
  5
84
330
6E
100
AcDbEntity
  8
AM_6
100
AcDbText
 10
8.871875000000001
 20
-4.628124999999999
 30
0.0
 40
0.5
  1
9/16
100
AcDbAttributeDefinition
  3

  2
H
 70
     8
280
     0
  0
ATTDEF
  5
85
330
6E
100
AcDbEntity
  8
AM_6
100
AcDbText
 10
8.871875000000001
 20
-5.128124999999999
 30
0.0
 40
0.5
  1
4-7/8
100
AcDbAttributeDefinition
  3

  2
J
 70
     8
280
     0
  0
ATTDEF
  5
86
330
6E
100
AcDbEntity
  8
AM_6
100
AcDbText
 10
8.871875000000001
 20
-5.628124999999999
 30
0.0
 40
0.5
  1
3-1/2
100
AcDbAttributeDefinition
  3

  2
L
 70
     8
280
     0
  0
ATTDEF
  5
87
330
6E
100
AcDbEntity
  8
AM_6
100
AcDbText
 10
8.871875000000001
 20
-6.128124999999999
 30
0.0
 40
0.5
  1
5/16
100
AcDbAttributeDefinition
  3

  2
P
 70
     8
280
     0
  0
ATTDEF
  5
88
330
6E
100
AcDbEntity
  8
AM_6
100
AcDbText
 10
8.871875000000001
 20
-6.628124999999999
 30
0.0
 40
0.5
  1
1/4
100
AcDbAttributeDefinition
  3

  2
X
 70
     8
280
     0
  0
ATTDEF
  5
89
330
6E
100
AcDbEntity
  8
AM_6
100
AcDbText
 10
8.871875000000001
 20
-7.128124999999999
 30
0.0
 40
0.5
  1
0.025
100
AcDbAttributeDefinition
  3

  2
Y
 70
     8
280
     0
  0
ATTDEF
  5
8A
330
6E
100
AcDbEntity
  8
AM_6
100
AcDbText
 10
8.871875000000001
 20
-7.628124999999999
 30
0.0
 40
0.5
  1
2-19/32
100
AcDbAttributeDefinition
  3

  2
Z
 70
     8
280
     0
  0
ATTDEF
  5
8B
330
6E
100
AcDbEntity
  8
AM_6
100
AcDbText
 10
8.871875000000001
 20
-8.128124999999999
 30
0.0
 40
0.5
  1
baldor
100
AcDbAttributeDefinition
  3

  2
COMPANY
 70
     8
280
     0
  0
INSERT
  5
8D
330
6E
100
AcDbEntity
  8
0
100
AcDbBlockReference
  2
2_ASME_B18_3_10_1_0_in_069664_0
 10
0.0
 20
0.0
 30
0.0
  0
INSERT
  5
AE
330
6E
100
AcDbEntity
  8
0
100
AcDbBlockReference
  2
3_ASME_B18_3_10_2_0_in_069664_0
 10
0.0
 20
0.0
 30
0.0
  0
INSERT
  5
CC
330
6E
100
AcDbEntity
  8
0
100
AcDbBlockReference
  2
4_070893LW_0_in_069664_0
 10
0.0
 20
0.0
 30
0.0
  0
INSERT
  5
117
330
6E
100
AcDbEntity
  8
0
100
AcDbBlockReference
  2
5_070925I_0_in_069664_0
 10
0.0
 20
0.0
 30
0.0
  0
INSERT
  5
175
330
6E
100
AcDbEntity
  8
0
100
AcDbBlockReference
  2
6_405015E_Inch_0_in_069664_0
 10
0.0
 20
0.0
 30
0.0
  0
INSERT
  5
1AA
330
6E
100
AcDbEntity
  8
0
100
AcDbBlockReference
  2
7_069664H_0_in_069664_0
 10
0.0
 20
0.0
 30
0.0
  0
ENDBLK
  5
71
330
6E
100
AcDbEntity
  8
0
100
AcDbBlockEnd
  0
BLOCK
  5
8E
330
8C
100
AcDbEntity
  8
0
100
AcDbBlockBegin
  2
2_ASME_B18_3_10_1_0_in_069664_0
 70
     2
 10
0.0
 20
0.0
 30
0.0
  3
2_ASME_B18_3_10_1_0_in_069664_0
  1

  0
ATTDEF
  5
90
330
8C
100
AcDbEntity
  8
AM_6
100
AcDbText
 10
6.250185171779821
 20
-0.8711351717798214
 30
0.0
 40
0.5
  1
ANSI/ASME B18.3-1998
100
AcDbAttributeDefinition
  3

  2
NN
 70
     8
280
     0
  0
ATTDEF
  5
91
330
8C
100
AcDbEntity
  8
AM_6
100
AcDbText
 10
6.250185171779821
 20
-1.371135171779821
 30
0.0
 40
0.5
  1
Socket Button Head Cap Screws
100
AcDbAttributeDefinition
  3

  2
NT
 70
     8
280
     0
  0
ATTDEF
  5
92
330
8C
100
AcDbEntity
  8
AM_6
100
AcDbText
 10
6.250185171779821
 20
-1.871135171779821
 30
0.0
 40
0.5
  1
ASME B18.3-10
100
AcDbAttributeDefinition
  3

  2
NB
 70
     8
280
     0
  0
ATTDEF
  5
93
330
8C
100
AcDbEntity
  8
AM_6
100
AcDbText
 10
6.250185171779821
 20
-2.371135171779821
 30
0.0
 40
0.5
  1
ASME B18.3-$NS.
100
AcDbAttributeDefinition
  3

  2
NBSYN
 70
     8
280
     0
  0
ATTDEF
  5
94
330
8C
100
AcDbEntity
  8
AM_6
100
AcDbText
 10
6.250185171779821
 20
-2.871135171779821
 30
0.0
 40
0.5
  1
ASME B18.3-10
100
AcDbAttributeDefinition
  3

  2
LINA
 70
     8
280
     0
  0
ATTDEF
  5
95
330
8C
100
AcDbEntity
  8
AM_6
100
AcDbText
 10
6.250185171779821
 20
-3.371135171779821
 30
0.0
 40
0.5
  1
10
100
AcDbAttributeDefinition
  3

  2
NS
 70
     8
280
     0
  0
ATTDEF
  5
96
330
8C
100
AcDbEntity
  8
AM_6
100
AcDbText
 10
6.250185171779821
 20
-3.871135171779821
 30
0.0
 40
0.5
  1
0.361
100
AcDbAttributeDefinition
  3

  2
A
 70
     8
280
     0
  0
ATTDEF
  5
97
330
8C
100
AcDbEntity
  8
AM_6
100
AcDbText
 10
6.250185171779821
 20
-4.371135171779821
 30
0.0
 40
0.5
  1
0.101
100
AcDbAttributeDefinition
  3

  2
H
 70
     8
280
     0
  0
ATTDEF
  5
98
330
8C
100
AcDbEntity
  8
AM_6
100
AcDbText
 10
6.250185171779821
 20
-4.871135171779821
 30
0.0
 40
0.5
  1
0.800
100
AcDbAttributeDefinition
  3

  2
L
 70
     8
280
     0
  0
ATTDEF
  5
99
330
8C
100
AcDbEntity
  8
AM_6
100
AcDbText
 10
6.250185171779821
 20
-5.371135171779821
 30
0.0
 40
0.5
  1
0.020
100
AcDbAttributeDefinition
  3

  2
S
 70
     8
280
     0
  0
ATTDEF
  5
9A
330
8C
100
AcDbEntity
  8
AM_6
100
AcDbText
 10
6.250185171779821
 20
-5.871135171779821
 30
0.0
 40
0.5
  1
0.125000
100
AcDbAttributeDefinition
  3

  2
J
 70
     8
280
     0
  0
ATTDEF
  5
9B
330
8C
100
AcDbEntity
  8
AM_6
100
AcDbText
 10
6.250185171779821
 20
-6.371135171779821
 30
0.0
 40
0.5
  1
baldor
100
AcDbAttributeDefinition
  3

  2
COMPANY
 70
     8
280
     0
  0
ARC
  5
9D
330
8C
100
AcDbEntity
  8
AM_5
100
AcDbCircle
 10
1.060660171779821
 20
-1.060660171779821
 30
0.0
 40
0.0701999999999997
100
AcDbArc
 50
74.99999999999956
 51
14.99999999999958
  0
LINE
  5
A0
330
8C
100
AcDbEntity
  8
AM_7
100
AcDbLine
 10
0.8711351717798211
 20
-1.060660171779821
 30
0.0
 11
1.250185171779821
 21
-1.060660171779821
 31
0.0
  0
LINE
  5
A1
330
8C
100
AcDbEntity
  8
AM_7
100
AcDbLine
 10
1.060660171779821
 20
-1.250185171779821
 30
0.0
 11
1.060660171779821
 21
-0.8711351717798214
 31
0.0
  0
LINE
  5
A3
330
8C
100
AcDbEntity
  8
AM_4
100
AcDbLine
 10
1.009629135471838
 20
-1.009629135471839
 30
0.0
 11
1.079338827449989
 21
-0.9909504798016708
 31
0.0
  0
LINE
  5
A4
330
8C
100
AcDbEntity
  8
AM_4
100
AcDbLine
 10
1.079338827449989
 20
-0.9909504798016708
 30
0.0
 11
1.130369863757972
 21
-1.041981516109654
 31
0.0
  0
LINE
  5
A5
330
8C
100
AcDbEntity
  8
AM_4
100
AcDbLine
 10
0.9909504798016705
 20
-1.079338827449989
 30
0.0
 11
1.009629135471838
 21
-1.009629135471839
 31
0.0
  0
LINE
  5
A6
330
8C
100
AcDbEntity
  8
AM_4
100
AcDbLine
 10
1.130369863757972
 20
-1.041981516109654
 30
0.0
 11
1.111691208087804
 21
-1.111691208087804
 31
0.0
  0
LINE
  5
A7
330
8C
100
AcDbEntity
  8
AM_4
100
AcDbLine
 10
1.041981516109654
 20
-1.130369863757972
 30
0.0
 11
0.9909504798016705
 21
-1.079338827449989
 31
0.0
  0
LINE
  5
A8
330
8C
100
AcDbEntity
  8
AM_4
100
AcDbLine
 10
1.111691208087804
 20
-1.111691208087804
 30
0.0
 11
1.041981516109654
 21
-1.130369863757972
 31
0.0
  0
CIRCLE
  5
A9
330
8C
100
AcDbEntity
  8
AM_4
100
AcDbCircle
 10
1.060660171779821
 20
-1.060660171779821
 30
0.0
 40
0.0995
  0
ARC
  5
AA
330
8C
100
AcDbEntity
  8
AM_5
100
AcDbCircle
 10
1.060660171779821
 20
-1.060660171779821
 30
0.0
 40
0.0702000000000001
100
AcDbArc
 50
29.99999999999984
 51
330.0000000000002
  0
CIRCLE
  5
AB
330
8C
100
AcDbEntity
  8
AM_4
100
AcDbCircle
 10
1.060660171779821
 20
-1.060660171779821
 30
0.0
 40
0.1805
  0
CIRCLE
  5
AC
330
8C
100
AcDbEntity
  8
AM_5
100
AcDbCircle
 10
1.060660171779821
 20
-1.060660171779821
 30
0.0
 40
0.0763999999999999
  0
ENDBLK
  5
8F
330
8C
100
AcDbEntity
  8
0
100
AcDbBlockEnd
  0
BLOCK
  5
AF
330
AD
100
AcDbEntity
  8
0
100
AcDbBlockBegin
  2
3_ASME_B18_3_10_2_0_in_069664_0
 70
     2
 10
0.0
 20
0.0
 30
0.0
  3
3_ASME_B18_3_10_2_0_in_069664_0
  1

  0
ATTDEF
  5
B1
330
AD
100
AcDbEntity
  8
AM_6
100
AcDbText
 10
4.128864828220179
 20
1.250185171779821
 30
0.0
 40
0.5
  1
ANSI/ASME B18.3-1998
100
AcDbAttributeDefinition
  3

  2
NN
 70
     8
280
     0
  0
ATTDEF
  5
B2
330
AD
100
AcDbEntity
  8
AM_6
100
AcDbText
 10
4.128864828220179
 20
0.7501851717798214
 30
0.0
 40
0.5
  1
Socket Button Head Cap Screws
100
AcDbAttributeDefinition
  3

  2
NT
 70
     8
280
     0
  0
ATTDEF
  5
B3
330
AD
100
AcDbEntity
  8
AM_6
100
AcDbText
 10
4.128864828220179
 20
0.2501851717798214
 30
0.0
 40
0.5
  1
ASME B18.3-10
100
AcDbAttributeDefinition
  3

  2
NB
 70
     8
280
     0
  0
ATTDEF
  5
B4
330
AD
100
AcDbEntity
  8
AM_6
100
AcDbText
 10
4.128864828220179
 20
-0.2498148282201786
 30
0.0
 40
0.5
  1
ASME B18.3-$NS.
100
AcDbAttributeDefinition
  3

  2
NBSYN
 70
     8
280
     0
  0
ATTDEF
  5
B5
330
AD
100
AcDbEntity
  8
AM_6
100
AcDbText
 10
4.128864828220179
 20
-0.7498148282201786
 30
0.0
 40
0.5
  1
ASME B18.3-10
100
AcDbAttributeDefinition
  3

  2
LINA
 70
     8
280
     0
  0
ATTDEF
  5
B6
330
AD
100
AcDbEntity
  8
AM_6
100
AcDbText
 10
4.128864828220179
 20
-1.249814828220179
 30
0.0
 40
0.5
  1
10
100
AcDbAttributeDefinition
  3

  2
NS
 70
     8
280
     0
  0
ATTDEF
  5
B7
330
AD
100
AcDbEntity
  8
AM_6
100
AcDbText
 10
4.128864828220179
 20
-1.749814828220179
 30
0.0
 40
0.5
  1
0.361
100
AcDbAttributeDefinition
  3

  2
A
 70
     8
280
     0
  0
ATTDEF
  5
B8
330
AD
100
AcDbEntity
  8
AM_6
100
AcDbText
 10
4.128864828220179
 20
-2.249814828220178
 30
0.0
 40
0.5
  1
0.101
100
AcDbAttributeDefinition
  3

  2
H
 70
     8
280
     0
  0
ATTDEF
  5
B9
330
AD
100
AcDbEntity
  8
AM_6
100
AcDbText
 10
4.128864828220179
 20
-2.749814828220178
 30
0.0
 40
0.5
  1
0.800
100
AcDbAttributeDefinition
  3

  2
L
 70
     8
280
     0
  0
ATTDEF
  5
BA
330
AD
100
AcDbEntity
  8
AM_6
100
AcDbText
 10
4.128864828220179
 20
-3.249814828220178
 30
0.0
 40
0.5
  1
0.020
100
AcDbAttributeDefinition
  3

  2
S
 70
     8
280
     0
  0
ATTDEF
  5
BB
330
AD
100
AcDbEntity
  8
AM_6
100
AcDbText
 10
4.128864828220179
 20
-3.749814828220178
 30
0.0
 40
0.5
  1
0.125000
100
AcDbAttributeDefinition
  3

  2
J
 70
     8
280
     0
  0
ATTDEF
  5
BC
330
AD
100
AcDbEntity
  8
AM_6
100
AcDbText
 10
4.128864828220179
 20
-4.249814828220178
 30
0.0
 40
0.5
  1
baldor
100
AcDbAttributeDefinition
  3

  2
COMPANY
 70
     8
280
     0
  0
ARC
  5
BD
330
AD
100
AcDbEntity
  8
AM_5
100
AcDbCircle
 10
-1.060660171779821
 20
1.060660171779821
 30
0.0
 40
0.0701999999999999
100
AcDbArc
 50
75.0
 51
15.00000000000002
  0
LINE
  5
BE
330
AD
100
AcDbEntity
  8
AM_7
100
AcDbLine
 10
-1.250185171779821
 20
1.060660171779821
 30
0.0
 11
-0.8711351717798212
 21
1.060660171779821
 31
0.0
  0
LINE
  5
BF
330
AD
100
AcDbEntity
  8
AM_7
100
AcDbLine
 10
-1.060660171779821
 20
0.8711351717798215
 30
0.0
 11
-1.060660171779821
 21
1.250185171779821
 31
0.0
  0
LINE
  5
C0
330
AD
100
AcDbEntity
  8
AM_4
100
AcDbLine
 10
-0.9909504798016705
 20
1.079338827449989
 30
0.0
 11
-1.009629135471838
 21
1.009629135471839
 31
0.0
  0
LINE
  5
C1
330
AD
100
AcDbEntity
  8
AM_4
100
AcDbLine
 10
-1.041981516109654
 20
1.130369863757972
 30
0.0
 11
-0.9909504798016705
 21
1.079338827449989
 31
0.0
  0
LINE
  5
C2
330
AD
100
AcDbEntity
  8
AM_4
100
AcDbLine
 10
-1.130369863757972
 20
1.041981516109654
 30
0.0
 11
-1.111691208087804
 21
1.111691208087804
 31
0.0
  0
LINE
  5
C3
330
AD
100
AcDbEntity
  8
AM_4
100
AcDbLine
 10
-1.111691208087804
 20
1.111691208087804
 30
0.0
 11
-1.041981516109654
 21
1.130369863757972
 31
0.0
  0
LINE
  5
C4
330
AD
100
AcDbEntity
  8
AM_4
100
AcDbLine
 10
-1.079338827449989
 20
0.9909504798016708
 30
0.0
 11
-1.130369863757972
 21
1.041981516109654
 31
0.0
  0
LINE
  5
C5
330
AD
100
AcDbEntity
  8
AM_4
100
AcDbLine
 10
-1.009629135471838
 20
1.009629135471839
 30
0.0
 11
-1.079338827449989
 21
0.9909504798016708
 31
0.0
  0
CIRCLE
  5
C6
330
AD
100
AcDbEntity
  8
AM_4
100
AcDbCircle
 10
-1.060660171779821
 20
1.060660171779821
 30
0.0
 40
0.0995
  0
ARC
  5
C7
330
AD
100
AcDbEntity
  8
AM_5
100
AcDbCircle
 10
-1.060660171779821
 20
1.060660171779821
 30
0.0
 40
0.0764000000000001
100
AcDbArc
 50
75.00000000000014
 51
15.00000000000024
  0
ARC
  5
C8
330
AD
100
AcDbEntity
  8
AM_5
100
AcDbCircle
 10
-1.060660171779821
 20
1.060660171779821
 30
0.0
 40
0.0764000000000001
100
AcDbArc
 50
15.00000000000004
 51
240.0
  0
ARC
  5
C9
330
AD
100
AcDbEntity
  8
AM_5
100
AcDbCircle
 10
-1.060660171779821
 20
1.060660171779821
 30
0.0
 40
0.0702000000000001
100
AcDbArc
 50
29.99999999999984
 51
330.0000000000002
  0
CIRCLE
  5
CA
330
AD
100
AcDbEntity
  8
AM_4
100
AcDbCircle
 10
-1.060660171779821
 20
1.060660171779821
 30
0.0
 40
0.1804999999999999
  0
ENDBLK
  5
B0
330
AD
100
AcDbEntity
  8
0
100
AcDbBlockEnd
  0
BLOCK
  5
CD
330
CB
100
AcDbEntity
  8
0
100
AcDbBlockBegin
  2
4_070893LW_0_in_069664_0
 70
     2
 10
0.0
 20
0.0
 30
0.0
  3
4_070893LW_0_in_069664_0
  1

  0
ATTDEF
  5
CF
330
CB
100
AcDbEntity
  8
AM_6
100
AcDbText
 10
6.75
 20
1.75
 30
0.0
 40
0.5
  1
Imperial Insert Lockwasher -Inch
100
AcDbAttributeDefinition
  3

  2
NN
 70
     8
280
     0
  0
ATTDEF
  5
D0
330
CB
100
AcDbEntity
  8
AM_6
100
AcDbText
 10
6.75
 20
1.25
 30
0.0
 40
0.5
  1
Imperial Bearings
100
AcDbAttributeDefinition
  3

  2
NT
 70
     8
280
     0
  0
ATTDEF
  5
D1
330
CB
100
AcDbEntity
  8
AM_6
100
AcDbText
 10
6.75
 20
0.75
 30
0.0
 40
0.5
  1
070893LW
100
AcDbAttributeDefinition
  3

  2
NB
 70
     8
280
     0
  0
ATTDEF
  5
D2
330
CB
100
AcDbEntity
  8
AM_6
100
AcDbText
 10
6.75
 20
0.25
 30
0.0
 40
0.5
  1
$PN.LW
100
AcDbAttributeDefinition
  3

  2
NBSYN
 70
     8
280
     0
  0
ATTDEF
  5
D3
330
CB
100
AcDbEntity
  8
AM_6
100
AcDbText
 10
6.75
 20
-0.25
 30
0.0
 40
0.5
  1
070893
100
AcDbAttributeDefinition
  3

  2
LINA
 70
     8
280
     0
  0
ATTDEF
  5
D4
330
CB
100
AcDbEntity
  8
AM_6
100
AcDbText
 10
6.75
 20
-0.75
 30
0.0
 40
0.5
  1
2-1/4
100
AcDbAttributeDefinition
  3

  2
SS
 70
     8
280
     0
  0
ATTDEF
  5
D5
330
CB
100
AcDbEntity
  8
AM_6
100
AcDbText
 10
6.75
 20
-1.25
 30
0.0
 40
0.5
  1
2.250000
100
AcDbAttributeDefinition
  3

  2
SS1
 70
     8
280
     0
  0
ATTDEF
  5
D6
330
CB
100
AcDbEntity
  8
AM_6
100
AcDbText
 10
6.75
 20
-1.75
 30
0.0
 40
0.5
  1
070893
100
AcDbAttributeDefinition
  3

  2
PN
 70
     8
280
     0
  0
ATTDEF
  5
D7
330
CB
100
AcDbEntity
  8
AM_6
100
AcDbText
 10
6.75
 20
-2.25
 30
0.0
 40
0.5
  1
INS-IP-204R
100
AcDbAttributeDefinition
  3

  2
DESCRIPTION
 70
     8
280
     0
  0
ATTDEF
  5
D8
330
CB
100
AcDbEntity
  8
AM_6
100
AcDbText
 10
6.75
 20
-2.75
 30
0.0
 40
0.5
  1
3.9370
100
AcDbAttributeDefinition
  3

  2
A
 70
     8
280
     0
  0
ATTDEF
  5
D9
330
CB
100
AcDbEntity
  8
AM_6
100
AcDbText
 10
6.75
 20
-3.25
 30
0.0
 40
0.5
  1
1-3/64
100
AcDbAttributeDefinition
  3

  2
B
 70
     8
280
     0
  0
ATTDEF
  5
DA
330
CB
100
AcDbEntity
  8
AM_6
100
AcDbText
 10
6.75
 20
-3.75
 30
0.0
 40
0.5
  1
3-1/32
100
AcDbAttributeDefinition
  3

  2
C
 70
     8
280
     0
  0
ATTDEF
  5
DB
330
CB
100
AcDbEntity
  8
AM_6
100
AcDbText
 10
6.75
 20
-4.25
 30
0.0
 40
0.5
  1
1.050
100
AcDbAttributeDefinition
  3

  2
D
 70
     8
280
     0
  0
ATTDEF
  5
DC
330
CB
100
AcDbEntity
  8
AM_6
100
AcDbText
 10
6.75
 20
-4.75
 30
0.0
 40
0.5
  1
3-1/2
100
AcDbAttributeDefinition
  3

  2
E
 70
     8
280
     0
  0
ATTDEF
  5
DD
330
CB
100
AcDbEntity
  8
AM_6
100
AcDbText
 10
6.75
 20
-5.25
 30
0.0
 40
0.5
  1
0.1900
100
AcDbAttributeDefinition
  3

  2
NDM
 70
     8
280
     0
  0
ATTDEF
  5
DE
330
CB
100
AcDbEntity
  8
AM_6
100
AcDbText
 10
6.75
 20
-5.75
 30
0.0
 40
0.5
  1
0.1450
100
AcDbAttributeDefinition
  3

  2
KDM
 70
     8
280
     0
  0
ATTDEF
  5
DF
330
CB
100
AcDbEntity
  8
AM_6
100
AcDbText
 10
6.75
 20
-6.25
 30
0.0
 40
0.5
  1
2.92
100
AcDbAttributeDefinition
  3

  2
AL
 70
     8
280
     0
  0
ATTDEF
  5
E0
330
CB
100
AcDbEntity
  8
AM_6
100
AcDbText
 10
6.75
 20
-6.75
 30
0.0
 40
0.5
  1
0.50
100
AcDbAttributeDefinition
  3

  2
BL
 70
     8
280
     0
  0
ATTDEF
  5
E1
330
CB
100
AcDbEntity
  8
AM_6
100
AcDbText
 10
6.75
 20
-7.25
 30
0.0
 40
0.5
  1
0.07
100
AcDbAttributeDefinition
  3

  2
CL
 70
     8
280
     0
  0
ATTDEF
  5
E2
330
CB
100
AcDbEntity
  8
AM_6
100
AcDbText
 10
6.75
 20
-7.75
 30
0.0
 40
0.5
  1
0.44
100
AcDbAttributeDefinition
  3

  2
DL
 70
     8
280
     0
  0
ATTDEF
  5
E3
330
CB
100
AcDbEntity
  8
AM_6
100
AcDbText
 10
6.75
 20
-8.25
 30
0.0
 40
0.5
  1
baldor
100
AcDbAttributeDefinition
  3

  2
COMPANY
 70
     8
280
     0
  0
ARC
  5
E6
330
CB
100
AcDbEntity
  8
AM_9
100
AcDbCircle
 10
-0.0000000000000018
 20
-0.0000000000000004
 30
0.0
 40
1.184210526315788
100
AcDbArc
 50
151.4408245728695
 51
163.5591754271304
  0
LINE
  5
E7
330
CB
100
AcDbEntity
  8
AM_9
100
AcDbLine
 10
0.9934850275670998
 20
-1.127835315992543
 30
0.0
 11
0.8849602608085387
 21
-1.019310549233982
 31
0.0
  0
LINE
  5
E8
330
CB
100
AcDbEntity
  8
AM_9
100
AcDbLine
 10
1.019310549233983
 20
-0.8849602608085386
 30
0.0
 11
1.127835315992544
 21
-0.9934850275670987
 31
0.0
  0
LINE
  5
E9
330
CB
100
AcDbEntity
  8
AM_9
100
AcDbLine
 10
-1.019310549233983
 20
0.8849602608085386
 30
0.0
 11
-1.127835315992543
 21
0.9934850275670992
 31
0.0
  0
LINE
  5
EA
330
CB
100
AcDbEntity
  8
AM_9
100
AcDbLine
 10
-0.9934850275670993
 20
1.127835315992543
 30
0.0
 11
-0.8849602608085386
 21
1.019310549233982
 31
0.0
  0
LINE
  5
EB
330
CB
100
AcDbEntity
  8
AM_7
100
AcDbLine
 10
-1.160443916002941
 20
-1.060693903426993
 30
0.0
 11
-0.9609438908510427
 21
-1.060693903426993
 31
0.0
  0
LINE
  5
EC
330
CB
100
AcDbEntity
  8
AM_7
100
AcDbLine
 10
-1.060693903426992
 20
-1.160443916002941
 30
0.0
 11
-1.060693903426992
 21
-0.9609438908510438
 31
0.0
  0
LINE
  5
ED
330
CB
100
AcDbEntity
  8
AM_7
100
AcDbLine
 10
-1.50004770375291
 20
-0.099750012575949
 30
0.0
 11
-1.50004770375291
 21
0.0997500125759488
 31
0.0
  0
LINE
  5
EE
330
CB
100
AcDbEntity
  8
AM_7
100
AcDbLine
 10
-0.0997500125759491
 20
1.50004770375291
 30
0.0
 11
0.0997500125759487
 21
1.50004770375291
 31
0.0
  0
LINE
  5
EF
330
CB
100
AcDbEntity
  8
AM_7
100
AcDbLine
 10
1.50004770375291
 20
-0.0997500125759484
 30
0.0
 11
1.50004770375291
 21
0.0997500125759494
 31
0.0
  0
LINE
  5
F0
330
CB
100
AcDbEntity
  8
AM_7
100
AcDbLine
 10
0.9609438908510426
 20
1.060693903426992
 30
0.0
 11
1.160443916002941
 21
1.060693903426992
 31
0.0
  0
LINE
  5
F1
330
CB
100
AcDbEntity
  8
AM_7
100
AcDbLine
 10
1.060693903426992
 20
0.9609438908510433
 30
0.0
 11
1.060693903426992
 21
1.160443916002942
 31
0.0
  0
LINE
  5
F2
330
CB
100
AcDbEntity
  8
AM_7
100
AcDbLine
 10
-0.099750012575948
 20
-1.500047703752911
 30
0.0
 11
0.0997500125759498
 21
-1.500047703752911
 31
0.0
  0
LINE
  5
F3
330
CB
100
AcDbEntity
  8
AM_4
100
AcDbLine
 10
0.8849602608085387
 20
-1.019310549233982
 30
0.0
 11
0.7901920130155251
 21
-0.9245423014409684
 31
0.0
  0
LINE
  5
F4
330
CB
100
AcDbEntity
  8
AM_4
100
AcDbLine
 10
-1.499999999999996
 20
0.095
 30
0.0
 11
-1.212500261685452
 21
0.095
 31
0.0
  0
ARC
  5
F5
330
CB
100
AcDbEntity
  8
AM_4
100
AcDbCircle
 10
-0.0000000000000034
 20
0.0000000000000078
 30
0.0
 40
1.216216216216225
100
AcDbArc
 50
274.4800005720171
 51
310.5199994279829
  0
ARC
  5
F6
330
CB
100
AcDbEntity
  8
AM_4
100
AcDbCircle
 10
-0.0000000000000002
 20
1.50004770375291
 30
0.0
 40
0.0950000119770942
100
AcDbArc
 50
359.9712292265344
 51
180.0287707734783
  0
CIRCLE
  5
F7
330
CB
100
AcDbEntity
  8
AM_4
100
AcDbCircle
 10
0.0
 20
0.0
 30
0.0
 40
1.75
  0
ARC
  5
F8
330
CB
100
AcDbEntity
  8
AM_4
100
AcDbCircle
 10
-0.0000000000000058
 20
0.0000000000000043
 30
0.0
 40
1.216216216216209
100
AcDbArc
 50
139.4800005720171
 51
151.6008501316068
  0
LINE
  5
F9
330
CB
100
AcDbEntity
  8
AM_4
100
AcDbLine
 10
0.0949999999999997
 20
1.5
 30
0.0
 11
0.0949999999999998
 21
1.212500261685452
 31
0.0
  0
ARC
  5
FA
330
CB
100
AcDbEntity
  8
AM_4
100
AcDbCircle
 10
-0.0000000000000056
 20
0.0000000000000026
 30
0.0
 40
1.216216216216222
100
AcDbArc
 50
319.4800005720171
 51
355.5199994279829
  0
LINE
  5
FB
330
CB
100
AcDbEntity
  8
AM_4
100
AcDbLine
 10
1.499999999999995
 20
-0.0949999999999994
 30
0.0
 11
1.212500261685452
 21
-0.0949999999999996
 31
0.0
  0
ARC
  5
FC
330
CB
100
AcDbEntity
  8
AM_4
100
AcDbCircle
 10
1.50004770375291
 20
0.0000000000000005
 30
0.0
 40
0.0950000119770942
100
AcDbArc
 50
269.9712292265344
 51
90.02877077346282
  0
LINE
  5
FD
330
CB
100
AcDbEntity
  8
AM_4
100
AcDbLine
 10
1.212500261685452
 20
0.0949999999999999
 30
0.0
 11
1.5
 21
0.0950000000000005
 31
0.0
  0
ARC
  5
FE
330
CB
100
AcDbEntity
  8
AM_4
100
AcDbCircle
 10
-0.0000000000000395
 20
0.0000000000000073
 30
0.0
 40
1.216216216216176
100
AcDbArc
 50
163.3991498683931
 51
175.5199994279832
  0
LINE
  5
FF
330
CB
100
AcDbEntity
  8
AM_4
100
AcDbLine
 10
0.9245423014409695
 20
-0.7901920130155233
 30
0.0
 11
1.019310549233983
 21
-0.8849602608085386
 31
0.0
  0
LINE
  5
100
330
CB
100
AcDbEntity
  8
AM_4
100
AcDbLine
 10
-0.094999999999999
 20
-1.5
 30
0.0
 11
-0.0949999999999996
 21
-1.212500261685452
 31
0.0
  0
LINE
  5
101
330
CB
100
AcDbEntity
  8
AM_4
100
AcDbLine
 10
0.0949999999999988
 20
-1.212500261685453
 30
0.0
 11
0.0950000000000008
 21
-1.5
 31
0.0
  0
LINE
  5
102
330
CB
100
AcDbEntity
  8
AM_4
100
AcDbLine
 10
-0.9245423014409689
 20
0.7901920130155242
 30
0.0
 11
-1.019310549233983
 21
0.8849602608085386
 31
0.0
  0
LINE
  5
103
330
CB
100
AcDbEntity
  8
AM_4
100
AcDbLine
 10
1.127835315992543
 20
0.9934850275670996
 30
0.0
 11
0.9245423014409686
 21
0.7901920130155249
 31
0.0
  0
LINE
  5
104
330
CB
100
AcDbEntity
  8
AM_4
100
AcDbLine
 10
-1.04012032688071
 20
0.5661309709304762
 30
0.0
 11
-1.069851441757457
 21
0.5784460019368972
 31
0.0
  0
ARC
  5
105
330
CB
100
AcDbEntity
  8
AM_4
100
AcDbCircle
 10
0.0000000000000566
 20
-0.0000000000000231
 30
0.0
 40
1.125000000000061
100
AcDbArc
 50
151.1206297915576
 51
163.8793702084425
  0
LINE
  5
106
330
CB
100
AcDbEntity
  8
AM_4
100
AcDbLine
 10
-1.165522299848729
 20
0.3474761188090757
 30
0.0
 11
-1.135791184971982
 21
0.3351610878026547
 31
0.0
  0
LINE
  5
107
330
CB
100
AcDbEntity
  8
AM_4
100
AcDbLine
 10
-0.0949999999999991
 20
1.212500261685452
 30
0.0
 11
-0.0950000000000002
 21
1.5
 31
0.0
  0
ARC
  5
108
330
CB
100
AcDbEntity
  8
AM_4
100
AcDbCircle
 10
-0.0000000000000031
 20
-0.000000000000008
 30
0.0
 40
1.216216216216224
100
AcDbArc
 50
49.48000057201723
 51
85.51999942798285
  0
LINE
  5
109
330
CB
100
AcDbEntity
  8
AM_4
100
AcDbLine
 10
0.7901920130155238
 20
0.9245423014409695
 30
0.0
 11
0.993485027567099
 21
1.127835315992544
 31
0.0
  0
ARC
  5
10A
330
CB
100
AcDbEntity
  8
AM_4
100
AcDbCircle
 10
1.060693903426992
 20
1.060693903426993
 30
0.0
 40
0.0950000119770944
100
AcDbArc
 50
314.9712292265371
 51
135.028770773463
  0
ARC
  5
10B
330
CB
100
AcDbEntity
  8
AM_4
100
AcDbCircle
 10
-0.0000000000000067
 20
-0.0000000000000028
 30
0.0
 40
1.216216216216223
100
AcDbArc
 50
4.480000572017199
 51
40.51999942798287
  0
ARC
  5
10C
330
CB
100
AcDbEntity
  8
AM_4
100
AcDbCircle
 10
0.0000000000000011
 20
-1.500047703752911
 30
0.0
 40
0.0950000119770942
100
AcDbArc
 50
179.9712292265344
 51
0.0287707734782452
  0
ARC
  5
10D
330
CB
100
AcDbEntity
  8
AM_4
100
AcDbCircle
 10
0.0000000000000018
 20
0.0000000000000044
 30
0.0
 40
1.216216216216221
100
AcDbArc
 50
229.4800005720171
 51
265.5199994279829
  0
LINE
  5
10E
330
CB
100
AcDbEntity
  8
AM_4
100
AcDbLine
 10
-0.7901920130155243
 20
-0.9245423014409692
 30
0.0
 11
-0.9934850275670986
 21
-1.127835315992544
 31
0.0
  0
ARC
  5
10F
330
CB
100
AcDbEntity
  8
AM_4
100
AcDbCircle
 10
-1.060693903426992
 20
-1.060693903426993
 30
0.0
 40
0.095000011977094
100
AcDbArc
 50
134.9712292265374
 51
315.0287707734628
  0
LINE
  5
110
330
CB
100
AcDbEntity
  8
AM_4
100
AcDbLine
 10
-1.127835315992543
 20
-0.9934850275671001
 30
0.0
 11
-0.9245423014409685
 21
-0.7901920130155251
 31
0.0
  0
ARC
  5
111
330
CB
100
AcDbEntity
  8
AM_4
100
AcDbCircle
 10
0.0
 20
-0.0000000000000001
 30
0.0
 40
1.216216216216216
100
AcDbArc
 50
184.4800005720171
 51
220.519999427983
  0
LINE
  5
112
330
CB
100
AcDbEntity
  8
AM_4
100
AcDbLine
 10
-1.212500261685452
 20
-0.0950000000000001
 30
0.0
 11
-1.5
 21
-0.095
 31
0.0
  0
ARC
  5
113
330
CB
100
AcDbEntity
  8
AM_4
100
AcDbCircle
 10
-1.50004770375291
 20
0.0000000000000001
 30
0.0
 40
0.0950000119770941
100
AcDbArc
 50
89.97122922653462
 51
270.0287707734628
  0
LINE
  5
114
330
CB
100
AcDbEntity
  8
AM_4
100
AcDbLine
 10
-0.8849602608085386
 20
1.019310549233982
 30
0.0
 11
-0.7901920130155246
 21
0.9245423014409685
 31
0.0
  0
ARC
  5
115
330
CB
100
AcDbEntity
  8
AM_4
100
AcDbCircle
 10
0.000000000000001
 20
-0.0000000000000013
 30
0.0
 40
1.216216216216218
100
AcDbArc
 50
94.48000057201703
 51
130.519999427983
  0
ENDBLK
  5
CE
330
CB
100
AcDbEntity
  8
0
100
AcDbBlockEnd
  0
BLOCK
  5
118
330
116
100
AcDbEntity
  8
0
100
AcDbBlockBegin
  2
5_070925I_0_in_069664_0
 70
     2
 10
0.0
 20
0.0
 30
0.0
  3
5_070925I_0_in_069664_0
  1

  0
ATTDEF
  5
11A
330
116
100
AcDbEntity
  8
AM_6
100
AcDbText
 10
6.918499999999998
 20
1.918499999999998
 30
0.0
 40
0.5
  1
Imperial Insert -Inch
100
AcDbAttributeDefinition
  3

  2
NN
 70
     8
280
     0
  0
ATTDEF
  5
11B
330
116
100
AcDbEntity
  8
AM_6
100
AcDbText
 10
6.918499999999998
 20
1.418499999999998
 30
0.0
 40
0.5
  1
Imperial Bearings
100
AcDbAttributeDefinition
  3

  2
NT
 70
     8
280
     0
  0
ATTDEF
  5
11C
330
116
100
AcDbEntity
  8
AM_6
100
AcDbText
 10
6.918499999999998
 20
0.9184999999999983
 30
0.0
 40
0.5
  1
070925I
100
AcDbAttributeDefinition
  3

  2
NB
 70
     8
280
     0
  0
ATTDEF
  5
11D
330
116
100
AcDbEntity
  8
AM_6
100
AcDbText
 10
6.918499999999998
 20
0.4184999999999983
 30
0.0
 40
0.5
  1
$PN.I
100
AcDbAttributeDefinition
  3

  2
NBSYN
 70
     8
280
     0
  0
ATTDEF
  5
11E
330
116
100
AcDbEntity
  8
AM_6
100
AcDbText
 10
6.918499999999998
 20
-0.0815000000000017
 30
0.0
 40
0.5
  1
070925
100
AcDbAttributeDefinition
  3

  2
LINA
 70
     8
280
     0
  0
ATTDEF
  5
11F
330
116
100
AcDbEntity
  8
AM_6
100
AcDbText
 10
6.918499999999998
 20
-0.5815000000000017
 30
0.0
 40
0.5
  1
2-1/4
100
AcDbAttributeDefinition
  3

  2
SS
 70
     8
280
     0
  0
ATTDEF
  5
120
330
116
100
AcDbEntity
  8
AM_6
100
AcDbText
 10
6.918499999999998
 20
-1.081500000000002
 30
0.0
 40
0.5
  1
2.250000
100
AcDbAttributeDefinition
  3

  2
SS1
 70
     8
280
     0
  0
ATTDEF
  5
121
330
116
100
AcDbEntity
  8
AM_6
100
AcDbText
 10
6.918499999999998
 20
-1.581500000000002
 30
0.0
 40
0.5
  1
070925
100
AcDbAttributeDefinition
  3

  2
PN
 70
     8
280
     0
  0
ATTDEF
  5
122
330
116
100
AcDbEntity
  8
AM_6
100
AcDbText
 10
6.918499999999998
 20
-2.081500000000002
 30
0.0
 40
0.5
  1
INS-IP-204L
100
AcDbAttributeDefinition
  3

  2
DESCRIPTION
 70
     8
280
     0
  0
ATTDEF
  5
123
330
116
100
AcDbEntity
  8
AM_6
100
AcDbText
 10
6.918499999999998
 20
-2.581500000000002
 30
0.0
 40
0.5
  1
Labyrinth Seal
100
AcDbAttributeDefinition
  3

  2
ST
 70
     8
280
     0
  0
ATTDEF
  5
124
330
116
100
AcDbEntity
  8
AM_6
100
AcDbText
 10
6.918499999999998
 20
-3.081500000000002
 30
0.0
 40
0.5
  1
3.9370
100
AcDbAttributeDefinition
  3

  2
A
 70
     8
280
     0
  0
ATTDEF
  5
125
330
116
100
AcDbEntity
  8
AM_6
100
AcDbText
 10
6.918499999999998
 20
-3.581500000000002
 30
0.0
 40
0.5
  1
1-3/64
100
AcDbAttributeDefinition
  3

  2
B
 70
     8
280
     0
  0
ATTDEF
  5
126
330
116
100
AcDbEntity
  8
AM_6
100
AcDbText
 10
6.918499999999998
 20
-4.081500000000002
 30
0.0
 40
0.5
  1
3-1/32
100
AcDbAttributeDefinition
  3

  2
C
 70
     8
280
     0
  0
ATTDEF
  5
127
330
116
100
AcDbEntity
  8
AM_6
100
AcDbText
 10
6.918499999999998
 20
-4.581500000000002
 30
0.0
 40
0.5
  1
1.050
100
AcDbAttributeDefinition
  3

  2
D
 70
     8
280
     0
  0
ATTDEF
  5
128
330
116
100
AcDbEntity
  8
AM_6
100
AcDbText
 10
6.918499999999998
 20
-5.081500000000002
 30
0.0
 40
0.5
  1
3-1/2
100
AcDbAttributeDefinition
  3

  2
E
 70
     8
280
     0
  0
ATTDEF
  5
129
330
116
100
AcDbEntity
  8
AM_6
100
AcDbText
 10
6.918499999999998
 20
-5.581500000000002
 30
0.0
 40
0.5
  1
0.1900
100
AcDbAttributeDefinition
  3

  2
NDM
 70
     8
280
     0
  0
ATTDEF
  5
12A
330
116
100
AcDbEntity
  8
AM_6
100
AcDbText
 10
6.918499999999998
 20
-6.081500000000002
 30
0.0
 40
0.5
  1
0.101
100
AcDbAttributeDefinition
  3

  2
H
 70
     8
280
     0
  0
ATTDEF
  5
12B
330
116
100
AcDbEntity
  8
AM_6
100
AcDbText
 10
6.918499999999998
 20
-6.581500000000002
 30
0.0
 40
0.5
  1
0.1450
100
AcDbAttributeDefinition
  3

  2
KDM
 70
     8
280
     0
  0
ATTDEF
  5
12C
330
116
100
AcDbEntity
  8
AM_6
100
AcDbText
 10
6.918499999999998
 20
-7.081500000000002
 30
0.0
 40
0.5
  1
2.92
100
AcDbAttributeDefinition
  3

  2
AL
 70
     8
280
     0
  0
ATTDEF
  5
12D
330
116
100
AcDbEntity
  8
AM_6
100
AcDbText
 10
6.918499999999998
 20
-7.581500000000002
 30
0.0
 40
0.5
  1
0.50
100
AcDbAttributeDefinition
  3

  2
BL
 70
     8
280
     0
  0
ATTDEF
  5
12E
330
116
100
AcDbEntity
  8
AM_6
100
AcDbText
 10
6.918499999999998
 20
-8.081500000000002
 30
0.0
 40
0.5
  1
0.07
100
AcDbAttributeDefinition
  3

  2
CL
 70
     8
280
     0
  0
ATTDEF
  5
12F
330
116
100
AcDbEntity
  8
AM_6
100
AcDbText
 10
6.918499999999998
 20
-8.581500000000002
 30
0.0
 40
0.5
  1
0.44
100
AcDbAttributeDefinition
  3

  2
DL
 70
     8
280
     0
  0
ATTDEF
  5
130
330
116
100
AcDbEntity
  8
AM_6
100
AcDbText
 10
6.918499999999998
 20
-9.081500000000002
 30
0.0
 40
0.5
  1
0.8000
100
AcDbAttributeDefinition
  3

  2
LL
 70
     8
280
     0
  0
ATTDEF
  5
131
330
116
100
AcDbEntity
  8
AM_6
100
AcDbText
 10
6.918499999999998
 20
-9.581500000000002
 30
0.0
 40
0.5
  1
0.025
100
AcDbAttributeDefinition
  3

  2
Y
 70
     8
280
     0
  0
ATTDEF
  5
132
330
116
100
AcDbEntity
  8
AM_6
100
AcDbText
 10
6.918499999999998
 20
-10.0815
 30
0.0
 40
0.5
  1
0.025000
100
AcDbAttributeDefinition
  3

  2
Y1
 70
     8
280
     0
  0
ATTDEF
  5
133
330
116
100
AcDbEntity
  8
AM_6
100
AcDbText
 10
6.918499999999998
 20
-10.5815
 30
0.0
 40
0.5
  1
2-19/32
100
AcDbAttributeDefinition
  3

  2
Z
 70
     8
280
     0
  0
ATTDEF
  5
134
330
116
100
AcDbEntity
  8
AM_6
100
AcDbText
 10
6.918499999999998
 20
-11.0815
 30
0.0
 40
0.5
  1
2.593750
100
AcDbAttributeDefinition
  3

  2
Z1
 70
     8
280
     0
  0
ATTDEF
  5
135
330
116
100
AcDbEntity
  8
AM_6
100
AcDbText
 10
6.918499999999998
 20
-11.5815
 30
0.0
 40
0.5
  1
baldor
100
AcDbAttributeDefinition
  3

  2
COMPANY
 70
     8
280
     0
  0
CIRCLE
  5
136
330
116
100
AcDbEntity
  8
AM_9
100
AcDbCircle
 10
0.0
 20
0.0
 30
0.0
 40
1.296875
  0
CIRCLE
  5
137
330
116
100
AcDbEntity
  8
AM_9
100
AcDbCircle
 10
0.0
 20
0.0
 30
0.0
 40
1.407719017094017
  0
CIRCLE
  5
138
330
116
100
AcDbEntity
  8
AM_9
100
AcDbCircle
 10
0.0
 20
0.0
 30
0.0
 40
1.440972222222222
  0
CIRCLE
  5
139
330
116
100
AcDbEntity
  8
AM_9
100
AcDbCircle
 10
0.0
 20
0.0
 30
0.0
 40
1.589882260469459
  0
CIRCLE
  5
13A
330
116
100
AcDbEntity
  8
AM_9
100
AcDbCircle
 10
0.0
 20
0.0
 30
0.0
 40
1.676484800847903
  0
CIRCLE
  5
13B
330
116
100
AcDbEntity
  8
AM_9
100
AcDbCircle
 10
0.0
 20
0.0
 30
0.0
 40
1.7685
  0
CIRCLE
  5
13C
330
116
100
AcDbEntity
  8
AM_9
100
AcDbCircle
 10
0.0
 20
0.0
 30
0.0
 40
1.91615625
  0
CIRCLE
  5
13D
330
116
100
AcDbEntity
  8
AM_9
100
AcDbCircle
 10
1.060660171779821
 20
-1.060660171779821
 30
0.0
 40
0.0724499999999999
  0
LINE
  5
13E
330
116
100
AcDbEntity
  8
AM_9
100
AcDbLine
 10
0.2500000000000007
 20
1.733753355788509
 30
0.0
 11
0.2500000000000007
 21
1.46
 31
0.0
  0
LINE
  5
13F
330
116
100
AcDbEntity
  8
AM_9
100
AcDbLine
 10
-1.46
 20
-0.2499999999999999
 30
0.0
 11
-1.733753355788509
 21
-0.2499999999999997
 31
0.0
  0
LINE
  5
140
330
116
100
AcDbEntity
  8
AM_9
100
AcDbLine
 10
-0.2499999999999988
 20
1.46
 30
0.0
 11
-0.2499999999999988
 21
1.733753355788509
 31
0.0
  0
LINE
  5
141
330
116
100
AcDbEntity
  8
AM_9
100
AcDbLine
 10
1.733753355788509
 20
-0.2500000000000002
 30
0.0
 11
1.46
 21
-0.2500000000000001
 31
0.0
  0
LINE
  5
142
330
116
100
AcDbEntity
  8
AM_9
100
AcDbLine
 10
0.2499999999999996
 20
-1.46
 30
0.0
 11
0.2499999999999995
 21
-1.733753355788509
 31
0.0
  0
LINE
  5
143
330
116
100
AcDbEntity
  8
AM_9
100
AcDbLine
 10
-1.733753355788509
 20
0.2500000000000002
 30
0.0
 11
-1.46
 21
0.2500000000000001
 31
0.0
  0
LINE
  5
144
330
116
100
AcDbEntity
  8
AM_9
100
AcDbLine
 10
1.46
 20
0.2499999999999999
 30
0.0
 11
1.733753355788509
 21
0.2499999999999997
 31
0.0
  0
LINE
  5
145
330
116
100
AcDbEntity
  8
AM_9
100
AcDbLine
 10
-0.0950000000000001
 20
1.46
 30
0.0
 11
-0.2499999999999988
 21
1.46
 31
0.0
  0
LINE
  5
146
330
116
100
AcDbEntity
  8
AM_9
100
AcDbLine
 10
0.2500000000000007
 20
1.46
 30
0.0
 11
0.0949999999999997
 21
1.46
 31
0.0
  0
LINE
  5
147
330
116
100
AcDbEntity
  8
AM_9
100
AcDbLine
 10
-1.46
 20
-0.095
 30
0.0
 11
-1.46
 21
-0.2499999999999999
 31
0.0
  0
LINE
  5
148
330
116
100
AcDbEntity
  8
AM_9
100
AcDbLine
 10
-1.46
 20
0.2500000000000001
 30
0.0
 11
-1.46
 21
0.0949999999999999
 31
0.0
  0
LINE
  5
149
330
116
100
AcDbEntity
  8
AM_9
100
AcDbLine
 10
0.0950000000000005
 20
-1.46
 30
0.0
 11
0.2499999999999996
 21
-1.46
 31
0.0
  0
LINE
  5
14A
330
116
100
AcDbEntity
  8
AM_9
100
AcDbLine
 10
-0.2499999999999996
 20
-1.46
 30
0.0
 11
-0.0949999999999991
 21
-1.46
 31
0.0
  0
ARC
  5
14B
330
116
100
AcDbEntity
  8
AM_9
100
AcDbCircle
 10
-0.0000000000000315
 20
0.0000000000000123
 30
0.0
 40
1.187335092348251
100
AcDbArc
 50
151.4568292430073
 51
163.5431707569927
  0
LINE
  5
14C
330
116
100
AcDbEntity
  8
AM_9
100
AcDbLine
 10
1.46
 20
0.0950000000000004
 30
0.0
 11
1.46
 21
0.2499999999999999
 31
0.0
  0
LINE
  5
14D
330
116
100
AcDbEntity
  8
AM_9
100
AcDbLine
 10
1.46
 20
-0.2500000000000001
 30
0.0
 11
1.46
 21
-0.0949999999999994
 31
0.0
  0
LINE
  5
14E
330
116
100
AcDbEntity
  8
AM_9
100
AcDbLine
 10
-0.2499999999999995
 20
-1.733753355788509
 30
0.0
 11
-0.2499999999999996
 21
-1.46
 31
0.0
  0
ARC
  5
14F
330
116
100
AcDbEntity
  8
AM_9
100
AcDbCircle
 10
0.0000000000000007
 20
0.0000000000000002
 30
0.0
 40
1.701715561259648
100
AcDbArc
 50
188.4479316571639
 51
261.552068342836
  0
CIRCLE
  5
150
330
116
100
AcDbEntity
  8
AM_9
100
AcDbCircle
 10
-1.060660171779821
 20
1.060660171779821
 30
0.0
 40
0.0724499999999999
  0
ARC
  5
151
330
116
100
AcDbEntity
  8
AM_9
100
AcDbCircle
 10
0.0000000000000002
 20
0.0
 30
0.0
 40
1.701715561259647
100
AcDbArc
 50
8.44793165716396
 51
81.55206834283604
  0
ARC
  5
152
330
116
100
AcDbEntity
  8
AM_9
100
AcDbCircle
 10
-0.0000000000000007
 20
0.0000000000000002
 30
0.0
 40
1.701715561259647
100
AcDbArc
 50
278.447931657164
 51
351.5520683428361
  0
ARC
  5
153
330
116
100
AcDbEntity
  8
AM_9
100
AcDbCircle
 10
-0.0000000000000002
 20
0.0000000000000004
 30
0.0
 40
1.701715561259647
100
AcDbArc
 50
98.44793165716392
 51
171.5520683428361
  0
ARC
  5
154
330
116
100
AcDbEntity
  8
AM_5
100
AcDbCircle
 10
-1.060660171779821
 20
1.060660171779821
 30
0.0
 40
0.0950000000000001
100
AcDbArc
 50
74.99999999999996
 51
14.99999999999994
  0
ARC
  5
155
330
116
100
AcDbEntity
  8
AM_5
100
AcDbCircle
 10
1.060660171779821
 20
-1.060660171779821
 30
0.0
 40
0.0949999999999997
100
AcDbArc
 50
75.00000000000003
 51
14.99999999999982
  0
CIRCLE
  5
156
330
116
100
AcDbEntity
  8
AM_4
100
AcDbCircle
 10
0.0
 20
0.0
 30
0.0
 40
1.918499999999998
  0
LINE
  5
157
330
116
100
AcDbEntity
  8
AM_4
100
AcDbLine
 10
0.2500000000000007
 20
1.747573767398894
 30
0.0
 11
0.2500000000000007
 21
1.733753355788509
 31
0.0
  0
LINE
  5
158
330
116
100
AcDbEntity
  8
AM_4
100
AcDbLine
 10
-1.733753355788509
 20
-0.2499999999999997
 30
0.0
 11
-1.747573767398895
 21
-0.2499999999999997
 31
0.0
  0
LINE
  5
159
330
116
100
AcDbEntity
  8
AM_4
100
AcDbLine
 10
-0.2499999999999988
 20
1.733753355788509
 30
0.0
 11
-0.2499999999999987
 21
1.747573767398895
 31
0.0
  0
LINE
  5
15A
330
116
100
AcDbEntity
  8
AM_4
100
AcDbLine
 10
1.747573767398895
 20
-0.2500000000000002
 30
0.0
 11
1.733753355788509
 21
-0.2500000000000002
 31
0.0
  0
LINE
  5
15B
330
116
100
AcDbEntity
  8
AM_4
100
AcDbLine
 10
0.2499999999999995
 20
-1.733753355788509
 30
0.0
 11
0.2499999999999995
 21
-1.747573767398895
 31
0.0
  0
LINE
  5
15C
330
116
100
AcDbEntity
  8
AM_4
100
AcDbLine
 10
-1.747573767398895
 20
0.2500000000000002
 30
0.0
 11
-1.733753355788509
 21
0.2500000000000002
 31
0.0
  0
LINE
  5
15D
330
116
100
AcDbEntity
  8
AM_4
100
AcDbLine
 10
1.733753355788509
 20
0.2499999999999997
 30
0.0
 11
1.747573767398895
 21
0.2499999999999997
 31
0.0
  0
LINE
  5
15E
330
116
100
AcDbEntity
  8
AM_4
100
AcDbLine
 10
-0.2499999999999998
 20
-1.747573767398895
 30
0.0
 11
-0.2499999999999995
 21
-1.733753355788509
 31
0.0
  0
CIRCLE
  5
15F
330
116
100
AcDbEntity
  8
AM_4
100
AcDbCircle
 10
0.0
 20
0.0
 30
0.0
 40
1.792352345749211
  0
ARC
  5
160
330
116
100
AcDbEntity
  8
AM_4
100
AcDbCircle
 10
-0.0000000000000002
 20
-0.0000000000000003
 30
0.0
 40
1.76536513857637
100
AcDbArc
 50
351.8587614843371
 51
8.141238515662915
  0
ARC
  5
161
330
116
100
AcDbEntity
  8
AM_4
100
AcDbCircle
 10
-0.0000000000000017
 20
0.0000000000000178
 30
0.0
 40
1.765365138576388
100
AcDbArc
 50
261.8587614843373
 51
278.1412385156628
  0
ARC
  5
162
330
116
100
AcDbEntity
  8
AM_4
100
AcDbCircle
 10
-0.0000000000000007
 20
0.0000000000000003
 30
0.0
 40
1.765365138576369
100
AcDbArc
 50
171.858761484337
 51
188.141238515663
  0
ARC
  5
163
330
116
100
AcDbEntity
  8
AM_4
100
AcDbCircle
 10
-0.0000000000000013
 20
0.0000000000000371
 30
0.0
 40
1.765365138576333
100
AcDbArc
 50
81.85876148433687
 51
98.14123851566299
  0
LINE
  5
164
330
116
100
AcDbEntity
  8
AM_4
100
AcDbLine
 10
0.0949999999999997
 20
1.46
 30
0.0
 11
-0.0950000000000001
 21
1.46
 31
0.0
  0
LINE
  5
165
330
116
100
AcDbEntity
  8
AM_4
100
AcDbLine
 10
-1.46
 20
0.0949999999999999
 30
0.0
 11
-1.46
 21
-0.095
 31
0.0
  0
LINE
  5
166
330
116
100
AcDbEntity
  8
AM_4
100
AcDbLine
 10
-0.0949999999999991
 20
-1.46
 30
0.0
 11
0.0950000000000005
 21
-1.46
 31
0.0
  0
LINE
  5
167
330
116
100
AcDbEntity
  8
AM_4
100
AcDbLine
 10
1.46
 20
-0.0949999999999994
 30
0.0
 11
1.46
 21
0.0950000000000004
 31
0.0
  0
ARC
  5
168
330
116
100
AcDbEntity
  8
AM_4
100
AcDbCircle
 10
-0.0000000000000013
 20
-0.0000000000000013
 30
0.0
 40
1.7516851026106
100
AcDbArc
 50
188.205255192614
 51
261.7947448073861
  0
ARC
  5
169
330
116
100
AcDbEntity
  8
AM_4
100
AcDbCircle
 10
0.0000000000000011
 20
0.0000000000000014
 30
0.0
 40
1.7516851026106
100
AcDbArc
 50
8.205255192613933
 51
81.79474480738602
  0
ARC
  5
16A
330
116
100
AcDbEntity
  8
AM_4
100
AcDbCircle
 10
0.0000000000000007
 20
-0.0000000000000004
 30
0.0
 40
1.751685102610601
100
AcDbArc
 50
278.2052551926139
 51
351.7947448073859
  0
ARC
  5
16B
330
116
100
AcDbEntity
  8
AM_4
100
AcDbCircle
 10
-0.0000000000000001
 20
-0.0000000000000002
 30
0.0
 40
1.751685102610602
100
AcDbArc
 50
98.20525519261396
 51
171.794744807386
  0
ARC
  5
16C
330
116
100
AcDbEntity
  8
AM_4
100
AcDbCircle
 10
-0.0000000000000001
 20
-0.0000000000000001
 30
0.0
 40
1.184210526315789
100
AcDbArc
 50
163.5591754271304
 51
151.4408245728696
  0
LINE
  5
16D
330
116
100
AcDbEntity
  8
AM_4
100
AcDbLine
 10
-1.135791184971982
 20
0.3351610878026547
 30
0.0
 11
-1.080764147903618
 21
0.3123681427517312
 31
0.0
  0
LINE
  5
16E
330
116
100
AcDbEntity
  8
AM_4
100
AcDbLine
 10
-0.9850932898123457
 20
0.5433380258795527
 30
0.0
 11
-1.04012032688071
 21
0.5661309709304763
 31
0.0
  0
ARC
  5
16F
330
116
100
AcDbEntity
  8
AM_4
100
AcDbCircle
 10
0.0
 20
-0.0000000000000002
 30
0.0
 40
1.125
100
AcDbArc
 50
163.8793702084428
 51
151.1206297915572
  0
ARC
  5
170
330
116
100
AcDbEntity
  8
AM_5
100
AcDbCircle
 10
-1.060660171779821
 20
1.060660171779821
 30
0.0
 40
0.0949999999999999
100
AcDbArc
 50
210.0
 51
149.9999999999999
  0
ARC
  5
171
330
116
100
AcDbEntity
  8
AM_5
100
AcDbCircle
 10
1.060660171779821
 20
-1.060660171779822
 30
0.0
 40
0.0949999999999999
100
AcDbArc
 50
210.0
 51
150.0
  0
ARC
  5
172
330
116
100
AcDbEntity
  8
AM_5
100
AcDbCircle
 10
-1.060660171779821
 20
1.060660171779821
 30
0.0
 40
0.095
100
AcDbArc
 50
149.9999999999999
 51
60.00000000000011
  0
ARC
  5
173
330
116
100
AcDbEntity
  8
AM_5
100
AcDbCircle
 10
1.060660171779821
 20
-1.060660171779821
 30
0.0
 40
0.095
100
AcDbArc
 50
150.0000000000001
 51
60.00000000000011
  0
ENDBLK
  5
119
330
116
100
AcDbEntity
  8
0
100
AcDbBlockEnd
  0
BLOCK
  5
176
330
174
100
AcDbEntity
  8
0
100
AcDbBlockBegin
  2
6_405015E_Inch_0_in_069664_0
 70
     2
 10
0.0
 20
0.0
 30
0.0
  3
6_405015E_Inch_0_in_069664_0
  1

  0
ATTDEF
  5
178
330
174
100
AcDbEntity
  8
AM_6
100
AcDbText
 10
5.21875
 20
2.9125
 30
0.0
 40
0.5
  1
405015E -Inch
100
AcDbAttributeDefinition
  3

  2
NN
 70
     8
280
     0
  0
ATTDEF
  5
179
330
174
100
AcDbEntity
  8
AM_6
100
AcDbText
 10
5.21875
 20
2.4125
 30
0.0
 40
0.5
  1
Grease Fitting
100
AcDbAttributeDefinition
  3

  2
NT
 70
     8
280
     0
  0
ATTDEF
  5
17A
330
174
100
AcDbEntity
  8
AM_6
100
AcDbText
 10
5.21875
 20
1.9125
 30
0.0
 40
0.5
  1
405015E-Inch
100
AcDbAttributeDefinition
  3

  2
NB
 70
     8
280
     0
  0
ATTDEF
  5
17B
330
174
100
AcDbEntity
  8
AM_6
100
AcDbText
 10
5.21875
 20
1.4125
 30
0.0
 40
0.5
  1
$MN.-Inch
100
AcDbAttributeDefinition
  3

  2
NBSYN
 70
     8
280
     0
  0
ATTDEF
  5
17C
330
174
100
AcDbEntity
  8
AM_6
100
AcDbText
 10
5.21875
 20
0.9125000000000001
 30
0.0
 40
0.5
  1
405015E
100
AcDbAttributeDefinition
  3

  2
LINA
 70
     8
280
     0
  0
ATTDEF
  5
17D
330
174
100
AcDbEntity
  8
AM_6
100
AcDbText
 10
5.21875
 20
0.4125000000000001
 30
0.0
 40
0.5
  1
405015E
100
AcDbAttributeDefinition
  3

  2
MN
 70
     8
280
     0
  0
ATTDEF
  5
17E
330
174
100
AcDbEntity
  8
AM_6
100
AcDbText
 10
5.21875
 20
-0.0874999999999999
 30
0.0
 40
0.5
  1
1/8 x 27PTF
100
AcDbAttributeDefinition
  3

  2
T
 70
     8
280
     0
  0
ATTDEF
  5
17F
330
174
100
AcDbEntity
  8
AM_6
100
AcDbText
 10
5.21875
 20
-0.5874999999999999
 30
0.0
 40
0.5
  1
baldor
100
AcDbAttributeDefinition
  3

  2
COMPANY
 70
     8
280
     0
  0
LINE
  5
180
330
174
100
AcDbEntity
  8
AM_9
100
AcDbLine
 10
-0.161902872472269
 20
2.2725
 30
0.0
 11
0.161902872472269
 21
2.2725
 31
0.0
  0
LINE
  5
181
330
174
100
AcDbEntity
  8
AM_9
100
AcDbLine
 10
0.161902872472269
 20
2.2725
 30
0.0
 11
0.1986176267812154
 21
2.309214754308946
 31
0.0
  0
LINE
  5
182
330
174
100
AcDbEntity
  8
AM_9
100
AcDbLine
 10
-0.1986176267812154
 20
2.309214754308946
 30
0.0
 11
-0.161902872472269
 21
2.2725
 31
0.0
  0
LINE
  5
183
330
174
100
AcDbEntity
  8
AM_9
100
AcDbLine
 10
-0.1986176267812154
 20
2.309214754308946
 30
0.0
 11
0.1986176267812154
 21
2.309214754308946
 31
0.0
  0
LINE
  5
184
330
174
100
AcDbEntity
  8
AM_9
100
AcDbLine
 10
0.1986176267812154
 20
2.309214754308946
 30
0.0
 11
0.2057518972230696
 21
2.5375
 31
0.0
  0
LINE
  5
185
330
174
100
AcDbEntity
  8
AM_9
100
AcDbLine
 10
-0.2057518972230696
 20
2.5375
 30
0.0
 11
-0.1986176267812154
 21
2.309214754308946
 31
0.0
  0
LINE
  5
186
330
174
100
AcDbEntity
  8
AM_5
100
AcDbLine
 10
-0.1681491248523479
 20
2.472370087748463
 30
0.0
 11
-0.161902872472269
 21
2.2725
 31
0.0
  0
LINE
  5
187
330
174
100
AcDbEntity
  8
AM_5
100
AcDbLine
 10
-0.2057518972230696
 20
2.5375
 30
0.0
 11
-0.168149124852348
 21
2.472370087748463
 31
0.0
  0
LINE
  5
188
330
174
100
AcDbEntity
  8
AM_5
100
AcDbLine
 10
0.2037164857515567
 20
2.472370087748463
 30
0.0
 11
-0.203716485751557
 21
2.472370087748463
 31
0.0
  0
LINE
  5
189
330
174
100
AcDbEntity
  8
AM_5
100
AcDbLine
 10
0.1681491248523479
 20
2.472370087748463
 30
0.0
 11
0.161902872472269
 21
2.2725
 31
0.0
  0
LINE
  5
18A
330
174
100
AcDbEntity
  8
AM_5
100
AcDbLine
 10
0.2057518972230696
 20
2.5375
 30
0.0
 11
0.1681491248523479
 21
2.472370087748463
 31
0.0
  0
LINE
  5
18B
330
174
100
AcDbEntity
  8
AM_4
100
AcDbLine
 10
0.105
 20
2.7425
 30
0.0
 11
0.105
 21
2.7725
 31
0.0
  0
LINE
  5
18C
330
174
100
AcDbEntity
  8
AM_4
100
AcDbLine
 10
-0.105
 20
2.7725
 30
0.0
 11
-0.105
 21
2.7425
 31
0.0
  0
LINE
  5
18D
330
174
100
AcDbEntity
  8
AM_4
100
AcDbLine
 10
-0.105
 20
2.7425
 30
0.0
 11
0.105
 21
2.7425
 31
0.0
  0
LINE
  5
18E
330
174
100
AcDbEntity
  8
AM_4
100
AcDbLine
 10
-0.105
 20
2.7425
 30
0.0
 11
-0.1188200907348975
 21
2.710253121618573
 31
0.0
  0
LINE
  5
18F
330
174
100
AcDbEntity
  8
AM_4
100
AcDbLine
 10
0.1188200907348975
 20
2.710253121618573
 30
0.0
 11
0.105
 21
2.7425
 31
0.0
  0
LINE
  5
190
330
174
100
AcDbEntity
  8
AM_4
100
AcDbLine
 10
-0.105
 20
2.7725
 30
0.0
 11
0.105
 21
2.7725
 31
0.0
  0
LINE
  5
191
330
174
100
AcDbEntity
  8
AM_4
100
AcDbLine
 10
0.105
 20
2.7725
 30
0.0
 11
0.135
 21
2.8325
 31
0.0
  0
LINE
  5
192
330
174
100
AcDbEntity
  8
AM_4
100
AcDbLine
 10
-0.135
 20
2.8325
 30
0.0
 11
-0.105
 21
2.7725
 31
0.0
  0
LINE
  5
193
330
174
100
AcDbEntity
  8
AM_4
100
AcDbLine
 10
-0.1026779019331875
 20
2.9125
 30
0.0
 11
0.1026779019331875
 21
2.9125
 31
0.0
  0
LINE
  5
194
330
174
100
AcDbEntity
  8
AM_4
100
AcDbLine
 10
-0.135
 20
2.8325
 30
0.0
 11
0.135
 21
2.8325
 31
0.0
  0
LINE
  5
195
330
174
100
AcDbEntity
  8
AM_4
100
AcDbLine
 10
-0.1026779019331875
 20
2.9125
 30
0.0
 11
-0.135
 21
2.8325
 31
0.0
  0
LINE
  5
196
330
174
100
AcDbEntity
  8
AM_4
100
AcDbLine
 10
0.135
 20
2.8325
 30
0.0
 11
0.1026779019331875
 21
2.9125
 31
0.0
  0
LINE
  5
197
330
174
100
AcDbEntity
  8
AM_4
100
AcDbLine
 10
-0.1188200907348975
 20
2.710253121618573
 30
0.0
 11
0.1188200907348975
 21
2.710253121618573
 31
0.0
  0
LINE
  5
198
330
174
100
AcDbEntity
  8
AM_4
100
AcDbLine
 10
-0.1188200907348975
 20
2.710253121618573
 30
0.0
 11
-0.1725340532830154
 21
2.655818198540882
 31
0.0
  0
LINE
  5
199
330
174
100
AcDbEntity
  8
AM_4
100
AcDbLine
 10
0.1725340532830154
 20
2.655818198540882
 30
0.0
 11
0.1188200907348975
 21
2.710253121618573
 31
0.0
  0
LINE
  5
19A
330
174
100
AcDbEntity
  8
AM_4
100
AcDbLine
 10
0.21875
 20
2.5375
 30
0.0
 11
0.21875
 21
2.6375
 31
0.0
  0
LINE
  5
19B
330
174
100
AcDbEntity
  8
AM_4
100
AcDbLine
 10
-0.21875
 20
2.6375
 30
0.0
 11
0.21875
 21
2.6375
 31
0.0
  0
LINE
  5
19C
330
174
100
AcDbEntity
  8
AM_4
100
AcDbLine
 10
-0.21875
 20
2.6375
 30
0.0
 11
-0.21875
 21
2.5375
 31
0.0
  0
LINE
  5
19D
330
174
100
AcDbEntity
  8
AM_4
100
AcDbLine
 10
-0.1725340532830154
 20
2.655818198540882
 30
0.0
 11
0.1725340532830154
 21
2.655818198540882
 31
0.0
  0
LINE
  5
19E
330
174
100
AcDbEntity
  8
AM_4
100
AcDbLine
 10
-0.1725340532830154
 20
2.655818198540882
 30
0.0
 11
-0.21375
 21
2.6375
 31
0.0
  0
LINE
  5
19F
330
174
100
AcDbEntity
  8
AM_4
100
AcDbLine
 10
0.21375
 20
2.6375
 30
0.0
 11
0.1725340532830154
 21
2.655818198540882
 31
0.0
  0
LWPOLYLINE
  5
1A0
330
174
100
AcDbEntity
  8
AM_4
100
AcDbPolyline
 90
        4
 70
     0
 43
0.0
 10
-0.21875
 20
2.628432400303386
 10
-0.1779449093802249
 20
2.633778587191168
 10
-0.1368799989092349
 20
2.636885438185772
 10
-0.109375
 20
2.6375
  0
LWPOLYLINE
  5
1A1
330
174
100
AcDbEntity
  8
AM_4
100
AcDbPolyline
 90
        4
 70
     0
 43
0.0
 10
-0.109375
 20
2.5375
 10
-0.1367187499999999
 20
2.538107414003999
 10
-0.1641036419500296
 20
2.539896912501074
 10
-0.21875
 20
2.546567599696615
  0
LWPOLYLINE
  5
1A2
330
174
100
AcDbEntity
  8
AM_4
100
AcDbPolyline
 90
        4
 70
     0
 43
0.0
 10
0.0
 20
2.546567599696615
 10
-0.040805090619775
 20
2.541221412808832
 10
-0.0818700010907651
 20
2.538114561814227
 10
-0.109375
 20
2.5375
  0
LWPOLYLINE
  5
1A3
330
174
100
AcDbEntity
  8
AM_4
100
AcDbPolyline
 90
        4
 70
     0
 43
0.0
 10
0.1093749999999999
 20
2.6375
 10
0.1367187499999999
 20
2.636892585996001
 10
0.1641036419500296
 20
2.635103087498925
 10
0.21875
 20
2.628432400303386
  0
LINE
  5
1A4
330
174
100
AcDbEntity
  8
AM_4
100
AcDbLine
 10
0.0
 20
2.628432400303386
 30
0.0
 11
0.0
 21
2.546567599696615
 31
0.0
  0
LWPOLYLINE
  5
1A5
330
174
100
AcDbEntity
  8
AM_4
100
AcDbPolyline
 90
        4
 70
     0
 43
0.0
 10
0.109375
 20
2.5375
 10
0.08203125
 20
2.538107414003999
 10
0.0546463580499704
 20
2.539896912501074
 10
0.0
 20
2.546567599696615
  0
LWPOLYLINE
  5
1A6
330
174
100
AcDbEntity
  8
AM_4
100
AcDbPolyline
 90
        4
 70
     0
 43
0.0
 10
0.21875
 20
2.546567599696615
 10
0.1779449093802249
 20
2.541221412808832
 10
0.1368799989092349
 20
2.538114561814227
 10
0.109375
 20
2.5375
  0
LWPOLYLINE
  5
1A7
330
174
100
AcDbEntity
  8
AM_4
100
AcDbPolyline
 90
        4
 70
     0
 43
0.0
 10
-0.109375
 20
2.6375
 10
-0.08203125
 20
2.636892585996001
 10
-0.0546463580499704
 20
2.635103087498925
 10
0.0
 20
2.628432400303386
  0
LWPOLYLINE
  5
1A8
330
174
100
AcDbEntity
  8
AM_4
100
AcDbPolyline
 90
        4
 70
     0
 43
0.0
 10
0.0
 20
2.628432400303386
 10
0.040805090619775
 20
2.633778587191168
 10
0.0818700010907651
 20
2.636885438185772
 10
0.1093749999999999
 20
2.6375
  0
ENDBLK
  5
177
330
174
100
AcDbEntity
  8
0
100
AcDbBlockEnd
  0
BLOCK
  5
1AB
330
1A9
100
AcDbEntity
  8
0
100
AcDbBlockBegin
  2
7_069664H_0_in_069664_0
 70
     2
 10
0.0
 20
0.0
 30
0.0
  3
7_069664H_0_in_069664_0
  1

  0
ATTDEF
  5
1AD
330
1A9
100
AcDbEntity
  8
AM_6
100
AcDbText
 10
8.871875000000001
 20
3.871875000000001
 30
0.0
 40
0.5
  1
F3&4R-IP -(Labyrinth Seal)-Housing -Inch
100
AcDbAttributeDefinition
  3

  2
NN
 70
     8
280
     0
  0
ATTDEF
  5
1AE
330
1A9
100
AcDbEntity
  8
AM_6
100
AcDbText
 10
8.871875000000001
 20
3.371875000000001
 30
0.0
 40
0.5
  1
Imperial 3 & 4 Bolt Round Flange Bearings
100
AcDbAttributeDefinition
  3

  2
NT
 70
     8
280
     0
  0
ATTDEF
  5
1AF
330
1A9
100
AcDbEntity
  8
AM_6
100
AcDbText
 10
8.871875000000001
 20
2.871875000000001
 30
0.0
 40
0.5
  1
069664H
100
AcDbAttributeDefinition
  3

  2
NB
 70
     8
280
     0
  0
ATTDEF
  5
1B0
330
1A9
100
AcDbEntity
  8
AM_6
100
AcDbText
 10
8.871875000000001
 20
2.371875000000001
 30
0.0
 40
0.5
  1
$PN.H
100
AcDbAttributeDefinition
  3

  2
NBSYN
 70
     8
280
     0
  0
ATTDEF
  5
1B1
330
1A9
100
AcDbEntity
  8
AM_6
100
AcDbText
 10
8.871875000000001
 20
1.871875000000001
 30
0.0
 40
0.5
  1
069664
100
AcDbAttributeDefinition
  3

  2
LINA
 70
     8
280
     0
  0
ATTDEF
  5
1B2
330
1A9
100
AcDbEntity
  8
AM_6
100
AcDbText
 10
8.871875000000001
 20
1.371875000000001
 30
0.0
 40
0.5
  1
2-1/4
100
AcDbAttributeDefinition
  3

  2
SS
 70
     8
280
     0
  0
ATTDEF
  5
1B3
330
1A9
100
AcDbEntity
  8
AM_6
100
AcDbText
 10
8.871875000000001
 20
0.8718750000000011
 30
0.0
 40
0.5
  1
069664
100
AcDbAttributeDefinition
  3

  2
PN
 70
     8
280
     0
  0
ATTDEF
  5
1B4
330
1A9
100
AcDbEntity
  8
AM_6
100
AcDbText
 10
8.871875000000001
 20
0.3718750000000011
 30
0.0
 40
0.5
  1
F4R-IP-204L
100
AcDbAttributeDefinition
  3

  2
DESCRIPTION
 70
     8
280
     0
  0
ATTDEF
  5
1B5
330
1A9
100
AcDbEntity
  8
AM_6
100
AcDbText
 10
8.871875000000001
 20
-0.1281249999999989
 30
0.0
 40
0.5
  1
Non-Expansion Type
100
AcDbAttributeDefinition
  3

  2
EF
 70
     8
280
     0
  0
ATTDEF
  5
1B6
330
1A9
100
AcDbEntity
  8
AM_6
100
AcDbText
 10
8.871875000000001
 20
-0.6281249999999989
 30
0.0
 40
0.5
  1
Labyrinth Seal
100
AcDbAttributeDefinition
  3

  2
ST
 70
     8
280
     0
  0
ATTDEF
  5
1B7
330
1A9
100
AcDbEntity
  8
AM_6
100
AcDbText
 10
8.871875000000001
 20
-1.128124999999999
 30
0.0
 40
0.5
  1
3-1/32
100
AcDbAttributeDefinition
  3

  2
A
 70
     8
280
     0
  0
ATTDEF
  5
1B8
330
1A9
100
AcDbEntity
  8
AM_6
100
AcDbText
 10
8.871875000000001
 20
-1.628124999999999
 30
0.0
 40
0.5
  1
7-3/8
100
AcDbAttributeDefinition
  3

  2
B
 70
     8
280
     0
  0
ATTDEF
  5
1B9
330
1A9
100
AcDbEntity
  8
AM_6
100
AcDbText
 10
8.871875000000001
 20
-2.128124999999999
 30
0.0
 40
0.5
  1
3-11/32
100
AcDbAttributeDefinition
  3

  2
C
 70
     8
280
     0
  0
ATTDEF
  5
1BA
330
1A9
100
AcDbEntity
  8
AM_6
100
AcDbText
 10
8.871875000000001
 20
-2.628124999999999
 30
0.0
 40
0.5
  1
4-1/2
100
AcDbAttributeDefinition
  3

  2
D
 70
     8
280
     0
  0
ATTDEF
  5
1BB
330
1A9
100
AcDbEntity
  8
AM_6
100
AcDbText
 10
8.871875000000001
 20
-3.128124999999999
 30
0.0
 40
0.5
  1
6-3/8
100
AcDbAttributeDefinition
  3

  2
DD
 70
     8
280
     0
  0
ATTDEF
  5
1BC
330
1A9
100
AcDbEntity
  8
AM_6
100
AcDbText
 10
8.871875000000001
 20
-3.628124999999999
 30
0.0
 40
0.5
  1
2-3/64
100
AcDbAttributeDefinition
  3

  2
E
 70
     8
280
     0
  0
ATTDEF
  5
1BD
330
1A9
100
AcDbEntity
  8
AM_6
100
AcDbText
 10
8.871875000000001
 20
-4.128124999999999
 30
0.0
 40
0.5
  1
5/8
100
AcDbAttributeDefinition
  3

  2
F
 70
     8
280
     0
  0
ATTDEF
  5
1BE
330
1A9
100
AcDbEntity
  8
AM_6
100
AcDbText
 10
8.871875000000001
 20
-4.628124999999999
 30
0.0
 40
0.5
  1
9/16
100
AcDbAttributeDefinition
  3

  2
H
 70
     8
280
     0
  0
ATTDEF
  5
1BF
330
1A9
100
AcDbEntity
  8
AM_6
100
AcDbText
 10
8.871875000000001
 20
-5.128124999999999
 30
0.0
 40
0.5
  1
4-7/8
100
AcDbAttributeDefinition
  3

  2
J
 70
     8
280
     0
  0
ATTDEF
  5
1C0
330
1A9
100
AcDbEntity
  8
AM_6
100
AcDbText
 10
8.871875000000001
 20
-5.628124999999999
 30
0.0
 40
0.5
  1
3-1/2
100
AcDbAttributeDefinition
  3

  2
L
 70
     8
280
     0
  0
ATTDEF
  5
1C1
330
1A9
100
AcDbEntity
  8
AM_6
100
AcDbText
 10
8.871875000000001
 20
-6.128124999999999
 30
0.0
 40
0.5
  1
5/16
100
AcDbAttributeDefinition
  3

  2
P
 70
     8
280
     0
  0
ATTDEF
  5
1C2
330
1A9
100
AcDbEntity
  8
AM_6
100
AcDbText
 10
8.871875000000001
 20
-6.628124999999999
 30
0.0
 40
0.5
  1
1/4
100
AcDbAttributeDefinition
  3

  2
X
 70
     8
280
     0
  0
ATTDEF
  5
1C3
330
1A9
100
AcDbEntity
  8
AM_6
100
AcDbText
 10
8.871875000000001
 20
-7.128124999999999
 30
0.0
 40
0.5
  1
0.025
100
AcDbAttributeDefinition
  3

  2
Y
 70
     8
280
     0
  0
ATTDEF
  5
1C4
330
1A9
100
AcDbEntity
  8
AM_6
100
AcDbText
 10
8.871875000000001
 20
-7.628124999999999
 30
0.0
 40
0.5
  1
2-19/32
100
AcDbAttributeDefinition
  3

  2
Z
 70
     8
280
     0
  0
ATTDEF
  5
1C5
330
1A9
100
AcDbEntity
  8
AM_6
100
AcDbText
 10
8.871875000000001
 20
-8.128124999999999
 30
0.0
 40
0.5
  1
baldor
100
AcDbAttributeDefinition
  3

  2
COMPANY
 70
     8
280
     0
  0
CIRCLE
  5
1C6
330
1A9
100
AcDbEntity
  8
AM_9
100
AcDbCircle
 10
0.0
 20
0.0
 30
0.0
 40
2.321428571428571
  0
LINE
  5
1C7
330
1A9
100
AcDbEntity
  8
AM_7
100
AcDbLine
 10
1.92577786503212
 20
-2.25390286503212
 30
0.0
 11
2.58202786503212
 21
-2.25390286503212
 31
0.0
  0
LINE
  5
1C8
330
1A9
100
AcDbEntity
  8
AM_7
100
AcDbLine
 10
2.25390286503212
 20
-2.58202786503212
 30
0.0
 11
2.25390286503212
 21
-1.92577786503212
 31
0.0
  0
LINE
  5
1C9
330
1A9
100
AcDbEntity
  8
AM_7
100
AcDbLine
 10
1.92577786503212
 20
2.25390286503212
 30
0.0
 11
2.58202786503212
 21
2.25390286503212
 31
0.0
  0
LINE
  5
1CA
330
1A9
100
AcDbEntity
  8
AM_7
100
AcDbLine
 10
2.25390286503212
 20
1.92577786503212
 30
0.0
 11
2.25390286503212
 21
2.58202786503212
 31
0.0
  0
LINE
  5
1CB
330
1A9
100
AcDbEntity
  8
AM_7
100
AcDbLine
 10
-2.58202786503212
 20
2.25390286503212
 30
0.0
 11
-1.92577786503212
 21
2.25390286503212
 31
0.0
  0
LINE
  5
1CC
330
1A9
100
AcDbEntity
  8
AM_7
100
AcDbLine
 10
-2.25390286503212
 20
1.92577786503212
 30
0.0
 11
-2.25390286503212
 21
2.58202786503212
 31
0.0
  0
LINE
  5
1CD
330
1A9
100
AcDbEntity
  8
AM_7
100
AcDbLine
 10
-2.58202786503212
 20
-2.25390286503212
 30
0.0
 11
-1.92577786503212
 21
-2.25390286503212
 31
0.0
  0
LINE
  5
1CE
330
1A9
100
AcDbEntity
  8
AM_7
100
AcDbLine
 10
-2.25390286503212
 20
-2.58202786503212
 30
0.0
 11
-2.25390286503212
 21
-1.92577786503212
 31
0.0
  0
LINE
  5
1CF
330
1A9
100
AcDbEntity
  8
AM_7
100
AcDbLine
 10
-3.871875
 20
0.0000000000000004
 30
0.0
 11
3.871875000000002
 21
0.0000000000000004
 31
0.0
  0
LINE
  5
1D0
330
1A9
100
AcDbEntity
  8
AM_7
100
AcDbLine
 10
0.0000000000000009
 20
-3.871875
 30
0.0
 11
0.0000000000000009
 21
3.871875000000001
 31
0.0
  0
ARC
  5
1D1
330
1A9
100
AcDbEntity
  8
AM_4
100
AcDbCircle
 10
0.0000000000000001
 20
3.843749999999996
 30
0.0
 40
0.3124999999999964
100
AcDbArc
 50
212.0384197641891
 51
327.9615802358109
  0
ARC
  5
1D2
330
1A9
100
AcDbEntity
  8
AM_4
100
AcDbCircle
 10
0.0
 20
-0.0000000000000011
 30
0.0
 40
3.6875
100
AcDbArc
 50
94.11958299448054
 51
85.88041700551948
  0
LINE
  5
1D3
330
1A9
100
AcDbEntity
  8
AM_4
100
AcDbLine
 10
-2.077944832309249
 20
-3.046276665682105
 30
0.0
 11
-0.9895294427717836
 21
-2.284160005224516
 31
0.0
  0
LINE
  5
1D4
330
1A9
100
AcDbEntity
  8
AM_4
100
AcDbLine
 10
-2.284160005224516
 20
-0.9895294427717838
 30
0.0
 11
-3.046276665682107
 21
-2.077944832309248
 31
0.0
  0
LINE
  5
1D5
330
1A9
100
AcDbEntity
  8
AM_4
100
AcDbLine
 10
-3.046276665682105
 20
2.077944832309249
 30
0.0
 11
-2.284160005224516
 21
0.9895294427717836
 31
0.0
  0
LINE
  5
1D6
330
1A9
100
AcDbEntity
  8
AM_4
100
AcDbLine
 10
-0.989529442771784
 20
2.284160005224516
 30
0.0
 11
-2.077944832309248
 21
3.046276665682107
 31
0.0
  0
LINE
  5
1D7
330
1A9
100
AcDbEntity
  8
AM_4
100
AcDbLine
 10
3.046276665682105
 20
-2.077944832309249
 30
0.0
 11
2.284160005224516
 21
-0.9895294427717847
 31
0.0
  0
LINE
  5
1D8
330
1A9
100
AcDbEntity
  8
AM_4
100
AcDbLine
 10
0.9895294427717837
 20
-2.284160005224516
 30
0.0
 11
2.077944832309248
 21
-3.046276665682107
 31
0.0
  0
LINE
  5
1D9
330
1A9
100
AcDbEntity
  8
AM_4
100
AcDbLine
 10
2.077944832309249
 20
3.046276665682105
 30
0.0
 11
0.9895294427717836
 21
2.284160005224516
 31
0.0
  0
LINE
  5
1DA
330
1A9
100
AcDbEntity
  8
AM_4
100
AcDbLine
 10
2.284160005224516
 20
0.989529442771784
 30
0.0
 11
3.046276665682107
 21
2.077944832309248
 31
0.0
  0
CIRCLE
  5
1DB
330
1A9
100
AcDbEntity
  8
AM_4
100
AcDbCircle
 10
2.25390286503212
 20
-2.25390286503212
 30
0.0
 40
0.3125
  0
ARC
  5
1DC
330
1A9
100
AcDbEntity
  8
AM_4
100
AcDbCircle
 10
2.37631461020703
 20
-0.9250020936822918
 30
0.0
 40
0.1125000000000022
100
AcDbArc
 50
158.7310716143467
 51
214.9999999999993
  0
ARC
  5
1DD
330
1A9
100
AcDbEntity
  8
AM_4
100
AcDbCircle
 10
0.9250020936822912
 20
-2.376314610207032
 30
0.0
 40
0.1125000000000038
100
AcDbArc
 50
55.00000000000151
 51
111.2689283856536
  0
ARC
  5
1DE
330
1A9
100
AcDbEntity
  8
AM_4
100
AcDbCircle
 10
-0.0000000000000049
 20
0.000000000000004
 30
0.0
 40
3.631250000000006
100
AcDbArc
 50
303.9631519233603
 51
326.0368480766397
  0
CIRCLE
  5
1DF
330
1A9
100
AcDbEntity
  8
AM_4
100
AcDbCircle
 10
2.25390286503212
 20
2.25390286503212
 30
0.0
 40
0.3125
  0
ARC
  5
1E0
330
1A9
100
AcDbEntity
  8
AM_4
100
AcDbCircle
 10
0.9250020936822911
 20
2.376314610207029
 30
0.0
 40
0.1125000000000008
100
AcDbArc
 50
248.7310716143466
 51
304.9999999999995
  0
ARC
  5
1E1
330
1A9
100
AcDbEntity
  8
AM_4
100
AcDbCircle
 10
2.37631461020703
 20
0.9250020936822912
 30
0.0
 40
0.1125000000000018
100
AcDbArc
 50
145.0000000000006
 51
201.2689283856533
  0
ARC
  5
1E2
330
1A9
100
AcDbEntity
  8
AM_4
100
AcDbCircle
 10
0.0000000000000107
 20
0.0000000000000098
 30
0.0
 40
3.631249999999985
100
AcDbArc
 50
33.96315192336023
 51
56.03684807663977
  0
CIRCLE
  5
1E3
330
1A9
100
AcDbEntity
  8
AM_4
100
AcDbCircle
 10
-2.25390286503212
 20
2.25390286503212
 30
0.0
 40
0.3125
  0
ARC
  5
1E4
330
1A9
100
AcDbEntity
  8
AM_4
100
AcDbCircle
 10
-2.376314610207029
 20
0.9250020936822912
 30
0.0
 40
0.1125000000000009
100
AcDbArc
 50
338.7310716143465
 51
34.99999999999948
  0
ARC
  5
1E5
330
1A9
100
AcDbEntity
  8
AM_4
100
AcDbCircle
 10
-0.9250020936822909
 20
2.376314610207031
 30
0.0
 40
0.1125000000000031
100
AcDbArc
 50
235.0000000000009
 51
291.2689283856527
  0
ARC
  5
1E6
330
1A9
100
AcDbEntity
  8
AM_4
100
AcDbCircle
 10
-0.0000000000000098
 20
0.0000000000000111
 30
0.0
 40
3.631249999999985
100
AcDbArc
 50
123.9631519233602
 51
146.0368480766398
  0
CIRCLE
  5
1E7
330
1A9
100
AcDbEntity
  8
AM_4
100
AcDbCircle
 10
-2.25390286503212
 20
-2.25390286503212
 30
0.0
 40
0.3125
  0
ARC
  5
1E8
330
1A9
100
AcDbEntity
  8
AM_4
100
AcDbCircle
 10
-0.0000000000000302
 20
-0.0000000000000284
 30
0.0
 40
3.631249999999959
100
AcDbArc
 50
213.9631519233602
 51
236.0368480766398
  0
ARC
  5
1E9
330
1A9
100
AcDbEntity
  8
AM_4
100
AcDbCircle
 10
-0.9250020936822912
 20
-2.376314610207029
 30
0.0
 40
0.1125000000000008
100
AcDbArc
 50
68.73107161434656
 51
124.9999999999995
  0
ARC
  5
1EA
330
1A9
100
AcDbEntity
  8
AM_4
100
AcDbCircle
 10
-2.376314610207026
 20
-0.9250020936822914
 30
0.0
 40
0.1124999999999987
100
AcDbArc
 50
324.9999999999997
 51
21.26892838565475
  0
LINE
  5
1EB
330
1A9
100
AcDbEntity
  8
AM_4
100
AcDbLine
 10
0.5000000000000001
 20
2.386023625646789
 30
0.0
 11
0.5000000000000001
 21
2.4375
 31
0.0
  0
LINE
  5
1EC
330
1A9
100
AcDbEntity
  8
AM_4
100
AcDbLine
 10
-0.5000000000000001
 20
2.4375
 30
0.0
 11
0.5000000000000001
 21
2.4375
 31
0.0
  0
LINE
  5
1ED
330
1A9
100
AcDbEntity
  8
AM_4
100
AcDbLine
 10
-0.4000000000000004
 20
2.5375
 30
0.0
 11
0.4000000000000004
 21
2.5375
 31
0.0
  0
ARC
  5
1EE
330
1A9
100
AcDbEntity
  8
AM_4
100
AcDbCircle
 10
0.4000000000000001
 20
2.4375
 30
0.0
 40
0.1
100
AcDbArc
 50
0.0
 51
90.0
  0
ARC
  5
1EF
330
1A9
100
AcDbEntity
  8
AM_4
100
AcDbCircle
 10
-0.4000000000000001
 20
2.4375
 30
0.0
 40
0.1000000000000001
100
AcDbArc
 50
90.0
 51
180.0
  0
LINE
  5
1F0
330
1A9
100
AcDbEntity
  8
AM_4
100
AcDbLine
 10
-0.5000000000000001
 20
2.4375
 30
0.0
 11
-0.5000000000000001
 21
2.385833989037098
 31
0.0
  0
ARC
  5
1F1
330
1A9
100
AcDbEntity
  8
AM_4
100
AcDbCircle
 10
-3.449197430640472
 20
-3.449197430640471
 30
0.0
 40
2.556473214285616
100
AcDbArc
 50
36.38618393088927
 51
53.6138160691107
  0
ARC
  5
1F2
330
1A9
100
AcDbEntity
  8
AM_4
100
AcDbCircle
 10
-3.449197430640499
 20
3.449197430640497
 30
0.0
 40
2.556473214285655
100
AcDbArc
 50
306.3861839308894
 51
323.6138160691106
  0
ARC
  5
1F3
330
1A9
100
AcDbEntity
  8
AM_4
100
AcDbCircle
 10
3.449197430640504
 20
-3.449197430640507
 30
0.0
 40
2.556473214285664
100
AcDbArc
 50
126.3861839308894
 51
143.6138160691105
  0
ARC
  5
1F4
330
1A9
100
AcDbEntity
  8
AM_4
100
AcDbCircle
 10
3.449197430640505
 20
3.449197430640502
 30
0.0
 40
2.556473214285662
100
AcDbArc
 50
216.3861839308894
 51
233.6138160691106
  0
CIRCLE
  5
1F5
330
1A9
100
AcDbEntity
  8
AM_4
100
AcDbCircle
 10
0.0
 20
0.0
 30
0.0
 40
1.9685
  0
LWPOLYLINE
  5
1F6
330
1A9
100
AcDbEntity
  8
AM_4
100
AcDbPolyline
 90
        5
 70
     0
 43
0.0
 10
1.932634169072466
 20
-1.391142239684202
 10
1.952224041099173
 20
-1.376849494997167
 10
2.001403965302519
 20
-1.342197341156715
 10
2.03314540514351
 20
-1.320735085085402
 10
2.050764907463966
 20
-1.30911757851298
  0
LWPOLYLINE
  5
1F7
330
1A9
100
AcDbEntity
  8
AM_4
100
AcDbPolyline
 90
        5
 70
     0
 43
0.0
 10
2.050764911283361
 20
1.3091175760172
 10
2.030541246250859
 20
1.32246991498339
 10
2.003468827241543
 20
1.340779990788007
 10
1.974908359702341
 20
1.360650799446373
 10
1.932634169072469
 20
1.391142239684199
  0
LWPOLYLINE
  5
1F8
330
1A9
100
AcDbEntity
  8
AM_4
100
AcDbPolyline
 90
        3
 70
     0
 43
0.0
 10
2.050764911283361
 20
1.3091175760172
 10
2.065679934005858
 20
1.293974747774935
 10
2.065789256615215
 20
1.293800988271828
  0
ARC
  5
1F9
330
1A9
100
AcDbEntity
  8
AM_4
100
AcDbCircle
 10
0.0000000000000018
 20
0.0000000000000001
 30
0.0
 40
2.381249999999999
100
AcDbArc
 50
324.253032198278
 51
35.74696780172188
  0
LWPOLYLINE
  5
1FA
330
1A9
100
AcDbEntity
  8
AM_4
100
AcDbPolyline
 90
        3
 70
     0
 43
0.0
 10
2.065789256615215
 20
-1.293800988271828
 10
2.065679934005821
 20
-1.293974747774993
 10
2.050764907463966
 20
-1.30911757851298
  0
ARC
  5
1FB
330
1A9
100
AcDbEntity
  8
AM_4
100
AcDbCircle
 10
0.0000000000000018
 20
-0.0000000000000003
 30
0.0
 40
2.437499999999998
100
AcDbArc
 50
327.9411424274896
 51
32.0588575725104
  0
LWPOLYLINE
  5
1FC
330
1A9
100
AcDbEntity
  8
AM_4
100
AcDbPolyline
 90
        5
 70
     0
 43
0.0
 10
-1.391142239684202
 20
-1.932634169072467
 10
-1.376849494997272
 20
-1.952224041099025
 10
-1.342197341156781
 20
-2.001403965302422
 10
-1.32073508508544
 20
-2.033145405143452
 10
-1.30911757851298
 20
-2.050764907463965
  0
LWPOLYLINE
  5
1FD
330
1A9
100
AcDbEntity
  8
AM_4
100
AcDbPolyline
 90
        5
 70
     0
 43
0.0
 10
1.3091175760172
 20
-2.050764911283361
 10
1.32246991498339
 20
-2.030541246250859
 10
1.340779990788007
 20
-2.003468827241543
 10
1.360650799446373
 20
-1.974908359702341
 10
1.391142239684201
 20
-1.932634169072467
  0
LWPOLYLINE
  5
1FE
330
1A9
100
AcDbEntity
  8
AM_4
100
AcDbPolyline
 90
        3
 70
     0
 43
0.0
 10
1.3091175760172
 20
-2.050764911283361
 10
1.29397474777493
 20
-2.065679934005861
 10
1.293800988271827
 20
-2.065789256615215
  0
ARC
  5
1FF
330
1A9
100
AcDbEntity
  8
AM_4
100
AcDbCircle
 10
-0.0000000000000002
 20
0.0000000000000004
 30
0.0
 40
2.381250000000001
100
AcDbArc
 50
234.2530321982781
 51
305.7469678017218
  0
LWPOLYLINE
  5
200
330
1A9
100
AcDbEntity
  8
AM_4
100
AcDbPolyline
 90
        3
 70
     0
 43
0.0
 10
-1.293800988271828
 20
-2.065789256615215
 10
-1.293974747774984
 20
-2.065679934005828
 10
-1.30911757851298
 20
-2.050764907463965
  0
ARC
  5
201
330
1A9
100
AcDbEntity
  8
AM_4
100
AcDbCircle
 10
-0.0000000000000004
 20
-0.0000000000000018
 30
0.0
 40
2.437499999999998
100
AcDbArc
 50
237.9411424274896
 51
302.0588575725105
  0
LWPOLYLINE
  5
202
330
1A9
100
AcDbEntity
  8
AM_4
100
AcDbPolyline
 90
        5
 70
     0
 43
0.0
 10
-2.050764907463967
 20
-1.309117578512979
 10
-2.030541241682206
 20
-1.322469918030958
 10
-2.003468817503748
 20
-1.340779997465152
 10
-1.974908344765867
 20
-1.360650809989915
 10
-1.932634169072467
 20
-1.391142239684201
  0
LWPOLYLINE
  5
203
330
1A9
100
AcDbEntity
  8
AM_4
100
AcDbPolyline
 90
        5
 70
     0
 43
0.0
 10
-1.932634169072468
 20
1.3911422396842
 10
-1.952224041099059
 20
1.376849494997249
 10
-2.001403965302442
 20
1.342197341156768
 10
-2.033145405143463
 20
1.320735085085433
 10
-2.050764907463965
 20
1.30911757851298
  0
LWPOLYLINE
  5
204
330
1A9
100
AcDbEntity
  8
AM_4
100
AcDbPolyline
 90
        3
 70
     0
 43
0.0
 10
-2.065789256615215
 20
1.293800988271828
 10
-2.065679934005844
 20
1.293974747774957
 10
-2.050764907463965
 20
1.30911757851298
  0
ARC
  5
205
330
1A9
100
AcDbEntity
  8
AM_4
100
AcDbCircle
 10
-0.0000000000000013
 20
0.0000000000000001
 30
0.0
 40
2.437499999999999
100
AcDbArc
 50
147.9411424274896
 51
212.0588575725104
  0
LWPOLYLINE
  5
206
330
1A9
100
AcDbEntity
  8
AM_4
100
AcDbPolyline
 90
        3
 70
     0
 43
0.0
 10
-2.050764907463967
 20
-1.309117578512979
 10
-2.065679934005867
 20
-1.293974747774921
 10
-2.065789256615216
 20
-1.293800988271826
  0
ARC
  5
207
330
1A9
100
AcDbEntity
  8
AM_4
100
AcDbCircle
 10
-0.0000000000000022
 20
0.0000000000000004
 30
0.0
 40
2.381249999999998
100
AcDbArc
 50
144.2530321982781
 51
215.746967801722
  0
LWPOLYLINE
  5
208
330
1A9
100
AcDbEntity
  8
AM_4
100
AcDbPolyline
 90
        5
 70
     0
 43
0.0
 10
-1.309117578512979
 20
2.050764907463967
 10
-1.322469918030958
 20
2.030541241682206
 10
-1.340779997465151
 20
2.00346881750375
 10
-1.360650809989913
 20
1.97490834476587
 10
-1.391142239684201
 20
1.932634169072468
  0
LWPOLYLINE
  5
209
330
1A9
100
AcDbEntity
  8
AM_4
100
AcDbPolyline
 90
        3
 70
     0
 43
0.0
 10
1.293800988271828
 20
2.065789256615215
 10
1.293974747774975
 20
2.065679934005833
 10
1.30911757851298
 20
2.050764907463966
  0
ARC
  5
20A
330
1A9
100
AcDbEntity
  8
AM_4
100
AcDbCircle
 10
0.0
 20
-0.0000000000000004
 30
0.0
 40
2.4375
100
AcDbArc
 50
57.9411424274896
 51
122.0588575725103
  0
LWPOLYLINE
  5
20B
330
1A9
100
AcDbEntity
  8
AM_4
100
AcDbPolyline
 90
        3
 70
     0
 43
0.0
 10
-1.309117578512979
 20
2.050764907463967
 10
-1.29397474777494
 20
2.065679934005855
 10
-1.293800988271825
 20
2.065789256615216
  0
ARC
  5
20C
330
1A9
100
AcDbEntity
  8
AM_4
100
AcDbCircle
 10
-0.0000000000000003
 20
-0.0000000000000009
 30
0.0
 40
2.381250000000001
100
AcDbArc
 50
54.2530321982781
 51
125.7469678017219
  0
LWPOLYLINE
  5
20D
330
1A9
100
AcDbEntity
  8
AM_4
100
AcDbPolyline
 90
        5
 70
     0
 43
0.0
 10
1.391142239684201
 20
1.932634169072468
 10
1.376849494996947
 20
1.952224041099476
 10
1.342197341156578
 20
2.001403965302719
 10
1.32073508508532
 20
2.033145405143633
 10
1.30911757851298
 20
2.050764907463966
  0
ENDBLK
  5
1AC
330
1A9
100
AcDbEntity
  8
0
100
AcDbBlockEnd
  0
ENDSEC
  0
SECTION
  2
ENTITIES
  0
INSERT
  5
6F
330
1F
100
AcDbEntity
  8
0
100
AcDbBlockReference
  2
1_069664_0
 10
0.0
 20
0.0
 30
0.0
  0
POINT
  5
20F
330
1F
100
AcDbEntity
  8
ConnectionPoints
100
AcDbPoint
 10
-1.060660171779821
 20
1.060660171779821
 30
3.16875
  0
POINT
  5
210
330
1F
100
AcDbEntity
  8
ConnectionPoints
100
AcDbPoint
 10
0.0
 20
0.0
 30
3.09875
  0
POINT
  5
211
330
1F
100
AcDbEntity
  8
ConnectionPoints
100
AcDbPoint
 10
0.0
 20
0.0
 30
3.34375
  0
POINT
  5
212
330
1F
100
AcDbEntity
  8
ConnectionPoints
100
AcDbPoint
 10
0.0
 20
0.0
 30
3.29775
  0
POINT
  5
213
330
1F
100
AcDbEntity
  8
ConnectionPoints
100
AcDbPoint
 10
-1.060660171779821
 20
1.060660171779821
 30
3.09875
  0
POINT
  5
214
330
1F
100
AcDbEntity
  8
ConnectionPoints
100
AcDbPoint
 10
-1.060660171779821
 20
1.060660171779821
 30
3.24275
  0
POINT
  5
215
330
1F
100
AcDbEntity
  8
ConnectionPoints
100
AcDbPoint
 10
1.060660171779821
 20
-1.060660171779821
 30
3.09875
  0
POINT
  5
216
330
1F
100
AcDbEntity
  8
ConnectionPoints
100
AcDbPoint
 10
1.060660171779821
 20
-1.060660171779821
 30
3.24275
  0
POINT
  5
217
330
1F
100
AcDbEntity
  8
ConnectionPoints
100
AcDbPoint
 10
0.0
 20
0.0
 30
3.09875
  0
POINT
  5
218
330
1F
100
AcDbEntity
  8
ConnectionPoints
100
AcDbPoint
 10
0.0
 20
2.5375
 30
1.3046875
  0
POINT
  5
219
330
1F
100
AcDbEntity
  8
ConnectionPoints
100
AcDbPoint
 10
0.0
 20
2.5375
 30
1.3046875
  0
POINT
  5
21A
330
1F
100
AcDbEntity
  8
ConnectionPoints
100
AcDbPoint
 10
0.0
 20
0.0
 30
3.09375
  0
POINT
  5
21B
330
1F
100
AcDbEntity
  8
ConnectionPoints
100
AcDbPoint
 10
0.0
 20
0.0
 30
3.34375
  0
ENDSEC
  0
SECTION
  2
OBJECTS
  0
DICTIONARY
  5
C
330
0
100
AcDbDictionary
281
     1
  3
ACAD_DETAILVIEWSTYLE
350
223
  3
ACAD_GROUP
350
D
  3
ACAD_LAYOUT
350
1A
  3
ACAD_MATERIAL
350
43
  3
ACAD_MLEADERSTYLE
350
6B
  3
ACAD_MLINESTYLE
350
17
  3
ACAD_PLOTSETTINGS
350
19
  3
ACAD_PLOTSTYLENAME
350
E
  3
ACAD_SCALELIST
350
47
  3
ACAD_SECTIONVIEWSTYLE
350
224
  3
ACAD_TABLESTYLE
350
69
  3
ACAD_VISUALSTYLE
350
2A
  3
ACDB_RECOMPOSE_DATA
350
220
  3
AcDbVariableDictionary
350
21C
  0
SUN
  5
6D
330
29
100
AcDbSun
 90
        1
290
     0
 63
     7
421
 16777215
 40
1.0
291
     1
 91
  2455826
 92
 54000000
292
     0
 70
     2
 71
   256
280
     1
  0
DICTIONARY
  5
223
102
{ACAD_REACTORS
330
C
102
}
330
C
100
AcDbDictionary
281
     1
  0
DICTIONARY
  5
D
102
{ACAD_REACTORS
330
C
102
}
330
C
100
AcDbDictionary
281
     1
  0
DICTIONARY
  5
1A
102
{ACAD_REACTORS
330
C
102
}
330
C
100
AcDbDictionary
281
     1
  3
Layout1
350
1E
  3
Layout2
350
26
  3
Model
350
22
  0
DICTIONARY
  5
43
102
{ACAD_REACTORS
330
C
102
}
330
C
100
AcDbDictionary
281
     1
  3
ByBlock
350
45
  3
ByLayer
350
44
  3
Global
350
46
  0
DICTIONARY
  5
6B
102
{ACAD_REACTORS
330
C
102
}
330
C
100
AcDbDictionary
281
     1
  3
Standard
350
6C
  0
DICTIONARY
  5
17
102
{ACAD_REACTORS
330
C
102
}
330
C
100
AcDbDictionary
281
     1
  3
Standard
350
18
  0
DICTIONARY
  5
19
102
{ACAD_REACTORS
330
C
102
}
330
C
100
AcDbDictionary
281
     1
  0
ACDBDICTIONARYWDFLT
  5
E
102
{ACAD_REACTORS
330
C
102
}
330
C
100
AcDbDictionary
281
     1
  3
Normal
350
F
100
AcDbDictionaryWithDefault
340
F
  0
DICTIONARY
  5
47
102
{ACAD_REACTORS
330
C
102
}
330
C
100
AcDbDictionary
281
     1
  3
A0
350
48
  3
A1
350
49
  3
A2
350
4A
  3
A3
350
4B
  3
A4
350
4C
  3
A5
350
4D
  3
A6
350
4E
  3
A7
350
4F
  3
A8
350
50
  3
A9
350
51
  3
B0
350
52
  3
B1
350
53
  3
B2
350
54
  3
B3
350
55
  3
B4
350
56
  3
B5
350
57
  3
B6
350
58
  3
B7
350
59
  3
B8
350
5A
  3
B9
350
5B
  3
C0
350
5C
  3
C1
350
5D
  3
C2
350
5E
  3
C3
350
5F
  3
C4
350
60
  3
C5
350
61
  3
C6
350
62
  3
C7
350
63
  3
C8
350
64
  3
C9
350
65
  3
D0
350
66
  3
D1
350
67
  3
D2
350
68
  0
DICTIONARY
  5
224
102
{ACAD_REACTORS
330
C
102
}
330
C
100
AcDbDictionary
281
     1
  0
DICTIONARY
  5
69
102
{ACAD_REACTORS
330
C
102
}
330
C
100
AcDbDictionary
281
     1
  3
Standard
350
6A
  0
DICTIONARY
  5
2A
102
{ACAD_REACTORS
330
C
102
}
330
C
100
AcDbDictionary
281
     1
  3
2dWireframe
350
2F
  3
Basic
350
32
  3
Brighten
350
36
  3
ColorChange
350
3A
  3
Conceptual
350
34
  3
Dim
350
35
  3
EdgeColorOff
350
3D
  3
Facepattern
350
39
  3
Flat
350
2B
  3
FlatWithEdges
350
2C
  3
Gouraud
350
2D
  3
GouraudWithEdges
350
2E
  3
Hidden
350
31
  3
JitterOff
350
3B
  3
Linepattern
350
38
  3
OverhangOff
350
3C
  3
Realistic
350
33
  3
Shaded
350
42
  3
Shaded with edges
350
41
  3
Shades of Gray
350
3E
  3
Sketchy
350
3F
  3
Thicken
350
37
  3
Wireframe
350
30
  3
X-Ray
350
40
  0
XRECORD
  5
220
102
{ACAD_REACTORS
330
C
102
}
330
C
100
AcDbXrecord
280
     1
 90
        1
330
6A
  0
DICTIONARY
  5
21C
102
{ACAD_REACTORS
330
C
102
}
330
C
100
AcDbDictionary
281
     1
  3
CANNOSCALE
350
21D
  3
CMLEADERSTYLE
350
222
  3
CTABLESTYLE
350
221
  0
LAYOUT
  5
1E
102
{ACAD_REACTORS
330
1A
102
}
330
1A
100
AcDbPlotSettings
  1

  2
none_device
  4

  6

 40
0.0
 41
0.0
 42
0.0
 43
0.0
 44
0.0
 45
0.0
 46
0.0
 47
0.0
 48
0.0
 49
0.0
140
0.0
141
0.0
142
1.0
143
1.0
 70
   688
 72
     0
 73
     0
 74
     5
  7

 75
    16
 76
     0
 77
     2
 78
   300
147
1.0
148
0.0
149
0.0
100
AcDbLayout
  1
Layout1
 70
     1
 71
     1
 10
0.0
 20
0.0
 11
12.0
 21
9.0
 12
0.0
 22
0.0
 32
0.0
 14
1.000000000000000E+20
 24
1.000000000000000E+20
 34
1.000000000000000E+20
 15
-1.000000000000000E+20
 25
-1.000000000000000E+20
 35
-1.000000000000000E+20
146
0.0
 13
0.0
 23
0.0
 33
0.0
 16
1.0
 26
0.0
 36
0.0
 17
0.0
 27
1.0
 37
0.0
 76
     0
330
1B
  0
LAYOUT
  5
26
102
{ACAD_REACTORS
330
1A
102
}
330
1A
100
AcDbPlotSettings
  1

  2
none_device
  4

  6

 40
0.0
 41
0.0
 42
0.0
 43
0.0
 44
0.0
 45
0.0
 46
0.0
 47
0.0
 48
0.0
 49
0.0
140
0.0
141
0.0
142
1.0
143
1.0
 70
   688
 72
     0
 73
     0
 74
     5
  7

 75
    16
 76
     0
 77
     2
 78
   300
147
1.0
148
0.0
149
0.0
100
AcDbLayout
  1
Layout2
 70
     1
 71
     2
 10
0.0
 20
0.0
 11
0.0
 21
0.0
 12
0.0
 22
0.0
 32
0.0
 14
0.0
 24
0.0
 34
0.0
 15
0.0
 25
0.0
 35
0.0
146
0.0
 13
0.0
 23
0.0
 33
0.0
 16
1.0
 26
0.0
 36
0.0
 17
0.0
 27
1.0
 37
0.0
 76
     0
330
23
  0
LAYOUT
  5
22
102
{ACAD_REACTORS
330
1A
102
}
330
1A
100
AcDbPlotSettings
  1

  2
none_device
  4
Letter_(8.50_x_11.00_Inches)
  6

 40
6.35
 41
6.35
 42
6.35000508
 43
6.35000508
 44
215.9
 45
279.4
 46
0.0
 47
0.0
 48
0.0
 49
0.0
140
0.0
141
0.0
142
1.0
143
1.0
 70
  1712
 72
     0
 73
     0
 74
     0
  7

 75
     0
 76
     0
 77
     2
 78
   300
147
1.0
148
0.0
149
0.0
100
AcDbLayout
  1
Model
 70
     1
 71
     0
 10
0.0
 20
0.0
 11
12.0
 21
9.0
 12
0.0
 22
0.0
 32
0.0
 14
1.000000000000000E+20
 24
1.000000000000000E+20
 34
1.000000000000000E+20
 15
-1.000000000000000E+20
 25
-1.000000000000000E+20
 35
-1.000000000000000E+20
146
0.0
 13
0.0
 23
0.0
 33
0.0
 16
1.0
 26
0.0
 36
0.0
 17
0.0
 27
1.0
 37
0.0
 76
     0
330
1F
331
29
  0
MATERIAL
  5
45
102
{ACAD_REACTORS
330
43
102
}
330
43
100
AcDbMaterial
  1
ByBlock
 72
     1
 94
      127
  0
MATERIAL
  5
44
102
{ACAD_REACTORS
330
43
102
}
330
43
100
AcDbMaterial
  1
ByLayer
 72
     1
 94
      127
  0
MATERIAL
  5
46
102
{ACAD_REACTORS
330
43
102
}
330
43
100
AcDbMaterial
  1
Global
 72
     1
 94
      127
  0
MLEADERSTYLE
  5
6C
102
{ACAD_REACTORS
330
6B
102
}
330
6B
100
AcDbMLeaderStyle
179
     2
170
     2
171
     1
172
     0
 90
        2
 40
0.0
 41
0.0
173
     1
 91
-1056964608
340
14
 92
       -2
290
     1
 42
0.09
291
     1
 43
0.36
  3
Standard
341
0
 44
0.18
300

342
11
174
     1
178
     6
175
     1
176
     0
 93
-1056964608
 45
0.18
292
     0
297
     0
 46
0.18
343
0
 94
-1056964608
 47
1.0
 49
1.0
140
1.0
293
     1
141
0.0
294
     1
177
     0
142
1.0
295
     0
296
     0
143
0.125
271
     0
272
     9
273
     9
298
     0
  0
MLINESTYLE
  5
18
102
{ACAD_REACTORS
330
17
102
}
330
17
100
AcDbMlineStyle
  2
Standard
 70
     0
  3

 62
   256
 51
90.0
 52
90.0
 71
     2
 49
0.5
 62
   256
  6
BYLAYER
 49
-0.5
 62
   256
  6
BYLAYER
  0
ACDBPLACEHOLDER
  5
F
102
{ACAD_REACTORS
330
E
102
}
330
E
  0
SCALE
  5
48
102
{ACAD_REACTORS
330
47
102
}
330
47
100
AcDbScale
 70
     0
300
1:1
140
1.0
141
1.0
290
     1
  0
SCALE
  5
49
102
{ACAD_REACTORS
330
47
102
}
330
47
100
AcDbScale
 70
     0
300
1:2
140
1.0
141
2.0
290
     0
  0
SCALE
  5
4A
102
{ACAD_REACTORS
330
47
102
}
330
47
100
AcDbScale
 70
     0
300
1:4
140
1.0
141
4.0
290
     0
  0
SCALE
  5
4B
102
{ACAD_REACTORS
330
47
102
}
330
47
100
AcDbScale
 70
     0
300
1:5
140
1.0
141
5.0
290
     0
  0
SCALE
  5
4C
102
{ACAD_REACTORS
330
47
102
}
330
47
100
AcDbScale
 70
     0
300
1:8
140
1.0
141
8.0
290
     0
  0
SCALE
  5
4D
102
{ACAD_REACTORS
330
47
102
}
330
47
100
AcDbScale
 70
     0
300
1:10
140
1.0
141
10.0
290
     0
  0
SCALE
  5
4E
102
{ACAD_REACTORS
330
47
102
}
330
47
100
AcDbScale
 70
     0
300
1:16
140
1.0
141
16.0
290
     0
  0
SCALE
  5
4F
102
{ACAD_REACTORS
330
47
102
}
330
47
100
AcDbScale
 70
     0
300
1:20
140
1.0
141
20.0
290
     0
  0
SCALE
  5
50
102
{ACAD_REACTORS
330
47
102
}
330
47
100
AcDbScale
 70
     0
300
1:30
140
1.0
141
30.0
290
     0
  0
SCALE
  5
51
102
{ACAD_REACTORS
330
47
102
}
330
47
100
AcDbScale
 70
     0
300
1:40
140
1.0
141
40.0
290
     0
  0
SCALE
  5
52
102
{ACAD_REACTORS
330
47
102
}
330
47
100
AcDbScale
 70
     0
300
1:50
140
1.0
141
50.0
290
     0
  0
SCALE
  5
53
102
{ACAD_REACTORS
330
47
102
}
330
47
100
AcDbScale
 70
     0
300
1:100
140
1.0
141
100.0
290
     0
  0
SCALE
  5
54
102
{ACAD_REACTORS
330
47
102
}
330
47
100
AcDbScale
 70
     0
300
2:1
140
2.0
141
1.0
290
     0
  0
SCALE
  5
55
102
{ACAD_REACTORS
330
47
102
}
330
47
100
AcDbScale
 70
     0
300
4:1
140
4.0
141
1.0
290
     0
  0
SCALE
  5
56
102
{ACAD_REACTORS
330
47
102
}
330
47
100
AcDbScale
 70
     0
300
8:1
140
8.0
141
1.0
290
     0
  0
SCALE
  5
57
102
{ACAD_REACTORS
330
47
102
}
330
47
100
AcDbScale
 70
     0
300
10:1
140
10.0
141
1.0
290
     0
  0
SCALE
  5
58
102
{ACAD_REACTORS
330
47
102
}
330
47
100
AcDbScale
 70
     0
300
100:1
140
100.0
141
1.0
290
     0
  0
SCALE
  5
59
102
{ACAD_REACTORS
330
47
102
}
330
47
100
AcDbScale
 70
     0
300
1/128" = 1'-0"
140
0.0078125
141
12.0
290
     0
  0
SCALE
  5
5A
102
{ACAD_REACTORS
330
47
102
}
330
47
100
AcDbScale
 70
     0
300
1/64" = 1'-0"
140
0.015625
141
12.0
290
     0
  0
SCALE
  5
5B
102
{ACAD_REACTORS
330
47
102
}
330
47
100
AcDbScale
 70
     0
300
1/32" = 1'-0"
140
0.03125
141
12.0
290
     0
  0
SCALE
  5
5C
102
{ACAD_REACTORS
330
47
102
}
330
47
100
AcDbScale
 70
     0
300
1/16" = 1'-0"
140
0.0625
141
12.0
290
     0
  0
SCALE
  5
5D
102
{ACAD_REACTORS
330
47
102
}
330
47
100
AcDbScale
 70
     0
300
3/32" = 1'-0"
140
0.09375
141
12.0
290
     0
  0
SCALE
  5
5E
102
{ACAD_REACTORS
330
47
102
}
330
47
100
AcDbScale
 70
     0
300
1/8" = 1'-0"
140
0.125
141
12.0
290
     0
  0
SCALE
  5
5F
102
{ACAD_REACTORS
330
47
102
}
330
47
100
AcDbScale
 70
     0
300
3/16" = 1'-0"
140
0.1875
141
12.0
290
     0
  0
SCALE
  5
60
102
{ACAD_REACTORS
330
47
102
}
330
47
100
AcDbScale
 70
     0
300
1/4" = 1'-0"
140
0.25
141
12.0
290
     0
  0
SCALE
  5
61
102
{ACAD_REACTORS
330
47
102
}
330
47
100
AcDbScale
 70
     0
300
3/8" = 1'-0"
140
0.375
141
12.0
290
     0
  0
SCALE
  5
62
102
{ACAD_REACTORS
330
47
102
}
330
47
100
AcDbScale
 70
     0
300
1/2" = 1'-0"
140
0.5
141
12.0
290
     0
  0
SCALE
  5
63
102
{ACAD_REACTORS
330
47
102
}
330
47
100
AcDbScale
 70
     0
300
3/4" = 1'-0"
140
0.75
141
12.0
290
     0
  0
SCALE
  5
64
102
{ACAD_REACTORS
330
47
102
}
330
47
100
AcDbScale
 70
     0
300
1" = 1'-0"
140
1.0
141
12.0
290
     0
  0
SCALE
  5
65
102
{ACAD_REACTORS
330
47
102
}
330
47
100
AcDbScale
 70
     0
300
1-1/2" = 1'-0"
140
1.5
141
12.0
290
     0
  0
SCALE
  5
66
102
{ACAD_REACTORS
330
47
102
}
330
47
100
AcDbScale
 70
     0
300
3" = 1'-0"
140
3.0
141
12.0
290
     0
  0
SCALE
  5
67
102
{ACAD_REACTORS
330
47
102
}
330
47
100
AcDbScale
 70
     0
300
6" = 1'-0"
140
6.0
141
12.0
290
     0
  0
SCALE
  5
68
102
{ACAD_REACTORS
330
47
102
}
330
47
100
AcDbScale
 70
     0
300
1'-0" = 1'-0"
140
12.0
141
12.0
290
     0
  0
TABLESTYLE
  5
6A
102
{ACAD_REACTORS
330
69
102
}
102
{ACAD_XDICTIONARY
360
21E
102
}
330
69
100
AcDbTableStyle
  3
Standard
 70
     0
 71
     0
 40
0.06
 41
0.06
280
     0
281
     0
  7
Standard
140
0.18
170
     2
 62
     0
 63
   257
283
     0
 90
        4
 91
        0
  1

274
    -2
284
     1
 64
     0
275
    -2
285
     1
 65
     0
276
    -2
286
     1
 66
     0
277
    -2
287
     1
 67
     0
278
    -2
288
     1
 68
     0
279
    -2
289
     1
 69
     0
  7
Standard
140
0.25
170
     5
 62
     0
 63
   257
283
     0
 90
        4
 91
        0
  1

274
    -2
284
     1
 64
     0
275
    -2
285
     1
 65
     0
276
    -2
286
     1
 66
     0
277
    -2
287
     1
 67
     0
278
    -2
288
     1
 68
     0
279
    -2
289
     1
 69
     0
  7
Standard
140
0.18
170
     5
 62
     0
 63
   257
283
     0
 90
        4
 91
        0
  1

274
    -2
284
     1
 64
     0
275
    -2
285
     1
 65
     0
276
    -2
286
     1
 66
     0
277
    -2
287
     1
 67
     0
278
    -2
288
     1
 68
     0
279
    -2
289
     1
 69
     0
  0
VISUALSTYLE
  5
2F
102
{ACAD_REACTORS
330
2A
102
}
330
2A
100
AcDbVisualStyle
  2
2dWireframe
 70
     4
177
     3
291
     0
 70
    58
 90
        0
176
     1
 90
        2
176
     1
 90
        0
176
     1
 90
        0
176
     1
 40
0.6
176
     1
 40
30.0
176
     1
 62
     7
420
 16777215
176
     1
 90
        1
176
     1
 90
        4
176
     1
 62
     7
176
     1
 62
   257
176
     1
 90
        1
176
     1
 90
        1
176
     1
 40
1.0
176
     1
 90
        0
176
     1
 62
   257
176
     1
 40
1.0
176
     1
 90
        1
176
     1
 90
        6
176
     1
 90
        2
176
     1
 62
     7
176
     1
 90
        5
176
     1
 90
        0
176
     1
 90
        0
176
     1
290
     0
176
     1
 90
        1
176
     1
 40
0.0
176
     1
 90
        0
176
     1
290
     1
176
     1
290
     1
176
     1
290
     0
176
     1
290
     0
176
     1
290
     0
176
     1
290
     0
176
     1
290
     0
176
     1
290
     0
176
     1
290
     0
176
     1
 90
       50
176
     1
 40
0.0
176
     1
 40
1.0
176
     1
 90
        0
176
     1
 62
    18
420
        0
176
     1
 90
       50
176
     1
 90
        3
176
     1
 62
     5
420
      255
176
     1
290
     0
176
     1
 90
       50
176
     1
 90
       50
176
     1
 90
       50
176
     1
290
     0
176
     1
 90
       50
176
     1
 62
   256
176
     0
 40
1.0
176
     0
 90
        2
176
     1
  1
strokes_ogs.tif
176
     1
290
     0
176
     1
 40
1.0
176
     1
 40
1.0
176
     1
  0
VISUALSTYLE
  5
32
102
{ACAD_REACTORS
330
2A
102
}
330
2A
100
AcDbVisualStyle
  2
Basic
 70
     7
177
     3
291
     1
 70
    58
 90
        1
176
     1
 90
        0
176
     1
 90
        1
176
     1
 90
        0
176
     1
 40
0.6
176
     1
 40
30.0
176
     1
 62
     7
420
 16777215
176
     1
 90
        0
176
     1
 90
        4
176
     1
 62
     7
176
     1
 62
   257
176
     1
 90
        1
176
     1
 90
        1
176
     1
 40
1.0
176
     1
 90
        8
176
     1
 62
     7
176
     1
 40
1.0
176
     1
 90
        1
176
     1
 90
        6
176
     1
 90
        2
176
     1
 62
     7
176
     1
 90
        5
176
     1
 90
        0
176
     1
 90
        0
176
     1
290
     0
176
     1
 90
        1
176
     1
 40
0.0
176
     1
 90
        0
176
     1
290
     0
176
     1
290
     1
176
     1
290
     1
176
     1
290
     0
176
     1
290
     0
176
     1
290
     0
176
     1
290
     0
176
     1
290
     0
176
     1
290
     0
176
     1
 90
       50
176
     1
 40
0.0
176
     1
 40
1.0
176
     1
 90
        0
176
     1
 62
    18
420
        0
176
     1
 90
       50
176
     1
 90
        3
176
     1
 62
     5
420
      255
176
     1
290
     0
176
     1
 90
       50
176
     1
 90
       50
176
     1
 90
       50
176
     1
290
     0
176
     1
 90
       50
176
     1
 62
   256
176
     0
 40
1.0
176
     0
 90
        2
176
     1
  1
strokes_ogs.tif
176
     1
290
     0
176
     1
 40
1.0
176
     1
 40
1.0
176
     1
  0
VISUALSTYLE
  5
36
102
{ACAD_REACTORS
330
2A
102
}
330
2A
100
AcDbVisualStyle
  2
Brighten
 70
    12
177
     3
291
     1
 70
    58
 90
        2
176
     1
 90
        2
176
     1
 90
        0
176
     1
 90
        0
176
     1
 40
0.6
176
     1
 40
30.0
176
     1
 62
     7
420
 16777215
176
     1
 90
        1
176
     1
 90
        4
176
     1
 62
     7
176
     1
 62
   257
176
     1
 90
        1
176
     1
 90
        1
176
     1
 40
1.0
176
     1
 90
        8
176
     1
 62
     7
176
     1
 40
1.0
176
     1
 90
        1
176
     1
 90
        6
176
     1
 90
        2
176
     1
 62
     7
176
     1
 90
        5
176
     1
 90
        0
176
     1
 90
        0
176
     1
290
     0
176
     1
 90
        1
176
     1
 40
50.0
176
     1
 90
        0
176
     1
290
     0
176
     1
290
     1
176
     1
290
     1
176
     1
290
     0
176
     1
290
     0
176
     1
290
     0
176
     1
290
     0
176
     1
290
     0
176
     1
290
     0
176
     1
 90
       50
176
     1
 40
0.0
176
     1
 40
1.0
176
     1
 90
        0
176
     1
 62
    18
420
        0
176
     1
 90
       50
176
     1
 90
        3
176
     1
 62
     5
420
      255
176
     1
290
     0
176
     1
 90
       50
176
     1
 90
       50
176
     1
 90
       50
176
     1
290
     0
176
     1
 90
       50
176
     1
 62
   256
176
     0
 40
1.0
176
     0
 90
        2
176
     1
  1
strokes_ogs.tif
176
     1
290
     0
176
     1
 40
1.0
176
     1
 40
1.0
176
     1
  0
VISUALSTYLE
  5
3A
102
{ACAD_REACTORS
330
2A
102
}
330
2A
100
AcDbVisualStyle
  2
ColorChange
 70
    16
177
     3
291
     1
 70
    58
 90
        2
176
     1
 90
        2
176
     1
 90
        3
176
     1
 90
        0
176
     1
 40
0.6
176
     1
 40
30.0
176
     1
 62
     8
420
  8421504
176
     1
 90
        1
176
     1
 90
        4
176
     1
 62
     7
176
     1
 62
   257
176
     1
 90
        1
176
     1
 90
        1
176
     1
 40
1.0
176
     1
 90
        8
176
     1
 62
     8
420
  8421504
176
     1
 40
1.0
176
     1
 90
        1
176
     1
 90
        6
176
     1
 90
        2
176
     1
 62
     7
176
     1
 90
        5
176
     1
 90
        0
176
     1
 90
        0
176
     1
290
     0
176
     1
 90
        1
176
     1
 40
0.0
176
     1
 90
        0
176
     1
290
     0
176
     1
290
     1
176
     1
290
     1
176
     1
290
     0
176
     1
290
     0
176
     1
290
     0
176
     1
290
     0
176
     1
290
     0
176
     1
290
     0
176
     1
 90
       50
176
     1
 40
0.0
176
     1
 40
1.0
176
     1
 90
        0
176
     1
 62
    18
420
        0
176
     1
 90
       50
176
     1
 90
        3
176
     1
 62
     5
420
      255
176
     1
290
     0
176
     1
 90
       50
176
     1
 90
       50
176
     1
 90
       50
176
     1
290
     0
176
     1
 90
       50
176
     1
 62
   256
176
     0
 40
1.0
176
     0
 90
        2
176
     1
  1
strokes_ogs.tif
176
     1
290
     0
176
     1
 40
1.0
176
     1
 40
1.0
176
     1
  0
VISUALSTYLE
  5
34
102
{ACAD_REACTORS
330
2A
102
}
330
2A
100
AcDbVisualStyle
  2
Conceptual
 70
     9
177
     3
291
     0
 70
    58
 90
        3
176
     1
 90
        2
176
     1
 90
        0
176
     1
 90
        0
176
     1
 40
0.6
176
     1
 40
30.0
176
     1
 62
     7
420
 16777215
176
     1
 90
        2
176
     1
 90
        2
176
     1
 62
     7
176
     1
 62
   257
176
     1
 90
        1
176
     1
 90
        1
176
     1
 40
179.0
176
     1
 90
        8
176
     1
 62
     7
176
     1
 40
1.0
176
     1
 90
        1
176
     1
 90
        6
176
     1
 90
        2
176
     1
 62
     7
176
     1
 90
        3
176
     1
 90
        0
176
     1
 90
        0
176
     1
290
     0
176
     1
 90
        1
176
     1
 40
0.0
176
     1
 90
        0
176
     1
290
     0
176
     1
290
     1
176
     1
290
     1
176
     1
290
     0
176
     1
290
     0
176
     1
290
     0
176
     1
290
     0
176
     1
290
     0
176
     1
290
     0
176
     1
 90
       50
176
     1
 40
0.0
176
     1
 40
1.0
176
     1
 90
        0
176
     1
 62
    18
420
        0
176
     1
 90
       50
176
     1
 90
        3
176
     1
 62
     5
420
      255
176
     1
290
     0
176
     1
 90
       50
176
     1
 90
       50
176
     1
 90
       50
176
     1
290
     0
176
     1
 90
       50
176
     1
 62
   256
176
     0
 40
1.0
176
     0
 90
        2
176
     1
  1
strokes_ogs.tif
176
     1
290
     0
176
     1
 40
1.0
176
     1
 40
1.0
176
     1
  0
VISUALSTYLE
  5
35
102
{ACAD_REACTORS
330
2A
102
}
330
2A
100
AcDbVisualStyle
  2
Dim
 70
    11
177
     3
291
     1
 70
    58
 90
        2
176
     1
 90
        2
176
     1
 90
        0
176
     1
 90
        0
176
     1
 40
0.6
176
     1
 40
30.0
176
     1
 62
     7
420
 16777215
176
     1
 90
        1
176
     1
 90
        4
176
     1
 62
     7
176
     1
 62
   257
176
     1
 90
        1
176
     1
 90
        1
176
     1
 40
1.0
176
     1
 90
        8
176
     1
 62
     7
176
     1
 40
1.0
176
     1
 90
        1
176
     1
 90
        6
176
     1
 90
        2
176
     1
 62
     7
176
     1
 90
        5
176
     1
 90
        0
176
     1
 90
        0
176
     1
290
     0
176
     1
 90
        1
176
     1
 40
-50.0
176
     1
 90
        0
176
     1
290
     0
176
     1
290
     1
176
     1
290
     1
176
     1
290
     0
176
     1
290
     0
176
     1
290
     0
176
     1
290
     0
176
     1
290
     0
176
     1
290
     0
176
     1
 90
       50
176
     1
 40
0.0
176
     1
 40
1.0
176
     1
 90
        0
176
     1
 62
    18
420
        0
176
     1
 90
       50
176
     1
 90
        3
176
     1
 62
     5
420
      255
176
     1
290
     0
176
     1
 90
       50
176
     1
 90
       50
176
     1
 90
       50
176
     1
290
     0
176
     1
 90
       50
176
     1
 62
   256
176
     0
 40
1.0
176
     0
 90
        2
176
     1
  1
strokes_ogs.tif
176
     1
290
     0
176
     1
 40
1.0
176
     1
 40
1.0
176
     1
  0
VISUALSTYLE
  5
3D
102
{ACAD_REACTORS
330
2A
102
}
330
2A
100
AcDbVisualStyle
  2
EdgeColorOff
 70
    22
177
     3
291
     1
 70
    58
 90
        2
176
     0
 90
        2
176
     0
 90
        0
176
     0
 90
        0
176
     0
 40
0.6
176
     0
 40
30.0
176
     0
 62
     7
420
 16777215
176
     0
 90
        1
176
     0
 90
        4
176
     0
 62
     7
176
     0
 62
   257
176
     0
 90
        1
176
     0
 90
        1
176
     0
 40
1.0
176
     0
 90
        8
176
     2
 62
     7
176
     0
 40
1.0
176
     0
 90
        1
176
     0
 90
        6
176
     0
 90
        2
176
     0
 62
     7
176
     0
 90
        5
176
     0
 90
        0
176
     0
 90
        0
176
     0
290
     0
176
     0
 90
        1
176
     0
 40
0.0
176
     0
 90
        0
176
     0
290
     0
176
     0
290
     1
176
     0
290
     1
176
     0
290
     0
176
     0
290
     0
176
     0
290
     0
176
     0
290
     0
176
     0
290
     0
176
     0
290
     0
176
     0
 90
       50
176
     0
 40
0.0
176
     0
 40
1.0
176
     0
 90
        0
176
     0
 62
    18
420
        0
176
     0
 90
       50
176
     0
 90
        3
176
     0
 62
     5
420
      255
176
     0
290
     0
176
     0
 90
       50
176
     0
 90
       50
176
     0
 90
       50
176
     0
290
     0
176
     0
 90
       50
176
     0
 62
   256
176
     0
 40
1.0
176
     0
 90
        2
176
     0
  1
strokes_ogs.tif
176
     0
290
     0
176
     0
 40
1.0
176
     0
 40
1.0
176
     0
  0
VISUALSTYLE
  5
39
102
{ACAD_REACTORS
330
2A
102
}
330
2A
100
AcDbVisualStyle
  2
Facepattern
 70
    15
177
     3
291
     1
 70
    58
 90
        2
176
     1
 90
        2
176
     1
 90
        0
176
     1
 90
        0
176
     1
 40
0.6
176
     1
 40
30.0
176
     1
 62
     7
420
 16777215
176
     1
 90
        1
176
     1
 90
        4
176
     1
 62
     7
176
     1
 62
   257
176
     1
 90
        1
176
     1
 90
        1
176
     1
 40
1.0
176
     1
 90
        8
176
     1
 62
     7
176
     1
 40
1.0
176
     1
 90
        1
176
     1
 90
        6
176
     1
 90
        2
176
     1
 62
     7
176
     1
 90
        5
176
     1
 90
        0
176
     1
 90
        0
176
     1
290
     0
176
     1
 90
        1
176
     1
 40
0.0
176
     1
 90
        0
176
     1
290
     0
176
     1
290
     1
176
     1
290
     1
176
     1
290
     0
176
     1
290
     0
176
     1
290
     0
176
     1
290
     0
176
     1
290
     0
176
     1
290
     0
176
     1
 90
       50
176
     1
 40
0.0
176
     1
 40
1.0
176
     1
 90
        0
176
     1
 62
    18
420
        0
176
     1
 90
       50
176
     1
 90
        3
176
     1
 62
     5
420
      255
176
     1
290
     0
176
     1
 90
       50
176
     1
 90
       50
176
     1
 90
       50
176
     1
290
     0
176
     1
 90
       50
176
     1
 62
   256
176
     0
 40
1.0
176
     0
 90
        2
176
     1
  1
strokes_ogs.tif
176
     1
290
     0
176
     1
 40
1.0
176
     1
 40
1.0
176
     1
  0
VISUALSTYLE
  5
2B
102
{ACAD_REACTORS
330
2A
102
}
330
2A
100
AcDbVisualStyle
  2
Flat
 70
     0
177
     3
291
     1
 70
    58
 90
        2
176
     1
 90
        1
176
     1
 90
        1
176
     1
 90
        2
176
     1
 40
0.6
176
     1
 40
30.0
176
     1
 62
     7
420
 16777215
176
     1
 90
        0
176
     1
 90
        0
176
     1
 62
     7
176
     1
 62
   257
176
     1
 90
        1
176
     1
 90
        1
176
     1
 40
1.0
176
     1
 90
        8
176
     1
 62
     7
176
     1
 40
1.0
176
     1
 90
        1
176
     1
 90
        6
176
     1
 90
        2
176
     1
 62
     7
176
     1
 90
        5
176
     1
 90
        0
176
     1
 90
        0
176
     1
290
     0
176
     1
 90
       13
176
     1
 40
0.0
176
     1
 90
        0
176
     1
290
     0
176
     1
290
     1
176
     1
290
     1
176
     1
290
     0
176
     1
290
     0
176
     1
290
     0
176
     1
290
     0
176
     1
290
     0
176
     1
290
     0
176
     1
 90
       50
176
     1
 40
0.0
176
     1
 40
1.0
176
     1
 90
        0
176
     1
 62
    18
420
        0
176
     1
 90
       50
176
     1
 90
        3
176
     1
 62
     5
420
      255
176
     1
290
     0
176
     1
 90
       50
176
     1
 90
       50
176
     1
 90
       50
176
     1
290
     0
176
     1
 90
       50
176
     1
 62
   256
176
     0
 40
1.0
176
     0
 90
        2
176
     1
  1
strokes_ogs.tif
176
     1
290
     0
176
     1
 40
1.0
176
     1
 40
1.0
176
     1
  0
VISUALSTYLE
  5
2C
102
{ACAD_REACTORS
330
2A
102
}
330
2A
100
AcDbVisualStyle
  2
FlatWithEdges
 70
     1
177
     3
291
     1
 70
    58
 90
        2
176
     1
 90
        1
176
     1
 90
        1
176
     1
 90
        2
176
     1
 40
0.6
176
     1
 40
30.0
176
     1
 62
     7
420
 16777215
176
     1
 90
        1
176
     1
 90
        0
176
     1
 62
     7
176
     1
 62
   257
176
     1
 90
        1
176
     1
 90
        1
176
     1
 40
1.0
176
     1
 90
        0
176
     1
 62
   257
176
     1
 40
1.0
176
     1
 90
        1
176
     1
 90
        6
176
     1
 90
        2
176
     1
 62
     7
176
     1
 90
        5
176
     1
 90
        0
176
     1
 90
        0
176
     1
290
     0
176
     1
 90
       13
176
     1
 40
0.0
176
     1
 90
        0
176
     1
290
     0
176
     1
290
     1
176
     1
290
     1
176
     1
290
     0
176
     1
290
     0
176
     1
290
     0
176
     1
290
     0
176
     1
290
     0
176
     1
290
     0
176
     1
 90
       50
176
     1
 40
0.0
176
     1
 40
1.0
176
     1
 90
        0
176
     1
 62
    18
420
        0
176
     1
 90
       50
176
     1
 90
        3
176
     1
 62
     5
420
      255
176
     1
290
     0
176
     1
 90
       50
176
     1
 90
       50
176
     1
 90
       50
176
     1
290
     0
176
     1
 90
       50
176
     1
 62
   256
176
     0
 40
1.0
176
     0
 90
        2
176
     1
  1
strokes_ogs.tif
176
     1
290
     0
176
     1
 40
1.0
176
     1
 40
1.0
176
     1
  0
VISUALSTYLE
  5
2D
102
{ACAD_REACTORS
330
2A
102
}
330
2A
100
AcDbVisualStyle
  2
Gouraud
 70
     2
177
     3
291
     1
 70
    58
 90
        2
176
     1
 90
        2
176
     1
 90
        1
176
     1
 90
        2
176
     1
 40
0.6
176
     1
 40
30.0
176
     1
 62
     7
420
 16777215
176
     1
 90
        0
176
     1
 90
        0
176
     1
 62
     7
176
     1
 62
   257
176
     1
 90
        1
176
     1
 90
        1
176
     1
 40
1.0
176
     1
 90
        0
176
     1
 62
     7
176
     1
 40
1.0
176
     1
 90
        1
176
     1
 90
        6
176
     1
 90
        2
176
     1
 62
     7
176
     1
 90
        5
176
     1
 90
        0
176
     1
 90
        0
176
     1
290
     0
176
     1
 90
       13
176
     1
 40
0.0
176
     1
 90
        0
176
     1
290
     0
176
     1
290
     1
176
     1
290
     1
176
     1
290
     0
176
     1
290
     0
176
     1
290
     0
176
     1
290
     0
176
     1
290
     0
176
     1
290
     0
176
     1
 90
       50
176
     1
 40
0.0
176
     1
 40
1.0
176
     1
 90
        0
176
     1
 62
    18
420
        0
176
     1
 90
       50
176
     1
 90
        3
176
     1
 62
     5
420
      255
176
     1
290
     0
176
     1
 90
       50
176
     1
 90
       50
176
     1
 90
       50
176
     1
290
     0
176
     1
 90
       50
176
     1
 62
   256
176
     0
 40
1.0
176
     0
 90
        2
176
     1
  1
strokes_ogs.tif
176
     1
290
     0
176
     1
 40
1.0
176
     1
 40
1.0
176
     1
  0
VISUALSTYLE
  5
2E
102
{ACAD_REACTORS
330
2A
102
}
330
2A
100
AcDbVisualStyle
  2
GouraudWithEdges
 70
     3
177
     3
291
     1
 70
    58
 90
        2
176
     1
 90
        2
176
     1
 90
        1
176
     1
 90
        2
176
     1
 40
0.6
176
     1
 40
30.0
176
     1
 62
     7
420
 16777215
176
     1
 90
        1
176
     1
 90
        0
176
     1
 62
     7
176
     1
 62
   257
176
     1
 90
        1
176
     1
 90
        1
176
     1
 40
1.0
176
     1
 90
        0
176
     1
 62
   257
176
     1
 40
1.0
176
     1
 90
        1
176
     1
 90
        6
176
     1
 90
        2
176
     1
 62
     7
176
     1
 90
        5
176
     1
 90
        0
176
     1
 90
        0
176
     1
290
     0
176
     1
 90
       13
176
     1
 40
0.0
176
     1
 90
        0
176
     1
290
     0
176
     1
290
     1
176
     1
290
     1
176
     1
290
     0
176
     1
290
     0
176
     1
290
     0
176
     1
290
     0
176
     1
290
     0
176
     1
290
     0
176
     1
 90
       50
176
     1
 40
0.0
176
     1
 40
1.0
176
     1
 90
        0
176
     1
 62
    18
420
        0
176
     1
 90
       50
176
     1
 90
        3
176
     1
 62
     5
420
      255
176
     1
290
     0
176
     1
 90
       50
176
     1
 90
       50
176
     1
 90
       50
176
     1
290
     0
176
     1
 90
       50
176
     1
 62
   256
176
     0
 40
1.0
176
     0
 90
        2
176
     1
  1
strokes_ogs.tif
176
     1
290
     0
176
     1
 40
1.0
176
     1
 40
1.0
176
     1
  0
VISUALSTYLE
  5
31
102
{ACAD_REACTORS
330
2A
102
}
330
2A
100
AcDbVisualStyle
  2
Hidden
 70
     6
177
     3
291
     0
 70
    58
 90
        1
176
     1
 90
        2
176
     1
 90
        2
176
     1
 90
        0
176
     1
 40
0.6
176
     1
 40
30.0
176
     1
 62
     7
420
 16777215
176
     1
 90
        2
176
     1
 90
        2
176
     1
 62
     7
176
     1
 62
   257
176
     1
 90
        2
176
     1
 90
        1
176
     1
 40
40.0
176
     1
 90
        0
176
     1
 62
   257
176
     1
 40
1.0
176
     1
 90
        1
176
     1
 90
        6
176
     1
 90
        2
176
     1
 62
     7
176
     1
 90
        3
176
     1
 90
        0
176
     1
 90
        0
176
     1
290
     0
176
     1
 90
        1
176
     1
 40
0.0
176
     1
 90
        0
176
     1
290
     0
176
     1
290
     1
176
     1
290
     1
176
     1
290
     0
176
     1
290
     0
176
     1
290
     0
176
     1
290
     0
176
     1
290
     0
176
     1
290
     0
176
     1
 90
       50
176
     1
 40
0.0
176
     1
 40
1.0
176
     1
 90
        0
176
     1
 62
    18
420
        0
176
     1
 90
       50
176
     1
 90
        3
176
     1
 62
     5
420
      255
176
     1
290
     0
176
     1
 90
       50
176
     1
 90
       50
176
     1
 90
       50
176
     1
290
     0
176
     1
 90
       50
176
     1
 62
   256
176
     0
 40
1.0
176
     0
 90
        2
176
     1
  1
strokes_ogs.tif
176
     1
290
     0
176
     1
 40
1.0
176
     1
 40
1.0
176
     1
  0
VISUALSTYLE
  5
3B
102
{ACAD_REACTORS
330
2A
102
}
330
2A
100
AcDbVisualStyle
  2
JitterOff
 70
    20
177
     3
291
     1
 70
    58
 90
        2
176
     0
 90
        2
176
     0
 90
        0
176
     0
 90
        0
176
     0
 40
0.6
176
     0
 40
30.0
176
     0
 62
     7
420
 16777215
176
     0
 90
        1
176
     0
 90
        4
176
     0
 62
     7
176
     0
 62
   257
176
     0
 90
        1
176
     0
 90
        1
176
     0
 40
1.0
176
     0
 90
       10
176
     2
 62
     7
176
     0
 40
1.0
176
     0
 90
        1
176
     0
 90
        6
176
     0
 90
        2
176
     0
 62
     7
176
     0
 90
        5
176
     0
 90
        0
176
     0
 90
        0
176
     0
290
     0
176
     0
 90
        1
176
     0
 40
0.0
176
     0
 90
        0
176
     0
290
     0
176
     0
290
     1
176
     0
290
     1
176
     0
290
     0
176
     0
290
     0
176
     0
290
     0
176
     0
290
     0
176
     0
290
     0
176
     0
290
     0
176
     0
 90
       50
176
     0
 40
0.0
176
     0
 40
1.0
176
     0
 90
        0
176
     0
 62
    18
420
        0
176
     0
 90
       50
176
     0
 90
        3
176
     0
 62
     5
420
      255
176
     0
290
     0
176
     0
 90
       50
176
     0
 90
       50
176
     0
 90
       50
176
     0
290
     0
176
     0
 90
       50
176
     0
 62
   256
176
     0
 40
1.0
176
     0
 90
        2
176
     0
  1
strokes_ogs.tif
176
     0
290
     0
176
     0
 40
1.0
176
     0
 40
1.0
176
     0
  0
VISUALSTYLE
  5
38
102
{ACAD_REACTORS
330
2A
102
}
330
2A
100
AcDbVisualStyle
  2
Linepattern
 70
    14
177
     3
291
     1
 70
    58
 90
        2
176
     1
 90
        2
176
     1
 90
        0
176
     1
 90
        0
176
     1
 40
0.6
176
     1
 40
30.0
176
     1
 62
     7
420
 16777215
176
     1
 90
        1
176
     1
 90
        4
176
     1
 62
     7
176
     1
 62
   257
176
     1
 90
        7
176
     1
 90
        7
176
     1
 40
1.0
176
     1
 90
        8
176
     1
 62
     7
176
     1
 40
1.0
176
     1
 90
        1
176
     1
 90
        6
176
     1
 90
        2
176
     1
 62
     7
176
     1
 90
        5
176
     1
 90
        0
176
     1
 90
        0
176
     1
290
     0
176
     1
 90
        1
176
     1
 40
0.0
176
     1
 90
        0
176
     1
290
     0
176
     1
290
     1
176
     1
290
     1
176
     1
290
     0
176
     1
290
     0
176
     1
290
     0
176
     1
290
     0
176
     1
290
     0
176
     1
290
     0
176
     1
 90
       50
176
     1
 40
0.0
176
     1
 40
1.0
176
     1
 90
        0
176
     1
 62
    18
420
        0
176
     1
 90
       50
176
     1
 90
        3
176
     1
 62
     5
420
      255
176
     1
290
     0
176
     1
 90
       50
176
     1
 90
       50
176
     1
 90
       50
176
     1
290
     0
176
     1
 90
       50
176
     1
 62
   256
176
     0
 40
1.0
176
     0
 90
        2
176
     1
  1
strokes_ogs.tif
176
     1
290
     0
176
     1
 40
1.0
176
     1
 40
1.0
176
     1
  0
VISUALSTYLE
  5
3C
102
{ACAD_REACTORS
330
2A
102
}
330
2A
100
AcDbVisualStyle
  2
OverhangOff
 70
    21
177
     3
291
     1
 70
    58
 90
        2
176
     0
 90
        2
176
     0
 90
        0
176
     0
 90
        0
176
     0
 40
0.6
176
     0
 40
30.0
176
     0
 62
     7
420
 16777215
176
     0
 90
        1
176
     0
 90
        4
176
     0
 62
     7
176
     0
 62
   257
176
     0
 90
        1
176
     0
 90
        1
176
     0
 40
1.0
176
     0
 90
        9
176
     2
 62
     7
176
     0
 40
1.0
176
     0
 90
        1
176
     0
 90
        6
176
     0
 90
        2
176
     0
 62
     7
176
     0
 90
        5
176
     0
 90
        0
176
     0
 90
        0
176
     0
290
     0
176
     0
 90
        1
176
     0
 40
0.0
176
     0
 90
        0
176
     0
290
     0
176
     0
290
     1
176
     0
290
     1
176
     0
290
     0
176
     0
290
     0
176
     0
290
     0
176
     0
290
     0
176
     0
290
     0
176
     0
290
     0
176
     0
 90
       50
176
     0
 40
0.0
176
     0
 40
1.0
176
     0
 90
        0
176
     0
 62
    18
420
        0
176
     0
 90
       50
176
     0
 90
        3
176
     0
 62
     5
420
      255
176
     0
290
     0
176
     0
 90
       50
176
     0
 90
       50
176
     0
 90
       50
176
     0
290
     0
176
     0
 90
       50
176
     0
 62
   256
176
     0
 40
1.0
176
     0
 90
        2
176
     0
  1
strokes_ogs.tif
176
     0
290
     0
176
     0
 40
1.0
176
     0
 40
1.0
176
     0
  0
VISUALSTYLE
  5
33
102
{ACAD_REACTORS
330
2A
102
}
330
2A
100
AcDbVisualStyle
  2
Realistic
 70
     8
177
     3
291
     0
 70
    58
 90
        2
176
     1
 90
        3
176
     1
 90
        0
176
     1
 90
        2
176
     1
 40
0.6
176
     1
 40
30.0
176
     1
 62
     7
420
 16777215
176
     1
 90
        0
176
     1
 90
        0
176
     1
 62
     7
176
     1
 62
   257
176
     1
 90
        1
176
     1
 90
        1
176
     1
 40
1.0
176
     1
 90
        8
176
     1
 62
   257
176
     1
 40
1.0
176
     1
 90
        1
176
     1
 90
        6
176
     1
 90
        2
176
     1
 62
     7
176
     1
 90
        3
176
     1
 90
        0
176
     1
 90
        0
176
     1
290
     0
176
     1
 90
       13
176
     1
 40
0.0
176
     1
 90
        0
176
     1
290
     0
176
     1
290
     1
176
     1
290
     1
176
     1
290
     0
176
     1
290
     0
176
     1
290
     0
176
     1
290
     0
176
     1
290
     0
176
     1
290
     0
176
     1
 90
       50
176
     1
 40
0.0
176
     1
 40
1.0
176
     1
 90
        0
176
     1
 62
    18
420
        0
176
     1
 90
       50
176
     1
 90
        3
176
     1
 62
     5
420
      255
176
     1
290
     0
176
     1
 90
       50
176
     1
 90
       50
176
     1
 90
       50
176
     1
290
     0
176
     1
 90
       50
176
     1
 62
   256
176
     0
 40
1.0
176
     0
 90
        2
176
     1
  1
strokes_ogs.tif
176
     1
290
     0
176
     1
 40
1.0
176
     1
 40
1.0
176
     1
  0
VISUALSTYLE
  5
42
102
{ACAD_REACTORS
330
2A
102
}
330
2A
100
AcDbVisualStyle
  2
Shaded
 70
    27
177
     3
291
     0
 70
    58
 90
        2
176
     1
 90
        2
176
     1
 90
        1
176
     1
 90
        2
176
     1
 40
0.6
176
     1
 40
30.0
176
     1
 62
     7
420
 16777215
176
     1
 90
        0
176
     1
 90
        4
176
     1
 62
     7
176
     1
 62
   257
176
     1
 90
        1
176
     1
 90
        1
176
     1
 40
1.0
176
     1
 90
        8
176
     1
 62
   257
176
     1
 40
1.0
176
     1
 90
        1
176
     1
 90
        6
176
     1
 90
        2
176
     1
 62
     8
420
  7895160
176
     1
 90
        3
176
     1
 90
        0
176
     1
 90
        0
176
     1
290
     0
176
     1
 90
        5
176
     1
 40
0.0
176
     1
 90
        0
176
     1
290
     0
176
     1
290
     1
176
     1
290
     1
176
     1
290
     0
176
     1
290
     0
176
     1
290
     0
176
     1
290
     0
176
     1
290
     0
176
     1
290
     0
176
     1
 90
       50
176
     1
 40
0.0
176
     1
 40
1.0
176
     1
 90
        0
176
     1
 62
    18
420
        0
176
     1
 90
       50
176
     1
 90
        3
176
     1
 62
     5
420
      255
176
     1
290
     0
176
     1
 90
       50
176
     1
 90
       50
176
     1
 90
       50
176
     1
290
     0
176
     1
 90
       50
176
     1
 62
   256
176
     0
 40
1.0
176
     0
 90
        2
176
     1
  1
strokes_ogs.tif
176
     1
290
     0
176
     1
 40
1.0
176
     1
 40
1.0
176
     1
  0
VISUALSTYLE
  5
41
102
{ACAD_REACTORS
330
2A
102
}
330
2A
100
AcDbVisualStyle
  2
Shaded with edges
 70
    26
177
     3
291
     0
 70
    58
 90
        2
176
     1
 90
        2
176
     1
 90
        1
176
     1
 90
        2
176
     1
 40
0.6
176
     1
 40
30.0
176
     1
 62
     7
420
 16777215
176
     1
 90
        1
176
     1
 90
       10
176
     1
 62
     7
176
     1
 62
   257
176
     1
 90
        2
176
     1
 90
        1
176
     1
 40
1.0
176
     1
 90
        8
176
     1
 62
   257
176
     1
 40
1.0
176
     1
 90
        1
176
     1
 90
        6
176
     1
 90
        2
176
     1
 62
     7
176
     1
 90
        3
176
     1
 90
        0
176
     1
 90
        0
176
     1
290
     0
176
     1
 90
        5
176
     1
 40
0.0
176
     1
 90
        0
176
     1
290
     0
176
     1
290
     1
176
     1
290
     1
176
     1
290
     0
176
     1
290
     0
176
     1
290
     0
176
     1
290
     0
176
     1
290
     0
176
     1
290
     0
176
     1
 90
       50
176
     1
 40
0.0
176
     1
 40
1.0
176
     1
 90
        0
176
     1
 62
    18
420
        0
176
     1
 90
       50
176
     1
 90
        3
176
     1
 62
     5
420
      255
176
     1
290
     0
176
     1
 90
       50
176
     1
 90
       50
176
     1
 90
       50
176
     1
290
     0
176
     1
 90
       50
176
     1
 62
   256
176
     0
 40
1.0
176
     0
 90
        2
176
     1
  1
strokes_ogs.tif
176
     1
290
     0
176
     1
 40
1.0
176
     1
 40
1.0
176
     1
  0
VISUALSTYLE
  5
3E
102
{ACAD_REACTORS
330
2A
102
}
330
2A
100
AcDbVisualStyle
  2
Shades of Gray
 70
    23
177
     3
291
     0
 70
    58
 90
        2
176
     1
 90
        2
176
     1
 90
        3
176
     1
 90
        0
176
     1
 40
0.6
176
     1
 40
30.0
176
     1
 62
     7
420
 16777215
176
     1
 90
        2
176
     1
 90
        2
176
     1
 62
     7
176
     1
 62
     7
176
     1
 90
        1
176
     1
 90
        1
176
     1
 40
40.0
176
     1
 90
        8
176
     1
 62
     7
176
     1
 40
1.0
176
     1
 90
        1
176
     1
 90
        6
176
     1
 90
        2
176
     1
 62
     7
176
     1
 90
        3
176
     1
 90
        0
176
     1
 90
        0
176
     1
290
     0
176
     1
 90
        1
176
     1
 40
0.0
176
     1
 90
        0
176
     1
290
     0
176
     1
290
     1
176
     1
290
     1
176
     1
290
     0
176
     1
290
     0
176
     1
290
     0
176
     1
290
     0
176
     1
290
     0
176
     1
290
     0
176
     1
 90
       50
176
     1
 40
0.0
176
     1
 40
1.0
176
     1
 90
        0
176
     1
 62
    18
420
        0
176
     1
 90
       50
176
     1
 90
        3
176
     1
 62
     5
420
      255
176
     1
290
     0
176
     1
 90
       50
176
     1
 90
       50
176
     1
 90
       50
176
     1
290
     0
176
     1
 90
       50
176
     1
 62
   256
176
     0
 40
1.0
176
     0
 90
        2
176
     1
  1
strokes_ogs.tif
176
     1
290
     0
176
     1
 40
1.0
176
     1
 40
1.0
176
     1
  0
VISUALSTYLE
  5
3F
102
{ACAD_REACTORS
330
2A
102
}
330
2A
100
AcDbVisualStyle
  2
Sketchy
 70
    24
177
     3
291
     0
 70
    58
 90
        1
176
     1
 90
        2
176
     1
 90
        2
176
     1
 90
        0
176
     1
 40
0.6
176
     1
 40
30.0
176
     1
 62
     7
420
 16777215
176
     1
 90
        2
176
     1
 90
        2
176
     1
 62
     7
176
     1
 62
     7
176
     1
 90
        1
176
     1
 90
        1
176
     1
 40
40.0
176
     1
 90
       11
176
     1
 62
     7
176
     1
 40
1.0
176
     1
 90
        1
176
     1
 90
        6
176
     1
 90
        2
176
     1
 62
     7
176
     1
 90
        6
176
     1
 90
        0
176
     1
 90
        0
176
     1
290
     0
176
     1
 90
        1
176
     1
 40
0.0
176
     1
 90
        0
176
     1
290
     0
176
     1
290
     1
176
     1
290
     1
176
     1
290
     0
176
     1
290
     0
176
     1
290
     0
176
     1
290
     0
176
     1
290
     0
176
     1
290
     0
176
     1
 90
       50
176
     1
 40
0.0
176
     1
 40
1.0
176
     1
 90
        0
176
     1
 62
    18
420
        0
176
     1
 90
       50
176
     1
 90
        3
176
     1
 62
     5
420
      255
176
     1
290
     0
176
     1
 90
       50
176
     1
 90
       50
176
     1
 90
       50
176
     1
290
     0
176
     1
 90
       50
176
     1
 62
   256
176
     0
 40
1.0
176
     0
 90
        2
176
     1
  1
strokes_ogs.tif
176
     1
290
     0
176
     1
 40
1.0
176
     1
 40
1.0
176
     1
  0
VISUALSTYLE
  5
37
102
{ACAD_REACTORS
330
2A
102
}
330
2A
100
AcDbVisualStyle
  2
Thicken
 70
    13
177
     3
291
     1
 70
    58
 90
        2
176
     1
 90
        2
176
     1
 90
        0
176
     1
 90
        0
176
     1
 40
0.6
176
     1
 40
30.0
176
     1
 62
     7
420
 16777215
176
     1
 90
        1
176
     1
 90
        4
176
     1
 62
     7
176
     1
 62
   257
176
     1
 90
        1
176
     1
 90
        1
176
     1
 40
1.0
176
     1
 90
       12
176
     1
 62
     7
176
     1
 40
1.0
176
     1
 90
        1
176
     1
 90
        6
176
     1
 90
        2
176
     1
 62
     7
176
     1
 90
        5
176
     1
 90
        0
176
     1
 90
        0
176
     1
290
     0
176
     1
 90
        1
176
     1
 40
0.0
176
     1
 90
        0
176
     1
290
     0
176
     1
290
     1
176
     1
290
     1
176
     1
290
     0
176
     1
290
     0
176
     1
290
     0
176
     1
290
     0
176
     1
290
     0
176
     1
290
     0
176
     1
 90
       50
176
     1
 40
0.0
176
     1
 40
1.0
176
     1
 90
        0
176
     1
 62
    18
420
        0
176
     1
 90
       50
176
     1
 90
        3
176
     1
 62
     5
420
      255
176
     1
290
     0
176
     1
 90
       50
176
     1
 90
       50
176
     1
 90
       50
176
     1
290
     0
176
     1
 90
       50
176
     1
 62
   256
176
     0
 40
1.0
176
     0
 90
        2
176
     1
  1
strokes_ogs.tif
176
     1
290
     0
176
     1
 40
1.0
176
     1
 40
1.0
176
     1
  0
VISUALSTYLE
  5
30
102
{ACAD_REACTORS
330
2A
102
}
330
2A
100
AcDbVisualStyle
  2
Wireframe
 70
     5
177
     3
291
     0
 70
    58
 90
        0
176
     1
 90
        2
176
     1
 90
        0
176
     1
 90
        0
176
     1
 40
0.6
176
     1
 40
30.0
176
     1
 62
     7
420
 16777215
176
     1
 90
        1
176
     1
 90
        4
176
     1
 62
     7
176
     1
 62
   257
176
     1
 90
        1
176
     1
 90
        1
176
     1
 40
1.0
176
     1
 90
        0
176
     1
 62
   257
176
     1
 40
1.0
176
     1
 90
        1
176
     1
 90
        6
176
     1
 90
        2
176
     1
 62
     7
176
     1
 90
        3
176
     1
 90
        0
176
     1
 90
        0
176
     1
290
     0
176
     1
 90
        1
176
     1
 40
0.0
176
     1
 90
        0
176
     1
290
     0
176
     1
290
     1
176
     1
290
     1
176
     1
290
     0
176
     1
290
     0
176
     1
290
     0
176
     1
290
     0
176
     1
290
     0
176
     1
290
     0
176
     1
 90
       50
176
     1
 40
0.0
176
     1
 40
1.0
176
     1
 90
        0
176
     1
 62
    18
420
        0
176
     1
 90
       50
176
     1
 90
        3
176
     1
 62
     5
420
      255
176
     1
290
     0
176
     1
 90
       50
176
     1
 90
       50
176
     1
 90
       50
176
     1
290
     0
176
     1
 90
       50
176
     1
 62
   256
176
     0
 40
1.0
176
     0
 90
        2
176
     1
  1
strokes_ogs.tif
176
     1
290
     0
176
     1
 40
1.0
176
     1
 40
1.0
176
     1
  0
VISUALSTYLE
  5
40
102
{ACAD_REACTORS
330
2A
102
}
330
2A
100
AcDbVisualStyle
  2
X-Ray
 70
    25
177
     3
291
     0
 70
    58
 90
        2
176
     1
 90
        2
176
     1
 90
        1
176
     1
 90
        1
176
     1
 40
0.5
176
     1
 40
30.0
176
     1
 62
     7
420
 16777215
176
     1
 90
        1
176
     1
 90
        0
176
     1
 62
     7
176
     1
 62
   257
176
     1
 90
        1
176
     1
 90
        1
176
     1
 40
1.0
176
     1
 90
        8
176
     1
 62
     7
176
     1
 40
1.0
176
     1
 90
        1
176
     1
 90
        6
176
     1
 90
        2
176
     1
 62
     7
176
     1
 90
        3
176
     1
 90
        0
176
     1
 90
        0
176
     1
290
     0
176
     1
 90
       13
176
     1
 40
0.0
176
     1
 90
        0
176
     1
290
     0
176
     1
290
     1
176
     1
290
     1
176
     1
290
     0
176
     1
290
     0
176
     1
290
     0
176
     1
290
     0
176
     1
290
     0
176
     1
290
     0
176
     1
 90
       50
176
     1
 40
0.0
176
     1
 40
1.0
176
     1
 90
        0
176
     1
 62
    18
420
        0
176
     1
 90
       50
176
     1
 90
        3
176
     1
 62
     5
420
      255
176
     1
290
     0
176
     1
 90
       50
176
     1
 90
       50
176
     1
 90
       50
176
     1
290
     0
176
     1
 90
       50
176
     1
 62
   256
176
     0
 40
1.0
176
     0
 90
        2
176
     1
  1
strokes_ogs.tif
176
     1
290
     0
176
     1
 40
1.0
176
     1
 40
1.0
176
     1
  0
DICTIONARYVAR
  5
21D
102
{ACAD_REACTORS
330
21C
102
}
330
21C
100
DictionaryVariables
280
     0
  1
1:1
  0
DICTIONARYVAR
  5
222
102
{ACAD_REACTORS
330
21C
102
}
330
21C
100
DictionaryVariables
280
     0
  1
Standard
  0
DICTIONARYVAR
  5
221
102
{ACAD_REACTORS
330
21C
102
}
330
21C
100
DictionaryVariables
280
     0
  1
Standard
  0
DICTIONARY
  5
21E
330
6A
100
AcDbDictionary
280
     1
281
     1
  3
ACAD_ROUNDTRIP_2008_TABLESTYLE_CELLSTYLEMAP
360
21F
  0
CELLSTYLEMAP
  5
21F
102
{ACAD_REACTORS
330
21E
102
}
330
21E
100
AcDbCellStyleMap
 90
        3
300
CELLSTYLE
  1
TABLEFORMAT_BEGIN
 90
        5
170
     1
 91
        0
 92
    32768
 62
   257
 93
        1
300
CONTENTFORMAT
  1
CONTENTFORMAT_BEGIN
 90
        0
 91
        0
 92
        4
 93
        0
300

 40
0.0
140
1.0
 94
        5
 62
     0
340
11
144
0.25
309
CONTENTFORMAT_END
171
     1
301
MARGIN
  1
CELLMARGIN_BEGIN
 40
0.06
 40
0.06
 40
0.06
 40
0.06
 40
0.06
 40
0.06
309
CELLMARGIN_END
 94
        6
 95
        1
302
GRIDFORMAT
  1
GRIDFORMAT_BEGIN
 90
        0
 91
        1
 62
     0
 92
       -2
340
14
 93
        0
 40
0.045
309
GRIDFORMAT_END
 95
        2
302
GRIDFORMAT
  1
GRIDFORMAT_BEGIN
 90
        0
 91
        1
 62
     0
 92
       -2
340
14
 93
        0
 40
0.045
309
GRIDFORMAT_END
 95
        4
302
GRIDFORMAT
  1
GRIDFORMAT_BEGIN
 90
        0
 91
        1
 62
     0
 92
       -2
340
14
 93
        0
 40
0.045
309
GRIDFORMAT_END
 95
        8
302
GRIDFORMAT
  1
GRIDFORMAT_BEGIN
 90
        0
 91
        1
 62
     0
 92
       -2
340
14
 93
        0
 40
0.045
309
GRIDFORMAT_END
 95
       16
302
GRIDFORMAT
  1
GRIDFORMAT_BEGIN
 90
        0
 91
        1
 62
     0
 92
       -2
340
14
 93
        0
 40
0.045
309
GRIDFORMAT_END
 95
       32
302
GRIDFORMAT
  1
GRIDFORMAT_BEGIN
 90
        0
 91
        1
 62
     0
 92
       -2
340
14
 93
        0
 40
0.045
309
GRIDFORMAT_END
309
TABLEFORMAT_END
  1
CELLSTYLE_BEGIN
 90
        1
 91
        1
300
_TITLE
309
CELLSTYLE_END
300
CELLSTYLE
  1
TABLEFORMAT_BEGIN
 90
        5
170
     1
 91
        0
 92
        0
 62
   257
 93
        1
300
CONTENTFORMAT
  1
CONTENTFORMAT_BEGIN
 90
        0
 91
        0
 92
        4
 93
        0
300

 40
0.0
140
1.0
 94
        5
 62
     0
340
11
144
0.18
309
CONTENTFORMAT_END
171
     1
301
MARGIN
  1
CELLMARGIN_BEGIN
 40
0.06
 40
0.06
 40
0.06
 40
0.06
 40
0.06
 40
0.06
309
CELLMARGIN_END
 94
        6
 95
        1
302
GRIDFORMAT
  1
GRIDFORMAT_BEGIN
 90
        0
 91
        1
 62
     0
 92
       -2
340
14
 93
        0
 40
0.045
309
GRIDFORMAT_END
 95
        2
302
GRIDFORMAT
  1
GRIDFORMAT_BEGIN
 90
        0
 91
        1
 62
     0
 92
       -2
340
14
 93
        0
 40
0.045
309
GRIDFORMAT_END
 95
        4
302
GRIDFORMAT
  1
GRIDFORMAT_BEGIN
 90
        0
 91
        1
 62
     0
 92
       -2
340
14
 93
        0
 40
0.045
309
GRIDFORMAT_END
 95
        8
302
GRIDFORMAT
  1
GRIDFORMAT_BEGIN
 90
        0
 91
        1
 62
     0
 92
       -2
340
14
 93
        0
 40
0.045
309
GRIDFORMAT_END
 95
       16
302
GRIDFORMAT
  1
GRIDFORMAT_BEGIN
 90
        0
 91
        1
 62
     0
 92
       -2
340
14
 93
        0
 40
0.045
309
GRIDFORMAT_END
 95
       32
302
GRIDFORMAT
  1
GRIDFORMAT_BEGIN
 90
        0
 91
        1
 62
     0
 92
       -2
340
14
 93
        0
 40
0.045
309
GRIDFORMAT_END
309
TABLEFORMAT_END
  1
CELLSTYLE_BEGIN
 90
        2
 91
        1
300
_HEADER
309
CELLSTYLE_END
300
CELLSTYLE
  1
TABLEFORMAT_BEGIN
 90
        5
170
     1
 91
        0
 92
        0
 62
   257
 93
        1
300
CONTENTFORMAT
  1
CONTENTFORMAT_BEGIN
 90
        0
 91
        0
 92
        4
 93
        0
300

 40
0.0
140
1.0
 94
        2
 62
     0
340
11
144
0.18
309
CONTENTFORMAT_END
171
     1
301
MARGIN
  1
CELLMARGIN_BEGIN
 40
0.06
 40
0.06
 40
0.06
 40
0.06
 40
0.06
 40
0.06
309
CELLMARGIN_END
 94
        6
 95
        1
302
GRIDFORMAT
  1
GRIDFORMAT_BEGIN
 90
        0
 91
        1
 62
     0
 92
       -2
340
14
 93
        0
 40
0.045
309
GRIDFORMAT_END
 95
        2
302
GRIDFORMAT
  1
GRIDFORMAT_BEGIN
 90
        0
 91
        1
 62
     0
 92
       -2
340
14
 93
        0
 40
0.045
309
GRIDFORMAT_END
 95
        4
302
GRIDFORMAT
  1
GRIDFORMAT_BEGIN
 90
        0
 91
        1
 62
     0
 92
       -2
340
14
 93
        0
 40
0.045
309
GRIDFORMAT_END
 95
        8
302
GRIDFORMAT
  1
GRIDFORMAT_BEGIN
 90
        0
 91
        1
 62
     0
 92
       -2
340
14
 93
        0
 40
0.045
309
GRIDFORMAT_END
 95
       16
302
GRIDFORMAT
  1
GRIDFORMAT_BEGIN
 90
        0
 91
        1
 62
     0
 92
       -2
340
14
 93
        0
 40
0.045
309
GRIDFORMAT_END
 95
       32
302
GRIDFORMAT
  1
GRIDFORMAT_BEGIN
 90
        0
 91
        1
 62
     0
 92
       -2
340
14
 93
        0
 40
0.045
309
GRIDFORMAT_END
309
TABLEFORMAT_END
  1
CELLSTYLE_BEGIN
 90
        3
 91
        2
300
_DATA
309
CELLSTYLE_END
  0
ENDSEC
  0
EOF