0
SECTION
  2
HEADER
  9
$ACADVER
  1
AC1027
  9
$ACADMAINTVER
 70
     8
  9
$DWGCODEPAGE
  3
ANSI_1252
  9
$REQUIREDVERSIONS
160
                 0
  9
$COMMENTS
  1
File was created by Cadenas
  9
$CUSTOMPROPERTYTAG
  1
NN
  9
$CUSTOMPROPERTY
  1
Imperial - IP Flange - Round Contact Seal
  9
$CUSTOMPROPERTYTAG
  1
NT
  9
$CUSTOMPROPERTY
  1
Imperial 3 & 4 Bolt Round Flange Bearings
  9
$CUSTOMPROPERTYTAG
  1
NB
  9
$CUSTOMPROPERTY
  1
069638
  9
$CUSTOMPROPERTYTAG
  1
NBSYN
  9
$CUSTOMPROPERTY
  1
$PN.
  9
$CUSTOMPROPERTYTAG
  1
LINA
  9
$CUSTOMPROPERTY
  1
069638
  9
$CUSTOMPROPERTYTAG
  1
SS
  9
$CUSTOMPROPERTY
  1
1-3/4
  9
$CUSTOMPROPERTYTAG
  1
PN
  9
$CUSTOMPROPERTY
  1
069638
  9
$CUSTOMPROPERTYTAG
  1
DESCRIPTION
  9
$CUSTOMPROPERTY
  1
F4R-IP-112RE
  9
$CUSTOMPROPERTYTAG
  1
EF
  9
$CUSTOMPROPERTY
  1
Expansion Type
  9
$CUSTOMPROPERTYTAG
  1
ST
  9
$CUSTOMPROPERTY
  1
Contact Seal
  9
$CUSTOMPROPERTYTAG
  1
A
  9
$CUSTOMPROPERTY
  1
2-13/16
  9
$CUSTOMPROPERTYTAG
  1
B
  9
$CUSTOMPROPERTY
  1
6-3/8
  9
$CUSTOMPROPERTYTAG
  1
C
  9
$CUSTOMPROPERTY
  1
3-7/64
  9
$CUSTOMPROPERTYTAG
  1
D
  9
$CUSTOMPROPERTY
  1
3-57/64
  9
$CUSTOMPROPERTYTAG
  1
DD
  9
$CUSTOMPROPERTY
  1
5-1/2
  9
$CUSTOMPROPERTYTAG
  1
E
  9
$CUSTOMPROPERTY
  1
1-57/64
  9
$CUSTOMPROPERTYTAG
  1
F
  9
$CUSTOMPROPERTY
  1
1/2
  9
$CUSTOMPROPERTYTAG
  1
H
  9
$CUSTOMPROPERTY
  1
1/2
  9
$CUSTOMPROPERTYTAG
  1
J
  9
$CUSTOMPROPERTY
  1
4-1/4
  9
$CUSTOMPROPERTYTAG
  1
L
  9
$CUSTOMPROPERTY
  1
3
  9
$CUSTOMPROPERTYTAG
  1
P
  9
$CUSTOMPROPERTY
  1
19/64
  9
$CUSTOMPROPERTYTAG
  1
X
  9
$CUSTOMPROPERTY
  1
1/4
  9
$CUSTOMPROPERTYTAG
  1
Y
  9
$CUSTOMPROPERTY
  1
0.020
  9
$CUSTOMPROPERTYTAG
  1
Z
  9
$CUSTOMPROPERTY
  1
2-5/64
  9
$CUSTOMPROPERTYTAG
  1
COMPANY
  9
$CUSTOMPROPERTY
  1
baldor
  9
$INSBASE
 10
0.0
 20
0.0
 30
0.0
  9
$EXTMIN
 10
1.000000000000000E+20
 20
1.000000000000000E+20
 30
1.000000000000000E+20
  9
$EXTMAX
 10
-1.000000000000000E+20
 20
-1.000000000000000E+20
 30
-1.000000000000000E+20
  9
$LIMMIN
 10
0.0
 20
0.0
  9
$LIMMAX
 10
12.0
 20
9.0
  9
$ORTHOMODE
 70
     0
  9
$REGENMODE
 70
     1
  9
$FILLMODE
 70
     1
  9
$QTEXTMODE
 70
     0
  9
$MIRRTEXT
 70
     1
  9
$LTSCALE
 40
1.0
  9
$ATTMODE
 70
     1
  9
$TEXTSIZE
 40
0.2
  9
$TRACEWID
 40
0.05
  9
$TEXTSTYLE
  7
Standard
  9
$CLAYER
  8
0
  9
$CELTYPE
  6
ByLayer
  9
$CECOLOR
 62
   256
  9
$CELTSCALE
 40
1.0
  9
$DISPSILH
 70
     0
  9
$DIMSCALE
 40
1.0
  9
$DIMASZ
 40
0.18
  9
$DIMEXO
 40
0.0625
  9
$DIMDLI
 40
0.38
  9
$DIMRND
 40
0.0
  9
$DIMDLE
 40
0.0
  9
$DIMEXE
 40
0.18
  9
$DIMTP
 40
0.0
  9
$DIMTM
 40
0.0
  9
$DIMTXT
 40
0.18
  9
$DIMCEN
 40
0.09
  9
$DIMTSZ
 40
0.0
  9
$DIMTOL
 70
     0
  9
$DIMLIM
 70
     0
  9
$DIMTIH
 70
     1
  9
$DIMTOH
 70
     1
  9
$DIMSE1
 70
     0
  9
$DIMSE2
 70
     0
  9
$DIMTAD
 70
     0
  9
$DIMZIN
 70
     0
  9
$DIMBLK
  1

  9
$DIMASO
 70
     1
  9
$DIMSHO
 70
     1
  9
$DIMPOST
  1

  9
$DIMAPOST
  1

  9
$DIMALT
 70
     0
  9
$DIMALTD
 70
     2
  9
$DIMALTF
 40
25.4
  9
$DIMLFAC
 40
1.0
  9
$DIMTOFL
 70
     0
  9
$DIMTVP
 40
0.0
  9
$DIMTIX
 70
     0
  9
$DIMSOXD
 70
     0
  9
$DIMSAH
 70
     0
  9
$DIMBLK1
  1

  9
$DIMBLK2
  1

  9
$DIMSTYLE
  2
Standard
  9
$DIMCLRD
 70
     0
  9
$DIMCLRE
 70
     0
  9
$DIMCLRT
 70
     0
  9
$DIMTFAC
 40
1.0
  9
$DIMGAP
 40
0.09
  9
$DIMJUST
 70
     0
  9
$DIMSD1
 70
     0
  9
$DIMSD2
 70
     0
  9
$DIMTOLJ
 70
     1
  9
$DIMTZIN
 70
     0
  9
$DIMALTZ
 70
     0
  9
$DIMALTTZ
 70
     0
  9
$DIMUPT
 70
     0
  9
$DIMDEC
 70
     4
  9
$DIMTDEC
 70
     4
  9
$DIMALTU
 70
     2
  9
$DIMALTTD
 70
     2
  9
$DIMTXSTY
  7
Standard
  9
$DIMAUNIT
 70
     0
  9
$DIMADEC
 70
     0
  9
$DIMALTRND
 40
0.0
  9
$DIMAZIN
 70
     0
  9
$DIMDSEP
 70
    46
  9
$DIMATFIT
 70
     3
  9
$DIMFRAC
 70
     0
  9
$DIMLDRBLK
  1

  9
$DIMLUNIT
 70
     2
  9
$DIMLWD
 70
    -2
  9
$DIMLWE
 70
    -2
  9
$DIMTMOVE
 70
     0
  9
$DIMFXL
 40
1.0
  9
$DIMFXLON
 70
     0
  9
$DIMJOGANG
 40
0.7853981633974483
  9
$DIMTFILL
 70
     0
  9
$DIMTFILLCLR
 70
     0
  9
$DIMARCSYM
 70
     0
  9
$DIMLTYPE
  6

  9
$DIMLTEX1
  6

  9
$DIMLTEX2
  6

  9
$DIMTXTDIRECTION
 70
     0
  9
$LUNITS
 70
     2
  9
$LUPREC
 70
     4
  9
$SKETCHINC
 40
0.1
  9
$FILLETRAD
 40
0.5
  9
$AUNITS
 70
     0
  9
$AUPREC
 70
     0
  9
$MENU
  1
.
  9
$ELEVATION
 40
0.0
  9
$PELEVATION
 40
0.0
  9
$THICKNESS
 40
0.0
  9
$LIMCHECK
 70
     0
  9
$CHAMFERA
 40
0.0
  9
$CHAMFERB
 40
0.0
  9
$CHAMFERC
 40
0.0
  9
$CHAMFERD
 40
0.0
  9
$SKPOLY
 70
     0
  9
$TDCREATE
 40
2458168.990997813
  9
$TDUCREATE
 40
2458168.949331146
  9
$TDUPDATE
 40
2458168.990997998
  9
$TDUUPDATE
 40
2458168.949331331
  9
$TDINDWG
 40
0.0000000116
  9
$TDUSRTIMER
 40
0.0000000116
  9
$USRTIMER
 70
     1
  9
$ANGBASE
 50
0.0
  9
$ANGDIR
 70
     0
  9
$PDMODE
 70
     0
  9
$PDSIZE
 40
0.0
  9
$PLINEWID
 40
0.0
  9
$SPLFRAME
 70
     0
  9
$SPLINETYPE
 70
     6
  9
$SPLINESEGS
 70
     8
  9
$HANDSEED
  5
230
  9
$SURFTAB1
 70
     6
  9
$SURFTAB2
 70
     6
  9
$SURFTYPE
 70
     6
  9
$SURFU
 70
     6
  9
$SURFV
 70
     6
  9
$UCSBASE
  2

  9
$UCSNAME
  2

  9
$UCSORG
 10
0.0
 20
0.0
 30
0.0
  9
$UCSXDIR
 10
1.0
 20
0.0
 30
0.0
  9
$UCSYDIR
 10
0.0
 20
1.0
 30
0.0
  9
$UCSORTHOREF
  2

  9
$UCSORTHOVIEW
 70
     0
  9
$UCSORGTOP
 10
0.0
 20
0.0
 30
0.0
  9
$UCSORGBOTTOM
 10
0.0
 20
0.0
 30
0.0
  9
$UCSORGLEFT
 10
0.0
 20
0.0
 30
0.0
  9
$UCSORGRIGHT
 10
0.0
 20
0.0
 30
0.0
  9
$UCSORGFRONT
 10
0.0
 20
0.0
 30
0.0
  9
$UCSORGBACK
 10
0.0
 20
0.0
 30
0.0
  9
$PUCSBASE
  2

  9
$PUCSNAME
  2

  9
$PUCSORG
 10
0.0
 20
0.0
 30
0.0
  9
$PUCSXDIR
 10
1.0
 20
0.0
 30
0.0
  9
$PUCSYDIR
 10
0.0
 20
1.0
 30
0.0
  9
$PUCSORTHOREF
  2

  9
$PUCSORTHOVIEW
 70
     0
  9
$PUCSORGTOP
 10
0.0
 20
0.0
 30
0.0
  9
$PUCSORGBOTTOM
 10
0.0
 20
0.0
 30
0.0
  9
$PUCSORGLEFT
 10
0.0
 20
0.0
 30
0.0
  9
$PUCSORGRIGHT
 10
0.0
 20
0.0
 30
0.0
  9
$PUCSORGFRONT
 10
0.0
 20
0.0
 30
0.0
  9
$PUCSORGBACK
 10
0.0
 20
0.0
 30
0.0
  9
$USERI1
 70
     0
  9
$USERI2
 70
     0
  9
$USERI3
 70
     0
  9
$USERI4
 70
     0
  9
$USERI5
 70
     0
  9
$USERR1
 40
0.0
  9
$USERR2
 40
0.0
  9
$USERR3
 40
0.0
  9
$USERR4
 40
0.0
  9
$USERR5
 40
0.0
  9
$WORLDVIEW
 70
     1
  9
$SHADEDGE
 70
     3
  9
$SHADEDIF
 70
    70
  9
$TILEMODE
 70
     1
  9
$MAXACTVP
 70
    64
  9
$PINSBASE
 10
0.0
 20
0.0
 30
0.0
  9
$PLIMCHECK
 70
     0
  9
$PEXTMIN
 10
1.000000000000000E+20
 20
1.000000000000000E+20
 30
1.000000000000000E+20
  9
$PEXTMAX
 10
-1.000000000000000E+20
 20
-1.000000000000000E+20
 30
-1.000000000000000E+20
  9
$PLIMMIN
 10
0.0
 20
0.0
  9
$PLIMMAX
 10
12.0
 20
9.0
  9
$UNITMODE
 70
     0
  9
$VISRETAIN
 70
     1
  9
$PLINEGEN
 70
     0
  9
$PSLTSCALE
 70
     1
  9
$TREEDEPTH
 70
  3020
  9
$CMLSTYLE
  2
Standard
  9
$CMLJUST
 70
     0
  9
$CMLSCALE
 40
1.0
  9
$PROXYGRAPHICS
 70
     1
  9
$MEASUREMENT
 70
     0
  9
$CELWEIGHT
370
    -1
  9
$ENDCAPS
280
     0
  9
$JOINSTYLE
280
     0
  9
$LWDISPLAY
290
     0
  9
$INSUNITS
 70
     1
  9
$HYPERLINKBASE
  1

  9
$STYLESHEET
  1

  9
$XEDIT
290
     1
  9
$CEPSNTYPE
380
     0
  9
$PSTYLEMODE
290
     1
  9
$FINGERPRINTGUID
  2
{6BA1DBB9-447B-4CE6-820E-DD5E2047F05D}
  9
$VERSIONGUID
  2
{FAEB1C32-E019-11D5-929B-00C0DF256EC4}
  9
$EXTNAMES
290
     1
  9
$PSVPSCALE
 40
0.0
  9
$OLESTARTUP
290
     0
  9
$SORTENTS
280
   127
  9
$INDEXCTL
280
     0
  9
$HIDETEXT
280
     1
  9
$XCLIPFRAME
280
     2
  9
$HALOGAP
280
     0
  9
$OBSCOLOR
 70
   257
  9
$OBSLTYPE
280
     0
  9
$INTERSECTIONDISPLAY
280
     0
  9
$INTERSECTIONCOLOR
 70
   257
  9
$DIMASSOC
280
     2
  9
$PROJECTNAME
  1

  9
$CAMERADISPLAY
290
     0
  9
$LENSLENGTH
 40
50.0
  9
$CAMERAHEIGHT
 40
0.0
  9
$STEPSPERSEC
 40
2.0
  9
$STEPSIZE
 40
6.0
  9
$3DDWFPREC
 40
2.0
  9
$PSOLWIDTH
 40
0.25
  9
$PSOLHEIGHT
 40
4.0
  9
$LOFTANG1
 40
1.570796326794897
  9
$LOFTANG2
 40
1.570796326794897
  9
$LOFTMAG1
 40
0.0
  9
$LOFTMAG2
 40
0.0
  9
$LOFTPARAM
 70
     7
  9
$LOFTNORMALS
280
     1
  9
$LATITUDE
 40
37.795
  9
$LONGITUDE
 40
-122.394
  9
$NORTHDIRECTION
 40
0.0
  9
$TIMEZONE
 70
 -8000
  9
$LIGHTGLYPHDISPLAY
280
     1
  9
$TILEMODELIGHTSYNCH
280
     1
  9
$CMATERIAL
347
44
  9
$SOLIDHIST
280
     0
  9
$SHOWHIST
280
     1
  9
$DWFFRAME
280
     2
  9
$DGNFRAME
280
     2
  9
$REALWORLDSCALE
290
     1
  9
$INTERFERECOLOR
 62
   256
  9
$CSHADOW
280
     0
  9
$SHADOWPLANELOCATION
 40
0.0
  0
ENDSEC
  0
SECTION
  2
CLASSES
  0
CLASS
  1
ACDBDICTIONARYWDFLT
  2
AcDbDictionaryWithDefault
  3
ObjectDBX Classes
 90
        0
 91
        4
280
     0
281
     0
  0
CLASS
  1
VISUALSTYLE
  2
AcDbVisualStyle
  3
ObjectDBX Classes
 90
     4095
 91
        4
280
     0
281
     0
  0
CLASS
  1
MATERIAL
  2
AcDbMaterial
  3
ObjectDBX Classes
 90
     1153
 91
        4
280
     0
281
     0
  0
CLASS
  1
SCALE
  2
AcDbScale
  3
ObjectDBX Classes
 90
     1153
 91
        4
280
     0
281
     0
  0
CLASS
  1
TABLESTYLE
  2
AcDbTableStyle
  3
ObjectDBX Classes
 90
     4095
 91
        4
280
     0
281
     0
  0
CLASS
  1
MLEADERSTYLE
  2
AcDbMLeaderStyle
  3
ACDB_MLEADERSTYLE_CLASS
 90
     4095
 91
        4
280
     0
281
     0
  0
CLASS
  1
SUN
  2
AcDbSun
  3
SCENEOE
 90
     1153
 91
        4
280
     0
281
     0
  0
CLASS
  1
DICTIONARYVAR
  2
AcDbDictionaryVar
  3
ObjectDBX Classes
 90
        0
 91
        4
280
     0
281
     0
  0
CLASS
  1
CELLSTYLEMAP
  2
AcDbCellStyleMap
  3
ObjectDBX Classes
 90
     1152
 91
        4
280
     0
281
     0
  0
ENDSEC
  0
SECTION
  2
TABLES
  0
TABLE
  2
VPORT
  5
8
330
0
100
AcDbSymbolTable
 70
     1
  0
VPORT
  5
29
330
8
100
AcDbSymbolTableRecord
100
AcDbViewportTableRecord
  2
*Active
 70
     0
 10
0.0
 20
0.0
 11
1.0
 21
1.0
 12
0.0
 22
0.0
 13
0.0
 23
0.0
 14
0.5
 24
0.5
 15
0.5
 25
0.5
 16
0.0
 26
0.0
 36
1.0
 17
0.0
 27
-0.0000000000000018
 37
0.0
 40
6.827624999999998
 41
1.0
 42
50.0
 43
0.0
 44
0.0
 50
0.0
 51
0.0
 71
     0
 72
   100
 73
     1
 74
     3
 75
     0
 76
     0
 77
     0
 78
     0
281
     0
 65
     1
110
0.0
120
0.0
130
0.0
111
1.0
121
0.0
131
0.0
112
0.0
122
1.0
132
0.0
 79
     0
146
0.0
348
2F
 60
     3
 61
     5
292
     1
282
     1
141
0.0
142
0.0
 63
   250
361
6D
  0
ENDTAB
  0
TABLE
  2
LTYPE
  5
5
330
0
100
AcDbSymbolTable
 70
     3
  0
LTYPE
  5
14
330
5
100
AcDbSymbolTableRecord
100
AcDbLinetypeTableRecord
  2
ByBlock
 70
     0
  3

 72
    65
 73
     0
 40
0.0
  0
LTYPE
  5
15
330
5
100
AcDbSymbolTableRecord
100
AcDbLinetypeTableRecord
  2
ByLayer
 70
     0
  3

 72
    65
 73
     0
 40
0.0
  0
LTYPE
  5
16
330
5
100
AcDbSymbolTableRecord
100
AcDbLinetypeTableRecord
  2
Continuous
 70
     0
  3
Solid line
 72
    65
 73
     0
 40
0.0
  0
LTYPE
  5
9E
330
5
100
AcDbSymbolTableRecord
100
AcDbLinetypeTableRecord
  2
Center
 70
     0
  3

 72
    65
 73
     4
 40
1.5
 49
0.45
 74
     0
 49
-0.5
 74
     0
 49
0.05
 74
     0
 49
-0.5
 74
     0
  0
LTYPE
  5
E3
330
5
100
AcDbSymbolTableRecord
100
AcDbLinetypeTableRecord
  2
Dashed
 70
     0
  3

 72
    65
 73
     2
 40
2.0
 49
1.0
 74
     0
 49
-1.0
 74
     0
  0
ENDTAB
  0
TABLE
  2
LAYER
  5
2
330
0
100
AcDbSymbolTable
 70
     7
  0
LAYER
  5
10
330
2
100
AcDbSymbolTableRecord
100
AcDbLayerTableRecord
  2
0
 70
     0
 62
     7
  6
Continuous
370
    -3
390
F
347
46
348
0
  0
LAYER
  5
72
330
2
100
AcDbSymbolTableRecord
100
AcDbLayerTableRecord
  2
AM_6
 70
     0
 62
    -2
  6
Continuous
370
    35
390
F
347
46
348
0
  0
LAYER
  5
9C
330
2
100
AcDbSymbolTableRecord
100
AcDbLayerTableRecord
  2
AM_5
 70
     0
 62
     3
  6
Continuous
370
    25
390
F
347
46
348
0
  0
LAYER
  5
9F
330
2
100
AcDbSymbolTableRecord
100
AcDbLayerTableRecord
  2
AM_7
 70
     0
 62
     7
  6
Center
370
    25
390
F
347
46
348
0
  0
LAYER
  5
A2
330
2
100
AcDbSymbolTableRecord
100
AcDbLayerTableRecord
  2
AM_4
 70
     0
 62
     7
  6
Continuous
370
    50
390
F
347
46
348
0
  0
LAYER
  5
E4
330
2
100
AcDbSymbolTableRecord
100
AcDbLayerTableRecord
  2
AM_9
 70
     0
 62
     6
  6
Dashed
370
    25
390
F
347
46
348
0
  0
LAYER
  5
219
330
2
100
AcDbSymbolTableRecord
100
AcDbLayerTableRecord
  2
ConnectionPoints
 70
     0
 62
     7
  6
Continuous
370
    50
390
F
347
46
348
0
  0
ENDTAB
  0
TABLE
  2
STYLE
  5
3
330
0
100
AcDbSymbolTable
 70
     1
  0
STYLE
  5
11
330
3
100
AcDbSymbolTableRecord
100
AcDbTextStyleTableRecord
  2
Standard
 70
     0
 40
0.0
 41
1.0
 50
0.0
 71
     0
 42
0.2
  3
txt
  4

  0
ENDTAB
  0
TABLE
  2
VIEW
  5
6
330
0
100
AcDbSymbolTable
 70
     0
  0
ENDTAB
  0
TABLE
  2
UCS
  5
7
330
0
100
AcDbSymbolTable
 70
     0
  0
ENDTAB
  0
TABLE
  2
APPID
  5
9
330
0
100
AcDbSymbolTable
 70
     1
  0
APPID
  5
12
330
9
100
AcDbSymbolTableRecord
100
AcDbRegAppTableRecord
  2
ACAD
 70
     0
  0
ENDTAB
  0
TABLE
  2
DIMSTYLE
  5
A
330
0
100
AcDbSymbolTable
 70
     1
100
AcDbDimStyleTable
  0
DIMSTYLE
105
27
330
A
100
AcDbSymbolTableRecord
100
AcDbDimStyleTableRecord
  2
Standard
 70
     0
178
     0
340
11
  0
ENDTAB
  0
TABLE
  2
BLOCK_RECORD
  5
1
330
0
100
AcDbSymbolTable
 70
     8
  0
BLOCK_RECORD
  5
1F
330
1
100
AcDbSymbolTableRecord
100
AcDbBlockTableRecord
  2
*Model_Space
340
22
 70
     0
280
     1
281
     0
  0
BLOCK_RECORD
  5
1B
330
1
100
AcDbSymbolTableRecord
100
AcDbBlockTableRecord
  2
*Paper_Space
340
1E
 70
     0
280
     1
281
     0
  0
BLOCK_RECORD
  5
23
330
1
100
AcDbSymbolTableRecord
100
AcDbBlockTableRecord
  2
*Paper_Space0
340
26
 70
     0
280
     1
281
     0
  0
BLOCK_RECORD
  5
6E
330
1
100
AcDbSymbolTableRecord
100
AcDbBlockTableRecord
  2
1_069638_0
340
0
102
{BLKREFS
331
6F
102
}
 70
     0
280
     1
281
     0
  0
BLOCK_RECORD
  5
8C
330
1
100
AcDbSymbolTableRecord
100
AcDbBlockTableRecord
  2
2_ASME_B18_3_10_1_0_in_069638_0
340
0
102
{BLKREFS
331
8D
102
}
 70
     0
280
     1
281
     0
  0
BLOCK_RECORD
  5
AD
330
1
100
AcDbSymbolTableRecord
100
AcDbBlockTableRecord
  2
3_ASME_B18_3_10_2_0_in_069638_0
340
0
102
{BLKREFS
331
AE
102
}
 70
     0
280
     1
281
     0
  0
BLOCK_RECORD
  5
CA
330
1
100
AcDbSymbolTableRecord
100
AcDbBlockTableRecord
  2
4_070888LW_0_in_069638_0
340
0
102
{BLKREFS
331
CB
102
}
 70
     0
280
     1
281
     0
  0
BLOCK_RECORD
  5
119
330
1
100
AcDbSymbolTableRecord
100
AcDbBlockTableRecord
  2
5_070888I_0_in_069638_0
340
0
102
{BLKREFS
331
11A
102
}
 70
     0
280
     1
281
     0
  0
BLOCK_RECORD
  5
176
330
1
100
AcDbSymbolTableRecord
100
AcDbBlockTableRecord
  2
6_405015E_Inch_0_in_069638_0
340
0
102
{BLKREFS
331
177
102
}
 70
     0
280
     1
281
     0
  0
BLOCK_RECORD
  5
1B4
330
1
100
AcDbSymbolTableRecord
100
AcDbBlockTableRecord
  2
7_069638H_0_in_069638_0
340
0
102
{BLKREFS
331
1B5
102
}
 70
     0
280
     1
281
     0
  0
ENDTAB
  0
ENDSEC
  0
SECTION
  2
BLOCKS
  0
BLOCK
  5
20
330
1F
100
AcDbEntity
  8
0
100
AcDbBlockBegin
  2
*Model_Space
 70
     0
 10
0.0
 20
0.0
 30
0.0
  3
*Model_Space
  1

  0
ENDBLK
  5
21
330
1F
100
AcDbEntity
  8
0
100
AcDbBlockEnd
  0
BLOCK
  5
1C
330
1B
100
AcDbEntity
 67
     1
  8
0
100
AcDbBlockBegin
  2
*Paper_Space
 70
     0
 10
0.0
 20
0.0
 30
0.0
  3
*Paper_Space
  1

  0
ENDBLK
  5
1D
330
1B
100
AcDbEntity
 67
     1
  8
0
100
AcDbBlockEnd
  0
BLOCK
  5
24
330
23
100
AcDbEntity
  8
0
100
AcDbBlockBegin
  2
*Paper_Space0
 70
     0
 10
0.0
 20
0.0
 30
0.0
  3
*Paper_Space0
  1

  0
ENDBLK
  5
25
330
23
100
AcDbEntity
  8
0
100
AcDbBlockEnd
  0
BLOCK
  5
70
330
6E
100
AcDbEntity
  8
0
100
AcDbBlockBegin
  2
1_069638_0
 70
     2
 10
0.0
 20
0.0
 30
0.0
  3
1_069638_0
  1

  0
ATTDEF
  5
73
330
6E
100
AcDbEntity
  8
AM_6
100
AcDbText
 10
8.346874999999999
 20
3.346874999999998
 30
0.0
 40
0.5
  1
Imperial - IP Flange - Round Contact Seal
100
AcDbAttributeDefinition
  3

  2
NN
 70
     8
280
     0
  0
ATTDEF
  5
74
330
6E
100
AcDbEntity
  8
AM_6
100
AcDbText
 10
8.346874999999999
 20
2.846874999999998
 30
0.0
 40
0.5
  1
Imperial 3 & 4 Bolt Round Flange Bearings
100
AcDbAttributeDefinition
  3

  2
NT
 70
     8
280
     0
  0
ATTDEF
  5
75
330
6E
100
AcDbEntity
  8
AM_6
100
AcDbText
 10
8.346874999999999
 20
2.346874999999998
 30
0.0
 40
0.5
  1
069638
100
AcDbAttributeDefinition
  3

  2
NB
 70
     8
280
     0
  0
ATTDEF
  5
76
330
6E
100
AcDbEntity
  8
AM_6
100
AcDbText
 10
8.346874999999999
 20
1.846874999999998
 30
0.0
 40
0.5
  1
$PN.
100
AcDbAttributeDefinition
  3

  2
NBSYN
 70
     8
280
     0
  0
ATTDEF
  5
77
330
6E
100
AcDbEntity
  8
AM_6
100
AcDbText
 10
8.346874999999999
 20
1.346874999999998
 30
0.0
 40
0.5
  1
069638
100
AcDbAttributeDefinition
  3

  2
LINA
 70
     8
280
     0
  0
ATTDEF
  5
78
330
6E
100
AcDbEntity
  8
AM_6
100
AcDbText
 10
8.346874999999999
 20
0.8468749999999985
 30
0.0
 40
0.5
  1
1-3/4
100
AcDbAttributeDefinition
  3

  2
SS
 70
     8
280
     0
  0
ATTDEF
  5
79
330
6E
100
AcDbEntity
  8
AM_6
100
AcDbText
 10
8.346874999999999
 20
0.3468749999999985
 30
0.0
 40
0.5
  1
069638
100
AcDbAttributeDefinition
  3

  2
PN
 70
     8
280
     0
  0
ATTDEF
  5
7A
330
6E
100
AcDbEntity
  8
AM_6
100
AcDbText
 10
8.346874999999999
 20
-0.1531250000000015
 30
0.0
 40
0.5
  1
F4R-IP-112RE
100
AcDbAttributeDefinition
  3

  2
DESCRIPTION
 70
     8
280
     0
  0
ATTDEF
  5
7B
330
6E
100
AcDbEntity
  8
AM_6
100
AcDbText
 10
8.346874999999999
 20
-0.6531250000000015
 30
0.0
 40
0.5
  1
Expansion Type
100
AcDbAttributeDefinition
  3

  2
EF
 70
     8
280
     0
  0
ATTDEF
  5
7C
330
6E
100
AcDbEntity
  8
AM_6
100
AcDbText
 10
8.346874999999999
 20
-1.153125000000002
 30
0.0
 40
0.5
  1
Contact Seal
100
AcDbAttributeDefinition
  3

  2
ST
 70
     8
280
     0
  0
ATTDEF
  5
7D
330
6E
100
AcDbEntity
  8
AM_6
100
AcDbText
 10
8.346874999999999
 20
-1.653125000000002
 30
0.0
 40
0.5
  1
2-13/16
100
AcDbAttributeDefinition
  3

  2
A
 70
     8
280
     0
  0
ATTDEF
  5
7E
330
6E
100
AcDbEntity
  8
AM_6
100
AcDbText
 10
8.346874999999999
 20
-2.153125000000002
 30
0.0
 40
0.5
  1
6-3/8
100
AcDbAttributeDefinition
  3

  2
B
 70
     8
280
     0
  0
ATTDEF
  5
7F
330
6E
100
AcDbEntity
  8
AM_6
100
AcDbText
 10
8.346874999999999
 20
-2.653125000000002
 30
0.0
 40
0.5
  1
3-7/64
100
AcDbAttributeDefinition
  3

  2
C
 70
     8
280
     0
  0
ATTDEF
  5
80
330
6E
100
AcDbEntity
  8
AM_6
100
AcDbText
 10
8.346874999999999
 20
-3.153125000000002
 30
0.0
 40
0.5
  1
3-57/64
100
AcDbAttributeDefinition
  3

  2
D
 70
     8
280
     0
  0
ATTDEF
  5
81
330
6E
100
AcDbEntity
  8
AM_6
100
AcDbText
 10
8.346874999999999
 20
-3.653125000000002
 30
0.0
 40
0.5
  1
5-1/2
100
AcDbAttributeDefinition
  3

  2
DD
 70
     8
280
     0
  0
ATTDEF
  5
82
330
6E
100
AcDbEntity
  8
AM_6
100
AcDbText
 10
8.346874999999999
 20
-4.153125000000001
 30
0.0
 40
0.5
  1
1-57/64
100
AcDbAttributeDefinition
  3

  2
E
 70
     8
280
     0
  0
ATTDEF
  5
83
330
6E
100
AcDbEntity
  8
AM_6
100
AcDbText
 10
8.346874999999999
 20
-4.653125000000001
 30
0.0
 40
0.5
  1
1/2
100
AcDbAttributeDefinition
  3

  2
F
 70
     8
280
     0
  0
ATTDEF
  5
84
330
6E
100
AcDbEntity
  8
AM_6
100
AcDbText
 10
8.346874999999999
 20
-5.153125000000001
 30
0.0
 40
0.5
  1
1/2
100
AcDbAttributeDefinition
  3

  2
H
 70
     8
280
     0
  0
ATTDEF
  5
85
330
6E
100
AcDbEntity
  8
AM_6
100
AcDbText
 10
8.346874999999999
 20
-5.653125000000001
 30
0.0
 40
0.5
  1
4-1/4
100
AcDbAttributeDefinition
  3

  2
J
 70
     8
280
     0
  0
ATTDEF
  5
86
330
6E
100
AcDbEntity
  8
AM_6
100
AcDbText
 10
8.346874999999999
 20
-6.153125000000001
 30
0.0
 40
0.5
  1
3
100
AcDbAttributeDefinition
  3

  2
L
 70
     8
280
     0
  0
ATTDEF
  5
87
330
6E
100
AcDbEntity
  8
AM_6
100
AcDbText
 10
8.346874999999999
 20
-6.653125000000001
 30
0.0
 40
0.5
  1
19/64
100
AcDbAttributeDefinition
  3

  2
P
 70
     8
280
     0
  0
ATTDEF
  5
88
330
6E
100
AcDbEntity
  8
AM_6
100
AcDbText
 10
8.346874999999999
 20
-7.153125000000001
 30
0.0
 40
0.5
  1
1/4
100
AcDbAttributeDefinition
  3

  2
X
 70
     8
280
     0
  0
ATTDEF
  5
89
330
6E
100
AcDbEntity
  8
AM_6
100
AcDbText
 10
8.346874999999999
 20
-7.653125000000001
 30
0.0
 40
0.5
  1
0.020
100
AcDbAttributeDefinition
  3

  2
Y
 70
     8
280
     0
  0
ATTDEF
  5
8A
330
6E
100
AcDbEntity
  8
AM_6
100
AcDbText
 10
8.346874999999999
 20
-8.153125000000001
 30
0.0
 40
0.5
  1
2-5/64
100
AcDbAttributeDefinition
  3

  2
Z
 70
     8
280
     0
  0
ATTDEF
  5
8B
330
6E
100
AcDbEntity
  8
AM_6
100
AcDbText
 10
8.346874999999999
 20
-8.653125000000001
 30
0.0
 40
0.5
  1
baldor
100
AcDbAttributeDefinition
  3

  2
COMPANY
 70
     8
280
     0
  0
INSERT
  5
8D
330
6E
100
AcDbEntity
  8
0
100
AcDbBlockReference
  2
2_ASME_B18_3_10_1_0_in_069638_0
 10
0.0
 20
0.0
 30
0.0
  0
INSERT
  5
AE
330
6E
100
AcDbEntity
  8
0
100
AcDbBlockReference
  2
3_ASME_B18_3_10_2_0_in_069638_0
 10
0.0
 20
0.0
 30
0.0
  0
INSERT
  5
CB
330
6E
100
AcDbEntity
  8
0
100
AcDbBlockReference
  2
4_070888LW_0_in_069638_0
 10
0.0
 20
0.0
 30
0.0
  0
INSERT
  5
11A
330
6E
100
AcDbEntity
  8
0
100
AcDbBlockReference
  2
5_070888I_0_in_069638_0
 10
0.0
 20
0.0
 30
0.0
  0
INSERT
  5
177
330
6E
100
AcDbEntity
  8
0
100
AcDbBlockReference
  2
6_405015E_Inch_0_in_069638_0
 10
0.0
 20
0.0
 30
0.0
  0
INSERT
  5
1B5
330
6E
100
AcDbEntity
  8
0
100
AcDbBlockReference
  2
7_069638H_0_in_069638_0
 10
0.0
 20
0.0
 30
0.0
  0
ENDBLK
  5
71
330
6E
100
AcDbEntity
  8
0
100
AcDbBlockEnd
  0
BLOCK
  5
8E
330
8C
100
AcDbEntity
  8
0
100
AcDbBlockBegin
  2
2_ASME_B18_3_10_1_0_in_069638_0
 70
     2
 10
0.0
 20
0.0
 30
0.0
  3
2_ASME_B18_3_10_1_0_in_069638_0
  1

  0
ATTDEF
  5
90
330
8C
100
AcDbEntity
  8
AM_6
100
AcDbText
 10
6.063587548966704
 20
-0.6845375489667046
 30
0.0
 40
0.5
  1
ANSI/ASME B18.3-1998
100
AcDbAttributeDefinition
  3

  2
NN
 70
     8
280
     0
  0
ATTDEF
  5
91
330
8C
100
AcDbEntity
  8
AM_6
100
AcDbText
 10
6.063587548966704
 20
-1.184537548966705
 30
0.0
 40
0.5
  1
Socket Button Head Cap Screws
100
AcDbAttributeDefinition
  3

  2
NT
 70
     8
280
     0
  0
ATTDEF
  5
92
330
8C
100
AcDbEntity
  8
AM_6
100
AcDbText
 10
6.063587548966704
 20
-1.684537548966705
 30
0.0
 40
0.5
  1
ASME B18.3-10
100
AcDbAttributeDefinition
  3

  2
NB
 70
     8
280
     0
  0
ATTDEF
  5
93
330
8C
100
AcDbEntity
  8
AM_6
100
AcDbText
 10
6.063587548966704
 20
-2.184537548966705
 30
0.0
 40
0.5
  1
ASME B18.3-$NS.
100
AcDbAttributeDefinition
  3

  2
NBSYN
 70
     8
280
     0
  0
ATTDEF
  5
94
330
8C
100
AcDbEntity
  8
AM_6
100
AcDbText
 10
6.063587548966704
 20
-2.684537548966705
 30
0.0
 40
0.5
  1
ASME B18.3-10
100
AcDbAttributeDefinition
  3

  2
LINA
 70
     8
280
     0
  0
ATTDEF
  5
95
330
8C
100
AcDbEntity
  8
AM_6
100
AcDbText
 10
6.063587548966704
 20
-3.184537548966705
 30
0.0
 40
0.5
  1
10
100
AcDbAttributeDefinition
  3

  2
NS
 70
     8
280
     0
  0
ATTDEF
  5
96
330
8C
100
AcDbEntity
  8
AM_6
100
AcDbText
 10
6.063587548966704
 20
-3.684537548966705
 30
0.0
 40
0.5
  1
0.361
100
AcDbAttributeDefinition
  3

  2
A
 70
     8
280
     0
  0
ATTDEF
  5
97
330
8C
100
AcDbEntity
  8
AM_6
100
AcDbText
 10
6.063587548966704
 20
-4.184537548966705
 30
0.0
 40
0.5
  1
0.101
100
AcDbAttributeDefinition
  3

  2
H
 70
     8
280
     0
  0
ATTDEF
  5
98
330
8C
100
AcDbEntity
  8
AM_6
100
AcDbText
 10
6.063587548966704
 20
-4.684537548966705
 30
0.0
 40
0.5
  1
0.800
100
AcDbAttributeDefinition
  3

  2
L
 70
     8
280
     0
  0
ATTDEF
  5
99
330
8C
100
AcDbEntity
  8
AM_6
100
AcDbText
 10
6.063587548966704
 20
-5.184537548966705
 30
0.0
 40
0.5
  1
0.020
100
AcDbAttributeDefinition
  3

  2
S
 70
     8
280
     0
  0
ATTDEF
  5
9A
330
8C
100
AcDbEntity
  8
AM_6
100
AcDbText
 10
6.063587548966704
 20
-5.684537548966705
 30
0.0
 40
0.5
  1
0.125000
100
AcDbAttributeDefinition
  3

  2
J
 70
     8
280
     0
  0
ATTDEF
  5
9B
330
8C
100
AcDbEntity
  8
AM_6
100
AcDbText
 10
6.063587548966704
 20
-6.184537548966705
 30
0.0
 40
0.5
  1
baldor
100
AcDbAttributeDefinition
  3

  2
COMPANY
 70
     8
280
     0
  0
ARC
  5
9D
330
8C
100
AcDbEntity
  8
AM_5
100
AcDbCircle
 10
0.8740625489667044
 20
-0.8740625489667045
 30
0.0
 40
0.0702
100
AcDbArc
 50
74.99999999999991
 51
14.99999999999985
  0
LINE
  5
A0
330
8C
100
AcDbEntity
  8
AM_7
100
AcDbLine
 10
0.6845375489667044
 20
-0.8740625489667047
 30
0.0
 11
1.063587548966704
 21
-0.8740625489667047
 31
0.0
  0
LINE
  5
A1
330
8C
100
AcDbEntity
  8
AM_7
100
AcDbLine
 10
0.8740625489667044
 20
-1.063587548966705
 30
0.0
 11
0.8740625489667044
 21
-0.6845375489667046
 31
0.0
  0
LINE
  5
A3
330
8C
100
AcDbEntity
  8
AM_4
100
AcDbLine
 10
0.8230315126587217
 20
-0.8230315126587218
 30
0.0
 11
0.8927412046368722
 21
-0.804352856988554
 31
0.0
  0
LINE
  5
A4
330
8C
100
AcDbEntity
  8
AM_4
100
AcDbLine
 10
0.8553838932965367
 20
-0.9437722409448553
 30
0.0
 11
0.8043528569885539
 21
-0.8927412046368723
 31
0.0
  0
LINE
  5
A5
330
8C
100
AcDbEntity
  8
AM_4
100
AcDbLine
 10
0.8043528569885539
 20
-0.8927412046368723
 30
0.0
 11
0.8230315126587217
 21
-0.8230315126587218
 31
0.0
  0
LINE
  5
A6
330
8C
100
AcDbEntity
  8
AM_4
100
AcDbLine
 10
0.8927412046368722
 20
-0.804352856988554
 30
0.0
 11
0.9437722409448551
 21
-0.855383893296537
 31
0.0
  0
LINE
  5
A7
330
8C
100
AcDbEntity
  8
AM_4
100
AcDbLine
 10
0.9437722409448551
 20
-0.855383893296537
 30
0.0
 11
0.9250935852746874
 21
-0.9250935852746875
 31
0.0
  0
LINE
  5
A8
330
8C
100
AcDbEntity
  8
AM_4
100
AcDbLine
 10
0.9250935852746874
 20
-0.9250935852746875
 30
0.0
 11
0.8553838932965367
 21
-0.9437722409448553
 31
0.0
  0
CIRCLE
  5
A9
330
8C
100
AcDbEntity
  8
AM_4
100
AcDbCircle
 10
0.8740625489667045
 20
-0.8740625489667047
 30
0.0
 40
0.0995
  0
ARC
  5
AA
330
8C
100
AcDbEntity
  8
AM_5
100
AcDbCircle
 10
0.8740625489667045
 20
-0.8740625489667047
 30
0.0
 40
0.0702
100
AcDbArc
 50
30.00000000000003
 51
330.0
  0
CIRCLE
  5
AB
330
8C
100
AcDbEntity
  8
AM_4
100
AcDbCircle
 10
0.8740625489667044
 20
-0.8740625489667047
 30
0.0
 40
0.1805
  0
CIRCLE
  5
AC
330
8C
100
AcDbEntity
  8
AM_5
100
AcDbCircle
 10
0.8740625489667045
 20
-0.8740625489667048
 30
0.0
 40
0.0763999999999999
  0
ENDBLK
  5
8F
330
8C
100
AcDbEntity
  8
0
100
AcDbBlockEnd
  0
BLOCK
  5
AF
330
AD
100
AcDbEntity
  8
0
100
AcDbBlockBegin
  2
3_ASME_B18_3_10_2_0_in_069638_0
 70
     2
 10
0.0
 20
0.0
 30
0.0
  3
3_ASME_B18_3_10_2_0_in_069638_0
  1

  0
ATTDEF
  5
B1
330
AD
100
AcDbEntity
  8
AM_6
100
AcDbText
 10
4.315462451033295
 20
1.063587548966705
 30
0.0
 40
0.5
  1
ANSI/ASME B18.3-1998
100
AcDbAttributeDefinition
  3

  2
NN
 70
     8
280
     0
  0
ATTDEF
  5
B2
330
AD
100
AcDbEntity
  8
AM_6
100
AcDbText
 10
4.315462451033295
 20
0.5635875489667046
 30
0.0
 40
0.5
  1
Socket Button Head Cap Screws
100
AcDbAttributeDefinition
  3

  2
NT
 70
     8
280
     0
  0
ATTDEF
  5
B3
330
AD
100
AcDbEntity
  8
AM_6
100
AcDbText
 10
4.315462451033295
 20
0.0635875489667046
 30
0.0
 40
0.5
  1
ASME B18.3-10
100
AcDbAttributeDefinition
  3

  2
NB
 70
     8
280
     0
  0
ATTDEF
  5
B4
330
AD
100
AcDbEntity
  8
AM_6
100
AcDbText
 10
4.315462451033295
 20
-0.4364124510332954
 30
0.0
 40
0.5
  1
ASME B18.3-$NS.
100
AcDbAttributeDefinition
  3

  2
NBSYN
 70
     8
280
     0
  0
ATTDEF
  5
B5
330
AD
100
AcDbEntity
  8
AM_6
100
AcDbText
 10
4.315462451033295
 20
-0.9364124510332954
 30
0.0
 40
0.5
  1
ASME B18.3-10
100
AcDbAttributeDefinition
  3

  2
LINA
 70
     8
280
     0
  0
ATTDEF
  5
B6
330
AD
100
AcDbEntity
  8
AM_6
100
AcDbText
 10
4.315462451033295
 20
-1.436412451033295
 30
0.0
 40
0.5
  1
10
100
AcDbAttributeDefinition
  3

  2
NS
 70
     8
280
     0
  0
ATTDEF
  5
B7
330
AD
100
AcDbEntity
  8
AM_6
100
AcDbText
 10
4.315462451033295
 20
-1.936412451033295
 30
0.0
 40
0.5
  1
0.361
100
AcDbAttributeDefinition
  3

  2
A
 70
     8
280
     0
  0
ATTDEF
  5
B8
330
AD
100
AcDbEntity
  8
AM_6
100
AcDbText
 10
4.315462451033295
 20
-2.436412451033295
 30
0.0
 40
0.5
  1
0.101
100
AcDbAttributeDefinition
  3

  2
H
 70
     8
280
     0
  0
ATTDEF
  5
B9
330
AD
100
AcDbEntity
  8
AM_6
100
AcDbText
 10
4.315462451033295
 20
-2.936412451033295
 30
0.0
 40
0.5
  1
0.800
100
AcDbAttributeDefinition
  3

  2
L
 70
     8
280
     0
  0
ATTDEF
  5
BA
330
AD
100
AcDbEntity
  8
AM_6
100
AcDbText
 10
4.315462451033295
 20
-3.436412451033295
 30
0.0
 40
0.5
  1
0.020
100
AcDbAttributeDefinition
  3

  2
S
 70
     8
280
     0
  0
ATTDEF
  5
BB
330
AD
100
AcDbEntity
  8
AM_6
100
AcDbText
 10
4.315462451033295
 20
-3.936412451033295
 30
0.0
 40
0.5
  1
0.125000
100
AcDbAttributeDefinition
  3

  2
J
 70
     8
280
     0
  0
ATTDEF
  5
BC
330
AD
100
AcDbEntity
  8
AM_6
100
AcDbText
 10
4.315462451033295
 20
-4.436412451033295
 30
0.0
 40
0.5
  1
baldor
100
AcDbAttributeDefinition
  3

  2
COMPANY
 70
     8
280
     0
  0
ARC
  5
BD
330
AD
100
AcDbEntity
  8
AM_5
100
AcDbCircle
 10
-0.8740625489667047
 20
0.8740625489667048
 30
0.0
 40
0.0701999999999999
100
AcDbArc
 50
74.99999999999989
 51
14.99999999999992
  0
LINE
  5
BE
330
AD
100
AcDbEntity
  8
AM_7
100
AcDbLine
 10
-1.063587548966704
 20
0.8740625489667047
 30
0.0
 11
-0.6845375489667045
 21
0.8740625489667047
 31
0.0
  0
LINE
  5
BF
330
AD
100
AcDbEntity
  8
AM_7
100
AcDbLine
 10
-0.8740625489667044
 20
0.6845375489667047
 30
0.0
 11
-0.8740625489667044
 21
1.063587548966705
 31
0.0
  0
LINE
  5
C0
330
AD
100
AcDbEntity
  8
AM_4
100
AcDbLine
 10
-0.8553838932965367
 20
0.9437722409448553
 30
0.0
 11
-0.8043528569885539
 21
0.8927412046368723
 31
0.0
  0
LINE
  5
C1
330
AD
100
AcDbEntity
  8
AM_4
100
AcDbLine
 10
-0.9437722409448551
 20
0.855383893296537
 30
0.0
 11
-0.9250935852746874
 21
0.9250935852746875
 31
0.0
  0
LINE
  5
C2
330
AD
100
AcDbEntity
  8
AM_4
100
AcDbLine
 10
-0.9250935852746874
 20
0.9250935852746875
 30
0.0
 11
-0.8553838932965367
 21
0.9437722409448553
 31
0.0
  0
LINE
  5
C3
330
AD
100
AcDbEntity
  8
AM_4
100
AcDbLine
 10
-0.8043528569885539
 20
0.8927412046368723
 30
0.0
 11
-0.8230315126587217
 21
0.8230315126587218
 31
0.0
  0
LINE
  5
C4
330
AD
100
AcDbEntity
  8
AM_4
100
AcDbLine
 10
-0.8927412046368722
 20
0.804352856988554
 30
0.0
 11
-0.9437722409448551
 21
0.855383893296537
 31
0.0
  0
LINE
  5
C5
330
AD
100
AcDbEntity
  8
AM_4
100
AcDbLine
 10
-0.8230315126587217
 20
0.8230315126587218
 30
0.0
 11
-0.8927412046368722
 21
0.804352856988554
 31
0.0
  0
CIRCLE
  5
C6
330
AD
100
AcDbEntity
  8
AM_4
100
AcDbCircle
 10
-0.8740625489667045
 20
0.8740625489667047
 30
0.0
 40
0.0995
  0
ARC
  5
C7
330
AD
100
AcDbEntity
  8
AM_5
100
AcDbCircle
 10
-0.8740625489667045
 20
0.8740625489667047
 30
0.0
 40
0.0702
100
AcDbArc
 50
30.00000000000003
 51
330.0
  0
CIRCLE
  5
C8
330
AD
100
AcDbEntity
  8
AM_4
100
AcDbCircle
 10
-0.8740625489667044
 20
0.8740625489667047
 30
0.0
 40
0.1804999999999999
  0
CIRCLE
  5
C9
330
AD
100
AcDbEntity
  8
AM_5
100
AcDbCircle
 10
-0.8740625489667045
 20
0.8740625489667045
 30
0.0
 40
0.0763999999999999
  0
ENDBLK
  5
B0
330
AD
100
AcDbEntity
  8
0
100
AcDbBlockEnd
  0
BLOCK
  5
CC
330
CA
100
AcDbEntity
  8
0
100
AcDbBlockBegin
  2
4_070888LW_0_in_069638_0
 70
     2
 10
0.0
 20
0.0
 30
0.0
  3
4_070888LW_0_in_069638_0
  1

  0
ATTDEF
  5
CE
330
CA
100
AcDbEntity
  8
AM_6
100
AcDbText
 10
6.5
 20
1.5
 30
0.0
 40
0.5
  1
Imperial Insert Lockwasher -Inch
100
AcDbAttributeDefinition
  3

  2
NN
 70
     8
280
     0
  0
ATTDEF
  5
CF
330
CA
100
AcDbEntity
  8
AM_6
100
AcDbText
 10
6.5
 20
0.9999999999999998
 30
0.0
 40
0.5
  1
Imperial Bearings
100
AcDbAttributeDefinition
  3

  2
NT
 70
     8
280
     0
  0
ATTDEF
  5
D0
330
CA
100
AcDbEntity
  8
AM_6
100
AcDbText
 10
6.5
 20
0.4999999999999998
 30
0.0
 40
0.5
  1
070888LW
100
AcDbAttributeDefinition
  3

  2
NB
 70
     8
280
     0
  0
ATTDEF
  5
D1
330
CA
100
AcDbEntity
  8
AM_6
100
AcDbText
 10
6.5
 20
-0.0000000000000002
 30
0.0
 40
0.5
  1
$PN.LW
100
AcDbAttributeDefinition
  3

  2
NBSYN
 70
     8
280
     0
  0
ATTDEF
  5
D2
330
CA
100
AcDbEntity
  8
AM_6
100
AcDbText
 10
6.5
 20
-0.5000000000000002
 30
0.0
 40
0.5
  1
070888
100
AcDbAttributeDefinition
  3

  2
LINA
 70
     8
280
     0
  0
ATTDEF
  5
D3
330
CA
100
AcDbEntity
  8
AM_6
100
AcDbText
 10
6.5
 20
-1.0
 30
0.0
 40
0.5
  1
1-3/4
100
AcDbAttributeDefinition
  3

  2
SS
 70
     8
280
     0
  0
ATTDEF
  5
D4
330
CA
100
AcDbEntity
  8
AM_6
100
AcDbText
 10
6.5
 20
-1.5
 30
0.0
 40
0.5
  1
1.750000
100
AcDbAttributeDefinition
  3

  2
SS1
 70
     8
280
     0
  0
ATTDEF
  5
D5
330
CA
100
AcDbEntity
  8
AM_6
100
AcDbText
 10
6.5
 20
-2.0
 30
0.0
 40
0.5
  1
070888
100
AcDbAttributeDefinition
  3

  2
PN
 70
     8
280
     0
  0
ATTDEF
  5
D6
330
CA
100
AcDbEntity
  8
AM_6
100
AcDbText
 10
6.5
 20
-2.5
 30
0.0
 40
0.5
  1
INS-IP-112R
100
AcDbAttributeDefinition
  3

  2
DESCRIPTION
 70
     8
280
     0
  0
ATTDEF
  5
D7
330
CA
100
AcDbEntity
  8
AM_6
100
AcDbText
 10
6.5
 20
-3.0
 30
0.0
 40
0.5
  1
3.3465
100
AcDbAttributeDefinition
  3

  2
A
 70
     8
280
     0
  0
ATTDEF
  5
D8
330
CA
100
AcDbEntity
  8
AM_6
100
AcDbText
 10
6.5
 20
-3.5
 30
0.0
 40
0.5
  1
61/64
100
AcDbAttributeDefinition
  3

  2
B
 70
     8
280
     0
  0
ATTDEF
  5
D9
330
CA
100
AcDbEntity
  8
AM_6
100
AcDbText
 10
6.5
 20
-4.0
 30
0.0
 40
0.5
  1
2-13/16
100
AcDbAttributeDefinition
  3

  2
C
 70
     8
280
     0
  0
ATTDEF
  5
DA
330
CA
100
AcDbEntity
  8
AM_6
100
AcDbText
 10
6.5
 20
-4.5
 30
0.0
 40
0.5
  1
0.954
100
AcDbAttributeDefinition
  3

  2
D
 70
     8
280
     0
  0
ATTDEF
  5
DB
330
CA
100
AcDbEntity
  8
AM_6
100
AcDbText
 10
6.5
 20
-5.0
 30
0.0
 40
0.5
  1
3
100
AcDbAttributeDefinition
  3

  2
E
 70
     8
280
     0
  0
ATTDEF
  5
DC
330
CA
100
AcDbEntity
  8
AM_6
100
AcDbText
 10
6.5
 20
-5.5
 30
0.0
 40
0.5
  1
0.1900
100
AcDbAttributeDefinition
  3

  2
NDM
 70
     8
280
     0
  0
ATTDEF
  5
DD
330
CA
100
AcDbEntity
  8
AM_6
100
AcDbText
 10
6.5
 20
-6.0
 30
0.0
 40
0.5
  1
0.1450
100
AcDbAttributeDefinition
  3

  2
KDM
 70
     8
280
     0
  0
ATTDEF
  5
DE
330
CA
100
AcDbEntity
  8
AM_6
100
AcDbText
 10
6.5
 20
-6.5
 30
0.0
 40
0.5
  1
2.42
100
AcDbAttributeDefinition
  3

  2
AL
 70
     8
280
     0
  0
ATTDEF
  5
DF
330
CA
100
AcDbEntity
  8
AM_6
100
AcDbText
 10
6.5
 20
-7.0
 30
0.0
 40
0.5
  1
0.38
100
AcDbAttributeDefinition
  3

  2
BL
 70
     8
280
     0
  0
ATTDEF
  5
E0
330
CA
100
AcDbEntity
  8
AM_6
100
AcDbText
 10
6.5
 20
-7.5
 30
0.0
 40
0.5
  1
0.07
100
AcDbAttributeDefinition
  3

  2
CL
 70
     8
280
     0
  0
ATTDEF
  5
E1
330
CA
100
AcDbEntity
  8
AM_6
100
AcDbText
 10
6.5
 20
-8.0
 30
0.0
 40
0.5
  1
0.44
100
AcDbAttributeDefinition
  3

  2
DL
 70
     8
280
     0
  0
ATTDEF
  5
E2
330
CA
100
AcDbEntity
  8
AM_6
100
AcDbText
 10
6.5
 20
-8.5
 30
0.0
 40
0.5
  1
baldor
100
AcDbAttributeDefinition
  3

  2
COMPANY
 70
     8
280
     0
  0
ARC
  5
E5
330
CA
100
AcDbEntity
  8
AM_9
100
AcDbCircle
 10
0.00000000000003
 20
-0.0000000000000132
 30
0.0
 40
0.9210526315789801
100
AcDbArc
 50
151.5798208638868
 51
163.4201791361132
  0
LINE
  5
E6
330
CA
100
AcDbEntity
  8
AM_9
100
AcDbLine
 10
0.8068874047539829
 20
-0.9412376931794263
 30
0.0
 11
0.6983626379954221
 21
-0.8327129264208655
 31
0.0
  0
ARC
  5
E7
330
CA
100
AcDbEntity
  8
AM_9
100
AcDbCircle
 10
0.8766477089518172
 20
-0.8766477089518164
 30
0.0
 40
0.0950703218901528
100
AcDbArc
 50
222.796123827806
 51
47.20387617219417
  0
LINE
  5
E8
330
CA
100
AcDbEntity
  8
AM_9
100
AcDbLine
 10
0.8327129264208664
 20
-0.6983626379954219
 30
0.0
 11
0.9412376931794268
 21
-0.8068874047539821
 31
0.0
  0
LINE
  5
E9
330
CA
100
AcDbEntity
  8
AM_9
100
AcDbLine
 10
-0.8327129264208661
 20
0.698362637995422
 30
0.0
 11
-0.9412376931794266
 21
0.8068874047539826
 31
0.0
  0
ARC
  5
EA
330
CA
100
AcDbEntity
  8
AM_9
100
AcDbCircle
 10
-0.8714773889815923
 20
0.8714773889815923
 30
0.0
 40
0.0950703218901528
100
AcDbArc
 50
47.20387617219427
 51
222.7961238278059
  0
LINE
  5
EB
330
CA
100
AcDbEntity
  8
AM_9
100
AcDbLine
 10
-0.8068874047539827
 20
0.9412376931794268
 30
0.0
 11
-0.698362637995422
 21
0.832712926420866
 31
0.0
  0
LINE
  5
EC
330
CA
100
AcDbEntity
  8
AM_7
100
AcDbLine
 10
-0.099750027308347
 20
1.236181406993315
 30
0.0
 11
0.0997500273083467
 21
1.236181406993315
 31
0.0
  0
LINE
  5
ED
330
CA
100
AcDbEntity
  8
AM_7
100
AcDbLine
 10
-0.0997500273083462
 20
-1.236181406993315
 30
0.0
 11
0.0997500273083474
 21
-1.236181406993315
 31
0.0
  0
LINE
  5
EE
330
CA
100
AcDbEntity
  8
AM_7
100
AcDbLine
 10
1.236181406993315
 20
-0.0997500273083464
 30
0.0
 11
1.236181406993315
 21
0.0997500273083472
 31
0.0
  0
LINE
  5
EF
330
CA
100
AcDbEntity
  8
AM_7
100
AcDbLine
 10
-1.236181406993315
 20
-0.0997500273083468
 30
0.0
 11
-1.236181406993315
 21
0.0997500273083469
 31
0.0
  0
LINE
  5
F0
330
CA
100
AcDbEntity
  8
AM_7
100
AcDbLine
 10
0.7768238709671555
 20
0.8766477089518161
 30
0.0
 11
0.9764715469364766
 21
0.8766477089518161
 31
0.0
  0
LINE
  5
F1
330
CA
100
AcDbEntity
  8
AM_7
100
AcDbLine
 10
0.8766477089518161
 20
0.7768238709671555
 30
0.0
 11
0.8766477089518161
 21
0.9764715469364766
 31
0.0
  0
LINE
  5
F2
330
CA
100
AcDbEntity
  8
AM_7
100
AcDbLine
 10
0.7768238709671568
 20
-0.8766477089518164
 30
0.0
 11
0.9764715469364776
 21
-0.8766477089518164
 31
0.0
  0
LINE
  5
F3
330
CA
100
AcDbEntity
  8
AM_7
100
AcDbLine
 10
0.8766477089518172
 20
-0.9764715469364769
 30
0.0
 11
0.8766477089518172
 21
-0.776823870967156
 31
0.0
  0
LINE
  5
F4
330
CA
100
AcDbEntity
  8
AM_7
100
AcDbLine
 10
-0.9738622829700465
 20
-0.8741122556617005
 30
0.0
 11
-0.7743622283533527
 21
-0.8741122556617005
 31
0.0
  0
LINE
  5
F5
330
CA
100
AcDbEntity
  8
AM_7
100
AcDbLine
 10
-0.8741122556616996
 20
-0.9738622829700474
 30
0.0
 11
-0.8741122556616996
 21
-0.7743622283533536
 31
0.0
  0
LINE
  5
F6
330
CA
100
AcDbEntity
  8
AM_4
100
AcDbLine
 10
0.6983626379954221
 20
-0.8327129264208655
 30
0.0
 11
0.5983279484365803
 21
-0.7326782368620237
 31
0.0
  0
ARC
  5
F7
330
CA
100
AcDbEntity
  8
AM_4
100
AcDbCircle
 10
0.0000000000000009
 20
-0.0000000000000018
 30
0.0
 40
0.9459459459459442
100
AcDbArc
 50
275.7638500515451
 51
309.2361499484549
  0
LINE
  5
F8
330
CA
100
AcDbEntity
  8
AM_4
100
AcDbLine
 10
0.0950000000000002
 20
-0.9411634994258812
 30
0.0
 11
0.0950000000000006
 21
-1.236111111111111
 31
0.0
  0
ARC
  5
F9
330
CA
100
AcDbEntity
  8
AM_4
100
AcDbCircle
 10
-0.0000000000000002
 20
1.236181406993315
 30
0.0
 40
0.0950000260079495
100
AcDbArc
 50
359.9576036144024
 51
180.0423963856062
  0
CIRCLE
  5
FA
330
CA
100
AcDbEntity
  8
AM_4
100
AcDbCircle
 10
0.0
 20
0.0
 30
0.0
 40
1.5
  0
LINE
  5
FB
330
CA
100
AcDbEntity
  8
AM_4
100
AcDbLine
 10
-1.236111111111092
 20
0.095
 30
0.0
 11
-0.9411634994258812
 21
0.095
 31
0.0
  0
LINE
  5
FC
330
CA
100
AcDbEntity
  8
AM_4
100
AcDbLine
 10
0.0949999999999999
 20
1.236111111111111
 30
0.0
 11
0.0949999999999998
 21
0.9411634994258808
 31
0.0
  0
ARC
  5
FD
330
CA
100
AcDbEntity
  8
AM_4
100
AcDbCircle
 10
-0.0000000000000034
 20
0.0000000000000009
 30
0.0
 40
0.9459459459459492
100
AcDbArc
 50
320.7638500515453
 51
354.2361499484549
  0
LINE
  5
FE
330
CA
100
AcDbEntity
  8
AM_4
100
AcDbLine
 10
1.236111111111106
 20
-0.0949999999999996
 30
0.0
 11
0.9411634994258808
 21
-0.0949999999999997
 31
0.0
  0
ARC
  5
FF
330
CA
100
AcDbEntity
  8
AM_4
100
AcDbCircle
 10
1.236181406993315
 20
0.0000000000000005
 30
0.0
 40
0.0950000260079494
100
AcDbArc
 50
269.9576036143938
 51
90.04239638560325
  0
ARC
  5
100
330
CA
100
AcDbEntity
  8
AM_4
100
AcDbCircle
 10
0.0000000000000038
 20
-0.0000000000000019
 30
0.0
 40
0.94594594594595
100
AcDbArc
 50
140.7638500515452
 51
151.7361499484548
  0
ARC
  5
101
330
CA
100
AcDbEntity
  8
AM_4
100
AcDbCircle
 10
0.0000000000000401
 20
-0.0000000000000077
 30
0.0
 40
0.9459459459459867
100
AcDbArc
 50
163.2638500515455
 51
174.2361499484546
  0
LINE
  5
102
330
CA
100
AcDbEntity
  8
AM_4
100
AcDbLine
 10
0.7326782368620239
 20
-0.5983279484365798
 30
0.0
 11
0.8327129264208664
 21
-0.6983626379954219
 31
0.0
  0
LINE
  5
103
330
CA
100
AcDbEntity
  8
AM_4
100
AcDbLine
 10
-0.0949999999999994
 20
-1.236111111111111
 30
0.0
 11
-0.0949999999999995
 21
-0.9411634994258813
 31
0.0
  0
ARC
  5
104
330
CA
100
AcDbEntity
  8
AM_4
100
AcDbCircle
 10
0.0000000000000006
 20
-1.236181406993314
 30
0.0
 40
0.0950000260079494
100
AcDbArc
 50
179.9576036143938
 51
0.0423963856061934
  0
LINE
  5
105
330
CA
100
AcDbEntity
  8
AM_4
100
AcDbLine
 10
-0.7326782368620237
 20
0.59832794843658
 30
0.0
 11
-0.8327129264208661
 21
0.698362637995422
 31
0.0
  0
LINE
  5
106
330
CA
100
AcDbEntity
  8
AM_4
100
AcDbLine
 10
0.9412376931794265
 20
0.8068874047539824
 30
0.0
 11
0.7326782368620237
 21
0.5983279484365801
 31
0.0
  0
LINE
  5
107
330
CA
100
AcDbEntity
  8
AM_4
100
AcDbLine
 10
-0.8100482960124984
 20
0.43836024941337
 30
0.0
 11
-0.833166767791586
 21
0.4479362339656076
 31
0.0
  0
ARC
  5
108
330
CA
100
AcDbEntity
  8
AM_4
100
AcDbCircle
 10
-0.0000000000000335
 20
0.0000000000000157
 30
0.0
 40
0.874999999999963
100
AcDbArc
 50
151.2670287629116
 51
163.7329712370886
  0
LINE
  5
109
330
CA
100
AcDbEntity
  8
AM_4
100
AcDbLine
 10
-0.9058766199409535
 20
0.2723991227884628
 30
0.0
 11
-0.8827581481618658
 21
0.2628231382362252
 31
0.0
  0
LINE
  5
10A
330
CA
100
AcDbEntity
  8
AM_4
100
AcDbLine
 10
0.9411634994258812
 20
0.0950000000000013
 30
0.0
 11
1.236111111111111
 21
0.0950000000000004
 31
0.0
  0
ARC
  5
10B
330
CA
100
AcDbEntity
  8
AM_4
100
AcDbCircle
 10
-0.0000000000000102
 20
-0.0000000000000044
 30
0.0
 40
0.9459459459459567
100
AcDbArc
 50
5.763850051545384
 51
39.23614994845465
  0
LINE
  5
10C
330
CA
100
AcDbEntity
  8
AM_4
100
AcDbLine
 10
-0.0949999999999999
 20
0.9411634994258811
 30
0.0
 11
-0.0950000000000002
 21
1.236111111111111
 31
0.0
  0
ARC
  5
10D
330
CA
100
AcDbEntity
  8
AM_4
100
AcDbCircle
 10
-0.0000000000000012
 20
-0.000000000000004
 30
0.0
 40
0.9459459459459497
100
AcDbArc
 50
50.7638500515453
 51
84.23614994845478
  0
LINE
  5
10E
330
CA
100
AcDbEntity
  8
AM_4
100
AcDbLine
 10
0.5983279484365795
 20
0.732678236862024
 30
0.0
 11
0.8068874047539822
 21
0.9412376931794266
 31
0.0
  0
ARC
  5
10F
330
CA
100
AcDbEntity
  8
AM_4
100
AcDbCircle
 10
0.876647708951816
 20
0.8766477089518161
 30
0.0
 40
0.0950703218901529
100
AcDbArc
 50
312.7961238278064
 51
137.2038761721935
  0
ARC
  5
110
330
CA
100
AcDbEntity
  8
AM_4
100
AcDbCircle
 10
0.0000000000000002
 20
0.0000000000000004
 30
0.0
 40
0.9459459459459466
100
AcDbArc
 50
230.7638500515452
 51
264.2361499484548
  0
LINE
  5
111
330
CA
100
AcDbEntity
  8
AM_4
100
AcDbLine
 10
-0.5983279484365798
 20
-0.7326782368620242
 30
0.0
 11
-0.806887404753982
 21
-0.9412376931794271
 31
0.0
  0
ARC
  5
112
330
CA
100
AcDbEntity
  8
AM_4
100
AcDbCircle
 10
-0.8741122556616996
 20
-0.8741122556617005
 30
0.0
 40
0.0950000260079495
100
AcDbArc
 50
134.9576036143967
 51
315.0423963856033
  0
LINE
  5
113
330
CA
100
AcDbEntity
  8
AM_4
100
AcDbLine
 10
-0.9412376931794262
 20
-0.8068874047539829
 30
0.0
 11
-0.7326782368620236
 21
-0.5983279484365804
 31
0.0
  0
ARC
  5
114
330
CA
100
AcDbEntity
  8
AM_4
100
AcDbCircle
 10
-0.0000000000000026
 20
-0.0000000000000006
 30
0.0
 40
0.9459459459459437
100
AcDbArc
 50
185.7638500515451
 51
219.2361499484549
  0
LINE
  5
115
330
CA
100
AcDbEntity
  8
AM_4
100
AcDbLine
 10
-0.9411634994258815
 20
-0.095
 30
0.0
 11
-1.236111111111111
 21
-0.095
 31
0.0
  0
ARC
  5
116
330
CA
100
AcDbEntity
  8
AM_4
100
AcDbCircle
 10
-1.236181406993315
 20
-0.0000000000000001
 30
0.0
 40
0.0950000260079494
100
AcDbArc
 50
89.95760361438536
 51
270.0423963856032
  0
LINE
  5
117
330
CA
100
AcDbEntity
  8
AM_4
100
AcDbLine
 10
-0.698362637995422
 20
0.832712926420866
 30
0.0
 11
-0.5983279484365798
 21
0.7326782368620237
 31
0.0
  0
ARC
  5
118
330
CA
100
AcDbEntity
  8
AM_4
100
AcDbCircle
 10
-0.0000000000000005
 20
0.0000000000000018
 30
0.0
 40
0.9459459459459441
100
AcDbArc
 50
95.76385005154516
 51
129.2361499484549
  0
ENDBLK
  5
CD
330
CA
100
AcDbEntity
  8
0
100
AcDbBlockEnd
  0
BLOCK
  5
11B
330
119
100
AcDbEntity
  8
0
100
AcDbBlockBegin
  2
5_070888I_0_in_069638_0
 70
     2
 10
0.0
 20
0.0
 30
0.0
  3
5_070888I_0_in_069638_0
  1

  0
ATTDEF
  5
11D
330
119
100
AcDbEntity
  8
AM_6
100
AcDbText
 10
6.62559375
 20
1.62559375
 30
0.0
 40
0.5
  1
Imperial Insert -Inch
100
AcDbAttributeDefinition
  3

  2
NN
 70
     8
280
     0
  0
ATTDEF
  5
11E
330
119
100
AcDbEntity
  8
AM_6
100
AcDbText
 10
6.62559375
 20
1.12559375
 30
0.0
 40
0.5
  1
Imperial Bearings
100
AcDbAttributeDefinition
  3

  2
NT
 70
     8
280
     0
  0
ATTDEF
  5
11F
330
119
100
AcDbEntity
  8
AM_6
100
AcDbText
 10
6.62559375
 20
0.6255937499999997
 30
0.0
 40
0.5
  1
070888I
100
AcDbAttributeDefinition
  3

  2
NB
 70
     8
280
     0
  0
ATTDEF
  5
120
330
119
100
AcDbEntity
  8
AM_6
100
AcDbText
 10
6.62559375
 20
0.1255937499999997
 30
0.0
 40
0.5
  1
$PN.I
100
AcDbAttributeDefinition
  3

  2
NBSYN
 70
     8
280
     0
  0
ATTDEF
  5
121
330
119
100
AcDbEntity
  8
AM_6
100
AcDbText
 10
6.62559375
 20
-0.3744062500000003
 30
0.0
 40
0.5
  1
070888
100
AcDbAttributeDefinition
  3

  2
LINA
 70
     8
280
     0
  0
ATTDEF
  5
122
330
119
100
AcDbEntity
  8
AM_6
100
AcDbText
 10
6.62559375
 20
-0.8744062500000003
 30
0.0
 40
0.5
  1
1-3/4
100
AcDbAttributeDefinition
  3

  2
SS
 70
     8
280
     0
  0
ATTDEF
  5
123
330
119
100
AcDbEntity
  8
AM_6
100
AcDbText
 10
6.62559375
 20
-1.37440625
 30
0.0
 40
0.5
  1
1.750000
100
AcDbAttributeDefinition
  3

  2
SS1
 70
     8
280
     0
  0
ATTDEF
  5
124
330
119
100
AcDbEntity
  8
AM_6
100
AcDbText
 10
6.62559375
 20
-1.87440625
 30
0.0
 40
0.5
  1
070888
100
AcDbAttributeDefinition
  3

  2
PN
 70
     8
280
     0
  0
ATTDEF
  5
125
330
119
100
AcDbEntity
  8
AM_6
100
AcDbText
 10
6.62559375
 20
-2.37440625
 30
0.0
 40
0.5
  1
INS-IP-112R
100
AcDbAttributeDefinition
  3

  2
DESCRIPTION
 70
     8
280
     0
  0
ATTDEF
  5
126
330
119
100
AcDbEntity
  8
AM_6
100
AcDbText
 10
6.62559375
 20
-2.87440625
 30
0.0
 40
0.5
  1
Contact Seal
100
AcDbAttributeDefinition
  3

  2
ST
 70
     8
280
     0
  0
ATTDEF
  5
127
330
119
100
AcDbEntity
  8
AM_6
100
AcDbText
 10
6.62559375
 20
-3.37440625
 30
0.0
 40
0.5
  1
3.3465
100
AcDbAttributeDefinition
  3

  2
A
 70
     8
280
     0
  0
ATTDEF
  5
128
330
119
100
AcDbEntity
  8
AM_6
100
AcDbText
 10
6.62559375
 20
-3.87440625
 30
0.0
 40
0.5
  1
61/64
100
AcDbAttributeDefinition
  3

  2
B
 70
     8
280
     0
  0
ATTDEF
  5
129
330
119
100
AcDbEntity
  8
AM_6
100
AcDbText
 10
6.62559375
 20
-4.37440625
 30
0.0
 40
0.5
  1
2-13/16
100
AcDbAttributeDefinition
  3

  2
C
 70
     8
280
     0
  0
ATTDEF
  5
12A
330
119
100
AcDbEntity
  8
AM_6
100
AcDbText
 10
6.62559375
 20
-4.87440625
 30
0.0
 40
0.5
  1
0.954
100
AcDbAttributeDefinition
  3

  2
D
 70
     8
280
     0
  0
ATTDEF
  5
12B
330
119
100
AcDbEntity
  8
AM_6
100
AcDbText
 10
6.62559375
 20
-5.37440625
 30
0.0
 40
0.5
  1
3
100
AcDbAttributeDefinition
  3

  2
E
 70
     8
280
     0
  0
ATTDEF
  5
12C
330
119
100
AcDbEntity
  8
AM_6
100
AcDbText
 10
6.62559375
 20
-5.87440625
 30
0.0
 40
0.5
  1
0.1900
100
AcDbAttributeDefinition
  3

  2
NDM
 70
     8
280
     0
  0
ATTDEF
  5
12D
330
119
100
AcDbEntity
  8
AM_6
100
AcDbText
 10
6.62559375
 20
-6.37440625
 30
0.0
 40
0.5
  1
0.101
100
AcDbAttributeDefinition
  3

  2
H
 70
     8
280
     0
  0
ATTDEF
  5
12E
330
119
100
AcDbEntity
  8
AM_6
100
AcDbText
 10
6.62559375
 20
-6.87440625
 30
0.0
 40
0.5
  1
0.1450
100
AcDbAttributeDefinition
  3

  2
KDM
 70
     8
280
     0
  0
ATTDEF
  5
12F
330
119
100
AcDbEntity
  8
AM_6
100
AcDbText
 10
6.62559375
 20
-7.37440625
 30
0.0
 40
0.5
  1
2.42
100
AcDbAttributeDefinition
  3

  2
AL
 70
     8
280
     0
  0
ATTDEF
  5
130
330
119
100
AcDbEntity
  8
AM_6
100
AcDbText
 10
6.62559375
 20
-7.87440625
 30
0.0
 40
0.5
  1
0.38
100
AcDbAttributeDefinition
  3

  2
BL
 70
     8
280
     0
  0
ATTDEF
  5
131
330
119
100
AcDbEntity
  8
AM_6
100
AcDbText
 10
6.62559375
 20
-8.37440625
 30
0.0
 40
0.5
  1
0.07
100
AcDbAttributeDefinition
  3

  2
CL
 70
     8
280
     0
  0
ATTDEF
  5
132
330
119
100
AcDbEntity
  8
AM_6
100
AcDbText
 10
6.62559375
 20
-8.87440625
 30
0.0
 40
0.5
  1
0.44
100
AcDbAttributeDefinition
  3

  2
DL
 70
     8
280
     0
  0
ATTDEF
  5
133
330
119
100
AcDbEntity
  8
AM_6
100
AcDbText
 10
6.62559375
 20
-9.37440625
 30
0.0
 40
0.5
  1
0.8000
100
AcDbAttributeDefinition
  3

  2
LL
 70
     8
280
     0
  0
ATTDEF
  5
134
330
119
100
AcDbEntity
  8
AM_6
100
AcDbText
 10
6.62559375
 20
-9.87440625
 30
0.0
 40
0.5
  1
0.020
100
AcDbAttributeDefinition
  3

  2
Y
 70
     8
280
     0
  0
ATTDEF
  5
135
330
119
100
AcDbEntity
  8
AM_6
100
AcDbText
 10
6.62559375
 20
-10.37440625
 30
0.0
 40
0.5
  1
0.020000
100
AcDbAttributeDefinition
  3

  2
Y1
 70
     8
280
     0
  0
ATTDEF
  5
136
330
119
100
AcDbEntity
  8
AM_6
100
AcDbText
 10
6.62559375
 20
-10.87440625
 30
0.0
 40
0.5
  1
2-5/64
100
AcDbAttributeDefinition
  3

  2
Z
 70
     8
280
     0
  0
ATTDEF
  5
137
330
119
100
AcDbEntity
  8
AM_6
100
AcDbText
 10
6.62559375
 20
-11.37440625
 30
0.0
 40
0.5
  1
2.078125
100
AcDbAttributeDefinition
  3

  2
Z1
 70
     8
280
     0
  0
ATTDEF
  5
138
330
119
100
AcDbEntity
  8
AM_6
100
AcDbText
 10
6.62559375
 20
-11.87440625
 30
0.0
 40
0.5
  1
baldor
100
AcDbAttributeDefinition
  3

  2
COMPANY
 70
     8
280
     0
  0
CIRCLE
  5
139
330
119
100
AcDbEntity
  8
AM_9
100
AcDbCircle
 10
0.0
 20
0.0
 30
0.0
 40
1.0390625
  0
CIRCLE
  5
13A
330
119
100
AcDbEntity
  8
AM_9
100
AcDbCircle
 10
0.0
 20
0.0
 30
0.0
 40
1.127871260683761
  0
CIRCLE
  5
13B
330
119
100
AcDbEntity
  8
AM_9
100
AcDbCircle
 10
0.0
 20
0.0
 30
0.0
 40
1.154513888888889
  0
CIRCLE
  5
13C
330
119
100
AcDbEntity
  8
AM_9
100
AcDbCircle
 10
0.0
 20
0.0
 30
0.0
 40
1.305457578016765
  0
CIRCLE
  5
13D
330
119
100
AcDbEntity
  8
AM_9
100
AcDbCircle
 10
0.0
 20
0.0
 30
0.0
 40
1.392060118395209
  0
CIRCLE
  5
13E
330
119
100
AcDbEntity
  8
AM_9
100
AcDbCircle
 10
0.0
 20
0.0
 30
0.0
 40
1.47325
  0
CIRCLE
  5
13F
330
119
100
AcDbEntity
  8
AM_9
100
AcDbCircle
 10
0.0
 20
0.0
 30
0.0
 40
1.62559375
  0
LINE
  5
140
330
119
100
AcDbEntity
  8
AM_9
100
AcDbLine
 10
-1.21
 20
-0.1899999999999998
 30
0.0
 11
-1.489616778706058
 21
-0.1899999999999998
 31
0.0
  0
LINE
  5
141
330
119
100
AcDbEntity
  8
AM_9
100
AcDbLine
 10
-0.1900000000000006
 20
-1.489616778706058
 30
0.0
 11
-0.1900000000000005
 21
-1.21
 31
0.0
  0
CIRCLE
  5
142
330
119
100
AcDbEntity
  8
AM_9
100
AcDbCircle
 10
-0.8740625489667045
 20
0.8740625489667047
 30
0.0
 40
0.0724499999999999
  0
LINE
  5
143
330
119
100
AcDbEntity
  8
AM_9
100
AcDbLine
 10
0.1900000000000006
 20
1.489616778706058
 30
0.0
 11
0.1900000000000005
 21
1.21
 31
0.0
  0
LINE
  5
144
330
119
100
AcDbEntity
  8
AM_9
100
AcDbLine
 10
1.21
 20
0.1899999999999998
 30
0.0
 11
1.489616778706058
 21
0.1899999999999998
 31
0.0
  0
LINE
  5
145
330
119
100
AcDbEntity
  8
AM_9
100
AcDbLine
 10
1.489616778706058
 20
-0.1899999999999999
 30
0.0
 11
1.21
 21
-0.1899999999999997
 31
0.0
  0
LINE
  5
146
330
119
100
AcDbEntity
  8
AM_9
100
AcDbLine
 10
0.1899999999999998
 20
-1.21
 30
0.0
 11
0.1899999999999998
 21
-1.489616778706058
 31
0.0
  0
CIRCLE
  5
147
330
119
100
AcDbEntity
  8
AM_9
100
AcDbCircle
 10
0.8740625489667045
 20
-0.8740625489667047
 30
0.0
 40
0.0724499999999999
  0
LINE
  5
148
330
119
100
AcDbEntity
  8
AM_9
100
AcDbLine
 10
-0.1899999999999998
 20
1.21
 30
0.0
 11
-0.1899999999999998
 21
1.489616778706058
 31
0.0
  0
LINE
  5
149
330
119
100
AcDbEntity
  8
AM_9
100
AcDbLine
 10
-1.489616778706058
 20
0.1899999999999998
 30
0.0
 11
-1.21
 21
0.1899999999999997
 31
0.0
  0
LINE
  5
14A
330
119
100
AcDbEntity
  8
AM_9
100
AcDbLine
 10
-1.21
 20
-0.095
 30
0.0
 11
-1.21
 21
-0.1899999999999998
 31
0.0
  0
LINE
  5
14B
330
119
100
AcDbEntity
  8
AM_9
100
AcDbLine
 10
-1.21
 20
0.1899999999999997
 30
0.0
 11
-1.21
 21
0.095
 31
0.0
  0
ARC
  5
14C
330
119
100
AcDbEntity
  8
AM_9
100
AcDbCircle
 10
-0.000000000000002
 20
-0.0000000000000011
 30
0.0
 40
1.451715561259645
100
AcDbArc
 50
187.5204258918102
 51
262.4795741081897
  0
LINE
  5
14D
330
119
100
AcDbEntity
  8
AM_9
100
AcDbLine
 10
0.0950000000000006
 20
-1.21
 30
0.0
 11
0.1899999999999998
 21
-1.21
 31
0.0
  0
LINE
  5
14E
330
119
100
AcDbEntity
  8
AM_9
100
AcDbLine
 10
-0.1900000000000005
 20
-1.21
 30
0.0
 11
-0.0949999999999995
 21
-1.21
 31
0.0
  0
ARC
  5
14F
330
119
100
AcDbEntity
  8
AM_9
100
AcDbCircle
 10
0.0000000000000002
 20
-0.0000000000000004
 30
0.0
 40
1.451715561259647
100
AcDbArc
 50
277.5204258918104
 51
352.4795741081896
  0
LINE
  5
150
330
119
100
AcDbEntity
  8
AM_9
100
AcDbLine
 10
1.21
 20
0.0950000000000005
 30
0.0
 11
1.21
 21
0.1899999999999998
 31
0.0
  0
LINE
  5
151
330
119
100
AcDbEntity
  8
AM_9
100
AcDbLine
 10
1.21
 20
-0.1899999999999997
 30
0.0
 11
1.21
 21
-0.0949999999999996
 31
0.0
  0
ARC
  5
152
330
119
100
AcDbEntity
  8
AM_9
100
AcDbCircle
 10
0.0000000000000018
 20
0.0000000000000011
 30
0.0
 40
1.451715561259645
100
AcDbArc
 50
7.520425891810292
 51
82.47957410818968
  0
LINE
  5
153
330
119
100
AcDbEntity
  8
AM_9
100
AcDbLine
 10
-0.0950000000000002
 20
1.21
 30
0.0
 11
-0.1899999999999998
 21
1.21
 31
0.0
  0
LINE
  5
154
330
119
100
AcDbEntity
  8
AM_9
100
AcDbLine
 10
0.1900000000000005
 20
1.21
 30
0.0
 11
0.0949999999999999
 21
1.21
 31
0.0
  0
ARC
  5
155
330
119
100
AcDbEntity
  8
AM_9
100
AcDbCircle
 10
-0.0000000000000008
 20
0.0000000000000007
 30
0.0
 40
0.9234828496042208
100
AcDbArc
 50
151.5954557434414
 51
163.4045442565587
  0
ARC
  5
156
330
119
100
AcDbEntity
  8
AM_9
100
AcDbCircle
 10
0.0000000000000008
 20
-0.0000000000000004
 30
0.0
 40
1.451715561259648
100
AcDbArc
 50
97.52042589181038
 51
172.4795741081896
  0
ARC
  5
157
330
119
100
AcDbEntity
  8
AM_5
100
AcDbCircle
 10
0.8740625489667044
 20
-0.8740625489667045
 30
0.0
 40
0.095
100
AcDbArc
 50
74.99999999999994
 51
14.9999999999999
  0
CIRCLE
  5
158
330
119
100
AcDbEntity
  8
AM_4
100
AcDbCircle
 10
0.0
 20
0.0
 30
0.0
 40
1.623249999999999
  0
LINE
  5
159
330
119
100
AcDbEntity
  8
AM_4
100
AcDbLine
 10
0.1900000000000003
 20
1.503406632688768
 30
0.0
 11
0.1900000000000006
 21
1.489616778706058
 31
0.0
  0
LINE
  5
15A
330
119
100
AcDbEntity
  8
AM_4
100
AcDbLine
 10
-0.1899999999999998
 20
1.489616778706058
 30
0.0
 11
-0.1899999999999998
 21
1.503406632688768
 31
0.0
  0
LINE
  5
15B
330
119
100
AcDbEntity
  8
AM_4
100
AcDbLine
 10
1.503406632688769
 20
-0.1899999999999998
 30
0.0
 11
1.489616778706058
 21
-0.1899999999999999
 31
0.0
  0
LINE
  5
15C
330
119
100
AcDbEntity
  8
AM_4
100
AcDbLine
 10
-1.503406632688769
 20
0.1899999999999998
 30
0.0
 11
-1.489616778706058
 21
0.1899999999999998
 31
0.0
  0
LINE
  5
15D
330
119
100
AcDbEntity
  8
AM_4
100
AcDbLine
 10
1.489616778706058
 20
0.1899999999999998
 30
0.0
 11
1.503406632688768
 21
0.1899999999999998
 31
0.0
  0
LINE
  5
15E
330
119
100
AcDbEntity
  8
AM_4
100
AcDbLine
 10
0.1899999999999998
 20
-1.489616778706058
 30
0.0
 11
0.1899999999999998
 21
-1.503406632688768
 31
0.0
  0
LINE
  5
15F
330
119
100
AcDbEntity
  8
AM_4
100
AcDbLine
 10
-0.1900000000000003
 20
-1.503406632688768
 30
0.0
 11
-0.1900000000000006
 21
-1.489616778706058
 31
0.0
  0
LINE
  5
160
330
119
100
AcDbEntity
  8
AM_4
100
AcDbLine
 10
-1.489616778706058
 20
-0.1899999999999998
 30
0.0
 11
-1.503406632688768
 21
-0.1899999999999998
 31
0.0
  0
CIRCLE
  5
161
330
119
100
AcDbEntity
  8
AM_4
100
AcDbCircle
 10
0.0
 20
0.0
 30
0.0
 40
1.540261464675892
  0
ARC
  5
162
330
119
100
AcDbEntity
  8
AM_4
100
AcDbCircle
 10
-0.0000000000000377
 20
-0.0000000000000026
 30
0.0
 40
1.515365138576407
100
AcDbArc
 50
352.7971650673744
 51
7.202834932625833
  0
ARC
  5
163
330
119
100
AcDbEntity
  8
AM_4
100
AcDbCircle
 10
-0.0000000000000003
 20
-0.0000000000000002
 30
0.0
 40
1.515365138576369
100
AcDbArc
 50
262.7971650673741
 51
277.2028349326259
  0
ARC
  5
164
330
119
100
AcDbEntity
  8
AM_4
100
AcDbCircle
 10
0.0000000000000375
 20
0.0000000000000026
 30
0.0
 40
1.515365138576407
100
AcDbArc
 50
172.7971650673744
 51
187.2028349326258
  0
ARC
  5
165
330
119
100
AcDbEntity
  8
AM_4
100
AcDbCircle
 10
0.0000000000000003
 20
0.0000000000000007
 30
0.0
 40
1.515365138576369
100
AcDbArc
 50
82.79716506737408
 51
97.20283493262593
  0
ARC
  5
166
330
119
100
AcDbEntity
  8
AM_4
100
AcDbCircle
 10
-0.0000000000000013
 20
-0.0000000000000016
 30
0.0
 40
1.5016851026106
100
AcDbArc
 50
187.2688039222538
 51
262.7311960777462
  0
ARC
  5
167
330
119
100
AcDbEntity
  8
AM_4
100
AcDbCircle
 10
0.0000000000000002
 20
0.0000000000000001
 30
0.0
 40
1.501685102610602
100
AcDbArc
 50
7.268803922253862
 51
82.73119607774615
  0
ARC
  5
168
330
119
100
AcDbEntity
  8
AM_4
100
AcDbCircle
 10
0.0000000000000014
 20
-0.0000000000000011
 30
0.0
 40
1.5016851026106
100
AcDbArc
 50
277.2688039222538
 51
352.7311960777462
  0
LINE
  5
169
330
119
100
AcDbEntity
  8
AM_4
100
AcDbLine
 10
-1.21
 20
0.095
 30
0.0
 11
-1.21
 21
-0.095
 31
0.0
  0
LINE
  5
16A
330
119
100
AcDbEntity
  8
AM_4
100
AcDbLine
 10
-0.0949999999999995
 20
-1.21
 30
0.0
 11
0.0950000000000006
 21
-1.21
 31
0.0
  0
LINE
  5
16B
330
119
100
AcDbEntity
  8
AM_4
100
AcDbLine
 10
1.21
 20
-0.0949999999999996
 30
0.0
 11
1.21
 21
0.0950000000000005
 31
0.0
  0
LINE
  5
16C
330
119
100
AcDbEntity
  8
AM_4
100
AcDbLine
 10
0.0949999999999999
 20
1.21
 30
0.0
 11
-0.0950000000000002
 21
1.21
 31
0.0
  0
ARC
  5
16D
330
119
100
AcDbEntity
  8
AM_4
100
AcDbCircle
 10
-0.0000000000000012
 20
0.0000000000000016
 30
0.0
 40
1.5016851026106
100
AcDbArc
 50
97.2688039222538
 51
172.7311960777462
  0
ARC
  5
16E
330
119
100
AcDbEntity
  8
AM_4
100
AcDbCircle
 10
-0.0000000000000002
 20
-0.0000000000000007
 30
0.0
 40
0.9210526315789475
100
AcDbArc
 50
163.4201791361134
 51
151.5798208638865
  0
LINE
  5
16F
330
119
100
AcDbEntity
  8
AM_4
100
AcDbLine
 10
-0.8827581481618656
 20
0.2628231382362255
 30
0.0
 11
-0.8399708139980563
 21
0.245100044127786
 31
0.0
  0
LINE
  5
170
330
119
100
AcDbEntity
  8
AM_4
100
AcDbLine
 10
-0.7672609618486893
 20
0.4206371553049303
 30
0.0
 11
-0.8100482960124985
 21
0.4383602494133698
 31
0.0
  0
ARC
  5
171
330
119
100
AcDbEntity
  8
AM_4
100
AcDbCircle
 10
-0.0000000000000003
 20
-0.0000000000000008
 30
0.0
 40
0.8749999999999999
100
AcDbArc
 50
163.7329712370881
 51
151.2670287629117
  0
ARC
  5
172
330
119
100
AcDbEntity
  8
AM_5
100
AcDbCircle
 10
-0.8740625489667047
 20
0.8740625489667047
 30
0.0
 40
0.095
100
AcDbArc
 50
150.0
 51
14.99999999999994
  0
ARC
  5
173
330
119
100
AcDbEntity
  8
AM_5
100
AcDbCircle
 10
-0.8740625489667047
 20
0.8740625489667047
 30
0.0
 40
0.095
100
AcDbArc
 50
210.0
 51
150.0
  0
ARC
  5
174
330
119
100
AcDbEntity
  8
AM_5
100
AcDbCircle
 10
0.8740625489667044
 20
-0.8740625489667047
 30
0.0
 40
0.095
100
AcDbArc
 50
210.0
 51
150.0
  0
ARC
  5
175
330
119
100
AcDbEntity
  8
AM_5
100
AcDbCircle
 10
0.8740625489667044
 20
-0.8740625489667045
 30
0.0
 40
0.0949999999999999
100
AcDbArc
 50
150.0
 51
59.99999999999994
  0
ENDBLK
  5
11C
330
119
100
AcDbEntity
  8
0
100
AcDbBlockEnd
  0
BLOCK
  5
178
330
176
100
AcDbEntity
  8
0
100
AcDbBlockBegin
  2
6_405015E_Inch_0_in_069638_0
 70
     2
 10
0.0
 20
0.0
 30
0.0
  3
6_405015E_Inch_0_in_069638_0
  1

  0
ATTDEF
  5
17A
330
176
100
AcDbEntity
  8
AM_6
100
AcDbText
 10
5.252590742770462
 20
2.6
 30
0.0
 40
0.5
  1
405015E -Inch
100
AcDbAttributeDefinition
  3

  2
NN
 70
     8
280
     0
  0
ATTDEF
  5
17B
330
176
100
AcDbEntity
  8
AM_6
100
AcDbText
 10
5.252590742770462
 20
2.1
 30
0.0
 40
0.5
  1
Grease Fitting
100
AcDbAttributeDefinition
  3

  2
NT
 70
     8
280
     0
  0
ATTDEF
  5
17C
330
176
100
AcDbEntity
  8
AM_6
100
AcDbText
 10
5.252590742770462
 20
1.6
 30
0.0
 40
0.5
  1
405015E-Inch
100
AcDbAttributeDefinition
  3

  2
NB
 70
     8
280
     0
  0
ATTDEF
  5
17D
330
176
100
AcDbEntity
  8
AM_6
100
AcDbText
 10
5.252590742770462
 20
1.1
 30
0.0
 40
0.5
  1
$MN.-Inch
100
AcDbAttributeDefinition
  3

  2
NBSYN
 70
     8
280
     0
  0
ATTDEF
  5
17E
330
176
100
AcDbEntity
  8
AM_6
100
AcDbText
 10
5.252590742770462
 20
0.6000000000000001
 30
0.0
 40
0.5
  1
405015E
100
AcDbAttributeDefinition
  3

  2
LINA
 70
     8
280
     0
  0
ATTDEF
  5
17F
330
176
100
AcDbEntity
  8
AM_6
100
AcDbText
 10
5.252590742770462
 20
0.1000000000000001
 30
0.0
 40
0.5
  1
405015E
100
AcDbAttributeDefinition
  3

  2
MN
 70
     8
280
     0
  0
ATTDEF
  5
180
330
176
100
AcDbEntity
  8
AM_6
100
AcDbText
 10
5.252590742770462
 20
-0.3999999999999999
 30
0.0
 40
0.5
  1
1/8 x 27PTF
100
AcDbAttributeDefinition
  3

  2
T
 70
     8
280
     0
  0
ATTDEF
  5
181
330
176
100
AcDbEntity
  8
AM_6
100
AcDbText
 10
5.252590742770462
 20
-0.8999999999999999
 30
0.0
 40
0.5
  1
baldor
100
AcDbAttributeDefinition
  3

  2
COMPANY
 70
     8
280
     0
  0
LINE
  5
182
330
176
100
AcDbEntity
  8
AM_9
100
AcDbLine
 10
-0.161902872472269
 20
1.96
 30
0.0
 11
0.161902872472269
 21
1.96
 31
0.0
  0
LINE
  5
183
330
176
100
AcDbEntity
  8
AM_9
100
AcDbLine
 10
0.161902872472269
 20
1.96
 30
0.0
 11
0.1986176267812154
 21
1.996714754308947
 31
0.0
  0
LINE
  5
184
330
176
100
AcDbEntity
  8
AM_9
100
AcDbLine
 10
-0.1986176267812154
 20
1.996714754308947
 30
0.0
 11
-0.161902872472269
 21
1.96
 31
0.0
  0
LINE
  5
185
330
176
100
AcDbEntity
  8
AM_9
100
AcDbLine
 10
-0.1986176267812154
 20
1.996714754308947
 30
0.0
 11
0.1986176267812154
 21
1.996714754308947
 31
0.0
  0
LINE
  5
186
330
176
100
AcDbEntity
  8
AM_9
100
AcDbLine
 10
0.1986176267812154
 20
1.996714754308947
 30
0.0
 11
0.2057518972230696
 21
2.225
 31
0.0
  0
LINE
  5
187
330
176
100
AcDbEntity
  8
AM_9
100
AcDbLine
 10
-0.2057518972230696
 20
2.225
 30
0.0
 11
-0.1986176267812154
 21
1.996714754308947
 31
0.0
  0
LINE
  5
188
330
176
100
AcDbEntity
  8
AM_5
100
AcDbLine
 10
-0.1681491248523479
 20
2.159870087748463
 30
0.0
 11
-0.161902872472269
 21
1.96
 31
0.0
  0
LINE
  5
189
330
176
100
AcDbEntity
  8
AM_5
100
AcDbLine
 10
-0.2057518972230697
 20
2.225
 30
0.0
 11
-0.1681491248523479
 21
2.159870087748463
 31
0.0
  0
LINE
  5
18A
330
176
100
AcDbEntity
  8
AM_5
100
AcDbLine
 10
0.2037164857515567
 20
2.159870087748463
 30
0.0
 11
-0.2037164857515567
 21
2.159870087748463
 31
0.0
  0
LINE
  5
18B
330
176
100
AcDbEntity
  8
AM_5
100
AcDbLine
 10
0.1681491248523479
 20
2.159870087748463
 30
0.0
 11
0.161902872472269
 21
1.96
 31
0.0
  0
LINE
  5
18C
330
176
100
AcDbEntity
  8
AM_5
100
AcDbLine
 10
0.2057518972230697
 20
2.225
 30
0.0
 11
0.1681491248523479
 21
2.159870087748463
 31
0.0
  0
LINE
  5
18D
330
176
100
AcDbEntity
  8
AM_4
100
AcDbLine
 10
-0.21875
 20
2.325
 30
0.0
 11
0.21875
 21
2.325
 31
0.0
  0
LINE
  5
18E
330
176
100
AcDbEntity
  8
AM_4
100
AcDbLine
 10
0.2525907427704612
 20
2.315932400303386
 30
0.0
 11
0.21875
 21
2.325
 31
0.0
  0
LINE
  5
18F
330
176
100
AcDbEntity
  8
AM_4
100
AcDbLine
 10
-0.2525907427704612
 20
2.234067599696615
 30
0.0
 11
-0.21875
 21
2.225
 31
0.0
  0
LINE
  5
190
330
176
100
AcDbEntity
  8
AM_4
100
AcDbLine
 10
0.21875
 20
2.225
 30
0.0
 11
0.2525907427704612
 21
2.234067599696615
 31
0.0
  0
LINE
  5
191
330
176
100
AcDbEntity
  8
AM_4
100
AcDbLine
 10
-0.21875
 20
2.325
 30
0.0
 11
-0.2525907427704612
 21
2.315932400303386
 31
0.0
  0
LINE
  5
192
330
176
100
AcDbEntity
  8
AM_4
100
AcDbLine
 10
0.105
 20
2.43
 30
0.0
 11
0.105
 21
2.46
 31
0.0
  0
LINE
  5
193
330
176
100
AcDbEntity
  8
AM_4
100
AcDbLine
 10
-0.105
 20
2.46
 30
0.0
 11
-0.105
 21
2.43
 31
0.0
  0
LINE
  5
194
330
176
100
AcDbEntity
  8
AM_4
100
AcDbLine
 10
-0.105
 20
2.43
 30
0.0
 11
0.105
 21
2.43
 31
0.0
  0
LINE
  5
195
330
176
100
AcDbEntity
  8
AM_4
100
AcDbLine
 10
-0.105
 20
2.43
 30
0.0
 11
-0.1188200907348975
 21
2.397753121618573
 31
0.0
  0
LINE
  5
196
330
176
100
AcDbEntity
  8
AM_4
100
AcDbLine
 10
0.1188200907348975
 20
2.397753121618573
 30
0.0
 11
0.105
 21
2.43
 31
0.0
  0
LINE
  5
197
330
176
100
AcDbEntity
  8
AM_4
100
AcDbLine
 10
-0.105
 20
2.46
 30
0.0
 11
0.105
 21
2.46
 31
0.0
  0
LINE
  5
198
330
176
100
AcDbEntity
  8
AM_4
100
AcDbLine
 10
0.105
 20
2.46
 30
0.0
 11
0.135
 21
2.52
 31
0.0
  0
LINE
  5
199
330
176
100
AcDbEntity
  8
AM_4
100
AcDbLine
 10
-0.135
 20
2.52
 30
0.0
 11
-0.105
 21
2.46
 31
0.0
  0
LINE
  5
19A
330
176
100
AcDbEntity
  8
AM_4
100
AcDbLine
 10
-0.1026779019331875
 20
2.6
 30
0.0
 11
0.1026779019331875
 21
2.6
 31
0.0
  0
LINE
  5
19B
330
176
100
AcDbEntity
  8
AM_4
100
AcDbLine
 10
-0.135
 20
2.52
 30
0.0
 11
0.135
 21
2.52
 31
0.0
  0
LINE
  5
19C
330
176
100
AcDbEntity
  8
AM_4
100
AcDbLine
 10
-0.1026779019331875
 20
2.6
 30
0.0
 11
-0.135
 21
2.52
 31
0.0
  0
LINE
  5
19D
330
176
100
AcDbEntity
  8
AM_4
100
AcDbLine
 10
0.135
 20
2.52
 30
0.0
 11
0.1026779019331875
 21
2.6
 31
0.0
  0
LINE
  5
19E
330
176
100
AcDbEntity
  8
AM_4
100
AcDbLine
 10
0.2525907427704613
 20
2.315932400303386
 30
0.0
 11
0.2525907427704613
 21
2.234067599696615
 31
0.0
  0
LWPOLYLINE
  5
19F
330
176
100
AcDbEntity
  8
AM_4
100
AcDbPolyline
 90
        4
 70
     0
 43
0.0
 10
0.1894430570778459
 20
2.325
 10
0.2052299785009998
 20
2.324392585996001
 10
0.2210406532400782
 20
2.322603087498925
 10
0.2525907427704613
 20
2.315932400303386
  0
LWPOLYLINE
  5
1A0
330
176
100
AcDbEntity
  8
AM_4
100
AcDbPolyline
 90
        4
 70
     0
 43
0.0
 10
0.2525907427704613
 20
2.234067599696615
 10
0.229031912716827
 20
2.228721412808832
 10
0.205323075602153
 20
2.225614561814227
 10
0.1894430570778459
 20
2.225
  0
LWPOLYLINE
  5
1A1
330
176
100
AcDbEntity
  8
AM_4
100
AcDbPolyline
 90
        4
 70
     0
 43
0.0
 10
-0.2525907427704613
 20
2.315932400303386
 10
-0.2378428731337448
 20
2.319517587482157
 10
-0.2137142777017231
 20
2.323574171756928
 10
-0.1894430570778459
 20
2.325
  0
LINE
  5
1A2
330
176
100
AcDbEntity
  8
AM_4
100
AcDbLine
 10
-0.2525907427704613
 20
2.315932400303386
 30
0.0
 11
-0.2525907427704613
 21
2.234067599696615
 31
0.0
  0
LWPOLYLINE
  5
1A3
330
176
100
AcDbEntity
  8
AM_4
100
AcDbPolyline
 90
        4
 70
     0
 43
0.0
 10
-0.1894430570778459
 20
2.225
 10
-0.2136429651057954
 20
2.226417560717138
 10
-0.2378428731337448
 20
2.230482412517844
 10
-0.2525907427704613
 20
2.234067599696615
  0
LINE
  5
1A4
330
176
100
AcDbEntity
  8
AM_4
100
AcDbLine
 10
-0.1188200907348975
 20
2.397753121618573
 30
0.0
 11
0.1188200907348975
 21
2.397753121618573
 31
0.0
  0
LINE
  5
1A5
330
176
100
AcDbEntity
  8
AM_4
100
AcDbLine
 10
-0.1188200907348975
 20
2.397753121618573
 30
0.0
 11
-0.1725340532830154
 21
2.343318198540882
 31
0.0
  0
LINE
  5
1A6
330
176
100
AcDbEntity
  8
AM_4
100
AcDbLine
 10
0.1725340532830154
 20
2.343318198540882
 30
0.0
 11
0.1188200907348975
 21
2.397753121618573
 31
0.0
  0
LWPOLYLINE
  5
1A7
330
176
100
AcDbEntity
  8
AM_4
100
AcDbPolyline
 90
        4
 70
     0
 43
0.0
 10
0.1262953713852306
 20
2.315932400303386
 10
0.1498542014388648
 20
2.321278587191169
 10
0.1735630385535388
 20
2.324385438185773
 10
0.1894430570778459
 20
2.325
  0
LWPOLYLINE
  5
1A8
330
176
100
AcDbEntity
  8
AM_4
100
AcDbPolyline
 90
        4
 70
     0
 43
0.0
 10
0.1894430570778459
 20
2.225
 10
0.1736561356546921
 20
2.225607414003999
 10
0.1578454609156137
 20
2.227396912501075
 10
0.1262953713852306
 20
2.234067599696615
  0
LWPOLYLINE
  5
1A9
330
176
100
AcDbEntity
  8
AM_4
100
AcDbPolyline
 90
        5
 70
     0
 43
0.0
 10
-0.1262953713852306
 20
2.234067599696615
 10
-0.141980479870323
 20
2.230280815541608
 10
-0.1577272497321276
 20
2.22741452494962
 10
-0.1735630385535388
 20
2.225614561814227
 10
-0.1894430570778459
 20
2.225
  0
LWPOLYLINE
  5
1AA
330
176
100
AcDbEntity
  8
AM_4
100
AcDbPolyline
 90
        5
 70
     0
 43
0.0
 10
-0.1894430570778459
 20
2.325
 10
-0.1736561356546922
 20
2.324392585996001
 10
-0.1578692142315383
 20
2.322606619214965
 10
-0.1420649150493544
 20
2.319737183504836
 10
-0.1262953713852306
 20
2.315932400303386
  0
LINE
  5
1AB
330
176
100
AcDbEntity
  8
AM_4
100
AcDbLine
 10
-0.1725340532830154
 20
2.343318198540882
 30
0.0
 11
0.1725340532830154
 21
2.343318198540882
 31
0.0
  0
LINE
  5
1AC
330
176
100
AcDbEntity
  8
AM_4
100
AcDbLine
 10
-0.1725340532830154
 20
2.343318198540882
 30
0.0
 11
-0.21375
 21
2.325
 31
0.0
  0
LINE
  5
1AD
330
176
100
AcDbEntity
  8
AM_4
100
AcDbLine
 10
0.21375
 20
2.325
 30
0.0
 11
0.1725340532830154
 21
2.343318198540882
 31
0.0
  0
LINE
  5
1AE
330
176
100
AcDbEntity
  8
AM_4
100
AcDbLine
 10
0.1262953713852306
 20
2.315932400303386
 30
0.0
 11
0.1262953713852306
 21
2.234067599696615
 31
0.0
  0
LWPOLYLINE
  5
1AF
330
176
100
AcDbEntity
  8
AM_4
100
AcDbPolyline
 90
        4
 70
     0
 43
0.0
 10
0.0
 20
2.325
 10
0.0315738428463076
 20
2.324392585996001
 10
0.0631951923244645
 20
2.322603087498925
 10
0.1262953713852306
 20
2.315932400303386
  0
LWPOLYLINE
  5
1B0
330
176
100
AcDbEntity
  8
AM_4
100
AcDbPolyline
 90
        4
 70
     0
 43
0.0
 10
-0.1262953713852306
 20
2.315932400303386
 10
-0.0791777112779622
 20
2.321278587191169
 10
-0.0317600370486143
 20
2.324385438185773
 10
0.0
 20
2.325
  0
LINE
  5
1B1
330
176
100
AcDbEntity
  8
AM_4
100
AcDbLine
 10
-0.1262953713852306
 20
2.315932400303386
 30
0.0
 11
-0.1262953713852306
 21
2.234067599696615
 31
0.0
  0
LWPOLYLINE
  5
1B2
330
176
100
AcDbEntity
  8
AM_4
100
AcDbPolyline
 90
        4
 70
     0
 43
0.0
 10
0.0
 20
2.225
 10
-0.0315738428463077
 20
2.225607414003999
 10
-0.0631951923244645
 20
2.227396912501075
 10
-0.1262953713852306
 20
2.234067599696615
  0
LWPOLYLINE
  5
1B3
330
176
100
AcDbEntity
  8
AM_4
100
AcDbPolyline
 90
        4
 70
     0
 43
0.0
 10
0.1262953713852306
 20
2.234067599696615
 10
0.0791777112779622
 20
2.228721412808832
 10
0.0317600370486143
 20
2.225614561814227
 10
0.0
 20
2.225
  0
ENDBLK
  5
179
330
176
100
AcDbEntity
  8
0
100
AcDbBlockEnd
  0
BLOCK
  5
1B6
330
1B4
100
AcDbEntity
  8
0
100
AcDbBlockBegin
  2
7_069638H_0_in_069638_0
 70
     2
 10
0.0
 20
0.0
 30
0.0
  3
7_069638H_0_in_069638_0
  1

  0
ATTDEF
  5
1B8
330
1B4
100
AcDbEntity
  8
AM_6
100
AcDbText
 10
8.346874999999999
 20
3.346874999999998
 30
0.0
 40
0.5
  1
F3&4R-IP -(Contact Seal)-Housing -Inch
100
AcDbAttributeDefinition
  3

  2
NN
 70
     8
280
     0
  0
ATTDEF
  5
1B9
330
1B4
100
AcDbEntity
  8
AM_6
100
AcDbText
 10
8.346874999999999
 20
2.846874999999998
 30
0.0
 40
0.5
  1
Imperial 3 & 4 Bolt Round Flange Bearings
100
AcDbAttributeDefinition
  3

  2
NT
 70
     8
280
     0
  0
ATTDEF
  5
1BA
330
1B4
100
AcDbEntity
  8
AM_6
100
AcDbText
 10
8.346874999999999
 20
2.346874999999998
 30
0.0
 40
0.5
  1
069638H
100
AcDbAttributeDefinition
  3

  2
NB
 70
     8
280
     0
  0
ATTDEF
  5
1BB
330
1B4
100
AcDbEntity
  8
AM_6
100
AcDbText
 10
8.346874999999999
 20
1.846874999999998
 30
0.0
 40
0.5
  1
$PN.H
100
AcDbAttributeDefinition
  3

  2
NBSYN
 70
     8
280
     0
  0
ATTDEF
  5
1BC
330
1B4
100
AcDbEntity
  8
AM_6
100
AcDbText
 10
8.346874999999999
 20
1.346874999999998
 30
0.0
 40
0.5
  1
069638
100
AcDbAttributeDefinition
  3

  2
LINA
 70
     8
280
     0
  0
ATTDEF
  5
1BD
330
1B4
100
AcDbEntity
  8
AM_6
100
AcDbText
 10
8.346874999999999
 20
0.8468749999999985
 30
0.0
 40
0.5
  1
1-3/4
100
AcDbAttributeDefinition
  3

  2
SS
 70
     8
280
     0
  0
ATTDEF
  5
1BE
330
1B4
100
AcDbEntity
  8
AM_6
100
AcDbText
 10
8.346874999999999
 20
0.3468749999999985
 30
0.0
 40
0.5
  1
069638
100
AcDbAttributeDefinition
  3

  2
PN
 70
     8
280
     0
  0
ATTDEF
  5
1BF
330
1B4
100
AcDbEntity
  8
AM_6
100
AcDbText
 10
8.346874999999999
 20
-0.1531250000000015
 30
0.0
 40
0.5
  1
F4R-IP-112RE
100
AcDbAttributeDefinition
  3

  2
DESCRIPTION
 70
     8
280
     0
  0
ATTDEF
  5
1C0
330
1B4
100
AcDbEntity
  8
AM_6
100
AcDbText
 10
8.346874999999999
 20
-0.6531250000000015
 30
0.0
 40
0.5
  1
Expansion Type
100
AcDbAttributeDefinition
  3

  2
EF
 70
     8
280
     0
  0
ATTDEF
  5
1C1
330
1B4
100
AcDbEntity
  8
AM_6
100
AcDbText
 10
8.346874999999999
 20
-1.153125000000002
 30
0.0
 40
0.5
  1
Contact Seal
100
AcDbAttributeDefinition
  3

  2
ST
 70
     8
280
     0
  0
ATTDEF
  5
1C2
330
1B4
100
AcDbEntity
  8
AM_6
100
AcDbText
 10
8.346874999999999
 20
-1.653125000000002
 30
0.0
 40
0.5
  1
2-13/16
100
AcDbAttributeDefinition
  3

  2
A
 70
     8
280
     0
  0
ATTDEF
  5
1C3
330
1B4
100
AcDbEntity
  8
AM_6
100
AcDbText
 10
8.346874999999999
 20
-2.153125000000002
 30
0.0
 40
0.5
  1
6-3/8
100
AcDbAttributeDefinition
  3

  2
B
 70
     8
280
     0
  0
ATTDEF
  5
1C4
330
1B4
100
AcDbEntity
  8
AM_6
100
AcDbText
 10
8.346874999999999
 20
-2.653125000000002
 30
0.0
 40
0.5
  1
3-7/64
100
AcDbAttributeDefinition
  3

  2
C
 70
     8
280
     0
  0
ATTDEF
  5
1C5
330
1B4
100
AcDbEntity
  8
AM_6
100
AcDbText
 10
8.346874999999999
 20
-3.153125000000002
 30
0.0
 40
0.5
  1
3-57/64
100
AcDbAttributeDefinition
  3

  2
D
 70
     8
280
     0
  0
ATTDEF
  5
1C6
330
1B4
100
AcDbEntity
  8
AM_6
100
AcDbText
 10
8.346874999999999
 20
-3.653125000000002
 30
0.0
 40
0.5
  1
5-1/2
100
AcDbAttributeDefinition
  3

  2
DD
 70
     8
280
     0
  0
ATTDEF
  5
1C7
330
1B4
100
AcDbEntity
  8
AM_6
100
AcDbText
 10
8.346874999999999
 20
-4.153125000000001
 30
0.0
 40
0.5
  1
1-57/64
100
AcDbAttributeDefinition
  3

  2
E
 70
     8
280
     0
  0
ATTDEF
  5
1C8
330
1B4
100
AcDbEntity
  8
AM_6
100
AcDbText
 10
8.346874999999999
 20
-4.653125000000001
 30
0.0
 40
0.5
  1
1/2
100
AcDbAttributeDefinition
  3

  2
F
 70
     8
280
     0
  0
ATTDEF
  5
1C9
330
1B4
100
AcDbEntity
  8
AM_6
100
AcDbText
 10
8.346874999999999
 20
-5.153125000000001
 30
0.0
 40
0.5
  1
1/2
100
AcDbAttributeDefinition
  3

  2
H
 70
     8
280
     0
  0
ATTDEF
  5
1CA
330
1B4
100
AcDbEntity
  8
AM_6
100
AcDbText
 10
8.346874999999999
 20
-5.653125000000001
 30
0.0
 40
0.5
  1
4-1/4
100
AcDbAttributeDefinition
  3

  2
J
 70
     8
280
     0
  0
ATTDEF
  5
1CB
330
1B4
100
AcDbEntity
  8
AM_6
100
AcDbText
 10
8.346874999999999
 20
-6.153125000000001
 30
0.0
 40
0.5
  1
3
100
AcDbAttributeDefinition
  3

  2
L
 70
     8
280
     0
  0
ATTDEF
  5
1CC
330
1B4
100
AcDbEntity
  8
AM_6
100
AcDbText
 10
8.346874999999999
 20
-6.653125000000001
 30
0.0
 40
0.5
  1
19/64
100
AcDbAttributeDefinition
  3

  2
P
 70
     8
280
     0
  0
ATTDEF
  5
1CD
330
1B4
100
AcDbEntity
  8
AM_6
100
AcDbText
 10
8.346874999999999
 20
-7.153125000000001
 30
0.0
 40
0.5
  1
1/4
100
AcDbAttributeDefinition
  3

  2
X
 70
     8
280
     0
  0
ATTDEF
  5
1CE
330
1B4
100
AcDbEntity
  8
AM_6
100
AcDbText
 10
8.346874999999999
 20
-7.653125000000001
 30
0.0
 40
0.5
  1
0.020
100
AcDbAttributeDefinition
  3

  2
Y
 70
     8
280
     0
  0
ATTDEF
  5
1CF
330
1B4
100
AcDbEntity
  8
AM_6
100
AcDbText
 10
8.346874999999999
 20
-8.153125000000001
 30
0.0
 40
0.5
  1
2-5/64
100
AcDbAttributeDefinition
  3

  2
Z
 70
     8
280
     0
  0
ATTDEF
  5
1D0
330
1B4
100
AcDbEntity
  8
AM_6
100
AcDbText
 10
8.346874999999999
 20
-8.653125000000001
 30
0.0
 40
0.5
  1
baldor
100
AcDbAttributeDefinition
  3

  2
COMPANY
 70
     8
280
     0
  0
CIRCLE
  5
1D1
330
1B4
100
AcDbEntity
  8
AM_9
100
AcDbCircle
 10
0.0
 20
0.0
 30
0.0
 40
2.023809523809524
  0
LINE
  5
1D2
330
1B4
100
AcDbEntity
  8
AM_7
100
AcDbLine
 10
-2.207043648263006
 20
-1.944543648263006
 30
0.0
 11
-1.682043648263006
 21
-1.944543648263006
 31
0.0
  0
LINE
  5
1D3
330
1B4
100
AcDbEntity
  8
AM_7
100
AcDbLine
 10
-1.944543648263006
 20
-2.207043648263006
 30
0.0
 11
-1.944543648263006
 21
-1.682043648263006
 31
0.0
  0
LINE
  5
1D4
330
1B4
100
AcDbEntity
  8
AM_7
100
AcDbLine
 10
1.682043648263006
 20
1.944543648263006
 30
0.0
 11
2.207043648263006
 21
1.944543648263006
 31
0.0
  0
LINE
  5
1D5
330
1B4
100
AcDbEntity
  8
AM_7
100
AcDbLine
 10
1.944543648263006
 20
1.682043648263006
 30
0.0
 11
1.944543648263006
 21
2.207043648263006
 31
0.0
  0
LINE
  5
1D6
330
1B4
100
AcDbEntity
  8
AM_7
100
AcDbLine
 10
-2.207043648263006
 20
1.944543648263006
 30
0.0
 11
-1.682043648263006
 21
1.944543648263006
 31
0.0
  0
LINE
  5
1D7
330
1B4
100
AcDbEntity
  8
AM_7
100
AcDbLine
 10
-1.944543648263006
 20
1.682043648263006
 30
0.0
 11
-1.944543648263006
 21
2.207043648263006
 31
0.0
  0
LINE
  5
1D8
330
1B4
100
AcDbEntity
  8
AM_7
100
AcDbLine
 10
1.682043648263005
 20
-1.944543648263007
 30
0.0
 11
2.207043648263006
 21
-1.944543648263007
 31
0.0
  0
LINE
  5
1D9
330
1B4
100
AcDbEntity
  8
AM_7
100
AcDbLine
 10
1.944543648263005
 20
-2.207043648263006
 30
0.0
 11
1.944543648263005
 21
-1.682043648263007
 31
0.0
  0
LINE
  5
1DA
330
1B4
100
AcDbEntity
  8
AM_7
100
AcDbLine
 10
-3.346874999999999
 20
-0.0000000000000009
 30
0.0
 11
3.346874999999999
 21
-0.0000000000000009
 31
0.0
  0
LINE
  5
1DB
330
1B4
100
AcDbEntity
  8
AM_7
100
AcDbLine
 10
-0.0000000000000001
 20
-3.346875
 30
0.0
 11
-0.0000000000000001
 21
3.346874999999998
 31
0.0
  0
ARC
  5
1DC
330
1B4
100
AcDbEntity
  8
AM_4
100
AcDbCircle
 10
0.0
 20
3.312500000000002
 30
0.0
 40
0.2500000000000023
100
AcDbArc
 50
211.890791801846
 51
328.109208198154
  0
ARC
  5
1DD
330
1B4
100
AcDbEntity
  8
AM_4
100
AcDbCircle
 10
0.0
 20
0.0000000000000006
 30
0.0
 40
3.1875
100
AcDbArc
 50
93.81830486599279
 51
86.18169513400721
  0
LINE
  5
1DE
330
1B4
100
AcDbEntity
  8
AM_4
100
AcDbLine
 10
-2.603304297895952
 20
1.83928327958378
 30
0.0
 11
-1.965499032091414
 21
0.9284029605354048
 31
0.0
  0
LINE
  5
1DF
330
1B4
100
AcDbEntity
  8
AM_4
100
AcDbLine
 10
-0.9284029605354042
 20
1.965499032091414
 30
0.0
 11
-1.83928327958378
 21
2.603304297895952
 31
0.0
  0
LINE
  5
1E0
330
1B4
100
AcDbEntity
  8
AM_4
100
AcDbLine
 10
-1.83928327958378
 20
-2.603304297895952
 30
0.0
 11
-0.9284029605354048
 21
-1.965499032091414
 31
0.0
  0
LINE
  5
1E1
330
1B4
100
AcDbEntity
  8
AM_4
100
AcDbLine
 10
-1.965499032091414
 20
-0.9284029605354042
 30
0.0
 11
-2.603304297895952
 21
-1.83928327958378
 31
0.0
  0
LINE
  5
1E2
330
1B4
100
AcDbEntity
  8
AM_4
100
AcDbLine
 10
2.603304297895952
 20
-1.83928327958378
 30
0.0
 11
1.965499032091414
 21
-0.9284029605354054
 31
0.0
  0
LINE
  5
1E3
330
1B4
100
AcDbEntity
  8
AM_4
100
AcDbLine
 10
0.9284029605354038
 20
-1.965499032091414
 30
0.0
 11
1.83928327958378
 21
-2.603304297895952
 31
0.0
  0
LINE
  5
1E4
330
1B4
100
AcDbEntity
  8
AM_4
100
AcDbLine
 10
1.83928327958378
 20
2.603304297895951
 30
0.0
 11
0.9284029605354048
 21
1.965499032091414
 31
0.0
  0
LINE
  5
1E5
330
1B4
100
AcDbEntity
  8
AM_4
100
AcDbLine
 10
1.965499032091414
 20
0.9284029605354043
 30
0.0
 11
2.603304297895952
 21
1.83928327958378
 31
0.0
  0
CIRCLE
  5
1E6
330
1B4
100
AcDbEntity
  8
AM_4
100
AcDbCircle
 10
-1.944543648263006
 20
-1.944543648263006
 30
0.0
 40
0.25
  0
ARC
  5
1E7
330
1B4
100
AcDbEntity
  8
AM_4
100
AcDbCircle
 10
-0.0000000000000258
 20
-0.0000000000000266
 30
0.0
 40
3.137499999999963
100
AcDbArc
 50
214.913607763658
 51
235.086392236342
  0
ARC
  5
1E8
330
1B4
100
AcDbEntity
  8
AM_4
100
AcDbCircle
 10
-0.871045316900299
 20
-2.047414236520317
 30
0.0
 40
0.1000000000000032
100
AcDbArc
 50
66.95331444957829
 51
124.9999999999996
  0
ARC
  5
1E9
330
1B4
100
AcDbEntity
  8
AM_4
100
AcDbCircle
 10
-2.047414236520315
 20
-0.8710453169002997
 30
0.0
 40
0.1000000000000016
100
AcDbArc
 50
325.0000000000008
 51
23.04668555042285
  0
CIRCLE
  5
1EA
330
1B4
100
AcDbEntity
  8
AM_4
100
AcDbCircle
 10
1.944543648263006
 20
1.944543648263006
 30
0.0
 40
0.25
  0
ARC
  5
1EB
330
1B4
100
AcDbEntity
  8
AM_4
100
AcDbCircle
 10
0.871045316900299
 20
2.047414236520317
 30
0.0
 40
0.1000000000000033
100
AcDbArc
 50
246.9533144495781
 51
304.9999999999996
  0
ARC
  5
1EC
330
1B4
100
AcDbEntity
  8
AM_4
100
AcDbCircle
 10
2.047414236520315
 20
0.8710453169002991
 30
0.0
 40
0.1000000000000017
100
AcDbArc
 50
145.0000000000003
 51
203.0466855504224
  0
ARC
  5
1ED
330
1B4
100
AcDbEntity
  8
AM_4
100
AcDbCircle
 10
0.0000000000000173
 20
0.0000000000000164
 30
0.0
 40
3.137499999999977
100
AcDbArc
 50
34.91360776365801
 51
55.08639223634201
  0
CIRCLE
  5
1EE
330
1B4
100
AcDbEntity
  8
AM_4
100
AcDbCircle
 10
-1.944543648263006
 20
1.944543648263006
 30
0.0
 40
0.25
  0
ARC
  5
1EF
330
1B4
100
AcDbEntity
  8
AM_4
100
AcDbCircle
 10
-2.047414236520317
 20
0.8710453169002987
 30
0.0
 40
0.100000000000004
100
AcDbArc
 50
336.9533144495784
 51
34.99999999999941
  0
ARC
  5
1F0
330
1B4
100
AcDbEntity
  8
AM_4
100
AcDbCircle
 10
-0.8710453169002991
 20
2.047414236520314
 30
0.0
 40
0.1000000000000013
100
AcDbArc
 50
235.0000000000002
 51
293.0466855504225
  0
ARC
  5
1F1
330
1B4
100
AcDbEntity
  8
AM_4
100
AcDbCircle
 10
-0.0000000000000151
 20
0.000000000000016
 30
0.0
 40
3.137499999999978
100
AcDbArc
 50
124.913607763658
 51
145.086392236342
  0
CIRCLE
  5
1F2
330
1B4
100
AcDbEntity
  8
AM_4
100
AcDbCircle
 10
1.944543648263005
 20
-1.944543648263007
 30
0.0
 40
0.25
  0
ARC
  5
1F3
330
1B4
100
AcDbEntity
  8
AM_4
100
AcDbCircle
 10
2.047414236520314
 20
-0.8710453169002996
 30
0.0
 40
0.1000000000000013
100
AcDbArc
 50
156.9533144495775
 51
215.0000000000002
  0
ARC
  5
1F4
330
1B4
100
AcDbEntity
  8
AM_4
100
AcDbCircle
 10
0.8710453169002994
 20
-2.047414236520315
 30
0.0
 40
0.1000000000000016
100
AcDbArc
 50
55.00000000000078
 51
113.0466855504224
  0
ARC
  5
1F5
330
1B4
100
AcDbEntity
  8
AM_4
100
AcDbCircle
 10
0.000000000000012
 20
-0.0000000000000084
 30
0.0
 40
3.137499999999986
100
AcDbArc
 50
304.9136077636579
 51
325.0863922363419
  0
LINE
  5
1F6
330
1B4
100
AcDbEntity
  8
AM_4
100
AcDbLine
 10
0.5000000000000001
 20
2.065757451352191
 30
0.0
 11
0.5000000000000001
 21
2.125
 31
0.0
  0
LINE
  5
1F7
330
1B4
100
AcDbEntity
  8
AM_4
100
AcDbLine
 10
-0.5000000000000001
 20
2.125
 30
0.0
 11
0.5000000000000001
 21
2.125
 31
0.0
  0
LINE
  5
1F8
330
1B4
100
AcDbEntity
  8
AM_4
100
AcDbLine
 10
-0.3999999999999993
 20
2.225
 30
0.0
 11
0.3999999999999993
 21
2.225
 31
0.0
  0
ARC
  5
1F9
330
1B4
100
AcDbEntity
  8
AM_4
100
AcDbCircle
 10
0.3999999999999988
 20
2.124999999999999
 30
0.0
 40
0.1000000000000013
100
AcDbArc
 50
0.0
 51
90.0
  0
ARC
  5
1FA
330
1B4
100
AcDbEntity
  8
AM_4
100
AcDbCircle
 10
-0.3999999999999988
 20
2.124999999999999
 30
0.0
 40
0.1000000000000014
100
AcDbArc
 50
90.0
 51
180.0
  0
LINE
  5
1FB
330
1B4
100
AcDbEntity
  8
AM_4
100
AcDbLine
 10
-0.5000000000000001
 20
2.125
 30
0.0
 11
-0.5000000000000001
 21
2.065600705127125
 31
0.0
  0
ARC
  5
1FC
330
1B4
100
AcDbEntity
  8
AM_4
100
AcDbCircle
 10
-3.006992631840479
 20
3.00699263184048
 30
0.0
 40
2.228720238095249
100
AcDbArc
 50
306.4671119592264
 51
323.5328880407736
  0
ARC
  5
1FD
330
1B4
100
AcDbEntity
  8
AM_4
100
AcDbCircle
 10
-3.006992631840482
 20
-3.006992631840484
 30
0.0
 40
2.228720238095254
100
AcDbArc
 50
36.46711195922642
 51
53.5328880407736
  0
ARC
  5
1FE
330
1B4
100
AcDbEntity
  8
AM_4
100
AcDbCircle
 10
3.006992631840475
 20
3.006992631840475
 30
0.0
 40
2.228720238095243
100
AcDbArc
 50
216.4671119592263
 51
233.5328880407737
  0
ARC
  5
1FF
330
1B4
100
AcDbEntity
  8
AM_4
100
AcDbCircle
 10
3.006992631840476
 20
-3.006992631840478
 30
0.0
 40
2.228720238095246
100
AcDbArc
 50
126.4671119592264
 51
143.5328880407736
  0
CIRCLE
  5
200
330
1B4
100
AcDbEntity
  8
AM_4
100
AcDbCircle
 10
0.0
 20
0.0
 30
0.0
 40
1.67325
  0
LWPOLYLINE
  5
201
330
1B4
100
AcDbEntity
  8
AM_4
100
AcDbPolyline
 90
        5
 70
     0
 43
0.0
 10
-1.214659919028158
 20
-1.682327637859674
 10
-1.192481742800713
 20
-1.712873575010135
 10
-1.16422923886488
 20
-1.753430915288638
 10
-1.147333374925638
 20
-1.778635457454185
 10
-1.142036831574255
 20
-1.78669194645646
  0
LWPOLYLINE
  5
202
330
1B4
100
AcDbEntity
  8
AM_4
100
AcDbPolyline
 90
        5
 70
     0
 43
0.0
 10
1.142036831574255
 20
-1.78669194645646
 10
1.154047838280898
 20
-1.7685300802404
 10
1.171293691378395
 20
-1.743108420497636
 10
1.18999581547755
 20
-1.716366245537177
 10
1.214659919028158
 20
-1.682327637859674
  0
LWPOLYLINE
  5
203
330
1B4
100
AcDbEntity
  8
AM_4
100
AcDbPolyline
 90
        3
 70
     0
 43
0.0
 10
1.142036831574255
 20
-1.78669194645646
 10
1.126879496361307
 20
-1.80160092904228
 10
1.126708455451648
 20
-1.801708371633368
  0
ARC
  5
204
330
1B4
100
AcDbEntity
  8
AM_4
100
AcDbCircle
 10
-0.0000000000000003
 20
-0.0000000000000002
 30
0.0
 40
2.075
100
AcDbArc
 50
234.1702821525829
 51
305.8297178474172
  0
LWPOLYLINE
  5
205
330
1B4
100
AcDbEntity
  8
AM_4
100
AcDbPolyline
 90
        3
 70
     0
 43
0.0
 10
-1.126708446158762
 20
-1.801708377444726
 10
-1.126879496361385
 20
-1.801600929042232
 10
-1.142036831574255
 20
-1.78669194645646
  0
ARC
  5
206
330
1B4
100
AcDbEntity
  8
AM_4
100
AcDbCircle
 10
-0.0000000000000001
 20
-0.0000000000000011
 30
0.0
 40
2.124999999999999
100
AcDbArc
 50
237.9799673742184
 51
302.0200329213027
  0
LWPOLYLINE
  5
207
330
1B4
100
AcDbEntity
  8
AM_4
100
AcDbPolyline
 90
        5
 70
     0
 43
0.0
 10
1.78669194645646
 20
1.142036831574255
 10
1.7685300802404
 20
1.154047838280898
 10
1.743108420497636
 20
1.171293691378395
 10
1.716366245537177
 20
1.18999581547755
 10
1.682327637859673
 20
1.214659919028158
  0
LWPOLYLINE
  5
208
330
1B4
100
AcDbEntity
  8
AM_4
100
AcDbPolyline
 90
        5
 70
     0
 43
0.0
 10
1.682327637859674
 20
-1.214659919028158
 10
1.712873575010594
 20
-1.192481742800386
 10
1.753430915288935
 20
-1.164229238864678
 10
1.778635457454357
 20
-1.147333374925523
 10
1.78669194645646
 20
-1.142036831574255
  0
LWPOLYLINE
  5
209
330
1B4
100
AcDbEntity
  8
AM_4
100
AcDbPolyline
 90
        3
 70
     0
 43
0.0
 10
1.78669194645646
 20
1.142036831574255
 10
1.801600929042278
 20
1.12687949636131
 10
1.801708371633368
 20
1.126708455451648
  0
ARC
  5
20A
330
1B4
100
AcDbEntity
  8
AM_4
100
AcDbCircle
 10
0.0
 20
0.0000000000000001
 30
0.0
 40
2.075
100
AcDbArc
 50
324.1702821525828
 51
35.82971784741715
  0
LWPOLYLINE
  5
20B
330
1B4
100
AcDbEntity
  8
AM_4
100
AcDbPolyline
 90
        3
 70
     0
 43
0.0
 10
1.80170836582201
 20
-1.126708464744532
 10
1.801600929042215
 20
-1.126879496361411
 10
1.78669194645646
 20
-1.142036831574255
  0
ARC
  5
20C
330
1B4
100
AcDbEntity
  8
AM_4
100
AcDbCircle
 10
0.0000000000000007
 20
0.0000000000000006
 30
0.0
 40
2.125
100
AcDbArc
 50
327.9799667831759
 51
32.02003292130278
  0
LWPOLYLINE
  5
20D
330
1B4
100
AcDbEntity
  8
AM_4
100
AcDbPolyline
 90
        5
 70
     0
 43
0.0
 10
-1.682327637859674
 20
1.214659919028158
 10
-1.712873575009231
 20
1.192481742801358
 10
-1.753430915288052
 20
1.164229238865279
 10
-1.778635457453843
 20
1.147333374925864
 10
-1.786691946456461
 20
1.142036831574254
  0
LWPOLYLINE
  5
20E
330
1B4
100
AcDbEntity
  8
AM_4
100
AcDbPolyline
 90
        5
 70
     0
 43
0.0
 10
-1.78669194645646
 20
-1.142036831574255
 10
-1.7685300802404
 20
-1.154047838280898
 10
-1.743108420497635
 20
-1.171293691378396
 10
-1.716366245537176
 20
-1.189995815477551
 10
-1.682327637859673
 20
-1.214659919028159
  0
LWPOLYLINE
  5
20F
330
1B4
100
AcDbEntity
  8
AM_4
100
AcDbPolyline
 90
        3
 70
     0
 43
0.0
 10
-1.801708378422022
 20
1.126708444595977
 10
-1.801600929042217
 20
1.126879496361409
 10
-1.786691946456461
 20
1.142036831574254
  0
ARC
  5
210
330
1B4
100
AcDbEntity
  8
AM_4
100
AcDbCircle
 10
-0.0000000000000016
 20
-0.0000000000000004
 30
0.0
 40
2.124999999999999
100
AcDbArc
 50
147.9799674239162
 51
212.0200329213028
  0
LWPOLYLINE
  5
211
330
1B4
100
AcDbEntity
  8
AM_4
100
AcDbPolyline
 90
        3
 70
     0
 43
0.0
 10
-1.78669194645646
 20
-1.142036831574255
 10
-1.80160092904228
 20
-1.126879496361307
 10
-1.801708371633368
 20
-1.126708455451648
  0
ARC
  5
212
330
1B4
100
AcDbEntity
  8
AM_4
100
AcDbCircle
 10
-0.0000000000000027
 20
0.0000000000000002
 30
0.0
 40
2.074999999999998
100
AcDbArc
 50
144.1702821525828
 51
215.8297178474172
  0
LWPOLYLINE
  5
213
330
1B4
100
AcDbEntity
  8
AM_4
100
AcDbPolyline
 90
        3
 70
     0
 43
0.0
 10
1.126708464744532
 20
1.80170836582201
 10
1.126879496361416
 20
1.801600929042212
 10
1.142036831574255
 20
1.78669194645646
  0
ARC
  5
214
330
1B4
100
AcDbEntity
  8
AM_4
100
AcDbCircle
 10
-0.0000000000000002
 20
-0.0000000000000033
 30
0.0
 40
2.125000000000003
100
AcDbArc
 50
57.979966783176
 51
122.0200329213027
  0
LWPOLYLINE
  5
215
330
1B4
100
AcDbEntity
  8
AM_4
100
AcDbPolyline
 90
        3
 70
     0
 43
0.0
 10
-1.142036831574255
 20
1.786691946456459
 10
-1.126879496361278
 20
1.801600929042298
 10
-1.126708455451648
 20
1.801708371633368
  0
LWPOLYLINE
  5
216
330
1B4
100
AcDbEntity
  8
AM_4
100
AcDbPolyline
 90
        5
 70
     0
 43
0.0
 10
-1.142036831574255
 20
1.786691946456459
 10
-1.154047838280898
 20
1.768530080240399
 10
-1.171293691378396
 20
1.743108420497634
 10
-1.189995815477552
 20
1.716366245537174
 10
-1.214659919028158
 20
1.682327637859674
  0
ARC
  5
217
330
1B4
100
AcDbEntity
  8
AM_4
100
AcDbCircle
 10
-0.0000000000000001
 20
-0.0000000000000007
 30
0.0
 40
2.075000000000001
100
AcDbArc
 50
54.17028215258287
 51
125.8297178474171
  0
LWPOLYLINE
  5
218
330
1B4
100
AcDbEntity
  8
AM_4
100
AcDbPolyline
 90
        5
 70
     0
 43
0.0
 10
1.214659919028158
 20
1.682327637859674
 10
1.192481742800501
 20
1.712873575010433
 10
1.16422923886475
 20
1.75343091528883
 10
1.147333374925564
 20
1.778635457454297
 10
1.142036831574255
 20
1.78669194645646
  0
ENDBLK
  5
1B7
330
1B4
100
AcDbEntity
  8
0
100
AcDbBlockEnd
  0
ENDSEC
  0
SECTION
  2
ENTITIES
  0
INSERT
  5
6F
330
1F
100
AcDbEntity
  8
0
100
AcDbBlockReference
  2
1_069638_0
 10
0.0
 20
0.0
 30
0.0
  0
POINT
  5
21A
330
1F
100
AcDbEntity
  8
ConnectionPoints
100
AcDbPoint
 10
-0.8740625489667045
 20
0.8740625489667047
 30
2.700375
  0
POINT
  5
21B
330
1F
100
AcDbEntity
  8
ConnectionPoints
100
AcDbPoint
 10
0.0
 20
0.0
 30
2.630375
  0
POINT
  5
21C
330
1F
100
AcDbEntity
  8
ConnectionPoints
100
AcDbPoint
 10
0.0
 20
0.0
 30
2.859375
  0
POINT
  5
21D
330
1F
100
AcDbEntity
  8
ConnectionPoints
100
AcDbPoint
 10
0.0
 20
0.0
 30
2.829375
  0
POINT
  5
21E
330
1F
100
AcDbEntity
  8
ConnectionPoints
100
AcDbPoint
 10
-0.8740625489667045
 20
0.8740625489667047
 30
2.630375
  0
POINT
  5
21F
330
1F
100
AcDbEntity
  8
ConnectionPoints
100
AcDbPoint
 10
-0.8740625489667045
 20
0.8740625489667047
 30
2.758375
  0
POINT
  5
220
330
1F
100
AcDbEntity
  8
ConnectionPoints
100
AcDbPoint
 10
0.8740625489667045
 20
-0.8740625489667047
 30
2.630375
  0
POINT
  5
221
330
1F
100
AcDbEntity
  8
ConnectionPoints
100
AcDbPoint
 10
0.8740625489667045
 20
-0.8740625489667047
 30
2.758375
  0
POINT
  5
222
330
1F
100
AcDbEntity
  8
ConnectionPoints
100
AcDbPoint
 10
0.0
 20
0.0
 30
2.630375
  0
POINT
  5
223
330
1F
100
AcDbEntity
  8
ConnectionPoints
100
AcDbPoint
 10
0.0
 20
2.225
 30
1.1953125
  0
POINT
  5
224
330
1F
100
AcDbEntity
  8
ConnectionPoints
100
AcDbPoint
 10
0.0
 20
2.225
 30
1.1953125
  0
POINT
  5
225
330
1F
100
AcDbEntity
  8
ConnectionPoints
100
AcDbPoint
 10
0.0
 20
0.0
 30
2.859375
  0
POINT
  5
226
330
1F
100
AcDbEntity
  8
ConnectionPoints
100
AcDbPoint
 10
0.0
 20
0.0
 30
3.109375
  0
ENDSEC
  0
SECTION
  2
OBJECTS
  0
DICTIONARY
  5
C
330
0
100
AcDbDictionary
281
     1
  3
ACAD_DETAILVIEWSTYLE
350
22E
  3
ACAD_GROUP
350
D
  3
ACAD_LAYOUT
350
1A
  3
ACAD_MATERIAL
350
43
  3
ACAD_MLEADERSTYLE
350
6B
  3
ACAD_MLINESTYLE
350
17
  3
ACAD_PLOTSETTINGS
350
19
  3
ACAD_PLOTSTYLENAME
350
E
  3
ACAD_SCALELIST
350
47
  3
ACAD_SECTIONVIEWSTYLE
350
22F
  3
ACAD_TABLESTYLE
350
69
  3
ACAD_VISUALSTYLE
350
2A
  3
ACDB_RECOMPOSE_DATA
350
22B
  3
AcDbVariableDictionary
350
227
  0
SUN
  5
6D
330
29
100
AcDbSun
 90
        1
290
     0
 63
     7
421
 16777215
 40
1.0
291
     1
 91
  2455826
 92
 54000000
292
     0
 70
     2
 71
   256
280
     1
  0
DICTIONARY
  5
22E
102
{ACAD_REACTORS
330
C
102
}
330
C
100
AcDbDictionary
281
     1
  0
DICTIONARY
  5
D
102
{ACAD_REACTORS
330
C
102
}
330
C
100
AcDbDictionary
281
     1
  0
DICTIONARY
  5
1A
102
{ACAD_REACTORS
330
C
102
}
330
C
100
AcDbDictionary
281
     1
  3
Layout1
350
1E
  3
Layout2
350
26
  3
Model
350
22
  0
DICTIONARY
  5
43
102
{ACAD_REACTORS
330
C
102
}
330
C
100
AcDbDictionary
281
     1
  3
ByBlock
350
45
  3
ByLayer
350
44
  3
Global
350
46
  0
DICTIONARY
  5
6B
102
{ACAD_REACTORS
330
C
102
}
330
C
100
AcDbDictionary
281
     1
  3
Standard
350
6C
  0
DICTIONARY
  5
17
102
{ACAD_REACTORS
330
C
102
}
330
C
100
AcDbDictionary
281
     1
  3
Standard
350
18
  0
DICTIONARY
  5
19
102
{ACAD_REACTORS
330
C
102
}
330
C
100
AcDbDictionary
281
     1
  0
ACDBDICTIONARYWDFLT
  5
E
102
{ACAD_REACTORS
330
C
102
}
330
C
100
AcDbDictionary
281
     1
  3
Normal
350
F
100
AcDbDictionaryWithDefault
340
F
  0
DICTIONARY
  5
47
102
{ACAD_REACTORS
330
C
102
}
330
C
100
AcDbDictionary
281
     1
  3
A0
350
48
  3
A1
350
49
  3
A2
350
4A
  3
A3
350
4B
  3
A4
350
4C
  3
A5
350
4D
  3
A6
350
4E
  3
A7
350
4F
  3
A8
350
50
  3
A9
350
51
  3
B0
350
52
  3
B1
350
53
  3
B2
350
54
  3
B3
350
55
  3
B4
350
56
  3
B5
350
57
  3
B6
350
58
  3
B7
350
59
  3
B8
350
5A
  3
B9
350
5B
  3
C0
350
5C
  3
C1
350
5D
  3
C2
350
5E
  3
C3
350
5F
  3
C4
350
60
  3
C5
350
61
  3
C6
350
62
  3
C7
350
63
  3
C8
350
64
  3
C9
350
65
  3
D0
350
66
  3
D1
350
67
  3
D2
350
68
  0
DICTIONARY
  5
22F
102
{ACAD_REACTORS
330
C
102
}
330
C
100
AcDbDictionary
281
     1
  0
DICTIONARY
  5
69
102
{ACAD_REACTORS
330
C
102
}
330
C
100
AcDbDictionary
281
     1
  3
Standard
350
6A
  0
DICTIONARY
  5
2A
102
{ACAD_REACTORS
330
C
102
}
330
C
100
AcDbDictionary
281
     1
  3
2dWireframe
350
2F
  3
Basic
350
32
  3
Brighten
350
36
  3
ColorChange
350
3A
  3
Conceptual
350
34
  3
Dim
350
35
  3
EdgeColorOff
350
3D
  3
Facepattern
350
39
  3
Flat
350
2B
  3
FlatWithEdges
350
2C
  3
Gouraud
350
2D
  3
GouraudWithEdges
350
2E
  3
Hidden
350
31
  3
JitterOff
350
3B
  3
Linepattern
350
38
  3
OverhangOff
350
3C
  3
Realistic
350
33
  3
Shaded
350
42
  3
Shaded with edges
350
41
  3
Shades of Gray
350
3E
  3
Sketchy
350
3F
  3
Thicken
350
37
  3
Wireframe
350
30
  3
X-Ray
350
40
  0
XRECORD
  5
22B
102
{ACAD_REACTORS
330
C
102
}
330
C
100
AcDbXrecord
280
     1
 90
        1
330
6A
  0
DICTIONARY
  5
227
102
{ACAD_REACTORS
330
C
102
}
330
C
100
AcDbDictionary
281
     1
  3
CANNOSCALE
350
228
  3
CMLEADERSTYLE
350
22D
  3
CTABLESTYLE
350
22C
  0
LAYOUT
  5
1E
102
{ACAD_REACTORS
330
1A
102
}
330
1A
100
AcDbPlotSettings
  1

  2
none_device
  4

  6

 40
0.0
 41
0.0
 42
0.0
 43
0.0
 44
0.0
 45
0.0
 46
0.0
 47
0.0
 48
0.0
 49
0.0
140
0.0
141
0.0
142
1.0
143
1.0
 70
   688
 72
     0
 73
     0
 74
     5
  7

 75
    16
 76
     0
 77
     2
 78
   300
147
1.0
148
0.0
149
0.0
100
AcDbLayout
  1
Layout1
 70
     1
 71
     1
 10
0.0
 20
0.0
 11
12.0
 21
9.0
 12
0.0
 22
0.0
 32
0.0
 14
1.000000000000000E+20
 24
1.000000000000000E+20
 34
1.000000000000000E+20
 15
-1.000000000000000E+20
 25
-1.000000000000000E+20
 35
-1.000000000000000E+20
146
0.0
 13
0.0
 23
0.0
 33
0.0
 16
1.0
 26
0.0
 36
0.0
 17
0.0
 27
1.0
 37
0.0
 76
     0
330
1B
  0
LAYOUT
  5
26
102
{ACAD_REACTORS
330
1A
102
}
330
1A
100
AcDbPlotSettings
  1

  2
none_device
  4

  6

 40
0.0
 41
0.0
 42
0.0
 43
0.0
 44
0.0
 45
0.0
 46
0.0
 47
0.0
 48
0.0
 49
0.0
140
0.0
141
0.0
142
1.0
143
1.0
 70
   688
 72
     0
 73
     0
 74
     5
  7

 75
    16
 76
     0
 77
     2
 78
   300
147
1.0
148
0.0
149
0.0
100
AcDbLayout
  1
Layout2
 70
     1
 71
     2
 10
0.0
 20
0.0
 11
0.0
 21
0.0
 12
0.0
 22
0.0
 32
0.0
 14
0.0
 24
0.0
 34
0.0
 15
0.0
 25
0.0
 35
0.0
146
0.0
 13
0.0
 23
0.0
 33
0.0
 16
1.0
 26
0.0
 36
0.0
 17
0.0
 27
1.0
 37
0.0
 76
     0
330
23
  0
LAYOUT
  5
22
102
{ACAD_REACTORS
330
1A
102
}
330
1A
100
AcDbPlotSettings
  1

  2
none_device
  4
Letter_(8.50_x_11.00_Inches)
  6

 40
6.35
 41
6.35
 42
6.35000508
 43
6.35000508
 44
215.9
 45
279.4
 46
0.0
 47
0.0
 48
0.0
 49
0.0
140
0.0
141
0.0
142
1.0
143
1.0
 70
  1712
 72
     0
 73
     0
 74
     0
  7

 75
     0
 76
     0
 77
     2
 78
   300
147
1.0
148
0.0
149
0.0
100
AcDbLayout
  1
Model
 70
     1
 71
     0
 10
0.0
 20
0.0
 11
12.0
 21
9.0
 12
0.0
 22
0.0
 32
0.0
 14
1.000000000000000E+20
 24
1.000000000000000E+20
 34
1.000000000000000E+20
 15
-1.000000000000000E+20
 25
-1.000000000000000E+20
 35
-1.000000000000000E+20
146
0.0
 13
0.0
 23
0.0
 33
0.0
 16
1.0
 26
0.0
 36
0.0
 17
0.0
 27
1.0
 37
0.0
 76
     0
330
1F
331
29
  0
MATERIAL
  5
45
102
{ACAD_REACTORS
330
43
102
}
330
43
100
AcDbMaterial
  1
ByBlock
 72
     1
 94
      127
  0
MATERIAL
  5
44
102
{ACAD_REACTORS
330
43
102
}
330
43
100
AcDbMaterial
  1
ByLayer
 72
     1
 94
      127
  0
MATERIAL
  5
46
102
{ACAD_REACTORS
330
43
102
}
330
43
100
AcDbMaterial
  1
Global
 72
     1
 94
      127
  0
MLEADERSTYLE
  5
6C
102
{ACAD_REACTORS
330
6B
102
}
330
6B
100
AcDbMLeaderStyle
179
     2
170
     2
171
     1
172
     0
 90
        2
 40
0.0
 41
0.0
173
     1
 91
-1056964608
340
14
 92
       -2
290
     1
 42
0.09
291
     1
 43
0.36
  3
Standard
341
0
 44
0.18
300

342
11
174
     1
178
     6
175
     1
176
     0
 93
-1056964608
 45
0.18
292
     0
297
     0
 46
0.18
343
0
 94
-1056964608
 47
1.0
 49
1.0
140
1.0
293
     1
141
0.0
294
     1
177
     0
142
1.0
295
     0
296
     0
143
0.125
271
     0
272
     9
273
     9
298
     0
  0
MLINESTYLE
  5
18
102
{ACAD_REACTORS
330
17
102
}
330
17
100
AcDbMlineStyle
  2
Standard
 70
     0
  3

 62
   256
 51
90.0
 52
90.0
 71
     2
 49
0.5
 62
   256
  6
BYLAYER
 49
-0.5
 62
   256
  6
BYLAYER
  0
ACDBPLACEHOLDER
  5
F
102
{ACAD_REACTORS
330
E
102
}
330
E
  0
SCALE
  5
48
102
{ACAD_REACTORS
330
47
102
}
330
47
100
AcDbScale
 70
     0
300
1:1
140
1.0
141
1.0
290
     1
  0
SCALE
  5
49
102
{ACAD_REACTORS
330
47
102
}
330
47
100
AcDbScale
 70
     0
300
1:2
140
1.0
141
2.0
290
     0
  0
SCALE
  5
4A
102
{ACAD_REACTORS
330
47
102
}
330
47
100
AcDbScale
 70
     0
300
1:4
140
1.0
141
4.0
290
     0
  0
SCALE
  5
4B
102
{ACAD_REACTORS
330
47
102
}
330
47
100
AcDbScale
 70
     0
300
1:5
140
1.0
141
5.0
290
     0
  0
SCALE
  5
4C
102
{ACAD_REACTORS
330
47
102
}
330
47
100
AcDbScale
 70
     0
300
1:8
140
1.0
141
8.0
290
     0
  0
SCALE
  5
4D
102
{ACAD_REACTORS
330
47
102
}
330
47
100
AcDbScale
 70
     0
300
1:10
140
1.0
141
10.0
290
     0
  0
SCALE
  5
4E
102
{ACAD_REACTORS
330
47
102
}
330
47
100
AcDbScale
 70
     0
300
1:16
140
1.0
141
16.0
290
     0
  0
SCALE
  5
4F
102
{ACAD_REACTORS
330
47
102
}
330
47
100
AcDbScale
 70
     0
300
1:20
140
1.0
141
20.0
290
     0
  0
SCALE
  5
50
102
{ACAD_REACTORS
330
47
102
}
330
47
100
AcDbScale
 70
     0
300
1:30
140
1.0
141
30.0
290
     0
  0
SCALE
  5
51
102
{ACAD_REACTORS
330
47
102
}
330
47
100
AcDbScale
 70
     0
300
1:40
140
1.0
141
40.0
290
     0
  0
SCALE
  5
52
102
{ACAD_REACTORS
330
47
102
}
330
47
100
AcDbScale
 70
     0
300
1:50
140
1.0
141
50.0
290
     0
  0
SCALE
  5
53
102
{ACAD_REACTORS
330
47
102
}
330
47
100
AcDbScale
 70
     0
300
1:100
140
1.0
141
100.0
290
     0
  0
SCALE
  5
54
102
{ACAD_REACTORS
330
47
102
}
330
47
100
AcDbScale
 70
     0
300
2:1
140
2.0
141
1.0
290
     0
  0
SCALE
  5
55
102
{ACAD_REACTORS
330
47
102
}
330
47
100
AcDbScale
 70
     0
300
4:1
140
4.0
141
1.0
290
     0
  0
SCALE
  5
56
102
{ACAD_REACTORS
330
47
102
}
330
47
100
AcDbScale
 70
     0
300
8:1
140
8.0
141
1.0
290
     0
  0
SCALE
  5
57
102
{ACAD_REACTORS
330
47
102
}
330
47
100
AcDbScale
 70
     0
300
10:1
140
10.0
141
1.0
290
     0
  0
SCALE
  5
58
102
{ACAD_REACTORS
330
47
102
}
330
47
100
AcDbScale
 70
     0
300
100:1
140
100.0
141
1.0
290
     0
  0
SCALE
  5
59
102
{ACAD_REACTORS
330
47
102
}
330
47
100
AcDbScale
 70
     0
300
1/128" = 1'-0"
140
0.0078125
141
12.0
290
     0
  0
SCALE
  5
5A
102
{ACAD_REACTORS
330
47
102
}
330
47
100
AcDbScale
 70
     0
300
1/64" = 1'-0"
140
0.015625
141
12.0
290
     0
  0
SCALE
  5
5B
102
{ACAD_REACTORS
330
47
102
}
330
47
100
AcDbScale
 70
     0
300
1/32" = 1'-0"
140
0.03125
141
12.0
290
     0
  0
SCALE
  5
5C
102
{ACAD_REACTORS
330
47
102
}
330
47
100
AcDbScale
 70
     0
300
1/16" = 1'-0"
140
0.0625
141
12.0
290
     0
  0
SCALE
  5
5D
102
{ACAD_REACTORS
330
47
102
}
330
47
100
AcDbScale
 70
     0
300
3/32" = 1'-0"
140
0.09375
141
12.0
290
     0
  0
SCALE
  5
5E
102
{ACAD_REACTORS
330
47
102
}
330
47
100
AcDbScale
 70
     0
300
1/8" = 1'-0"
140
0.125
141
12.0
290
     0
  0
SCALE
  5
5F
102
{ACAD_REACTORS
330
47
102
}
330
47
100
AcDbScale
 70
     0
300
3/16" = 1'-0"
140
0.1875
141
12.0
290
     0
  0
SCALE
  5
60
102
{ACAD_REACTORS
330
47
102
}
330
47
100
AcDbScale
 70
     0
300
1/4" = 1'-0"
140
0.25
141
12.0
290
     0
  0
SCALE
  5
61
102
{ACAD_REACTORS
330
47
102
}
330
47
100
AcDbScale
 70
     0
300
3/8" = 1'-0"
140
0.375
141
12.0
290
     0
  0
SCALE
  5
62
102
{ACAD_REACTORS
330
47
102
}
330
47
100
AcDbScale
 70
     0
300
1/2" = 1'-0"
140
0.5
141
12.0
290
     0
  0
SCALE
  5
63
102
{ACAD_REACTORS
330
47
102
}
330
47
100
AcDbScale
 70
     0
300
3/4" = 1'-0"
140
0.75
141
12.0
290
     0
  0
SCALE
  5
64
102
{ACAD_REACTORS
330
47
102
}
330
47
100
AcDbScale
 70
     0
300
1" = 1'-0"
140
1.0
141
12.0
290
     0
  0
SCALE
  5
65
102
{ACAD_REACTORS
330
47
102
}
330
47
100
AcDbScale
 70
     0
300
1-1/2" = 1'-0"
140
1.5
141
12.0
290
     0
  0
SCALE
  5
66
102
{ACAD_REACTORS
330
47
102
}
330
47
100
AcDbScale
 70
     0
300
3" = 1'-0"
140
3.0
141
12.0
290
     0
  0
SCALE
  5
67
102
{ACAD_REACTORS
330
47
102
}
330
47
100
AcDbScale
 70
     0
300
6" = 1'-0"
140
6.0
141
12.0
290
     0
  0
SCALE
  5
68
102
{ACAD_REACTORS
330
47
102
}
330
47
100
AcDbScale
 70
     0
300
1'-0" = 1'-0"
140
12.0
141
12.0
290
     0
  0
TABLESTYLE
  5
6A
102
{ACAD_REACTORS
330
69
102
}
102
{ACAD_XDICTIONARY
360
229
102
}
330
69
100
AcDbTableStyle
  3
Standard
 70
     0
 71
     0
 40
0.06
 41
0.06
280
     0
281
     0
  7
Standard
140
0.18
170
     2
 62
     0
 63
   257
283
     0
 90
        4
 91
        0
  1

274
    -2
284
     1
 64
     0
275
    -2
285
     1
 65
     0
276
    -2
286
     1
 66
     0
277
    -2
287
     1
 67
     0
278
    -2
288
     1
 68
     0
279
    -2
289
     1
 69
     0
  7
Standard
140
0.25
170
     5
 62
     0
 63
   257
283
     0
 90
        4
 91
        0
  1

274
    -2
284
     1
 64
     0
275
    -2
285
     1
 65
     0
276
    -2
286
     1
 66
     0
277
    -2
287
     1
 67
     0
278
    -2
288
     1
 68
     0
279
    -2
289
     1
 69
     0
  7
Standard
140
0.18
170
     5
 62
     0
 63
   257
283
     0
 90
        4
 91
        0
  1

274
    -2
284
     1
 64
     0
275
    -2
285
     1
 65
     0
276
    -2
286
     1
 66
     0
277
    -2
287
     1
 67
     0
278
    -2
288
     1
 68
     0
279
    -2
289
     1
 69
     0
  0
VISUALSTYLE
  5
2F
102
{ACAD_REACTORS
330
2A
102
}
330
2A
100
AcDbVisualStyle
  2
2dWireframe
 70
     4
177
     3
291
     0
 70
    58
 90
        0
176
     1
 90
        2
176
     1
 90
        0
176
     1
 90
        0
176
     1
 40
0.6
176
     1
 40
30.0
176
     1
 62
     7
420
 16777215
176
     1
 90
        1
176
     1
 90
        4
176
     1
 62
     7
176
     1
 62
   257
176
     1
 90
        1
176
     1
 90
        1
176
     1
 40
1.0
176
     1
 90
        0
176
     1
 62
   257
176
     1
 40
1.0
176
     1
 90
        1
176
     1
 90
        6
176
     1
 90
        2
176
     1
 62
     7
176
     1
 90
        5
176
     1
 90
        0
176
     1
 90
        0
176
     1
290
     0
176
     1
 90
        1
176
     1
 40
0.0
176
     1
 90
        0
176
     1
290
     1
176
     1
290
     1
176
     1
290
     0
176
     1
290
     0
176
     1
290
     0
176
     1
290
     0
176
     1
290
     0
176
     1
290
     0
176
     1
290
     0
176
     1
 90
       50
176
     1
 40
0.0
176
     1
 40
1.0
176
     1
 90
        0
176
     1
 62
    18
420
        0
176
     1
 90
       50
176
     1
 90
        3
176
     1
 62
     5
420
      255
176
     1
290
     0
176
     1
 90
       50
176
     1
 90
       50
176
     1
 90
       50
176
     1
290
     0
176
     1
 90
       50
176
     1
 62
   256
176
     0
 40
1.0
176
     0
 90
        2
176
     1
  1
strokes_ogs.tif
176
     1
290
     0
176
     1
 40
1.0
176
     1
 40
1.0
176
     1
  0
VISUALSTYLE
  5
32
102
{ACAD_REACTORS
330
2A
102
}
330
2A
100
AcDbVisualStyle
  2
Basic
 70
     7
177
     3
291
     1
 70
    58
 90
        1
176
     1
 90
        0
176
     1
 90
        1
176
     1
 90
        0
176
     1
 40
0.6
176
     1
 40
30.0
176
     1
 62
     7
420
 16777215
176
     1
 90
        0
176
     1
 90
        4
176
     1
 62
     7
176
     1
 62
   257
176
     1
 90
        1
176
     1
 90
        1
176
     1
 40
1.0
176
     1
 90
        8
176
     1
 62
     7
176
     1
 40
1.0
176
     1
 90
        1
176
     1
 90
        6
176
     1
 90
        2
176
     1
 62
     7
176
     1
 90
        5
176
     1
 90
        0
176
     1
 90
        0
176
     1
290
     0
176
     1
 90
        1
176
     1
 40
0.0
176
     1
 90
        0
176
     1
290
     0
176
     1
290
     1
176
     1
290
     1
176
     1
290
     0
176
     1
290
     0
176
     1
290
     0
176
     1
290
     0
176
     1
290
     0
176
     1
290
     0
176
     1
 90
       50
176
     1
 40
0.0
176
     1
 40
1.0
176
     1
 90
        0
176
     1
 62
    18
420
        0
176
     1
 90
       50
176
     1
 90
        3
176
     1
 62
     5
420
      255
176
     1
290
     0
176
     1
 90
       50
176
     1
 90
       50
176
     1
 90
       50
176
     1
290
     0
176
     1
 90
       50
176
     1
 62
   256
176
     0
 40
1.0
176
     0
 90
        2
176
     1
  1
strokes_ogs.tif
176
     1
290
     0
176
     1
 40
1.0
176
     1
 40
1.0
176
     1
  0
VISUALSTYLE
  5
36
102
{ACAD_REACTORS
330
2A
102
}
330
2A
100
AcDbVisualStyle
  2
Brighten
 70
    12
177
     3
291
     1
 70
    58
 90
        2
176
     1
 90
        2
176
     1
 90
        0
176
     1
 90
        0
176
     1
 40
0.6
176
     1
 40
30.0
176
     1
 62
     7
420
 16777215
176
     1
 90
        1
176
     1
 90
        4
176
     1
 62
     7
176
     1
 62
   257
176
     1
 90
        1
176
     1
 90
        1
176
     1
 40
1.0
176
     1
 90
        8
176
     1
 62
     7
176
     1
 40
1.0
176
     1
 90
        1
176
     1
 90
        6
176
     1
 90
        2
176
     1
 62
     7
176
     1
 90
        5
176
     1
 90
        0
176
     1
 90
        0
176
     1
290
     0
176
     1
 90
        1
176
     1
 40
50.0
176
     1
 90
        0
176
     1
290
     0
176
     1
290
     1
176
     1
290
     1
176
     1
290
     0
176
     1
290
     0
176
     1
290
     0
176
     1
290
     0
176
     1
290
     0
176
     1
290
     0
176
     1
 90
       50
176
     1
 40
0.0
176
     1
 40
1.0
176
     1
 90
        0
176
     1
 62
    18
420
        0
176
     1
 90
       50
176
     1
 90
        3
176
     1
 62
     5
420
      255
176
     1
290
     0
176
     1
 90
       50
176
     1
 90
       50
176
     1
 90
       50
176
     1
290
     0
176
     1
 90
       50
176
     1
 62
   256
176
     0
 40
1.0
176
     0
 90
        2
176
     1
  1
strokes_ogs.tif
176
     1
290
     0
176
     1
 40
1.0
176
     1
 40
1.0
176
     1
  0
VISUALSTYLE
  5
3A
102
{ACAD_REACTORS
330
2A
102
}
330
2A
100
AcDbVisualStyle
  2
ColorChange
 70
    16
177
     3
291
     1
 70
    58
 90
        2
176
     1
 90
        2
176
     1
 90
        3
176
     1
 90
        0
176
     1
 40
0.6
176
     1
 40
30.0
176
     1
 62
     8
420
  8421504
176
     1
 90
        1
176
     1
 90
        4
176
     1
 62
     7
176
     1
 62
   257
176
     1
 90
        1
176
     1
 90
        1
176
     1
 40
1.0
176
     1
 90
        8
176
     1
 62
     8
420
  8421504
176
     1
 40
1.0
176
     1
 90
        1
176
     1
 90
        6
176
     1
 90
        2
176
     1
 62
     7
176
     1
 90
        5
176
     1
 90
        0
176
     1
 90
        0
176
     1
290
     0
176
     1
 90
        1
176
     1
 40
0.0
176
     1
 90
        0
176
     1
290
     0
176
     1
290
     1
176
     1
290
     1
176
     1
290
     0
176
     1
290
     0
176
     1
290
     0
176
     1
290
     0
176
     1
290
     0
176
     1
290
     0
176
     1
 90
       50
176
     1
 40
0.0
176
     1
 40
1.0
176
     1
 90
        0
176
     1
 62
    18
420
        0
176
     1
 90
       50
176
     1
 90
        3
176
     1
 62
     5
420
      255
176
     1
290
     0
176
     1
 90
       50
176
     1
 90
       50
176
     1
 90
       50
176
     1
290
     0
176
     1
 90
       50
176
     1
 62
   256
176
     0
 40
1.0
176
     0
 90
        2
176
     1
  1
strokes_ogs.tif
176
     1
290
     0
176
     1
 40
1.0
176
     1
 40
1.0
176
     1
  0
VISUALSTYLE
  5
34
102
{ACAD_REACTORS
330
2A
102
}
330
2A
100
AcDbVisualStyle
  2
Conceptual
 70
     9
177
     3
291
     0
 70
    58
 90
        3
176
     1
 90
        2
176
     1
 90
        0
176
     1
 90
        0
176
     1
 40
0.6
176
     1
 40
30.0
176
     1
 62
     7
420
 16777215
176
     1
 90
        2
176
     1
 90
        2
176
     1
 62
     7
176
     1
 62
   257
176
     1
 90
        1
176
     1
 90
        1
176
     1
 40
179.0
176
     1
 90
        8
176
     1
 62
     7
176
     1
 40
1.0
176
     1
 90
        1
176
     1
 90
        6
176
     1
 90
        2
176
     1
 62
     7
176
     1
 90
        3
176
     1
 90
        0
176
     1
 90
        0
176
     1
290
     0
176
     1
 90
        1
176
     1
 40
0.0
176
     1
 90
        0
176
     1
290
     0
176
     1
290
     1
176
     1
290
     1
176
     1
290
     0
176
     1
290
     0
176
     1
290
     0
176
     1
290
     0
176
     1
290
     0
176
     1
290
     0
176
     1
 90
       50
176
     1
 40
0.0
176
     1
 40
1.0
176
     1
 90
        0
176
     1
 62
    18
420
        0
176
     1
 90
       50
176
     1
 90
        3
176
     1
 62
     5
420
      255
176
     1
290
     0
176
     1
 90
       50
176
     1
 90
       50
176
     1
 90
       50
176
     1
290
     0
176
     1
 90
       50
176
     1
 62
   256
176
     0
 40
1.0
176
     0
 90
        2
176
     1
  1
strokes_ogs.tif
176
     1
290
     0
176
     1
 40
1.0
176
     1
 40
1.0
176
     1
  0
VISUALSTYLE
  5
35
102
{ACAD_REACTORS
330
2A
102
}
330
2A
100
AcDbVisualStyle
  2
Dim
 70
    11
177
     3
291
     1
 70
    58
 90
        2
176
     1
 90
        2
176
     1
 90
        0
176
     1
 90
        0
176
     1
 40
0.6
176
     1
 40
30.0
176
     1
 62
     7
420
 16777215
176
     1
 90
        1
176
     1
 90
        4
176
     1
 62
     7
176
     1
 62
   257
176
     1
 90
        1
176
     1
 90
        1
176
     1
 40
1.0
176
     1
 90
        8
176
     1
 62
     7
176
     1
 40
1.0
176
     1
 90
        1
176
     1
 90
        6
176
     1
 90
        2
176
     1
 62
     7
176
     1
 90
        5
176
     1
 90
        0
176
     1
 90
        0
176
     1
290
     0
176
     1
 90
        1
176
     1
 40
-50.0
176
     1
 90
        0
176
     1
290
     0
176
     1
290
     1
176
     1
290
     1
176
     1
290
     0
176
     1
290
     0
176
     1
290
     0
176
     1
290
     0
176
     1
290
     0
176
     1
290
     0
176
     1
 90
       50
176
     1
 40
0.0
176
     1
 40
1.0
176
     1
 90
        0
176
     1
 62
    18
420
        0
176
     1
 90
       50
176
     1
 90
        3
176
     1
 62
     5
420
      255
176
     1
290
     0
176
     1
 90
       50
176
     1
 90
       50
176
     1
 90
       50
176
     1
290
     0
176
     1
 90
       50
176
     1
 62
   256
176
     0
 40
1.0
176
     0
 90
        2
176
     1
  1
strokes_ogs.tif
176
     1
290
     0
176
     1
 40
1.0
176
     1
 40
1.0
176
     1
  0
VISUALSTYLE
  5
3D
102
{ACAD_REACTORS
330
2A
102
}
330
2A
100
AcDbVisualStyle
  2
EdgeColorOff
 70
    22
177
     3
291
     1
 70
    58
 90
        2
176
     0
 90
        2
176
     0
 90
        0
176
     0
 90
        0
176
     0
 40
0.6
176
     0
 40
30.0
176
     0
 62
     7
420
 16777215
176
     0
 90
        1
176
     0
 90
        4
176
     0
 62
     7
176
     0
 62
   257
176
     0
 90
        1
176
     0
 90
        1
176
     0
 40
1.0
176
     0
 90
        8
176
     2
 62
     7
176
     0
 40
1.0
176
     0
 90
        1
176
     0
 90
        6
176
     0
 90
        2
176
     0
 62
     7
176
     0
 90
        5
176
     0
 90
        0
176
     0
 90
        0
176
     0
290
     0
176
     0
 90
        1
176
     0
 40
0.0
176
     0
 90
        0
176
     0
290
     0
176
     0
290
     1
176
     0
290
     1
176
     0
290
     0
176
     0
290
     0
176
     0
290
     0
176
     0
290
     0
176
     0
290
     0
176
     0
290
     0
176
     0
 90
       50
176
     0
 40
0.0
176
     0
 40
1.0
176
     0
 90
        0
176
     0
 62
    18
420
        0
176
     0
 90
       50
176
     0
 90
        3
176
     0
 62
     5
420
      255
176
     0
290
     0
176
     0
 90
       50
176
     0
 90
       50
176
     0
 90
       50
176
     0
290
     0
176
     0
 90
       50
176
     0
 62
   256
176
     0
 40
1.0
176
     0
 90
        2
176
     0
  1
strokes_ogs.tif
176
     0
290
     0
176
     0
 40
1.0
176
     0
 40
1.0
176
     0
  0
VISUALSTYLE
  5
39
102
{ACAD_REACTORS
330
2A
102
}
330
2A
100
AcDbVisualStyle
  2
Facepattern
 70
    15
177
     3
291
     1
 70
    58
 90
        2
176
     1
 90
        2
176
     1
 90
        0
176
     1
 90
        0
176
     1
 40
0.6
176
     1
 40
30.0
176
     1
 62
     7
420
 16777215
176
     1
 90
        1
176
     1
 90
        4
176
     1
 62
     7
176
     1
 62
   257
176
     1
 90
        1
176
     1
 90
        1
176
     1
 40
1.0
176
     1
 90
        8
176
     1
 62
     7
176
     1
 40
1.0
176
     1
 90
        1
176
     1
 90
        6
176
     1
 90
        2
176
     1
 62
     7
176
     1
 90
        5
176
     1
 90
        0
176
     1
 90
        0
176
     1
290
     0
176
     1
 90
        1
176
     1
 40
0.0
176
     1
 90
        0
176
     1
290
     0
176
     1
290
     1
176
     1
290
     1
176
     1
290
     0
176
     1
290
     0
176
     1
290
     0
176
     1
290
     0
176
     1
290
     0
176
     1
290
     0
176
     1
 90
       50
176
     1
 40
0.0
176
     1
 40
1.0
176
     1
 90
        0
176
     1
 62
    18
420
        0
176
     1
 90
       50
176
     1
 90
        3
176
     1
 62
     5
420
      255
176
     1
290
     0
176
     1
 90
       50
176
     1
 90
       50
176
     1
 90
       50
176
     1
290
     0
176
     1
 90
       50
176
     1
 62
   256
176
     0
 40
1.0
176
     0
 90
        2
176
     1
  1
strokes_ogs.tif
176
     1
290
     0
176
     1
 40
1.0
176
     1
 40
1.0
176
     1
  0
VISUALSTYLE
  5
2B
102
{ACAD_REACTORS
330
2A
102
}
330
2A
100
AcDbVisualStyle
  2
Flat
 70
     0
177
     3
291
     1
 70
    58
 90
        2
176
     1
 90
        1
176
     1
 90
        1
176
     1
 90
        2
176
     1
 40
0.6
176
     1
 40
30.0
176
     1
 62
     7
420
 16777215
176
     1
 90
        0
176
     1
 90
        0
176
     1
 62
     7
176
     1
 62
   257
176
     1
 90
        1
176
     1
 90
        1
176
     1
 40
1.0
176
     1
 90
        8
176
     1
 62
     7
176
     1
 40
1.0
176
     1
 90
        1
176
     1
 90
        6
176
     1
 90
        2
176
     1
 62
     7
176
     1
 90
        5
176
     1
 90
        0
176
     1
 90
        0
176
     1
290
     0
176
     1
 90
       13
176
     1
 40
0.0
176
     1
 90
        0
176
     1
290
     0
176
     1
290
     1
176
     1
290
     1
176
     1
290
     0
176
     1
290
     0
176
     1
290
     0
176
     1
290
     0
176
     1
290
     0
176
     1
290
     0
176
     1
 90
       50
176
     1
 40
0.0
176
     1
 40
1.0
176
     1
 90
        0
176
     1
 62
    18
420
        0
176
     1
 90
       50
176
     1
 90
        3
176
     1
 62
     5
420
      255
176
     1
290
     0
176
     1
 90
       50
176
     1
 90
       50
176
     1
 90
       50
176
     1
290
     0
176
     1
 90
       50
176
     1
 62
   256
176
     0
 40
1.0
176
     0
 90
        2
176
     1
  1
strokes_ogs.tif
176
     1
290
     0
176
     1
 40
1.0
176
     1
 40
1.0
176
     1
  0
VISUALSTYLE
  5
2C
102
{ACAD_REACTORS
330
2A
102
}
330
2A
100
AcDbVisualStyle
  2
FlatWithEdges
 70
     1
177
     3
291
     1
 70
    58
 90
        2
176
     1
 90
        1
176
     1
 90
        1
176
     1
 90
        2
176
     1
 40
0.6
176
     1
 40
30.0
176
     1
 62
     7
420
 16777215
176
     1
 90
        1
176
     1
 90
        0
176
     1
 62
     7
176
     1
 62
   257
176
     1
 90
        1
176
     1
 90
        1
176
     1
 40
1.0
176
     1
 90
        0
176
     1
 62
   257
176
     1
 40
1.0
176
     1
 90
        1
176
     1
 90
        6
176
     1
 90
        2
176
     1
 62
     7
176
     1
 90
        5
176
     1
 90
        0
176
     1
 90
        0
176
     1
290
     0
176
     1
 90
       13
176
     1
 40
0.0
176
     1
 90
        0
176
     1
290
     0
176
     1
290
     1
176
     1
290
     1
176
     1
290
     0
176
     1
290
     0
176
     1
290
     0
176
     1
290
     0
176
     1
290
     0
176
     1
290
     0
176
     1
 90
       50
176
     1
 40
0.0
176
     1
 40
1.0
176
     1
 90
        0
176
     1
 62
    18
420
        0
176
     1
 90
       50
176
     1
 90
        3
176
     1
 62
     5
420
      255
176
     1
290
     0
176
     1
 90
       50
176
     1
 90
       50
176
     1
 90
       50
176
     1
290
     0
176
     1
 90
       50
176
     1
 62
   256
176
     0
 40
1.0
176
     0
 90
        2
176
     1
  1
strokes_ogs.tif
176
     1
290
     0
176
     1
 40
1.0
176
     1
 40
1.0
176
     1
  0
VISUALSTYLE
  5
2D
102
{ACAD_REACTORS
330
2A
102
}
330
2A
100
AcDbVisualStyle
  2
Gouraud
 70
     2
177
     3
291
     1
 70
    58
 90
        2
176
     1
 90
        2
176
     1
 90
        1
176
     1
 90
        2
176
     1
 40
0.6
176
     1
 40
30.0
176
     1
 62
     7
420
 16777215
176
     1
 90
        0
176
     1
 90
        0
176
     1
 62
     7
176
     1
 62
   257
176
     1
 90
        1
176
     1
 90
        1
176
     1
 40
1.0
176
     1
 90
        0
176
     1
 62
     7
176
     1
 40
1.0
176
     1
 90
        1
176
     1
 90
        6
176
     1
 90
        2
176
     1
 62
     7
176
     1
 90
        5
176
     1
 90
        0
176
     1
 90
        0
176
     1
290
     0
176
     1
 90
       13
176
     1
 40
0.0
176
     1
 90
        0
176
     1
290
     0
176
     1
290
     1
176
     1
290
     1
176
     1
290
     0
176
     1
290
     0
176
     1
290
     0
176
     1
290
     0
176
     1
290
     0
176
     1
290
     0
176
     1
 90
       50
176
     1
 40
0.0
176
     1
 40
1.0
176
     1
 90
        0
176
     1
 62
    18
420
        0
176
     1
 90
       50
176
     1
 90
        3
176
     1
 62
     5
420
      255
176
     1
290
     0
176
     1
 90
       50
176
     1
 90
       50
176
     1
 90
       50
176
     1
290
     0
176
     1
 90
       50
176
     1
 62
   256
176
     0
 40
1.0
176
     0
 90
        2
176
     1
  1
strokes_ogs.tif
176
     1
290
     0
176
     1
 40
1.0
176
     1
 40
1.0
176
     1
  0
VISUALSTYLE
  5
2E
102
{ACAD_REACTORS
330
2A
102
}
330
2A
100
AcDbVisualStyle
  2
GouraudWithEdges
 70
     3
177
     3
291
     1
 70
    58
 90
        2
176
     1
 90
        2
176
     1
 90
        1
176
     1
 90
        2
176
     1
 40
0.6
176
     1
 40
30.0
176
     1
 62
     7
420
 16777215
176
     1
 90
        1
176
     1
 90
        0
176
     1
 62
     7
176
     1
 62
   257
176
     1
 90
        1
176
     1
 90
        1
176
     1
 40
1.0
176
     1
 90
        0
176
     1
 62
   257
176
     1
 40
1.0
176
     1
 90
        1
176
     1
 90
        6
176
     1
 90
        2
176
     1
 62
     7
176
     1
 90
        5
176
     1
 90
        0
176
     1
 90
        0
176
     1
290
     0
176
     1
 90
       13
176
     1
 40
0.0
176
     1
 90
        0
176
     1
290
     0
176
     1
290
     1
176
     1
290
     1
176
     1
290
     0
176
     1
290
     0
176
     1
290
     0
176
     1
290
     0
176
     1
290
     0
176
     1
290
     0
176
     1
 90
       50
176
     1
 40
0.0
176
     1
 40
1.0
176
     1
 90
        0
176
     1
 62
    18
420
        0
176
     1
 90
       50
176
     1
 90
        3
176
     1
 62
     5
420
      255
176
     1
290
     0
176
     1
 90
       50
176
     1
 90
       50
176
     1
 90
       50
176
     1
290
     0
176
     1
 90
       50
176
     1
 62
   256
176
     0
 40
1.0
176
     0
 90
        2
176
     1
  1
strokes_ogs.tif
176
     1
290
     0
176
     1
 40
1.0
176
     1
 40
1.0
176
     1
  0
VISUALSTYLE
  5
31
102
{ACAD_REACTORS
330
2A
102
}
330
2A
100
AcDbVisualStyle
  2
Hidden
 70
     6
177
     3
291
     0
 70
    58
 90
        1
176
     1
 90
        2
176
     1
 90
        2
176
     1
 90
        0
176
     1
 40
0.6
176
     1
 40
30.0
176
     1
 62
     7
420
 16777215
176
     1
 90
        2
176
     1
 90
        2
176
     1
 62
     7
176
     1
 62
   257
176
     1
 90
        2
176
     1
 90
        1
176
     1
 40
40.0
176
     1
 90
        0
176
     1
 62
   257
176
     1
 40
1.0
176
     1
 90
        1
176
     1
 90
        6
176
     1
 90
        2
176
     1
 62
     7
176
     1
 90
        3
176
     1
 90
        0
176
     1
 90
        0
176
     1
290
     0
176
     1
 90
        1
176
     1
 40
0.0
176
     1
 90
        0
176
     1
290
     0
176
     1
290
     1
176
     1
290
     1
176
     1
290
     0
176
     1
290
     0
176
     1
290
     0
176
     1
290
     0
176
     1
290
     0
176
     1
290
     0
176
     1
 90
       50
176
     1
 40
0.0
176
     1
 40
1.0
176
     1
 90
        0
176
     1
 62
    18
420
        0
176
     1
 90
       50
176
     1
 90
        3
176
     1
 62
     5
420
      255
176
     1
290
     0
176
     1
 90
       50
176
     1
 90
       50
176
     1
 90
       50
176
     1
290
     0
176
     1
 90
       50
176
     1
 62
   256
176
     0
 40
1.0
176
     0
 90
        2
176
     1
  1
strokes_ogs.tif
176
     1
290
     0
176
     1
 40
1.0
176
     1
 40
1.0
176
     1
  0
VISUALSTYLE
  5
3B
102
{ACAD_REACTORS
330
2A
102
}
330
2A
100
AcDbVisualStyle
  2
JitterOff
 70
    20
177
     3
291
     1
 70
    58
 90
        2
176
     0
 90
        2
176
     0
 90
        0
176
     0
 90
        0
176
     0
 40
0.6
176
     0
 40
30.0
176
     0
 62
     7
420
 16777215
176
     0
 90
        1
176
     0
 90
        4
176
     0
 62
     7
176
     0
 62
   257
176
     0
 90
        1
176
     0
 90
        1
176
     0
 40
1.0
176
     0
 90
       10
176
     2
 62
     7
176
     0
 40
1.0
176
     0
 90
        1
176
     0
 90
        6
176
     0
 90
        2
176
     0
 62
     7
176
     0
 90
        5
176
     0
 90
        0
176
     0
 90
        0
176
     0
290
     0
176
     0
 90
        1
176
     0
 40
0.0
176
     0
 90
        0
176
     0
290
     0
176
     0
290
     1
176
     0
290
     1
176
     0
290
     0
176
     0
290
     0
176
     0
290
     0
176
     0
290
     0
176
     0
290
     0
176
     0
290
     0
176
     0
 90
       50
176
     0
 40
0.0
176
     0
 40
1.0
176
     0
 90
        0
176
     0
 62
    18
420
        0
176
     0
 90
       50
176
     0
 90
        3
176
     0
 62
     5
420
      255
176
     0
290
     0
176
     0
 90
       50
176
     0
 90
       50
176
     0
 90
       50
176
     0
290
     0
176
     0
 90
       50
176
     0
 62
   256
176
     0
 40
1.0
176
     0
 90
        2
176
     0
  1
strokes_ogs.tif
176
     0
290
     0
176
     0
 40
1.0
176
     0
 40
1.0
176
     0
  0
VISUALSTYLE
  5
38
102
{ACAD_REACTORS
330
2A
102
}
330
2A
100
AcDbVisualStyle
  2
Linepattern
 70
    14
177
     3
291
     1
 70
    58
 90
        2
176
     1
 90
        2
176
     1
 90
        0
176
     1
 90
        0
176
     1
 40
0.6
176
     1
 40
30.0
176
     1
 62
     7
420
 16777215
176
     1
 90
        1
176
     1
 90
        4
176
     1
 62
     7
176
     1
 62
   257
176
     1
 90
        7
176
     1
 90
        7
176
     1
 40
1.0
176
     1
 90
        8
176
     1
 62
     7
176
     1
 40
1.0
176
     1
 90
        1
176
     1
 90
        6
176
     1
 90
        2
176
     1
 62
     7
176
     1
 90
        5
176
     1
 90
        0
176
     1
 90
        0
176
     1
290
     0
176
     1
 90
        1
176
     1
 40
0.0
176
     1
 90
        0
176
     1
290
     0
176
     1
290
     1
176
     1
290
     1
176
     1
290
     0
176
     1
290
     0
176
     1
290
     0
176
     1
290
     0
176
     1
290
     0
176
     1
290
     0
176
     1
 90
       50
176
     1
 40
0.0
176
     1
 40
1.0
176
     1
 90
        0
176
     1
 62
    18
420
        0
176
     1
 90
       50
176
     1
 90
        3
176
     1
 62
     5
420
      255
176
     1
290
     0
176
     1
 90
       50
176
     1
 90
       50
176
     1
 90
       50
176
     1
290
     0
176
     1
 90
       50
176
     1
 62
   256
176
     0
 40
1.0
176
     0
 90
        2
176
     1
  1
strokes_ogs.tif
176
     1
290
     0
176
     1
 40
1.0
176
     1
 40
1.0
176
     1
  0
VISUALSTYLE
  5
3C
102
{ACAD_REACTORS
330
2A
102
}
330
2A
100
AcDbVisualStyle
  2
OverhangOff
 70
    21
177
     3
291
     1
 70
    58
 90
        2
176
     0
 90
        2
176
     0
 90
        0
176
     0
 90
        0
176
     0
 40
0.6
176
     0
 40
30.0
176
     0
 62
     7
420
 16777215
176
     0
 90
        1
176
     0
 90
        4
176
     0
 62
     7
176
     0
 62
   257
176
     0
 90
        1
176
     0
 90
        1
176
     0
 40
1.0
176
     0
 90
        9
176
     2
 62
     7
176
     0
 40
1.0
176
     0
 90
        1
176
     0
 90
        6
176
     0
 90
        2
176
     0
 62
     7
176
     0
 90
        5
176
     0
 90
        0
176
     0
 90
        0
176
     0
290
     0
176
     0
 90
        1
176
     0
 40
0.0
176
     0
 90
        0
176
     0
290
     0
176
     0
290
     1
176
     0
290
     1
176
     0
290
     0
176
     0
290
     0
176
     0
290
     0
176
     0
290
     0
176
     0
290
     0
176
     0
290
     0
176
     0
 90
       50
176
     0
 40
0.0
176
     0
 40
1.0
176
     0
 90
        0
176
     0
 62
    18
420
        0
176
     0
 90
       50
176
     0
 90
        3
176
     0
 62
     5
420
      255
176
     0
290
     0
176
     0
 90
       50
176
     0
 90
       50
176
     0
 90
       50
176
     0
290
     0
176
     0
 90
       50
176
     0
 62
   256
176
     0
 40
1.0
176
     0
 90
        2
176
     0
  1
strokes_ogs.tif
176
     0
290
     0
176
     0
 40
1.0
176
     0
 40
1.0
176
     0
  0
VISUALSTYLE
  5
33
102
{ACAD_REACTORS
330
2A
102
}
330
2A
100
AcDbVisualStyle
  2
Realistic
 70
     8
177
     3
291
     0
 70
    58
 90
        2
176
     1
 90
        3
176
     1
 90
        0
176
     1
 90
        2
176
     1
 40
0.6
176
     1
 40
30.0
176
     1
 62
     7
420
 16777215
176
     1
 90
        0
176
     1
 90
        0
176
     1
 62
     7
176
     1
 62
   257
176
     1
 90
        1
176
     1
 90
        1
176
     1
 40
1.0
176
     1
 90
        8
176
     1
 62
   257
176
     1
 40
1.0
176
     1
 90
        1
176
     1
 90
        6
176
     1
 90
        2
176
     1
 62
     7
176
     1
 90
        3
176
     1
 90
        0
176
     1
 90
        0
176
     1
290
     0
176
     1
 90
       13
176
     1
 40
0.0
176
     1
 90
        0
176
     1
290
     0
176
     1
290
     1
176
     1
290
     1
176
     1
290
     0
176
     1
290
     0
176
     1
290
     0
176
     1
290
     0
176
     1
290
     0
176
     1
290
     0
176
     1
 90
       50
176
     1
 40
0.0
176
     1
 40
1.0
176
     1
 90
        0
176
     1
 62
    18
420
        0
176
     1
 90
       50
176
     1
 90
        3
176
     1
 62
     5
420
      255
176
     1
290
     0
176
     1
 90
       50
176
     1
 90
       50
176
     1
 90
       50
176
     1
290
     0
176
     1
 90
       50
176
     1
 62
   256
176
     0
 40
1.0
176
     0
 90
        2
176
     1
  1
strokes_ogs.tif
176
     1
290
     0
176
     1
 40
1.0
176
     1
 40
1.0
176
     1
  0
VISUALSTYLE
  5
42
102
{ACAD_REACTORS
330
2A
102
}
330
2A
100
AcDbVisualStyle
  2
Shaded
 70
    27
177
     3
291
     0
 70
    58
 90
        2
176
     1
 90
        2
176
     1
 90
        1
176
     1
 90
        2
176
     1
 40
0.6
176
     1
 40
30.0
176
     1
 62
     7
420
 16777215
176
     1
 90
        0
176
     1
 90
        4
176
     1
 62
     7
176
     1
 62
   257
176
     1
 90
        1
176
     1
 90
        1
176
     1
 40
1.0
176
     1
 90
        8
176
     1
 62
   257
176
     1
 40
1.0
176
     1
 90
        1
176
     1
 90
        6
176
     1
 90
        2
176
     1
 62
     8
420
  7895160
176
     1
 90
        3
176
     1
 90
        0
176
     1
 90
        0
176
     1
290
     0
176
     1
 90
        5
176
     1
 40
0.0
176
     1
 90
        0
176
     1
290
     0
176
     1
290
     1
176
     1
290
     1
176
     1
290
     0
176
     1
290
     0
176
     1
290
     0
176
     1
290
     0
176
     1
290
     0
176
     1
290
     0
176
     1
 90
       50
176
     1
 40
0.0
176
     1
 40
1.0
176
     1
 90
        0
176
     1
 62
    18
420
        0
176
     1
 90
       50
176
     1
 90
        3
176
     1
 62
     5
420
      255
176
     1
290
     0
176
     1
 90
       50
176
     1
 90
       50
176
     1
 90
       50
176
     1
290
     0
176
     1
 90
       50
176
     1
 62
   256
176
     0
 40
1.0
176
     0
 90
        2
176
     1
  1
strokes_ogs.tif
176
     1
290
     0
176
     1
 40
1.0
176
     1
 40
1.0
176
     1
  0
VISUALSTYLE
  5
41
102
{ACAD_REACTORS
330
2A
102
}
330
2A
100
AcDbVisualStyle
  2
Shaded with edges
 70
    26
177
     3
291
     0
 70
    58
 90
        2
176
     1
 90
        2
176
     1
 90
        1
176
     1
 90
        2
176
     1
 40
0.6
176
     1
 40
30.0
176
     1
 62
     7
420
 16777215
176
     1
 90
        1
176
     1
 90
       10
176
     1
 62
     7
176
     1
 62
   257
176
     1
 90
        2
176
     1
 90
        1
176
     1
 40
1.0
176
     1
 90
        8
176
     1
 62
   257
176
     1
 40
1.0
176
     1
 90
        1
176
     1
 90
        6
176
     1
 90
        2
176
     1
 62
     7
176
     1
 90
        3
176
     1
 90
        0
176
     1
 90
        0
176
     1
290
     0
176
     1
 90
        5
176
     1
 40
0.0
176
     1
 90
        0
176
     1
290
     0
176
     1
290
     1
176
     1
290
     1
176
     1
290
     0
176
     1
290
     0
176
     1
290
     0
176
     1
290
     0
176
     1
290
     0
176
     1
290
     0
176
     1
 90
       50
176
     1
 40
0.0
176
     1
 40
1.0
176
     1
 90
        0
176
     1
 62
    18
420
        0
176
     1
 90
       50
176
     1
 90
        3
176
     1
 62
     5
420
      255
176
     1
290
     0
176
     1
 90
       50
176
     1
 90
       50
176
     1
 90
       50
176
     1
290
     0
176
     1
 90
       50
176
     1
 62
   256
176
     0
 40
1.0
176
     0
 90
        2
176
     1
  1
strokes_ogs.tif
176
     1
290
     0
176
     1
 40
1.0
176
     1
 40
1.0
176
     1
  0
VISUALSTYLE
  5
3E
102
{ACAD_REACTORS
330
2A
102
}
330
2A
100
AcDbVisualStyle
  2
Shades of Gray
 70
    23
177
     3
291
     0
 70
    58
 90
        2
176
     1
 90
        2
176
     1
 90
        3
176
     1
 90
        0
176
     1
 40
0.6
176
     1
 40
30.0
176
     1
 62
     7
420
 16777215
176
     1
 90
        2
176
     1
 90
        2
176
     1
 62
     7
176
     1
 62
     7
176
     1
 90
        1
176
     1
 90
        1
176
     1
 40
40.0
176
     1
 90
        8
176
     1
 62
     7
176
     1
 40
1.0
176
     1
 90
        1
176
     1
 90
        6
176
     1
 90
        2
176
     1
 62
     7
176
     1
 90
        3
176
     1
 90
        0
176
     1
 90
        0
176
     1
290
     0
176
     1
 90
        1
176
     1
 40
0.0
176
     1
 90
        0
176
     1
290
     0
176
     1
290
     1
176
     1
290
     1
176
     1
290
     0
176
     1
290
     0
176
     1
290
     0
176
     1
290
     0
176
     1
290
     0
176
     1
290
     0
176
     1
 90
       50
176
     1
 40
0.0
176
     1
 40
1.0
176
     1
 90
        0
176
     1
 62
    18
420
        0
176
     1
 90
       50
176
     1
 90
        3
176
     1
 62
     5
420
      255
176
     1
290
     0
176
     1
 90
       50
176
     1
 90
       50
176
     1
 90
       50
176
     1
290
     0
176
     1
 90
       50
176
     1
 62
   256
176
     0
 40
1.0
176
     0
 90
        2
176
     1
  1
strokes_ogs.tif
176
     1
290
     0
176
     1
 40
1.0
176
     1
 40
1.0
176
     1
  0
VISUALSTYLE
  5
3F
102
{ACAD_REACTORS
330
2A
102
}
330
2A
100
AcDbVisualStyle
  2
Sketchy
 70
    24
177
     3
291
     0
 70
    58
 90
        1
176
     1
 90
        2
176
     1
 90
        2
176
     1
 90
        0
176
     1
 40
0.6
176
     1
 40
30.0
176
     1
 62
     7
420
 16777215
176
     1
 90
        2
176
     1
 90
        2
176
     1
 62
     7
176
     1
 62
     7
176
     1
 90
        1
176
     1
 90
        1
176
     1
 40
40.0
176
     1
 90
       11
176
     1
 62
     7
176
     1
 40
1.0
176
     1
 90
        1
176
     1
 90
        6
176
     1
 90
        2
176
     1
 62
     7
176
     1
 90
        6
176
     1
 90
        0
176
     1
 90
        0
176
     1
290
     0
176
     1
 90
        1
176
     1
 40
0.0
176
     1
 90
        0
176
     1
290
     0
176
     1
290
     1
176
     1
290
     1
176
     1
290
     0
176
     1
290
     0
176
     1
290
     0
176
     1
290
     0
176
     1
290
     0
176
     1
290
     0
176
     1
 90
       50
176
     1
 40
0.0
176
     1
 40
1.0
176
     1
 90
        0
176
     1
 62
    18
420
        0
176
     1
 90
       50
176
     1
 90
        3
176
     1
 62
     5
420
      255
176
     1
290
     0
176
     1
 90
       50
176
     1
 90
       50
176
     1
 90
       50
176
     1
290
     0
176
     1
 90
       50
176
     1
 62
   256
176
     0
 40
1.0
176
     0
 90
        2
176
     1
  1
strokes_ogs.tif
176
     1
290
     0
176
     1
 40
1.0
176
     1
 40
1.0
176
     1
  0
VISUALSTYLE
  5
37
102
{ACAD_REACTORS
330
2A
102
}
330
2A
100
AcDbVisualStyle
  2
Thicken
 70
    13
177
     3
291
     1
 70
    58
 90
        2
176
     1
 90
        2
176
     1
 90
        0
176
     1
 90
        0
176
     1
 40
0.6
176
     1
 40
30.0
176
     1
 62
     7
420
 16777215
176
     1
 90
        1
176
     1
 90
        4
176
     1
 62
     7
176
     1
 62
   257
176
     1
 90
        1
176
     1
 90
        1
176
     1
 40
1.0
176
     1
 90
       12
176
     1
 62
     7
176
     1
 40
1.0
176
     1
 90
        1
176
     1
 90
        6
176
     1
 90
        2
176
     1
 62
     7
176
     1
 90
        5
176
     1
 90
        0
176
     1
 90
        0
176
     1
290
     0
176
     1
 90
        1
176
     1
 40
0.0
176
     1
 90
        0
176
     1
290
     0
176
     1
290
     1
176
     1
290
     1
176
     1
290
     0
176
     1
290
     0
176
     1
290
     0
176
     1
290
     0
176
     1
290
     0
176
     1
290
     0
176
     1
 90
       50
176
     1
 40
0.0
176
     1
 40
1.0
176
     1
 90
        0
176
     1
 62
    18
420
        0
176
     1
 90
       50
176
     1
 90
        3
176
     1
 62
     5
420
      255
176
     1
290
     0
176
     1
 90
       50
176
     1
 90
       50
176
     1
 90
       50
176
     1
290
     0
176
     1
 90
       50
176
     1
 62
   256
176
     0
 40
1.0
176
     0
 90
        2
176
     1
  1
strokes_ogs.tif
176
     1
290
     0
176
     1
 40
1.0
176
     1
 40
1.0
176
     1
  0
VISUALSTYLE
  5
30
102
{ACAD_REACTORS
330
2A
102
}
330
2A
100
AcDbVisualStyle
  2
Wireframe
 70
     5
177
     3
291
     0
 70
    58
 90
        0
176
     1
 90
        2
176
     1
 90
        0
176
     1
 90
        0
176
     1
 40
0.6
176
     1
 40
30.0
176
     1
 62
     7
420
 16777215
176
     1
 90
        1
176
     1
 90
        4
176
     1
 62
     7
176
     1
 62
   257
176
     1
 90
        1
176
     1
 90
        1
176
     1
 40
1.0
176
     1
 90
        0
176
     1
 62
   257
176
     1
 40
1.0
176
     1
 90
        1
176
     1
 90
        6
176
     1
 90
        2
176
     1
 62
     7
176
     1
 90
        3
176
     1
 90
        0
176
     1
 90
        0
176
     1
290
     0
176
     1
 90
        1
176
     1
 40
0.0
176
     1
 90
        0
176
     1
290
     0
176
     1
290
     1
176
     1
290
     1
176
     1
290
     0
176
     1
290
     0
176
     1
290
     0
176
     1
290
     0
176
     1
290
     0
176
     1
290
     0
176
     1
 90
       50
176
     1
 40
0.0
176
     1
 40
1.0
176
     1
 90
        0
176
     1
 62
    18
420
        0
176
     1
 90
       50
176
     1
 90
        3
176
     1
 62
     5
420
      255
176
     1
290
     0
176
     1
 90
       50
176
     1
 90
       50
176
     1
 90
       50
176
     1
290
     0
176
     1
 90
       50
176
     1
 62
   256
176
     0
 40
1.0
176
     0
 90
        2
176
     1
  1
strokes_ogs.tif
176
     1
290
     0
176
     1
 40
1.0
176
     1
 40
1.0
176
     1
  0
VISUALSTYLE
  5
40
102
{ACAD_REACTORS
330
2A
102
}
330
2A
100
AcDbVisualStyle
  2
X-Ray
 70
    25
177
     3
291
     0
 70
    58
 90
        2
176
     1
 90
        2
176
     1
 90
        1
176
     1
 90
        1
176
     1
 40
0.5
176
     1
 40
30.0
176
     1
 62
     7
420
 16777215
176
     1
 90
        1
176
     1
 90
        0
176
     1
 62
     7
176
     1
 62
   257
176
     1
 90
        1
176
     1
 90
        1
176
     1
 40
1.0
176
     1
 90
        8
176
     1
 62
     7
176
     1
 40
1.0
176
     1
 90
        1
176
     1
 90
        6
176
     1
 90
        2
176
     1
 62
     7
176
     1
 90
        3
176
     1
 90
        0
176
     1
 90
        0
176
     1
290
     0
176
     1
 90
       13
176
     1
 40
0.0
176
     1
 90
        0
176
     1
290
     0
176
     1
290
     1
176
     1
290
     1
176
     1
290
     0
176
     1
290
     0
176
     1
290
     0
176
     1
290
     0
176
     1
290
     0
176
     1
290
     0
176
     1
 90
       50
176
     1
 40
0.0
176
     1
 40
1.0
176
     1
 90
        0
176
     1
 62
    18
420
        0
176
     1
 90
       50
176
     1
 90
        3
176
     1
 62
     5
420
      255
176
     1
290
     0
176
     1
 90
       50
176
     1
 90
       50
176
     1
 90
       50
176
     1
290
     0
176
     1
 90
       50
176
     1
 62
   256
176
     0
 40
1.0
176
     0
 90
        2
176
     1
  1
strokes_ogs.tif
176
     1
290
     0
176
     1
 40
1.0
176
     1
 40
1.0
176
     1
  0
DICTIONARYVAR
  5
228
102
{ACAD_REACTORS
330
227
102
}
330
227
100
DictionaryVariables
280
     0
  1
1:1
  0
DICTIONARYVAR
  5
22D
102
{ACAD_REACTORS
330
227
102
}
330
227
100
DictionaryVariables
280
     0
  1
Standard
  0
DICTIONARYVAR
  5
22C
102
{ACAD_REACTORS
330
227
102
}
330
227
100
DictionaryVariables
280
     0
  1
Standard
  0
DICTIONARY
  5
229
330
6A
100
AcDbDictionary
280
     1
281
     1
  3
ACAD_ROUNDTRIP_2008_TABLESTYLE_CELLSTYLEMAP
360
22A
  0
CELLSTYLEMAP
  5
22A
102
{ACAD_REACTORS
330
229
102
}
330
229
100
AcDbCellStyleMap
 90
        3
300
CELLSTYLE
  1
TABLEFORMAT_BEGIN
 90
        5
170
     1
 91
        0
 92
    32768
 62
   257
 93
        1
300
CONTENTFORMAT
  1
CONTENTFORMAT_BEGIN
 90
        0
 91
        0
 92
        4
 93
        0
300

 40
0.0
140
1.0
 94
        5
 62
     0
340
11
144
0.25
309
CONTENTFORMAT_END
171
     1
301
MARGIN
  1
CELLMARGIN_BEGIN
 40
0.06
 40
0.06
 40
0.06
 40
0.06
 40
0.06
 40
0.06
309
CELLMARGIN_END
 94
        6
 95
        1
302
GRIDFORMAT
  1
GRIDFORMAT_BEGIN
 90
        0
 91
        1
 62
     0
 92
       -2
340
14
 93
        0
 40
0.045
309
GRIDFORMAT_END
 95
        2
302
GRIDFORMAT
  1
GRIDFORMAT_BEGIN
 90
        0
 91
        1
 62
     0
 92
       -2
340
14
 93
        0
 40
0.045
309
GRIDFORMAT_END
 95
        4
302
GRIDFORMAT
  1
GRIDFORMAT_BEGIN
 90
        0
 91
        1
 62
     0
 92
       -2
340
14
 93
        0
 40
0.045
309
GRIDFORMAT_END
 95
        8
302
GRIDFORMAT
  1
GRIDFORMAT_BEGIN
 90
        0
 91
        1
 62
     0
 92
       -2
340
14
 93
        0
 40
0.045
309
GRIDFORMAT_END
 95
       16
302
GRIDFORMAT
  1
GRIDFORMAT_BEGIN
 90
        0
 91
        1
 62
     0
 92
       -2
340
14
 93
        0
 40
0.045
309
GRIDFORMAT_END
 95
       32
302
GRIDFORMAT
  1
GRIDFORMAT_BEGIN
 90
        0
 91
        1
 62
     0
 92
       -2
340
14
 93
        0
 40
0.045
309
GRIDFORMAT_END
309
TABLEFORMAT_END
  1
CELLSTYLE_BEGIN
 90
        1
 91
        1
300
_TITLE
309
CELLSTYLE_END
300
CELLSTYLE
  1
TABLEFORMAT_BEGIN
 90
        5
170
     1
 91
        0
 92
        0
 62
   257
 93
        1
300
CONTENTFORMAT
  1
CONTENTFORMAT_BEGIN
 90
        0
 91
        0
 92
        4
 93
        0
300

 40
0.0
140
1.0
 94
        5
 62
     0
340
11
144
0.18
309
CONTENTFORMAT_END
171
     1
301
MARGIN
  1
CELLMARGIN_BEGIN
 40
0.06
 40
0.06
 40
0.06
 40
0.06
 40
0.06
 40
0.06
309
CELLMARGIN_END
 94
        6
 95
        1
302
GRIDFORMAT
  1
GRIDFORMAT_BEGIN
 90
        0
 91
        1
 62
     0
 92
       -2
340
14
 93
        0
 40
0.045
309
GRIDFORMAT_END
 95
        2
302
GRIDFORMAT
  1
GRIDFORMAT_BEGIN
 90
        0
 91
        1
 62
     0
 92
       -2
340
14
 93
        0
 40
0.045
309
GRIDFORMAT_END
 95
        4
302
GRIDFORMAT
  1
GRIDFORMAT_BEGIN
 90
        0
 91
        1
 62
     0
 92
       -2
340
14
 93
        0
 40
0.045
309
GRIDFORMAT_END
 95
        8
302
GRIDFORMAT
  1
GRIDFORMAT_BEGIN
 90
        0
 91
        1
 62
     0
 92
       -2
340
14
 93
        0
 40
0.045
309
GRIDFORMAT_END
 95
       16
302
GRIDFORMAT
  1
GRIDFORMAT_BEGIN
 90
        0
 91
        1
 62
     0
 92
       -2
340
14
 93
        0
 40
0.045
309
GRIDFORMAT_END
 95
       32
302
GRIDFORMAT
  1
GRIDFORMAT_BEGIN
 90
        0
 91
        1
 62
     0
 92
       -2
340
14
 93
        0
 40
0.045
309
GRIDFORMAT_END
309
TABLEFORMAT_END
  1
CELLSTYLE_BEGIN
 90
        2
 91
        1
300
_HEADER
309
CELLSTYLE_END
300
CELLSTYLE
  1
TABLEFORMAT_BEGIN
 90
        5
170
     1
 91
        0
 92
        0
 62
   257
 93
        1
300
CONTENTFORMAT
  1
CONTENTFORMAT_BEGIN
 90
        0
 91
        0
 92
        4
 93
        0
300

 40
0.0
140
1.0
 94
        2
 62
     0
340
11
144
0.18
309
CONTENTFORMAT_END
171
     1
301
MARGIN
  1
CELLMARGIN_BEGIN
 40
0.06
 40
0.06
 40
0.06
 40
0.06
 40
0.06
 40
0.06
309
CELLMARGIN_END
 94
        6
 95
        1
302
GRIDFORMAT
  1
GRIDFORMAT_BEGIN
 90
        0
 91
        1
 62
     0
 92
       -2
340
14
 93
        0
 40
0.045
309
GRIDFORMAT_END
 95
        2
302
GRIDFORMAT
  1
GRIDFORMAT_BEGIN
 90
        0
 91
        1
 62
     0
 92
       -2
340
14
 93
        0
 40
0.045
309
GRIDFORMAT_END
 95
        4
302
GRIDFORMAT
  1
GRIDFORMAT_BEGIN
 90
        0
 91
        1
 62
     0
 92
       -2
340
14
 93
        0
 40
0.045
309
GRIDFORMAT_END
 95
        8
302
GRIDFORMAT
  1
GRIDFORMAT_BEGIN
 90
        0
 91
        1
 62
     0
 92
       -2
340
14
 93
        0
 40
0.045
309
GRIDFORMAT_END
 95
       16
302
GRIDFORMAT
  1
GRIDFORMAT_BEGIN
 90
        0
 91
        1
 62
     0
 92
       -2
340
14
 93
        0
 40
0.045
309
GRIDFORMAT_END
 95
       32
302
GRIDFORMAT
  1
GRIDFORMAT_BEGIN
 90
        0
 91
        1
 62
     0
 92
       -2
340
14
 93
        0
 40
0.045
309
GRIDFORMAT_END
309
TABLEFORMAT_END
  1
CELLSTYLE_BEGIN
 90
        3
 91
        2
300
_DATA
309
CELLSTYLE_END
  0
ENDSEC
  0
EOF