0
SECTION
  2
HEADER
  9
$ACADVER
  1
AC1027
  9
$ACADMAINTVER
 70
     8
  9
$DWGCODEPAGE
  3
ANSI_1252
  9
$REQUIREDVERSIONS
160
                 0
  9
$COMMENTS
  1
File was created by Cadenas
  9
$CUSTOMPROPERTYTAG
  1
NN
  9
$CUSTOMPROPERTY
  1
Imperial -IP Pillow Block 2-1/8 thru 3-1/2  4-Bolt Inch Bore (Labyrinth Seal)
  9
$CUSTOMPROPERTYTAG
  1
NT
  9
$CUSTOMPROPERTY
  1
Imperial 4 Bolt Piliow Block Bearings
  9
$CUSTOMPROPERTYTAG
  1
NB
  9
$CUSTOMPROPERTY
  1
069589
  9
$CUSTOMPROPERTYTAG
  1
NBSYN
  9
$CUSTOMPROPERTY
  1
$PN.
  9
$CUSTOMPROPERTYTAG
  1
LINA
  9
$CUSTOMPROPERTY
  1
069589
  9
$CUSTOMPROPERTYTAG
  1
SS
  9
$CUSTOMPROPERTY
  1
4-1/2
  9
$CUSTOMPROPERTYTAG
  1
PN
  9
$CUSTOMPROPERTY
  1
069589
  9
$CUSTOMPROPERTYTAG
  1
DESCRIPTION
  9
$CUSTOMPROPERTY
  1
P4B-IP-408LE
  9
$CUSTOMPROPERTYTAG
  1
EF
  9
$CUSTOMPROPERTY
  1
Expansion Type
  9
$CUSTOMPROPERTYTAG
  1
ST
  9
$CUSTOMPROPERTY
  1
Labyrinth  Seal
  9
$CUSTOMPROPERTYTAG
  1
A
  9
$CUSTOMPROPERTY
  1
5-15/64
  9
$CUSTOMPROPERTYTAG
  1
B
  9
$CUSTOMPROPERTY
  1
16-1/2
  9
$CUSTOMPROPERTYTAG
  1
C
  9
$CUSTOMPROPERTY
  1
4-3/4
  9
$CUSTOMPROPERTYTAG
  1
DMIN
  9
$CUSTOMPROPERTY
  1
13
  9
$CUSTOMPROPERTYTAG
  1
DMAX
  9
$CUSTOMPROPERTY
  1
14
  9
$CUSTOMPROPERTYTAG
  1
E
  9
$CUSTOMPROPERTY
  1
2-1/2
  9
$CUSTOMPROPERTYTAG
  1
F
  9
$CUSTOMPROPERTY
  1
3/4
  9
$CUSTOMPROPERTYTAG
  1
G
  9
$CUSTOMPROPERTY
  1
1-3/8
  9
$CUSTOMPROPERTYTAG
  1
H
  9
$CUSTOMPROPERTY
  1
2-3/4
  9
$CUSTOMPROPERTYTAG
  1
J
  9
$CUSTOMPROPERTY
  1
9-5/8
  9
$CUSTOMPROPERTYTAG
  1
L
  9
$CUSTOMPROPERTY
  1
6-7/16
  9
$CUSTOMPROPERTYTAG
  1
M
  9
$CUSTOMPROPERTY
  1
4-3/4
  9
$CUSTOMPROPERTYTAG
  1
R
  9
$CUSTOMPROPERTY
  1
1-3/4
  9
$CUSTOMPROPERTYTAG
  1
S
  9
$CUSTOMPROPERTY
  1
3-31/64
  9
$CUSTOMPROPERTYTAG
  1
X
  9
$CUSTOMPROPERTY
  1
3/8
  9
$CUSTOMPROPERTYTAG
  1
Y
  9
$CUSTOMPROPERTY
  1
0.036
  9
$CUSTOMPROPERTYTAG
  1
Z
  9
$CUSTOMPROPERTY
  1
5
  9
$CUSTOMPROPERTYTAG
  1
COMPANY
  9
$CUSTOMPROPERTY
  1
baldor
  9
$INSBASE
 10
0.0
 20
0.0
 30
0.0
  9
$EXTMIN
 10
1.000000000000000E+20
 20
1.000000000000000E+20
 30
1.000000000000000E+20
  9
$EXTMAX
 10
-1.000000000000000E+20
 20
-1.000000000000000E+20
 30
-1.000000000000000E+20
  9
$LIMMIN
 10
0.0
 20
0.0
  9
$LIMMAX
 10
12.0
 20
9.0
  9
$ORTHOMODE
 70
     0
  9
$REGENMODE
 70
     1
  9
$FILLMODE
 70
     1
  9
$QTEXTMODE
 70
     0
  9
$MIRRTEXT
 70
     1
  9
$LTSCALE
 40
1.0
  9
$ATTMODE
 70
     1
  9
$TEXTSIZE
 40
0.2
  9
$TRACEWID
 40
0.05
  9
$TEXTSTYLE
  7
Standard
  9
$CLAYER
  8
0
  9
$CELTYPE
  6
ByLayer
  9
$CECOLOR
 62
   256
  9
$CELTSCALE
 40
1.0
  9
$DISPSILH
 70
     0
  9
$DIMSCALE
 40
1.0
  9
$DIMASZ
 40
0.18
  9
$DIMEXO
 40
0.0625
  9
$DIMDLI
 40
0.38
  9
$DIMRND
 40
0.0
  9
$DIMDLE
 40
0.0
  9
$DIMEXE
 40
0.18
  9
$DIMTP
 40
0.0
  9
$DIMTM
 40
0.0
  9
$DIMTXT
 40
0.18
  9
$DIMCEN
 40
0.09
  9
$DIMTSZ
 40
0.0
  9
$DIMTOL
 70
     0
  9
$DIMLIM
 70
     0
  9
$DIMTIH
 70
     1
  9
$DIMTOH
 70
     1
  9
$DIMSE1
 70
     0
  9
$DIMSE2
 70
     0
  9
$DIMTAD
 70
     0
  9
$DIMZIN
 70
     0
  9
$DIMBLK
  1

  9
$DIMASO
 70
     1
  9
$DIMSHO
 70
     1
  9
$DIMPOST
  1

  9
$DIMAPOST
  1

  9
$DIMALT
 70
     0
  9
$DIMALTD
 70
     2
  9
$DIMALTF
 40
25.4
  9
$DIMLFAC
 40
1.0
  9
$DIMTOFL
 70
     0
  9
$DIMTVP
 40
0.0
  9
$DIMTIX
 70
     0
  9
$DIMSOXD
 70
     0
  9
$DIMSAH
 70
     0
  9
$DIMBLK1
  1

  9
$DIMBLK2
  1

  9
$DIMSTYLE
  2
Standard
  9
$DIMCLRD
 70
     0
  9
$DIMCLRE
 70
     0
  9
$DIMCLRT
 70
     0
  9
$DIMTFAC
 40
1.0
  9
$DIMGAP
 40
0.09
  9
$DIMJUST
 70
     0
  9
$DIMSD1
 70
     0
  9
$DIMSD2
 70
     0
  9
$DIMTOLJ
 70
     1
  9
$DIMTZIN
 70
     0
  9
$DIMALTZ
 70
     0
  9
$DIMALTTZ
 70
     0
  9
$DIMUPT
 70
     0
  9
$DIMDEC
 70
     4
  9
$DIMTDEC
 70
     4
  9
$DIMALTU
 70
     2
  9
$DIMALTTD
 70
     2
  9
$DIMTXSTY
  7
Standard
  9
$DIMAUNIT
 70
     0
  9
$DIMADEC
 70
     0
  9
$DIMALTRND
 40
0.0
  9
$DIMAZIN
 70
     0
  9
$DIMDSEP
 70
    46
  9
$DIMATFIT
 70
     3
  9
$DIMFRAC
 70
     0
  9
$DIMLDRBLK
  1

  9
$DIMLUNIT
 70
     2
  9
$DIMLWD
 70
    -2
  9
$DIMLWE
 70
    -2
  9
$DIMTMOVE
 70
     0
  9
$DIMFXL
 40
1.0
  9
$DIMFXLON
 70
     0
  9
$DIMJOGANG
 40
0.7853981633974483
  9
$DIMTFILL
 70
     0
  9
$DIMTFILLCLR
 70
     0
  9
$DIMARCSYM
 70
     0
  9
$DIMLTYPE
  6

  9
$DIMLTEX1
  6

  9
$DIMLTEX2
  6

  9
$DIMTXTDIRECTION
 70
     0
  9
$LUNITS
 70
     2
  9
$LUPREC
 70
     4
  9
$SKETCHINC
 40
0.1
  9
$FILLETRAD
 40
0.5
  9
$AUNITS
 70
     0
  9
$AUPREC
 70
     0
  9
$MENU
  1
.
  9
$ELEVATION
 40
0.0
  9
$PELEVATION
 40
0.0
  9
$THICKNESS
 40
0.0
  9
$LIMCHECK
 70
     0
  9
$CHAMFERA
 40
0.0
  9
$CHAMFERB
 40
0.0
  9
$CHAMFERC
 40
0.0
  9
$CHAMFERD
 40
0.0
  9
$SKPOLY
 70
     0
  9
$TDCREATE
 40
2458168.976700428
  9
$TDUCREATE
 40
2458168.935033761
  9
$TDUPDATE
 40
2458168.976700613
  9
$TDUUPDATE
 40
2458168.935033947
  9
$TDINDWG
 40
0.0000000116
  9
$TDUSRTIMER
 40
0.0000000116
  9
$USRTIMER
 70
     1
  9
$ANGBASE
 50
0.0
  9
$ANGDIR
 70
     0
  9
$PDMODE
 70
     0
  9
$PDSIZE
 40
0.0
  9
$PLINEWID
 40
0.0
  9
$SPLFRAME
 70
     0
  9
$SPLINETYPE
 70
     6
  9
$SPLINESEGS
 70
     8
  9
$HANDSEED
  5
253
  9
$SURFTAB1
 70
     6
  9
$SURFTAB2
 70
     6
  9
$SURFTYPE
 70
     6
  9
$SURFU
 70
     6
  9
$SURFV
 70
     6
  9
$UCSBASE
  2

  9
$UCSNAME
  2

  9
$UCSORG
 10
0.0
 20
0.0
 30
0.0
  9
$UCSXDIR
 10
1.0
 20
0.0
 30
0.0
  9
$UCSYDIR
 10
0.0
 20
1.0
 30
0.0
  9
$UCSORTHOREF
  2

  9
$UCSORTHOVIEW
 70
     0
  9
$UCSORGTOP
 10
0.0
 20
0.0
 30
0.0
  9
$UCSORGBOTTOM
 10
0.0
 20
0.0
 30
0.0
  9
$UCSORGLEFT
 10
0.0
 20
0.0
 30
0.0
  9
$UCSORGRIGHT
 10
0.0
 20
0.0
 30
0.0
  9
$UCSORGFRONT
 10
0.0
 20
0.0
 30
0.0
  9
$UCSORGBACK
 10
0.0
 20
0.0
 30
0.0
  9
$PUCSBASE
  2

  9
$PUCSNAME
  2

  9
$PUCSORG
 10
0.0
 20
0.0
 30
0.0
  9
$PUCSXDIR
 10
1.0
 20
0.0
 30
0.0
  9
$PUCSYDIR
 10
0.0
 20
1.0
 30
0.0
  9
$PUCSORTHOREF
  2

  9
$PUCSORTHOVIEW
 70
     0
  9
$PUCSORGTOP
 10
0.0
 20
0.0
 30
0.0
  9
$PUCSORGBOTTOM
 10
0.0
 20
0.0
 30
0.0
  9
$PUCSORGLEFT
 10
0.0
 20
0.0
 30
0.0
  9
$PUCSORGRIGHT
 10
0.0
 20
0.0
 30
0.0
  9
$PUCSORGFRONT
 10
0.0
 20
0.0
 30
0.0
  9
$PUCSORGBACK
 10
0.0
 20
0.0
 30
0.0
  9
$USERI1
 70
     0
  9
$USERI2
 70
     0
  9
$USERI3
 70
     0
  9
$USERI4
 70
     0
  9
$USERI5
 70
     0
  9
$USERR1
 40
0.0
  9
$USERR2
 40
0.0
  9
$USERR3
 40
0.0
  9
$USERR4
 40
0.0
  9
$USERR5
 40
0.0
  9
$WORLDVIEW
 70
     1
  9
$SHADEDGE
 70
     3
  9
$SHADEDIF
 70
    70
  9
$TILEMODE
 70
     1
  9
$MAXACTVP
 70
    64
  9
$PINSBASE
 10
0.0
 20
0.0
 30
0.0
  9
$PLIMCHECK
 70
     0
  9
$PEXTMIN
 10
1.000000000000000E+20
 20
1.000000000000000E+20
 30
1.000000000000000E+20
  9
$PEXTMAX
 10
-1.000000000000000E+20
 20
-1.000000000000000E+20
 30
-1.000000000000000E+20
  9
$PLIMMIN
 10
0.0
 20
0.0
  9
$PLIMMAX
 10
12.0
 20
9.0
  9
$UNITMODE
 70
     0
  9
$VISRETAIN
 70
     1
  9
$PLINEGEN
 70
     0
  9
$PSLTSCALE
 70
     1
  9
$TREEDEPTH
 70
  3020
  9
$CMLSTYLE
  2
Standard
  9
$CMLJUST
 70
     0
  9
$CMLSCALE
 40
1.0
  9
$PROXYGRAPHICS
 70
     1
  9
$MEASUREMENT
 70
     0
  9
$CELWEIGHT
370
    -1
  9
$ENDCAPS
280
     0
  9
$JOINSTYLE
280
     0
  9
$LWDISPLAY
290
     0
  9
$INSUNITS
 70
     1
  9
$HYPERLINKBASE
  1

  9
$STYLESHEET
  1

  9
$XEDIT
290
     1
  9
$CEPSNTYPE
380
     0
  9
$PSTYLEMODE
290
     1
  9
$FINGERPRINTGUID
  2
{060B5E47-95F7-4F72-9CBF-D9AD0A24F515}
  9
$VERSIONGUID
  2
{FAEB1C32-E019-11D5-929B-00C0DF256EC4}
  9
$EXTNAMES
290
     1
  9
$PSVPSCALE
 40
0.0
  9
$OLESTARTUP
290
     0
  9
$SORTENTS
280
   127
  9
$INDEXCTL
280
     0
  9
$HIDETEXT
280
     1
  9
$XCLIPFRAME
280
     2
  9
$HALOGAP
280
     0
  9
$OBSCOLOR
 70
   257
  9
$OBSLTYPE
280
     0
  9
$INTERSECTIONDISPLAY
280
     0
  9
$INTERSECTIONCOLOR
 70
   257
  9
$DIMASSOC
280
     2
  9
$PROJECTNAME
  1

  9
$CAMERADISPLAY
290
     0
  9
$LENSLENGTH
 40
50.0
  9
$CAMERAHEIGHT
 40
0.0
  9
$STEPSPERSEC
 40
2.0
  9
$STEPSIZE
 40
6.0
  9
$3DDWFPREC
 40
2.0
  9
$PSOLWIDTH
 40
0.25
  9
$PSOLHEIGHT
 40
4.0
  9
$LOFTANG1
 40
1.570796326794897
  9
$LOFTANG2
 40
1.570796326794897
  9
$LOFTMAG1
 40
0.0
  9
$LOFTMAG2
 40
0.0
  9
$LOFTPARAM
 70
     7
  9
$LOFTNORMALS
280
     1
  9
$LATITUDE
 40
37.795
  9
$LONGITUDE
 40
-122.394
  9
$NORTHDIRECTION
 40
0.0
  9
$TIMEZONE
 70
 -8000
  9
$LIGHTGLYPHDISPLAY
280
     1
  9
$TILEMODELIGHTSYNCH
280
     1
  9
$CMATERIAL
347
44
  9
$SOLIDHIST
280
     0
  9
$SHOWHIST
280
     1
  9
$DWFFRAME
280
     2
  9
$DGNFRAME
280
     2
  9
$REALWORLDSCALE
290
     1
  9
$INTERFERECOLOR
 62
   256
  9
$CSHADOW
280
     0
  9
$SHADOWPLANELOCATION
 40
0.0
  0
ENDSEC
  0
SECTION
  2
CLASSES
  0
CLASS
  1
ACDBDICTIONARYWDFLT
  2
AcDbDictionaryWithDefault
  3
ObjectDBX Classes
 90
        0
 91
        4
280
     0
281
     0
  0
CLASS
  1
VISUALSTYLE
  2
AcDbVisualStyle
  3
ObjectDBX Classes
 90
     4095
 91
        4
280
     0
281
     0
  0
CLASS
  1
MATERIAL
  2
AcDbMaterial
  3
ObjectDBX Classes
 90
     1153
 91
        4
280
     0
281
     0
  0
CLASS
  1
SCALE
  2
AcDbScale
  3
ObjectDBX Classes
 90
     1153
 91
        4
280
     0
281
     0
  0
CLASS
  1
TABLESTYLE
  2
AcDbTableStyle
  3
ObjectDBX Classes
 90
     4095
 91
        4
280
     0
281
     0
  0
CLASS
  1
MLEADERSTYLE
  2
AcDbMLeaderStyle
  3
ACDB_MLEADERSTYLE_CLASS
 90
     4095
 91
        4
280
     0
281
     0
  0
CLASS
  1
SUN
  2
AcDbSun
  3
SCENEOE
 90
     1153
 91
        4
280
     0
281
     0
  0
CLASS
  1
DICTIONARYVAR
  2
AcDbDictionaryVar
  3
ObjectDBX Classes
 90
        0
 91
        4
280
     0
281
     0
  0
CLASS
  1
CELLSTYLEMAP
  2
AcDbCellStyleMap
  3
ObjectDBX Classes
 90
     1152
 91
        4
280
     0
281
     0
  0
ENDSEC
  0
SECTION
  2
TABLES
  0
TABLE
  2
VPORT
  5
8
330
0
100
AcDbSymbolTable
 70
     1
  0
VPORT
  5
29
330
8
100
AcDbSymbolTableRecord
100
AcDbViewportTableRecord
  2
*Active
 70
     0
 10
0.0
 20
0.0
 11
1.0
 21
1.0
 12
-0.4359374999999996
 22
0.0625
 13
0.0
 23
0.0
 14
0.5
 24
0.5
 15
0.5
 25
0.5
 16
0.0
 26
0.0
 36
1.0
 17
0.0
 27
0.0
 37
0.0
 40
9.8175
 41
0.6334415584415585
 42
50.0
 43
0.0
 44
0.0
 50
0.0
 51
0.0
 71
     0
 72
   100
 73
     1
 74
     3
 75
     0
 76
     0
 77
     0
 78
     0
281
     0
 65
     1
110
0.0
120
0.0
130
0.0
111
1.0
121
0.0
131
0.0
112
0.0
122
1.0
132
0.0
 79
     0
146
0.0
348
2F
 60
     3
 61
     5
292
     1
282
     1
141
0.0
142
0.0
 63
   250
361
6D
  0
ENDTAB
  0
TABLE
  2
LTYPE
  5
5
330
0
100
AcDbSymbolTable
 70
     3
  0
LTYPE
  5
14
330
5
100
AcDbSymbolTableRecord
100
AcDbLinetypeTableRecord
  2
ByBlock
 70
     0
  3

 72
    65
 73
     0
 40
0.0
  0
LTYPE
  5
15
330
5
100
AcDbSymbolTableRecord
100
AcDbLinetypeTableRecord
  2
ByLayer
 70
     0
  3

 72
    65
 73
     0
 40
0.0
  0
LTYPE
  5
16
330
5
100
AcDbSymbolTableRecord
100
AcDbLinetypeTableRecord
  2
Continuous
 70
     0
  3
Solid line
 72
    65
 73
     0
 40
0.0
  0
LTYPE
  5
9B
330
5
100
AcDbSymbolTableRecord
100
AcDbLinetypeTableRecord
  2
Dashed
 70
     0
  3

 72
    65
 73
     2
 40
2.0
 49
1.0
 74
     0
 49
-1.0
 74
     0
  0
LTYPE
  5
1D0
330
5
100
AcDbSymbolTableRecord
100
AcDbLinetypeTableRecord
  2
Center
 70
     0
  3

 72
    65
 73
     4
 40
1.5
 49
0.45
 74
     0
 49
-0.5
 74
     0
 49
0.05
 74
     0
 49
-0.5
 74
     0
  0
ENDTAB
  0
TABLE
  2
LAYER
  5
2
330
0
100
AcDbSymbolTable
 70
     7
  0
LAYER
  5
10
330
2
100
AcDbSymbolTableRecord
100
AcDbLayerTableRecord
  2
0
 70
     0
 62
     7
  6
Continuous
370
    -3
390
F
347
46
348
0
  0
LAYER
  5
72
330
2
100
AcDbSymbolTableRecord
100
AcDbLayerTableRecord
  2
AM_6
 70
     0
 62
    -2
  6
Continuous
370
    35
390
F
347
46
348
0
  0
LAYER
  5
9C
330
2
100
AcDbSymbolTableRecord
100
AcDbLayerTableRecord
  2
AM_9
 70
     0
 62
     6
  6
Dashed
370
    25
390
F
347
46
348
0
  0
LAYER
  5
F9
330
2
100
AcDbSymbolTableRecord
100
AcDbLayerTableRecord
  2
AM_5
 70
     0
 62
     3
  6
Continuous
370
    25
390
F
347
46
348
0
  0
LAYER
  5
FD
330
2
100
AcDbSymbolTableRecord
100
AcDbLayerTableRecord
  2
AM_4
 70
     0
 62
     7
  6
Continuous
370
    50
390
F
347
46
348
0
  0
LAYER
  5
1D1
330
2
100
AcDbSymbolTableRecord
100
AcDbLayerTableRecord
  2
AM_7
 70
     0
 62
     7
  6
Center
370
    25
390
F
347
46
348
0
  0
LAYER
  5
23C
330
2
100
AcDbSymbolTableRecord
100
AcDbLayerTableRecord
  2
ConnectionPoints
 70
     0
 62
     7
  6
Continuous
370
    50
390
F
347
46
348
0
  0
ENDTAB
  0
TABLE
  2
STYLE
  5
3
330
0
100
AcDbSymbolTable
 70
     1
  0
STYLE
  5
11
330
3
100
AcDbSymbolTableRecord
100
AcDbTextStyleTableRecord
  2
Standard
 70
     0
 40
0.0
 41
1.0
 50
0.0
 71
     0
 42
0.2
  3
txt
  4

  0
ENDTAB
  0
TABLE
  2
VIEW
  5
6
330
0
100
AcDbSymbolTable
 70
     0
  0
ENDTAB
  0
TABLE
  2
UCS
  5
7
330
0
100
AcDbSymbolTable
 70
     0
  0
ENDTAB
  0
TABLE
  2
APPID
  5
9
330
0
100
AcDbSymbolTable
 70
     1
  0
APPID
  5
12
330
9
100
AcDbSymbolTableRecord
100
AcDbRegAppTableRecord
  2
ACAD
 70
     0
  0
ENDTAB
  0
TABLE
  2
DIMSTYLE
  5
A
330
0
100
AcDbSymbolTable
 70
     1
100
AcDbDimStyleTable
  0
DIMSTYLE
105
27
330
A
100
AcDbSymbolTableRecord
100
AcDbDimStyleTableRecord
  2
Standard
 70
     0
178
     0
340
11
  0
ENDTAB
  0
TABLE
  2
BLOCK_RECORD
  5
1
330
0
100
AcDbSymbolTable
 70
     8
  0
BLOCK_RECORD
  5
1F
330
1
100
AcDbSymbolTableRecord
100
AcDbBlockTableRecord
  2
*Model_Space
340
22
 70
     0
280
     1
281
     0
  0
BLOCK_RECORD
  5
1B
330
1
100
AcDbSymbolTableRecord
100
AcDbBlockTableRecord
  2
*Paper_Space
340
1E
 70
     0
280
     1
281
     0
  0
BLOCK_RECORD
  5
23
330
1
100
AcDbSymbolTableRecord
100
AcDbBlockTableRecord
  2
*Paper_Space0
340
26
 70
     0
280
     1
281
     0
  0
BLOCK_RECORD
  5
6E
330
1
100
AcDbSymbolTableRecord
100
AcDbBlockTableRecord
  2
1_069589_2
340
0
102
{BLKREFS
331
6F
102
}
 70
     0
280
     1
281
     0
  0
BLOCK_RECORD
  5
8F
330
1
100
AcDbSymbolTableRecord
100
AcDbBlockTableRecord
  2
2_405015E_Inch_0_in_069589_2
340
0
102
{BLKREFS
331
90
102
}
 70
     0
280
     1
281
     0
  0
BLOCK_RECORD
  5
DE
330
1
100
AcDbSymbolTableRecord
100
AcDbBlockTableRecord
  2
3_ASME_B18_3_1_4_1_0_in_069589_2
340
0
102
{BLKREFS
331
DF
102
}
 70
     0
280
     1
281
     0
  0
BLOCK_RECORD
  5
104
330
1
100
AcDbSymbolTableRecord
100
AcDbBlockTableRecord
  2
4_ASME_B18_3_1_4_2_0_in_069589_2
340
0
102
{BLKREFS
331
105
102
}
 70
     0
280
     1
281
     0
  0
BLOCK_RECORD
  5
128
330
1
100
AcDbSymbolTableRecord
100
AcDbBlockTableRecord
  2
5_070909LW_0_in_069589_2
340
0
102
{BLKREFS
331
129
102
}
 70
     0
280
     1
281
     0
  0
BLOCK_RECORD
  5
15E
330
1
100
AcDbSymbolTableRecord
100
AcDbBlockTableRecord
  2
6_070941I_0_in_069589_2
340
0
102
{BLKREFS
331
15F
102
}
 70
     0
280
     1
281
     0
  0
BLOCK_RECORD
  5
1EB
330
1
100
AcDbSymbolTableRecord
100
AcDbBlockTableRecord
  2
7_069589H_0_in_069589_2
340
0
102
{BLKREFS
331
1EC
102
}
 70
     0
280
     1
281
     0
  0
ENDTAB
  0
ENDSEC
  0
SECTION
  2
BLOCKS
  0
BLOCK
  5
20
330
1F
100
AcDbEntity
  8
0
100
AcDbBlockBegin
  2
*Model_Space
 70
     0
 10
0.0
 20
0.0
 30
0.0
  3
*Model_Space
  1

  0
ENDBLK
  5
21
330
1F
100
AcDbEntity
  8
0
100
AcDbBlockEnd
  0
BLOCK
  5
1C
330
1B
100
AcDbEntity
 67
     1
  8
0
100
AcDbBlockBegin
  2
*Paper_Space
 70
     0
 10
0.0
 20
0.0
 30
0.0
  3
*Paper_Space
  1

  0
ENDBLK
  5
1D
330
1B
100
AcDbEntity
 67
     1
  8
0
100
AcDbBlockEnd
  0
BLOCK
  5
24
330
23
100
AcDbEntity
  8
0
100
AcDbBlockBegin
  2
*Paper_Space0
 70
     0
 10
0.0
 20
0.0
 30
0.0
  3
*Paper_Space0
  1

  0
ENDBLK
  5
25
330
23
100
AcDbEntity
  8
0
100
AcDbBlockEnd
  0
BLOCK
  5
70
330
6E
100
AcDbEntity
  8
0
100
AcDbBlockBegin
  2
1_069589_2
 70
     2
 10
0.0
 20
0.0
 30
0.0
  3
1_069589_2
  1

  0
ATTDEF
  5
73
330
6E
100
AcDbEntity
  8
AM_6
100
AcDbText
 10
7.6125
 20
4.875
 30
0.0
 40
0.5
  1
Imperial -IP Pillow Block 2-1/8 thru 3-1/2  4-Bolt Inch Bore (Labyrinth Seal)
100
AcDbAttributeDefinition
  3

  2
NN
 70
     8
280
     0
  0
ATTDEF
  5
74
330
6E
100
AcDbEntity
  8
AM_6
100
AcDbText
 10
7.6125
 20
4.375
 30
0.0
 40
0.5
  1
Imperial 4 Bolt Piliow Block Bearings
100
AcDbAttributeDefinition
  3

  2
NT
 70
     8
280
     0
  0
ATTDEF
  5
75
330
6E
100
AcDbEntity
  8
AM_6
100
AcDbText
 10
7.6125
 20
3.875
 30
0.0
 40
0.5
  1
069589
100
AcDbAttributeDefinition
  3

  2
NB
 70
     8
280
     0
  0
ATTDEF
  5
76
330
6E
100
AcDbEntity
  8
AM_6
100
AcDbText
 10
7.6125
 20
3.375
 30
0.0
 40
0.5
  1
$PN.
100
AcDbAttributeDefinition
  3

  2
NBSYN
 70
     8
280
     0
  0
ATTDEF
  5
77
330
6E
100
AcDbEntity
  8
AM_6
100
AcDbText
 10
7.6125
 20
2.875
 30
0.0
 40
0.5
  1
069589
100
AcDbAttributeDefinition
  3

  2
LINA
 70
     8
280
     0
  0
ATTDEF
  5
78
330
6E
100
AcDbEntity
  8
AM_6
100
AcDbText
 10
7.6125
 20
2.375
 30
0.0
 40
0.5
  1
4-1/2
100
AcDbAttributeDefinition
  3

  2
SS
 70
     8
280
     0
  0
ATTDEF
  5
79
330
6E
100
AcDbEntity
  8
AM_6
100
AcDbText
 10
7.6125
 20
1.875
 30
0.0
 40
0.5
  1
069589
100
AcDbAttributeDefinition
  3

  2
PN
 70
     8
280
     0
  0
ATTDEF
  5
7A
330
6E
100
AcDbEntity
  8
AM_6
100
AcDbText
 10
7.6125
 20
1.375
 30
0.0
 40
0.5
  1
P4B-IP-408LE
100
AcDbAttributeDefinition
  3

  2
DESCRIPTION
 70
     8
280
     0
  0
ATTDEF
  5
7B
330
6E
100
AcDbEntity
  8
AM_6
100
AcDbText
 10
7.6125
 20
0.875
 30
0.0
 40
0.5
  1
Expansion Type
100
AcDbAttributeDefinition
  3

  2
EF
 70
     8
280
     0
  0
ATTDEF
  5
7C
330
6E
100
AcDbEntity
  8
AM_6
100
AcDbText
 10
7.6125
 20
0.375
 30
0.0
 40
0.5
  1
Labyrinth  Seal
100
AcDbAttributeDefinition
  3

  2
ST
 70
     8
280
     0
  0
ATTDEF
  5
7D
330
6E
100
AcDbEntity
  8
AM_6
100
AcDbText
 10
7.6125
 20
-0.125
 30
0.0
 40
0.5
  1
5-15/64
100
AcDbAttributeDefinition
  3

  2
A
 70
     8
280
     0
  0
ATTDEF
  5
7E
330
6E
100
AcDbEntity
  8
AM_6
100
AcDbText
 10
7.6125
 20
-0.625
 30
0.0
 40
0.5
  1
16-1/2
100
AcDbAttributeDefinition
  3

  2
B
 70
     8
280
     0
  0
ATTDEF
  5
7F
330
6E
100
AcDbEntity
  8
AM_6
100
AcDbText
 10
7.6125
 20
-1.125
 30
0.0
 40
0.5
  1
4-3/4
100
AcDbAttributeDefinition
  3

  2
C
 70
     8
280
     0
  0
ATTDEF
  5
80
330
6E
100
AcDbEntity
  8
AM_6
100
AcDbText
 10
7.6125
 20
-1.625
 30
0.0
 40
0.5
  1
13
100
AcDbAttributeDefinition
  3

  2
DMIN
 70
     8
280
     0
  0
ATTDEF
  5
81
330
6E
100
AcDbEntity
  8
AM_6
100
AcDbText
 10
7.6125
 20
-2.125
 30
0.0
 40
0.5
  1
14
100
AcDbAttributeDefinition
  3

  2
DMAX
 70
     8
280
     0
  0
ATTDEF
  5
82
330
6E
100
AcDbEntity
  8
AM_6
100
AcDbText
 10
7.6125
 20
-2.625
 30
0.0
 40
0.5
  1
2-1/2
100
AcDbAttributeDefinition
  3

  2
E
 70
     8
280
     0
  0
ATTDEF
  5
83
330
6E
100
AcDbEntity
  8
AM_6
100
AcDbText
 10
7.6125
 20
-3.125
 30
0.0
 40
0.5
  1
3/4
100
AcDbAttributeDefinition
  3

  2
F
 70
     8
280
     0
  0
ATTDEF
  5
84
330
6E
100
AcDbEntity
  8
AM_6
100
AcDbText
 10
7.6125
 20
-3.625
 30
0.0
 40
0.5
  1
1-3/8
100
AcDbAttributeDefinition
  3

  2
G
 70
     8
280
     0
  0
ATTDEF
  5
85
330
6E
100
AcDbEntity
  8
AM_6
100
AcDbText
 10
7.6125
 20
-4.125
 30
0.0
 40
0.5
  1
2-3/4
100
AcDbAttributeDefinition
  3

  2
H
 70
     8
280
     0
  0
ATTDEF
  5
86
330
6E
100
AcDbEntity
  8
AM_6
100
AcDbText
 10
7.6125
 20
-4.625
 30
0.0
 40
0.5
  1
9-5/8
100
AcDbAttributeDefinition
  3

  2
J
 70
     8
280
     0
  0
ATTDEF
  5
87
330
6E
100
AcDbEntity
  8
AM_6
100
AcDbText
 10
7.6125
 20
-5.125
 30
0.0
 40
0.5
  1
6-7/16
100
AcDbAttributeDefinition
  3

  2
L
 70
     8
280
     0
  0
ATTDEF
  5
88
330
6E
100
AcDbEntity
  8
AM_6
100
AcDbText
 10
7.6125
 20
-5.625
 30
0.0
 40
0.5
  1
4-3/4
100
AcDbAttributeDefinition
  3

  2
M
 70
     8
280
     0
  0
ATTDEF
  5
89
330
6E
100
AcDbEntity
  8
AM_6
100
AcDbText
 10
7.6125
 20
-6.125
 30
0.0
 40
0.5
  1
1-3/4
100
AcDbAttributeDefinition
  3

  2
R
 70
     8
280
     0
  0
ATTDEF
  5
8A
330
6E
100
AcDbEntity
  8
AM_6
100
AcDbText
 10
7.6125
 20
-6.625
 30
0.0
 40
0.5
  1
3-31/64
100
AcDbAttributeDefinition
  3

  2
S
 70
     8
280
     0
  0
ATTDEF
  5
8B
330
6E
100
AcDbEntity
  8
AM_6
100
AcDbText
 10
7.6125
 20
-7.125
 30
0.0
 40
0.5
  1
3/8
100
AcDbAttributeDefinition
  3

  2
X
 70
     8
280
     0
  0
ATTDEF
  5
8C
330
6E
100
AcDbEntity
  8
AM_6
100
AcDbText
 10
7.6125
 20
-7.625
 30
0.0
 40
0.5
  1
0.036
100
AcDbAttributeDefinition
  3

  2
Y
 70
     8
280
     0
  0
ATTDEF
  5
8D
330
6E
100
AcDbEntity
  8
AM_6
100
AcDbText
 10
7.6125
 20
-8.125
 30
0.0
 40
0.5
  1
5
100
AcDbAttributeDefinition
  3

  2
Z
 70
     8
280
     0
  0
ATTDEF
  5
8E
330
6E
100
AcDbEntity
  8
AM_6
100
AcDbText
 10
7.6125
 20
-8.625
 30
0.0
 40
0.5
  1
baldor
100
AcDbAttributeDefinition
  3

  2
COMPANY
 70
     8
280
     0
  0
INSERT
  5
90
330
6E
100
AcDbEntity
  8
0
100
AcDbBlockReference
  2
2_405015E_Inch_0_in_069589_2
 10
0.0
 20
0.0
 30
0.0
  0
INSERT
  5
DF
330
6E
100
AcDbEntity
  8
0
100
AcDbBlockReference
  2
3_ASME_B18_3_1_4_1_0_in_069589_2
 10
0.0
 20
0.0
 30
0.0
  0
INSERT
  5
105
330
6E
100
AcDbEntity
  8
0
100
AcDbBlockReference
  2
4_ASME_B18_3_1_4_2_0_in_069589_2
 10
0.0
 20
0.0
 30
0.0
  0
INSERT
  5
129
330
6E
100
AcDbEntity
  8
0
100
AcDbBlockReference
  2
5_070909LW_0_in_069589_2
 10
0.0
 20
0.0
 30
0.0
  0
INSERT
  5
15F
330
6E
100
AcDbEntity
  8
0
100
AcDbBlockReference
  2
6_070941I_0_in_069589_2
 10
0.0
 20
0.0
 30
0.0
  0
INSERT
  5
1EC
330
6E
100
AcDbEntity
  8
0
100
AcDbBlockReference
  2
7_069589H_0_in_069589_2
 10
0.0
 20
0.0
 30
0.0
  0
ENDBLK
  5
71
330
6E
100
AcDbEntity
  8
0
100
AcDbBlockEnd
  0
BLOCK
  5
91
330
8F
100
AcDbEntity
  8
0
100
AcDbBlockBegin
  2
2_405015E_Inch_0_in_069589_2
 70
     2
 10
0.0
 20
0.0
 30
0.0
  3
2_405015E_Inch_0_in_069589_2
  1

  0
ATTDEF
  5
93
330
8F
100
AcDbEntity
  8
AM_6
100
AcDbText
 10
5.252590742770461
 20
4.684557017994942
 30
0.0
 40
0.5
  1
405015E -Inch
100
AcDbAttributeDefinition
  3

  2
NN
 70
     8
280
     0
  0
ATTDEF
  5
94
330
8F
100
AcDbEntity
  8
AM_6
100
AcDbText
 10
5.252590742770461
 20
4.184557017994942
 30
0.0
 40
0.5
  1
Grease Fitting
100
AcDbAttributeDefinition
  3

  2
NT
 70
     8
280
     0
  0
ATTDEF
  5
95
330
8F
100
AcDbEntity
  8
AM_6
100
AcDbText
 10
5.252590742770461
 20
3.684557017994942
 30
0.0
 40
0.5
  1
405015E-Inch
100
AcDbAttributeDefinition
  3

  2
NB
 70
     8
280
     0
  0
ATTDEF
  5
96
330
8F
100
AcDbEntity
  8
AM_6
100
AcDbText
 10
5.252590742770461
 20
3.184557017994942
 30
0.0
 40
0.5
  1
$MN.-Inch
100
AcDbAttributeDefinition
  3

  2
NBSYN
 70
     8
280
     0
  0
ATTDEF
  5
97
330
8F
100
AcDbEntity
  8
AM_6
100
AcDbText
 10
5.252590742770461
 20
2.684557017994942
 30
0.0
 40
0.5
  1
405015E
100
AcDbAttributeDefinition
  3

  2
LINA
 70
     8
280
     0
  0
ATTDEF
  5
98
330
8F
100
AcDbEntity
  8
AM_6
100
AcDbText
 10
5.252590742770461
 20
2.184557017994942
 30
0.0
 40
0.5
  1
405015E
100
AcDbAttributeDefinition
  3

  2
MN
 70
     8
280
     0
  0
ATTDEF
  5
99
330
8F
100
AcDbEntity
  8
AM_6
100
AcDbText
 10
5.252590742770461
 20
1.684557017994942
 30
0.0
 40
0.5
  1
1/8 x 27PTF
100
AcDbAttributeDefinition
  3

  2
T
 70
     8
280
     0
  0
ATTDEF
  5
9A
330
8F
100
AcDbEntity
  8
AM_6
100
AcDbText
 10
5.252590742770461
 20
1.184557017994942
 30
0.0
 40
0.5
  1
baldor
100
AcDbAttributeDefinition
  3

  2
COMPANY
 70
     8
280
     0
  0
LINE
  5
9D
330
8F
100
AcDbEntity
  8
AM_9
100
AcDbLine
 10
-0.1262953713852308
 20
4.277851152517409
 30
0.0
 11
-0.1262953713852308
 21
4.206954155516199
 31
0.0
  0
LINE
  5
9E
330
8F
100
AcDbEntity
  8
AM_9
100
AcDbLine
 10
0.1262953713852305
 20
4.277851152517409
 30
0.0
 11
0.1262953713852305
 21
4.206954155516199
 31
0.0
  0
LWPOLYLINE
  5
9F
330
8F
100
AcDbEntity
  8
AM_9
100
AcDbPolyline
 90
        3
 70
     0
 43
0.0
 10
0.1262953713852305
 20
4.277851152517409
 10
0.0634316146914366
 20
4.283612884261583
 10
-0.0000000000000002
 20
4.285703924206026
  0
LWPOLYLINE
  5
A0
330
8F
100
AcDbEntity
  8
AM_9
100
AcDbPolyline
 90
        4
 70
     0
 43
0.0
 10
-0.0000000000000002
 20
4.285703924206026
 10
-0.0483998160558991
 20
4.284476280613578
 10
-0.096799632111798
 20
4.280956015691547
 10
-0.1262953713852308
 20
4.277851152517409
  0
LWPOLYLINE
  5
A1
330
8F
100
AcDbEntity
  8
AM_9
100
AcDbPolyline
 90
        3
 70
     0
 43
0.0
 10
-0.1262953713852308
 20
4.277851152517409
 10
-0.1577272497321277
 20
4.310833689398659
 10
-0.1894430570778461
 20
4.340391424206025
  0
LWPOLYLINE
  5
A2
330
8F
100
AcDbEntity
  8
AM_9
100
AcDbPolyline
 90
        3
 70
     0
 43
0.0
 10
0.1894430570778458
 20
4.340391424206025
 10
0.1578692142315382
 20
4.310974945645256
 10
0.1262953713852305
 20
4.277851152517409
  0
LWPOLYLINE
  5
A3
330
8F
100
AcDbEntity
  8
AM_9
100
AcDbPolyline
 90
        3
 70
     0
 43
0.0
 10
0.1262953713852305
 20
4.206954155516199
 10
0.1577272497321275
 20
4.228413228909099
 10
0.1894430570778458
 20
4.253788883827582
  0
LWPOLYLINE
  5
A4
330
8F
100
AcDbEntity
  8
AM_9
100
AcDbPolyline
 90
        3
 70
     0
 43
0.0
 10
-0.0000000000000002
 20
4.199101383827582
 10
0.0631476856926152
 20
4.201174112388351
 10
0.1262953713852305
 20
4.206954155516199
  0
LWPOLYLINE
  5
A5
330
8F
100
AcDbEntity
  8
AM_9
100
AcDbPolyline
 90
        3
 70
     0
 43
0.0
 10
-0.1894430570778461
 20
4.253788883827582
 10
-0.1578692142315384
 20
4.228517862388352
 10
-0.1262953713852308
 20
4.206954155516199
  0
LWPOLYLINE
  5
A6
330
8F
100
AcDbEntity
  8
AM_9
100
AcDbPolyline
 90
        4
 70
     0
 43
0.0
 10
-0.1262953713852308
 20
4.206954155516199
 10
-0.0967996321117979
 20
4.20384929234206
 10
-0.0485424412477545
 20
4.200336187307515
 10
-0.0000000000000002
 20
4.199101383827582
  0
ELLIPSE
  5
A7
330
8F
100
AcDbEntity
  8
AM_9
100
AcDbEllipse
 10
0.0
 20
4.633235910246746
 30
0.0
 11
0.1026779019331871
 21
1.530019967752503E-9
 31
0.0
210
0.0
220
0.0
230
1.0
 40
0.4999999999999937
 41
2.906159020462122
 42
6.28318702669927
  0
LINE
  5
A8
330
8F
100
AcDbEntity
  8
AM_9
100
AcDbLine
 10
-0.0998453562378799
 20
4.645211472687945
 30
0.0
 11
-0.1312757938985221
 21
4.579699241835569
 31
0.0
  0
LINE
  5
A9
330
8F
100
AcDbEntity
  8
AM_9
100
AcDbLine
 10
0.1312757938985217
 20
4.579699241835569
 30
0.0
 11
0.0998453562378796
 21
4.645211472687945
 31
0.0
  0
ELLIPSE
  5
AA
330
8F
100
AcDbEntity
  8
AM_9
100
AcDbEllipse
 10
-0.0000000000000002
 20
4.633235910246747
 30
0.0
 11
0.1026779019331871
 21
1.530019967752503E-9
 31
0.0
210
0.0
220
0.0
230
1.0
 40
0.499999999999985
 41
0.2354335759554367
 42
2.906159020462135
  0
ELLIPSE
  5
AB
330
8F
100
AcDbEntity
  8
AM_9
100
AcDbEllipse
 10
0.0000000000000139
 20
4.633235910246736
 30
0.0
 11
0.1026779019331734
 21
0.0
 31
0.0
210
0.0
220
0.0
230
1.0
 40
0.5000000000000087
 41
0.0
 42
0.2354336045417879
  0
LINE
  5
AC
330
8F
100
AcDbEntity
  8
AM_9
100
AcDbLine
 10
0.1049999999999999
 20
4.486631237190282
 30
0.0
 11
0.1049999999999999
 21
4.511992353716925
 31
0.0
  0
LINE
  5
AD
330
8F
100
AcDbEntity
  8
AM_9
100
AcDbLine
 10
-0.1050000000000002
 20
4.511992353716925
 30
0.0
 11
-0.1050000000000002
 21
4.486631237190282
 31
0.0
  0
ELLIPSE
  5
AE
330
8F
100
AcDbEntity
  8
AM_9
100
AcDbEllipse
 10
-0.0000000000000017
 20
4.48601159160343
 30
0.0
 11
0.1049999999999985
 21
0.0
 31
0.0
210
0.0
220
0.0
230
1.0
 40
0.4999999999999667
 41
2.891559760491669
 42
3.141592653589793
  0
ELLIPSE
  5
AF
330
8F
100
AcDbEntity
  8
AM_9
100
AcDbEllipse
 10
-0.0000000000000001
 20
4.563953877944013
 30
0.0
 11
0.1349999999999999
 21
0.0
 31
0.0
210
0.0
220
0.0
230
1.0
 40
0.500000000000026
 41
3.434435425318661
 42
9.18934435622814
  0
LINE
  5
B0
330
8F
100
AcDbEntity
  8
AM_9
100
AcDbLine
 10
0.1005298463144153
 20
4.496836909150698
 30
0.0
 11
0.1292526595471055
 21
4.544468306358842
 31
0.0
  0
LINE
  5
B1
330
8F
100
AcDbEntity
  8
AM_9
100
AcDbLine
 10
-0.1292526595471058
 20
4.544468306358842
 30
0.0
 11
-0.1005298463144157
 21
4.496836909150698
 31
0.0
  0
ELLIPSE
  5
B2
330
8F
100
AcDbEntity
  8
AM_9
100
AcDbEllipse
 10
-0.0000000000000031
 20
4.563953877943996
 30
0.0
 11
0.1349999999999971
 21
0.0
 31
0.0
210
0.0
220
0.0
230
1.0
 40
0.5000000000000033
 41
2.9061590490483
 42
3.434435425318441
  0
ELLIPSE
  5
B3
330
8F
100
AcDbEntity
  8
AM_9
100
AcDbEllipse
 10
-0.0000000000000002
 20
4.511992353716925
 30
0.0
 11
0.1050000000000002
 21
0.0
 31
0.0
210
0.0
220
0.0
230
1.0
 40
0.500000000000001
 41
3.434435425318362
 42
9.42477796076938
  0
ELLIPSE
  5
B4
330
8F
100
AcDbEntity
  8
AM_9
100
AcDbEllipse
 10
0.0000000000000066
 20
4.511992353716979
 30
0.0
 11
0.1050000000000068
 21
0.0
 31
0.0
210
0.0
220
0.0
230
1.0
 40
0.5000000000000625
 41
3.141592653589793
 42
3.434435425319299
  0
LWPOLYLINE
  5
B5
330
8F
100
AcDbEntity
  8
AM_9
100
AcDbPolyline
 90
        3
 70
     0
 43
0.0
 10
0.2525907427704611
 20
4.387226152517409
 10
0.2211588644235642
 20
4.365767079124509
 10
0.1894430570778458
 20
4.340391424206025
  0
LWPOLYLINE
  5
B6
330
8F
100
AcDbEntity
  8
AM_9
100
AcDbPolyline
 90
        3
 70
     0
 43
0.0
 10
-0.1894430570778461
 20
4.340391424206025
 10
-0.2210168999241537
 20
4.365662445645256
 10
-0.2525907427704613
 20
4.387226152517409
  0
ELLIPSE
  5
B7
330
8F
100
AcDbEntity
  8
AM_9
100
AcDbEllipse
 10
-0.0000000000000001
 20
4.486011591603392
 30
0.0
 11
0.1050000000000007
 21
0.0
 31
0.0
210
0.0
220
0.0
230
1.0
 40
0.4999999999999988
 41
3.141592653589793
 42
6.533218200278378
  0
LINE
  5
B8
330
8F
100
AcDbEntity
  8
AM_9
100
AcDbLine
 10
-0.1017349497468792
 20
4.499001972660158
 30
0.0
 11
-0.1151252948555659
 21
4.472785149597528
 31
0.0
  0
LINE
  5
B9
330
8F
100
AcDbEntity
  8
AM_9
100
AcDbLine
 10
0.1151252948555656
 20
4.472785149597528
 30
0.0
 11
0.1017349497468789
 21
4.499001972660158
 31
0.0
  0
ELLIPSE
  5
BA
330
8F
100
AcDbEntity
  8
AM_9
100
AcDbEllipse
 10
-0.0000000000000001
 20
4.486011591603392
 30
0.0
 11
0.1050000000000002
 21
0.0
 31
0.0
210
0.0
220
0.0
230
1.0
 40
0.4999999999999925
 41
0.2500328930988127
 42
2.89155976049098
  0
ELLIPSE
  5
BB
330
8F
100
AcDbEntity
  8
AM_9
100
AcDbEllipse
 10
0.0000000000000039
 20
4.45808497573234
 30
0.0
 11
0.1188200907349019
 21
0.0
 31
0.0
210
0.0
220
0.0
230
1.0
 40
0.4999999999999546
 41
2.535447513394834
 42
2.89155976049115
  0
ELLIPSE
  5
BC
330
8F
100
AcDbEntity
  8
AM_9
100
AcDbEllipse
 10
0.0000000000000001
 20
4.395078924206027
 30
0.0
 11
0.2187500000000002
 21
3.259629011154179E-9
 31
0.0
210
0.0
220
0.0
230
1.0
 40
0.5000000000000036
 41
2.617993853777118
 42
3.665191404973714
  0
LINE
  5
BD
330
8F
100
AcDbEntity
  8
AM_9
100
AcDbLine
 10
-0.0976523208201059
 20
4.491931091464775
 30
0.0
 11
-0.1417971541629019
 21
4.460089583696067
 31
0.0
  0
LINE
  5
BE
330
8F
100
AcDbEntity
  8
AM_9
100
AcDbLine
 10
0.1417971541629016
 20
4.460089583696067
 30
0.0
 11
0.0976523208201056
 21
4.491931091464775
 31
0.0
  0
ELLIPSE
  5
BF
330
8F
100
AcDbEntity
  8
AM_9
100
AcDbEllipse
 10
-0.0000000000000001
 20
4.458084975732327
 30
0.0
 11
0.1188200907348987
 21
0.0
 31
0.0
210
0.0
220
0.0
230
1.0
 40
0.499999999999998
 41
2.89155976049096
 42
8.818632820574265
  0
LWPOLYLINE
  5
C0
330
8F
100
AcDbEntity
  8
AM_9
100
AcDbPolyline
 90
        3
 70
     0
 43
0.0
 10
0.1894430570778458
 20
4.253788883827582
 10
0.2210168999241534
 20
4.283205362388351
 10
0.2525907427704611
 20
4.316329155516198
  0
LWPOLYLINE
  5
C1
330
8F
100
AcDbEntity
  8
AM_9
100
AcDbPolyline
 90
        3
 70
     0
 43
0.0
 10
-0.2525907427704613
 20
4.316329155516198
 10
-0.2211588644235644
 20
4.283346618634949
 10
-0.1894430570778461
 20
4.253788883827582
  0
ELLIPSE
  5
C2
330
8F
100
AcDbEntity
  8
AM_9
100
AcDbEllipse
 10
-0.0000000000000002
 20
4.395078924206025
 30
0.0
 11
-0.21375
 21
3.185123231361761E-9
 31
0.0
210
0.0
220
0.0
230
1.0
 40
0.5000000000000023
 41
0.0
 42
6.283185307179586
  0
ELLIPSE
  5
C3
330
8F
100
AcDbEntity
  8
AM_9
100
AcDbEllipse
 10
0.0000000000000015
 20
4.395078924206024
 30
0.0
 11
0.2187500000000034
 21
0.0
 31
0.0
210
0.0
220
0.0
230
1.0
 40
0.5000000000000003
 41
3.665191429188082
 42
8.90117918517107
  0
LINE
  5
C4
330
8F
100
AcDbEntity
  8
AM_9
100
AcDbLine
 10
0.2525907427704611
 20
4.387226152517409
 30
0.0
 11
0.2525907427704611
 21
4.316329155516198
 31
0.0
  0
LWPOLYLINE
  5
C5
330
8F
100
AcDbEntity
  8
AM_9
100
AcDbPolyline
 90
        3
 70
     0
 43
0.0
 10
0.1894430570778458
 20
4.449766424206026
 10
0.2210168999241534
 20
4.420349945645256
 10
0.2525907427704611
 20
4.387226152517409
  0
LWPOLYLINE
  5
C6
330
8F
100
AcDbEntity
  8
AM_9
100
AcDbPolyline
 90
        3
 70
     0
 43
0.0
 10
0.1262953713852305
 20
4.496601152517409
 10
0.1577272497321274
 20
4.475142079124509
 10
0.1894430570778458
 20
4.449766424206026
  0
LWPOLYLINE
  5
C7
330
8F
100
AcDbEntity
  8
AM_9
100
AcDbPolyline
 90
        3
 70
     0
 43
0.0
 10
0.2525907427704611
 20
4.316329155516198
 10
0.2211588644235641
 20
4.337788228909099
 10
0.1894430570778458
 20
4.363163883827582
  0
LINE
  5
C8
330
8F
100
AcDbEntity
  8
AM_9
100
AcDbLine
 10
0.1262953713852305
 20
4.496601152517409
 30
0.0
 11
0.1262953713852305
 21
4.425704155516199
 31
0.0
  0
LWPOLYLINE
  5
C9
330
8F
100
AcDbEntity
  8
AM_9
100
AcDbPolyline
 90
        3
 70
     0
 43
0.0
 10
-0.0000000000000001
 20
4.504453924206026
 10
0.0631476856926152
 20
4.502381195645256
 10
0.1262953713852305
 20
4.496601152517409
  0
LWPOLYLINE
  5
CA
330
8F
100
AcDbEntity
  8
AM_9
100
AcDbPolyline
 90
        4
 70
     0
 43
0.0
 10
-0.1262953713852308
 20
4.496601152517409
 10
-0.0967996321117979
 20
4.499706015691547
 10
-0.0485424412477545
 20
4.503219120726093
 10
-0.0000000000000001
 20
4.504453924206026
  0
LWPOLYLINE
  5
CB
330
8F
100
AcDbEntity
  8
AM_9
100
AcDbPolyline
 90
        4
 70
     0
 43
0.0
 10
-0.0000000000000001
 20
4.417851383827582
 10
-0.048399816055899
 20
4.41907902742003
 10
-0.0967996321117979
 20
4.422599292342061
 10
-0.1262953713852308
 20
4.425704155516199
  0
LWPOLYLINE
  5
CC
330
8F
100
AcDbEntity
  8
AM_9
100
AcDbPolyline
 90
        3
 70
     0
 43
0.0
 10
0.1894430570778458
 20
4.363163883827582
 10
0.1578692142315382
 20
4.392580362388352
 10
0.1262953713852305
 20
4.425704155516199
  0
LWPOLYLINE
  5
CD
330
8F
100
AcDbEntity
  8
AM_9
100
AcDbPolyline
 90
        3
 70
     0
 43
0.0
 10
0.1262953713852305
 20
4.425704155516199
 10
0.0634316146914366
 20
4.419942423772024
 10
-0.0000000000000001
 20
4.417851383827582
  0
LINE
  5
CE
330
8F
100
AcDbEntity
  8
AM_9
100
AcDbLine
 10
-0.1262953713852308
 20
4.496601152517409
 30
0.0
 11
-0.1262953713852308
 21
4.425704155516199
 31
0.0
  0
LWPOLYLINE
  5
CF
330
8F
100
AcDbEntity
  8
AM_9
100
AcDbPolyline
 90
        3
 70
     0
 43
0.0
 10
-0.1894430570778461
 20
4.449766424206026
 10
-0.1578692142315385
 20
4.475037445645256
 10
-0.1262953713852308
 20
4.496601152517409
  0
LWPOLYLINE
  5
D0
330
8F
100
AcDbEntity
  8
AM_9
100
AcDbPolyline
 90
        3
 70
     0
 43
0.0
 10
-0.2525907427704613
 20
4.387226152517409
 10
-0.2211588644235644
 20
4.420208689398658
 10
-0.1894430570778461
 20
4.449766424206026
  0
LINE
  5
D1
330
8F
100
AcDbEntity
  8
AM_9
100
AcDbLine
 10
-0.2525907427704613
 20
4.387226152517409
 30
0.0
 11
-0.2525907427704613
 21
4.316329155516198
 31
0.0
  0
LWPOLYLINE
  5
D2
330
8F
100
AcDbEntity
  8
AM_9
100
AcDbPolyline
 90
        3
 70
     0
 43
0.0
 10
-0.1894430570778461
 20
4.363163883827582
 10
-0.2210168999241537
 20
4.337892862388352
 10
-0.2525907427704613
 20
4.316329155516198
  0
LWPOLYLINE
  5
D3
330
8F
100
AcDbEntity
  8
AM_9
100
AcDbPolyline
 90
        3
 70
     0
 43
0.0
 10
-0.1262953713852308
 20
4.425704155516199
 10
-0.1577272497321277
 20
4.392721618634949
 10
-0.1894430570778461
 20
4.363163883827582
  0
LINE
  5
D4
330
8F
100
AcDbEntity
  8
AM_9
100
AcDbLine
 10
0.1985852938306407
 20
4.108983723141137
 30
0.0
 11
0.2057184028850726
 21
4.306620183049953
 31
0.0
  0
LINE
  5
D5
330
8F
100
AcDbEntity
  8
AM_9
100
AcDbLine
 10
-0.2057184028850729
 20
4.306620183049953
 30
0.0
 11
-0.1985852938306409
 21
4.108983723141137
 31
0.0
  0
ELLIPSE
  5
D6
330
8F
100
AcDbEntity
  8
AM_9
100
AcDbEllipse
 10
-0.0000000000000021
 20
4.110775561749954
 30
0.0
 11
0.1986176267812176
 21
0.0
 31
0.0
210
0.0
220
0.0
230
1.0
 40
0.4999999999999958
 41
3.757072362260168
 42
6.265141230475169
  0
ELLIPSE
  5
D7
330
8F
100
AcDbEntity
  8
AM_9
100
AcDbEllipse
 10
0.0
 20
4.110775561749958
 30
0.0
 11
0.1986176267812153
 21
0.0
 31
0.0
210
0.0
220
0.0
230
1.0
 40
0.5000000000000014
 41
6.265141230475132
 42
10.04025766943978
  0
LINE
  5
D8
330
8F
100
AcDbEntity
  8
AM_9
100
AcDbLine
 10
0.1321931418159851
 20
4.032242318322487
 30
0.0
 11
0.1621706131788414
 21
4.053439591605987
 31
0.0
  0
LINE
  5
D9
330
8F
100
AcDbEntity
  8
AM_9
100
AcDbLine
 10
-0.1621706131788417
 20
4.053439591605987
 30
0.0
 11
-0.1321931418159854
 21
4.032242318322487
 31
0.0
  0
ELLIPSE
  5
DA
330
8F
100
AcDbEntity
  8
AM_9
100
AcDbEllipse
 10
-0.0000000000000001
 20
4.410942949493997
 30
0.0
 11
0.1725340532830159
 21
0.0
 31
0.0
210
0.0
220
0.0
230
1.0
 40
0.5000000000000003
 41
0.0
 42
6.283185307179586
  0
ELLIPSE
  5
DB
330
8F
100
AcDbEntity
  8
AM_9
100
AcDbEllipse
 10
0.0000000000000002
 20
4.308476383827578
 30
0.0
 11
0.2187499999999993
 21
0.0
 31
0.0
210
0.0
220
0.0
230
1.0
 40
0.5000000000000179
 41
0.0
 42
6.283185307179586
  0
ELLIPSE
  5
DC
330
8F
100
AcDbEntity
  8
AM_9
100
AcDbEllipse
 10
-0.0000000000001689
 20
4.308476383835966
 30
0.0
 11
0.2057518972232384
 21
0.0
 31
0.0
210
0.0
220
0.0
230
1.0
 40
0.5000000000002909
 41
0.0
 42
6.283185307179586
  0
ELLIPSE
  5
DD
330
8F
100
AcDbEntity
  8
AM_9
100
AcDbEllipse
 10
0.0000000000000025
 20
4.078979651824708
 30
0.0
 11
0.1619028724722663
 21
0.0
 31
0.0
210
0.0
220
0.0
230
1.0
 40
0.500000000000006
 41
0.0
 42
6.283185307179586
  0
ENDBLK
  5
92
330
8F
100
AcDbEntity
  8
0
100
AcDbBlockEnd
  0
BLOCK
  5
E0
330
DE
100
AcDbEntity
  8
0
100
AcDbBlockBegin
  2
3_ASME_B18_3_1_4_1_0_in_069589_2
 70
     2
 10
0.0
 20
0.0
 30
0.0
  3
3_ASME_B18_3_1_4_1_0_in_069589_2
  1

  0
ATTDEF
  5
E2
330
DE
100
AcDbEntity
  8
AM_6
100
AcDbText
 10
3.013125
 20
-2.640875
 30
0.0
 40
0.5
  1
ANSI/ASME B18.3-1998
100
AcDbAttributeDefinition
  3

  2
NN
 70
     8
280
     0
  0
ATTDEF
  5
E3
330
DE
100
AcDbEntity
  8
AM_6
100
AcDbText
 10
3.013125
 20
-3.140875
 30
0.0
 40
0.5
  1
Socket Button Head Cap Screws
100
AcDbAttributeDefinition
  3

  2
NT
 70
     8
280
     0
  0
ATTDEF
  5
E4
330
DE
100
AcDbEntity
  8
AM_6
100
AcDbText
 10
3.013125
 20
-3.640875
 30
0.0
 40
0.5
  1
ASME B18.3-1/4
100
AcDbAttributeDefinition
  3

  2
NB
 70
     8
280
     0
  0
ATTDEF
  5
E5
330
DE
100
AcDbEntity
  8
AM_6
100
AcDbText
 10
3.013125
 20
-4.140875
 30
0.0
 40
0.5
  1
ASME B18.3-$NS.
100
AcDbAttributeDefinition
  3

  2
NBSYN
 70
     8
280
     0
  0
ATTDEF
  5
E6
330
DE
100
AcDbEntity
  8
AM_6
100
AcDbText
 10
3.013125
 20
-4.640875
 30
0.0
 40
0.5
  1
ASME B18.3-1/4
100
AcDbAttributeDefinition
  3

  2
LINA
 70
     8
280
     0
  0
ATTDEF
  5
E7
330
DE
100
AcDbEntity
  8
AM_6
100
AcDbText
 10
3.013125
 20
-5.140875
 30
0.0
 40
0.5
  1
1/4
100
AcDbAttributeDefinition
  3

  2
NS
 70
     8
280
     0
  0
ATTDEF
  5
E8
330
DE
100
AcDbEntity
  8
AM_6
100
AcDbText
 10
3.013125
 20
-5.640875
 30
0.0
 40
0.5
  1
0.437
100
AcDbAttributeDefinition
  3

  2
A
 70
     8
280
     0
  0
ATTDEF
  5
E9
330
DE
100
AcDbEntity
  8
AM_6
100
AcDbText
 10
3.013125
 20
-6.140875
 30
0.0
 40
0.5
  1
0.132
100
AcDbAttributeDefinition
  3

  2
H
 70
     8
280
     0
  0
ATTDEF
  5
EA
330
DE
100
AcDbEntity
  8
AM_6
100
AcDbText
 10
3.013125
 20
-6.640875
 30
0.0
 40
0.5
  1
0.800
100
AcDbAttributeDefinition
  3

  2
L
 70
     8
280
     0
  0
ATTDEF
  5
EB
330
DE
100
AcDbEntity
  8
AM_6
100
AcDbText
 10
3.013125
 20
-7.140875
 30
0.0
 40
0.5
  1
0.031
100
AcDbAttributeDefinition
  3

  2
S
 70
     8
280
     0
  0
ATTDEF
  5
EC
330
DE
100
AcDbEntity
  8
AM_6
100
AcDbText
 10
3.013125
 20
-7.640875
 30
0.0
 40
0.5
  1
0.156250
100
AcDbAttributeDefinition
  3

  2
J
 70
     8
280
     0
  0
ATTDEF
  5
ED
330
DE
100
AcDbEntity
  8
AM_6
100
AcDbText
 10
3.013125
 20
-8.140875000000001
 30
0.0
 40
0.5
  1
baldor
100
AcDbAttributeDefinition
  3

  2
COMPANY
 70
     8
280
     0
  0
LINE
  5
EE
330
DE
100
AcDbEntity
  8
AM_9
100
AcDbLine
 10
-2.848875
 20
-2.949585979560879
 30
0.0
 11
-2.918875
 21
-2.949585979560879
 31
0.0
  0
LINE
  5
EF
330
DE
100
AcDbEntity
  8
AM_9
100
AcDbLine
 10
-2.848875
 20
-2.769164020439121
 30
0.0
 11
-2.918875
 21
-2.769164020439121
 31
0.0
  0
LINE
  5
F0
330
DE
100
AcDbEntity
  8
AM_9
100
AcDbLine
 10
-2.848875
 20
-2.81426951021956
 30
0.0
 11
-2.918875
 21
-2.81426951021956
 31
0.0
  0
LINE
  5
F1
330
DE
100
AcDbEntity
  8
AM_9
100
AcDbLine
 10
-2.848875
 20
-2.90448048978044
 30
0.0
 11
-2.918875
 21
-2.90448048978044
 31
0.0
  0
LINE
  5
F2
330
DE
100
AcDbEntity
  8
AM_9
100
AcDbLine
 10
-2.848875
 20
-2.769164020439121
 30
0.0
 11
-2.848875
 21
-2.949585979560879
 31
0.0
  0
LINE
  5
F3
330
DE
100
AcDbEntity
  8
AM_9
100
AcDbLine
 10
-1.986875
 20
-2.752975
 30
0.0
 11
-1.986875
 21
-2.965775
 31
0.0
  0
LINE
  5
F4
330
DE
100
AcDbEntity
  8
AM_9
100
AcDbLine
 10
-1.986875
 20
-2.752975
 30
0.0
 11
-2.005475
 21
-2.734375
 31
0.0
  0
LINE
  5
F5
330
DE
100
AcDbEntity
  8
AM_9
100
AcDbLine
 10
-2.005475
 20
-2.984375
 30
0.0
 11
-1.986875
 21
-2.965775
 31
0.0
  0
LINE
  5
F6
330
DE
100
AcDbEntity
  8
AM_9
100
AcDbLine
 10
-2.005475
 20
-2.734375
 30
0.0
 11
-2.005475
 21
-2.984375
 31
0.0
  0
LINE
  5
F7
330
DE
100
AcDbEntity
  8
AM_9
100
AcDbLine
 10
-2.786875
 20
-2.984375
 30
0.0
 11
-2.005475
 21
-2.984375
 31
0.0
  0
LINE
  5
F8
330
DE
100
AcDbEntity
  8
AM_9
100
AcDbLine
 10
-2.005475
 20
-2.734375
 30
0.0
 11
-2.786875
 21
-2.734375
 31
0.0
  0
LINE
  5
FA
330
DE
100
AcDbEntity
  8
AM_5
100
AcDbLine
 10
-2.706875
 20
-2.965775
 30
0.0
 11
-2.739091145020781
 21
-2.984375
 31
0.0
  0
LINE
  5
FB
330
DE
100
AcDbEntity
  8
AM_5
100
AcDbLine
 10
-2.706875
 20
-2.734375019850297
 30
0.0
 11
-2.706875
 21
-2.984375086809749
 31
0.0
  0
LINE
  5
FC
330
DE
100
AcDbEntity
  8
AM_5
100
AcDbLine
 10
-2.706875
 20
-2.752975
 30
0.0
 11
-2.739091145020781
 21
-2.734375
 31
0.0
  0
LINE
  5
FE
330
DE
100
AcDbEntity
  8
AM_4
100
AcDbLine
 10
-2.817874999999999
 20
-3.077875
 30
0.0
 11
-2.786875
 21
-3.077875
 31
0.0
  0
LINE
  5
FF
330
DE
100
AcDbEntity
  8
AM_4
100
AcDbLine
 10
-2.786875
 20
-2.640875
 30
0.0
 11
-2.817874999999999
 21
-2.640875
 31
0.0
  0
LINE
  5
100
330
DE
100
AcDbEntity
  8
AM_4
100
AcDbLine
 10
-2.918875
 20
-2.741875
 30
0.0
 11
-2.918875
 21
-2.976875
 31
0.0
  0
LINE
  5
101
330
DE
100
AcDbEntity
  8
AM_4
100
AcDbLine
 10
-2.817874999999999
 20
-2.640875
 30
0.0
 11
-2.817874999999999
 21
-3.077875
 31
0.0
  0
ARC
  5
102
330
DE
100
AcDbEntity
  8
AM_4
100
AcDbCircle
 10
-2.817874999999999
 20
-2.976875
 30
0.0
 40
0.1010000000000004
100
AcDbArc
 50
180.0
 51
270.0
  0
ARC
  5
103
330
DE
100
AcDbEntity
  8
AM_4
100
AcDbCircle
 10
-2.817874999999999
 20
-2.741875
 30
0.0
 40
0.101
100
AcDbArc
 50
90.0
 51
180.0
  0
ENDBLK
  5
E1
330
DE
100
AcDbEntity
  8
0
100
AcDbBlockEnd
  0
BLOCK
  5
106
330
104
100
AcDbEntity
  8
0
100
AcDbBlockBegin
  2
4_ASME_B18_3_1_4_2_0_in_069589_2
 70
     2
 10
0.0
 20
0.0
 30
0.0
  3
4_ASME_B18_3_1_4_2_0_in_069589_2
  1

  0
ATTDEF
  5
108
330
104
100
AcDbEntity
  8
AM_6
100
AcDbText
 10
3.013125
 20
3.077875
 30
0.0
 40
0.5
  1
ANSI/ASME B18.3-1998
100
AcDbAttributeDefinition
  3

  2
NN
 70
     8
280
     0
  0
ATTDEF
  5
109
330
104
100
AcDbEntity
  8
AM_6
100
AcDbText
 10
3.013125
 20
2.577875
 30
0.0
 40
0.5
  1
Socket Button Head Cap Screws
100
AcDbAttributeDefinition
  3

  2
NT
 70
     8
280
     0
  0
ATTDEF
  5
10A
330
104
100
AcDbEntity
  8
AM_6
100
AcDbText
 10
3.013125
 20
2.077875
 30
0.0
 40
0.5
  1
ASME B18.3-1/4
100
AcDbAttributeDefinition
  3

  2
NB
 70
     8
280
     0
  0
ATTDEF
  5
10B
330
104
100
AcDbEntity
  8
AM_6
100
AcDbText
 10
3.013125
 20
1.577875
 30
0.0
 40
0.5
  1
ASME B18.3-$NS.
100
AcDbAttributeDefinition
  3

  2
NBSYN
 70
     8
280
     0
  0
ATTDEF
  5
10C
330
104
100
AcDbEntity
  8
AM_6
100
AcDbText
 10
3.013125
 20
1.077875
 30
0.0
 40
0.5
  1
ASME B18.3-1/4
100
AcDbAttributeDefinition
  3

  2
LINA
 70
     8
280
     0
  0
ATTDEF
  5
10D
330
104
100
AcDbEntity
  8
AM_6
100
AcDbText
 10
3.013125
 20
0.5778750000000001
 30
0.0
 40
0.5
  1
1/4
100
AcDbAttributeDefinition
  3

  2
NS
 70
     8
280
     0
  0
ATTDEF
  5
10E
330
104
100
AcDbEntity
  8
AM_6
100
AcDbText
 10
3.013125
 20
0.0778750000000001
 30
0.0
 40
0.5
  1
0.437
100
AcDbAttributeDefinition
  3

  2
A
 70
     8
280
     0
  0
ATTDEF
  5
10F
330
104
100
AcDbEntity
  8
AM_6
100
AcDbText
 10
3.013125
 20
-0.4221249999999999
 30
0.0
 40
0.5
  1
0.132
100
AcDbAttributeDefinition
  3

  2
H
 70
     8
280
     0
  0
ATTDEF
  5
110
330
104
100
AcDbEntity
  8
AM_6
100
AcDbText
 10
3.013125
 20
-0.9221249999999999
 30
0.0
 40
0.5
  1
0.800
100
AcDbAttributeDefinition
  3

  2
L
 70
     8
280
     0
  0
ATTDEF
  5
111
330
104
100
AcDbEntity
  8
AM_6
100
AcDbText
 10
3.013125
 20
-1.422125
 30
0.0
 40
0.5
  1
0.031
100
AcDbAttributeDefinition
  3

  2
S
 70
     8
280
     0
  0
ATTDEF
  5
112
330
104
100
AcDbEntity
  8
AM_6
100
AcDbText
 10
3.013125
 20
-1.922125
 30
0.0
 40
0.5
  1
0.156250
100
AcDbAttributeDefinition
  3

  2
J
 70
     8
280
     0
  0
ATTDEF
  5
113
330
104
100
AcDbEntity
  8
AM_6
100
AcDbText
 10
3.013125
 20
-2.422125
 30
0.0
 40
0.5
  1
baldor
100
AcDbAttributeDefinition
  3

  2
COMPANY
 70
     8
280
     0
  0
LINE
  5
114
330
104
100
AcDbEntity
  8
AM_9
100
AcDbLine
 10
-2.848875
 20
2.769164020439121
 30
0.0
 11
-2.918875
 21
2.769164020439121
 31
0.0
  0
LINE
  5
115
330
104
100
AcDbEntity
  8
AM_9
100
AcDbLine
 10
-2.848875
 20
2.949585979560879
 30
0.0
 11
-2.918875
 21
2.949585979560879
 31
0.0
  0
LINE
  5
116
330
104
100
AcDbEntity
  8
AM_9
100
AcDbLine
 10
-2.848875
 20
2.90448048978044
 30
0.0
 11
-2.918875
 21
2.90448048978044
 31
0.0
  0
LINE
  5
117
330
104
100
AcDbEntity
  8
AM_9
100
AcDbLine
 10
-2.848875
 20
2.81426951021956
 30
0.0
 11
-2.918875
 21
2.81426951021956
 31
0.0
  0
LINE
  5
118
330
104
100
AcDbEntity
  8
AM_9
100
AcDbLine
 10
-2.848875
 20
2.949585979560879
 30
0.0
 11
-2.848875
 21
2.769164020439121
 31
0.0
  0
LINE
  5
119
330
104
100
AcDbEntity
  8
AM_9
100
AcDbLine
 10
-1.986875
 20
2.965775
 30
0.0
 11
-1.986875
 21
2.752975
 31
0.0
  0
LINE
  5
11A
330
104
100
AcDbEntity
  8
AM_9
100
AcDbLine
 10
-1.986875
 20
2.965775
 30
0.0
 11
-2.005475
 21
2.984375
 31
0.0
  0
LINE
  5
11B
330
104
100
AcDbEntity
  8
AM_9
100
AcDbLine
 10
-2.005475
 20
2.734375
 30
0.0
 11
-1.986875
 21
2.752975
 31
0.0
  0
LINE
  5
11C
330
104
100
AcDbEntity
  8
AM_9
100
AcDbLine
 10
-2.005475
 20
2.984375
 30
0.0
 11
-2.005475
 21
2.734375
 31
0.0
  0
LINE
  5
11D
330
104
100
AcDbEntity
  8
AM_9
100
AcDbLine
 10
-2.786875
 20
2.734375
 30
0.0
 11
-2.005475
 21
2.734375
 31
0.0
  0
LINE
  5
11E
330
104
100
AcDbEntity
  8
AM_9
100
AcDbLine
 10
-2.005475
 20
2.984375
 30
0.0
 11
-2.786875
 21
2.984375
 31
0.0
  0
LINE
  5
11F
330
104
100
AcDbEntity
  8
AM_5
100
AcDbLine
 10
-2.706875
 20
2.752975
 30
0.0
 11
-2.739091145020781
 21
2.734375
 31
0.0
  0
LINE
  5
120
330
104
100
AcDbEntity
  8
AM_5
100
AcDbLine
 10
-2.706875
 20
2.984375086809749
 30
0.0
 11
-2.706875
 21
2.734375019850297
 31
0.0
  0
LINE
  5
121
330
104
100
AcDbEntity
  8
AM_5
100
AcDbLine
 10
-2.706875
 20
2.965775
 30
0.0
 11
-2.739091145020781
 21
2.984375
 31
0.0
  0
LINE
  5
122
330
104
100
AcDbEntity
  8
AM_4
100
AcDbLine
 10
-2.817874999999999
 20
2.640875
 30
0.0
 11
-2.786875
 21
2.640875
 31
0.0
  0
LINE
  5
123
330
104
100
AcDbEntity
  8
AM_4
100
AcDbLine
 10
-2.786875
 20
3.077875
 30
0.0
 11
-2.817874999999999
 21
3.077875
 31
0.0
  0
LINE
  5
124
330
104
100
AcDbEntity
  8
AM_4
100
AcDbLine
 10
-2.918875
 20
2.976875
 30
0.0
 11
-2.918875
 21
2.741875
 31
0.0
  0
LINE
  5
125
330
104
100
AcDbEntity
  8
AM_4
100
AcDbLine
 10
-2.817874999999999
 20
3.077875
 30
0.0
 11
-2.817874999999999
 21
2.640875
 31
0.0
  0
ARC
  5
126
330
104
100
AcDbEntity
  8
AM_4
100
AcDbCircle
 10
-2.817874999999999
 20
2.741875000000001
 30
0.0
 40
0.1010000000000004
100
AcDbArc
 50
180.0
 51
270.0
  0
ARC
  5
127
330
104
100
AcDbEntity
  8
AM_4
100
AcDbCircle
 10
-2.817874999999999
 20
2.976875
 30
0.0
 40
0.101
100
AcDbArc
 50
90.0
 51
180.0
  0
ENDBLK
  5
107
330
104
100
AcDbEntity
  8
0
100
AcDbBlockEnd
  0
BLOCK
  5
12A
330
128
100
AcDbEntity
  8
0
100
AcDbBlockBegin
  2
5_070909LW_0_in_069589_2
 70
     2
 10
0.0
 20
0.0
 30
0.0
  3
5_070909LW_0_in_069589_2
  1

  0
ATTDEF
  5
12C
330
128
100
AcDbEntity
  8
AM_6
100
AcDbText
 10
2.713125
 20
3.21875
 30
0.0
 40
0.5
  1
Imperial Insert Lockwasher -Inch
100
AcDbAttributeDefinition
  3

  2
NN
 70
     8
280
     0
  0
ATTDEF
  5
12D
330
128
100
AcDbEntity
  8
AM_6
100
AcDbText
 10
2.713125
 20
2.71875
 30
0.0
 40
0.5
  1
Imperial Bearings
100
AcDbAttributeDefinition
  3

  2
NT
 70
     8
280
     0
  0
ATTDEF
  5
12E
330
128
100
AcDbEntity
  8
AM_6
100
AcDbText
 10
2.713125
 20
2.21875
 30
0.0
 40
0.5
  1
070909LW
100
AcDbAttributeDefinition
  3

  2
NB
 70
     8
280
     0
  0
ATTDEF
  5
12F
330
128
100
AcDbEntity
  8
AM_6
100
AcDbText
 10
2.713125
 20
1.71875
 30
0.0
 40
0.5
  1
$PN.LW
100
AcDbAttributeDefinition
  3

  2
NBSYN
 70
     8
280
     0
  0
ATTDEF
  5
130
330
128
100
AcDbEntity
  8
AM_6
100
AcDbText
 10
2.713125
 20
1.21875
 30
0.0
 40
0.5
  1
070909
100
AcDbAttributeDefinition
  3

  2
LINA
 70
     8
280
     0
  0
ATTDEF
  5
131
330
128
100
AcDbEntity
  8
AM_6
100
AcDbText
 10
2.713125
 20
0.71875
 30
0.0
 40
0.5
  1
4-1/2
100
AcDbAttributeDefinition
  3

  2
SS
 70
     8
280
     0
  0
ATTDEF
  5
132
330
128
100
AcDbEntity
  8
AM_6
100
AcDbText
 10
2.713125
 20
0.21875
 30
0.0
 40
0.5
  1
4.500000
100
AcDbAttributeDefinition
  3

  2
SS1
 70
     8
280
     0
  0
ATTDEF
  5
133
330
128
100
AcDbEntity
  8
AM_6
100
AcDbText
 10
2.713125
 20
-0.28125
 30
0.0
 40
0.5
  1
070909
100
AcDbAttributeDefinition
  3

  2
PN
 70
     8
280
     0
  0
ATTDEF
  5
134
330
128
100
AcDbEntity
  8
AM_6
100
AcDbText
 10
2.713125
 20
-0.78125
 30
0.0
 40
0.5
  1
INS-IP-408R
100
AcDbAttributeDefinition
  3

  2
DESCRIPTION
 70
     8
280
     0
  0
ATTDEF
  5
135
330
128
100
AcDbEntity
  8
AM_6
100
AcDbText
 10
2.713125
 20
-1.28125
 30
0.0
 40
0.5
  1
7.8740
100
AcDbAttributeDefinition
  3

  2
A
 70
     8
280
     0
  0
ATTDEF
  5
136
330
128
100
AcDbEntity
  8
AM_6
100
AcDbText
 10
2.713125
 20
-1.78125
 30
0.0
 40
0.5
  1
2-5/32
100
AcDbAttributeDefinition
  3

  2
B
 70
     8
280
     0
  0
ATTDEF
  5
137
330
128
100
AcDbEntity
  8
AM_6
100
AcDbText
 10
2.713125
 20
-2.28125
 30
0.0
 40
0.5
  1
5-15/64
100
AcDbAttributeDefinition
  3

  2
C
 70
     8
280
     0
  0
ATTDEF
  5
138
330
128
100
AcDbEntity
  8
AM_6
100
AcDbText
 10
2.713125
 20
-2.78125
 30
0.0
 40
0.5
  1
1.935
100
AcDbAttributeDefinition
  3

  2
D
 70
     8
280
     0
  0
ATTDEF
  5
139
330
128
100
AcDbEntity
  8
AM_6
100
AcDbText
 10
2.713125
 20
-3.28125
 30
0.0
 40
0.5
  1
6-7/16
100
AcDbAttributeDefinition
  3

  2
E
 70
     8
280
     0
  0
ATTDEF
  5
13A
330
128
100
AcDbEntity
  8
AM_6
100
AcDbText
 10
2.713125
 20
-3.78125
 30
0.0
 40
0.5
  1
0.2500
100
AcDbAttributeDefinition
  3

  2
NDM
 70
     8
280
     0
  0
ATTDEF
  5
13B
330
128
100
AcDbEntity
  8
AM_6
100
AcDbText
 10
2.713125
 20
-4.28125
 30
0.0
 40
0.5
  1
0.1960
100
AcDbAttributeDefinition
  3

  2
KDM
 70
     8
280
     0
  0
ATTDEF
  5
13C
330
128
100
AcDbEntity
  8
AM_6
100
AcDbText
 10
2.713125
 20
-4.78125
 30
0.0
 40
0.5
  1
5.60
100
AcDbAttributeDefinition
  3

  2
AL
 70
     8
280
     0
  0
ATTDEF
  5
13D
330
128
100
AcDbEntity
  8
AM_6
100
AcDbText
 10
2.713125
 20
-5.28125
 30
0.0
 40
0.5
  1
0.50
100
AcDbAttributeDefinition
  3

  2
BL
 70
     8
280
     0
  0
ATTDEF
  5
13E
330
128
100
AcDbEntity
  8
AM_6
100
AcDbText
 10
2.713125
 20
-5.78125
 30
0.0
 40
0.5
  1
0.07
100
AcDbAttributeDefinition
  3

  2
CL
 70
     8
280
     0
  0
ATTDEF
  5
13F
330
128
100
AcDbEntity
  8
AM_6
100
AcDbText
 10
2.713125
 20
-6.28125
 30
0.0
 40
0.5
  1
0.50
100
AcDbAttributeDefinition
  3

  2
DL
 70
     8
280
     0
  0
ATTDEF
  5
140
330
128
100
AcDbEntity
  8
AM_6
100
AcDbText
 10
2.713125
 20
-6.78125
 30
0.0
 40
0.5
  1
baldor
100
AcDbAttributeDefinition
  3

  2
COMPANY
 70
     8
280
     0
  0
LINE
  5
141
330
128
100
AcDbEntity
  8
AM_9
100
AcDbLine
 10
-2.716874999999999
 20
2.196469826450259
 30
0.0
 11
-2.786875
 21
2.19646982645026
 31
0.0
  0
LINE
  5
142
330
128
100
AcDbEntity
  8
AM_9
100
AcDbLine
 10
-2.286875
 20
2.137250661385844
 30
0.0
 11
-2.716874999999999
 21
2.137250661385844
 31
0.0
  0
LINE
  5
143
330
128
100
AcDbEntity
  8
AM_9
100
AcDbLine
 10
-2.286875
 20
2.027683124991023
 30
0.0
 11
-2.286875
 21
2.232921519477117
 31
0.0
  0
LINE
  5
144
330
128
100
AcDbEntity
  8
AM_9
100
AcDbLine
 10
-2.286875
 20
2.027683124991023
 30
0.0
 11
-2.786875
 21
2.027683124991023
 31
0.0
  0
LINE
  5
145
330
128
100
AcDbEntity
  8
AM_9
100
AcDbLine
 10
-2.716874999999999
 20
2.232921519477117
 30
0.0
 11
-2.286875
 21
2.232921519477117
 31
0.0
  0
LINE
  5
146
330
128
100
AcDbEntity
  8
AM_9
100
AcDbLine
 10
-2.286875
 20
2.123353983082296
 30
0.0
 11
-2.786875
 21
2.123353983082296
 31
0.0
  0
LINE
  5
147
330
128
100
AcDbEntity
  8
AM_9
100
AcDbLine
 10
-2.716874999999999
 20
2.292140684541532
 30
0.0
 11
-2.786875
 21
2.292140684541532
 31
0.0
  0
LINE
  5
148
330
128
100
AcDbEntity
  8
AM_9
100
AcDbLine
 10
-2.716874999999999
 20
2.859375
 30
0.0
 11
-2.786875
 21
2.859375
 31
0.0
  0
LINE
  5
149
330
128
100
AcDbEntity
  8
AM_9
100
AcDbLine
 10
-2.716874999999999
 20
2.984404885545649
 30
0.0
 11
-2.786875
 21
2.984404885545649
 31
0.0
  0
LINE
  5
14A
330
128
100
AcDbEntity
  8
AM_9
100
AcDbLine
 10
-2.716874999999999
 20
-2.859375
 30
0.0
 11
-2.786875
 21
-2.859375
 31
0.0
  0
LINE
  5
14B
330
128
100
AcDbEntity
  8
AM_9
100
AcDbLine
 10
-2.786875
 20
-2.984404885545649
 30
0.0
 11
-2.716874999999999
 21
-2.984404885545649
 31
0.0
  0
LINE
  5
14C
330
128
100
AcDbEntity
  8
AM_9
100
AcDbLine
 10
-2.716874999999999
 20
2.429218503623986
 30
0.0
 11
-2.786875
 21
2.429218503623986
 31
0.0
  0
LINE
  5
14D
330
128
100
AcDbEntity
  8
AM_9
100
AcDbLine
 10
-2.716874999999999
 20
-2.429218503623986
 30
0.0
 11
-2.786875
 21
-2.429218503623987
 31
0.0
  0
LINE
  5
14E
330
128
100
AcDbEntity
  8
AM_9
100
AcDbLine
 10
-2.716874999999999
 20
-1.806105224544676
 30
0.0
 11
-2.786875
 21
-1.806105224544676
 31
0.0
  0
LINE
  5
14F
330
128
100
AcDbEntity
  8
AM_9
100
AcDbLine
 10
-2.716874999999999
 20
1.806105224544678
 30
0.0
 11
-2.786875
 21
1.806105224544676
 31
0.0
  0
LINE
  5
150
330
128
100
AcDbEntity
  8
AM_9
100
AcDbLine
 10
-2.716874999999999
 20
1.62932852924804
 30
0.0
 11
-2.786875
 21
1.62932852924804
 31
0.0
  0
LINE
  5
151
330
128
100
AcDbEntity
  8
AM_9
100
AcDbLine
 10
-2.716874999999999
 20
-1.62932852924804
 30
0.0
 11
-2.786875
 21
-1.62932852924804
 31
0.0
  0
LINE
  5
152
330
128
100
AcDbEntity
  8
AM_9
100
AcDbLine
 10
-2.716874999999999
 20
2.110271800103603
 30
0.0
 11
-2.786875
 21
2.110271800103603
 31
0.0
  0
LINE
  5
153
330
128
100
AcDbEntity
  8
AM_9
100
AcDbLine
 10
-2.716874999999999
 20
1.933495104806967
 30
0.0
 11
-2.786875
 21
1.933495104806967
 31
0.0
  0
LINE
  5
154
330
128
100
AcDbEntity
  8
AM_9
100
AcDbLine
 10
-2.716874999999999
 20
2.146904585773408
 30
0.0
 11
-2.786875
 21
2.146904585773408
 31
0.0
  0
LINE
  5
155
330
128
100
AcDbEntity
  8
AM_9
100
AcDbLine
 10
-2.716874999999999
 20
-1.933495104806965
 30
0.0
 11
-2.786875
 21
-1.933495104806965
 31
0.0
  0
LINE
  5
156
330
128
100
AcDbEntity
  8
AM_9
100
AcDbLine
 10
-2.716874999999999
 20
-2.110271800103582
 30
0.0
 11
-2.786875
 21
-2.110271800103582
 31
0.0
  0
LINE
  5
157
330
128
100
AcDbEntity
  8
AM_9
100
AcDbLine
 10
-2.786875
 20
-2.146904585773407
 30
0.0
 11
-2.716874999999999
 21
-2.146904585773407
 31
0.0
  0
LINE
  5
158
330
128
100
AcDbEntity
  8
AM_9
100
AcDbLine
 10
-2.716874999999999
 20
0.1250298855456498
 30
0.0
 11
-2.786875
 21
0.1250298855456498
 31
0.0
  0
LINE
  5
159
330
128
100
AcDbEntity
  8
AM_9
100
AcDbLine
 10
-2.786875
 20
-0.1250298855456482
 30
0.0
 11
-2.716874999999999
 21
-0.1250298855456482
 31
0.0
  0
LINE
  5
15A
330
128
100
AcDbEntity
  8
AM_4
100
AcDbLine
 10
-2.716874999999999
 20
3.21875
 30
0.0
 11
-2.786875
 21
3.21875
 31
0.0
  0
LINE
  5
15B
330
128
100
AcDbEntity
  8
AM_4
100
AcDbLine
 10
-2.786875
 20
-3.21875
 30
0.0
 11
-2.716874999999999
 21
-3.21875
 31
0.0
  0
LINE
  5
15C
330
128
100
AcDbEntity
  8
AM_4
100
AcDbLine
 10
-2.786875
 20
3.21875
 30
0.0
 11
-2.786875
 21
-3.21875
 31
0.0
  0
LINE
  5
15D
330
128
100
AcDbEntity
  8
AM_4
100
AcDbLine
 10
-2.716874999999999
 20
3.21875
 30
0.0
 11
-2.716874999999999
 21
-3.21875
 31
0.0
  0
ENDBLK
  5
12B
330
128
100
AcDbEntity
  8
0
100
AcDbBlockEnd
  0
BLOCK
  5
160
330
15E
100
AcDbEntity
  8
0
100
AcDbBlockBegin
  2
6_070941I_0_in_069589_2
 70
     2
 10
0.0
 20
0.0
 30
0.0
  3
6_070941I_0_in_069589_2
  1

  0
ATTDEF
  5
162
330
15E
100
AcDbEntity
  8
AM_6
100
AcDbText
 10
7.161000000000004
 20
3.936999999999999
 30
0.0
 40
0.5
  1
Imperial Insert -Inch
100
AcDbAttributeDefinition
  3

  2
NN
 70
     8
280
     0
  0
ATTDEF
  5
163
330
15E
100
AcDbEntity
  8
AM_6
100
AcDbText
 10
7.161000000000004
 20
3.436999999999999
 30
0.0
 40
0.5
  1
Imperial Bearings
100
AcDbAttributeDefinition
  3

  2
NT
 70
     8
280
     0
  0
ATTDEF
  5
164
330
15E
100
AcDbEntity
  8
AM_6
100
AcDbText
 10
7.161000000000004
 20
2.936999999999999
 30
0.0
 40
0.5
  1
070941I
100
AcDbAttributeDefinition
  3

  2
NB
 70
     8
280
     0
  0
ATTDEF
  5
165
330
15E
100
AcDbEntity
  8
AM_6
100
AcDbText
 10
7.161000000000004
 20
2.436999999999999
 30
0.0
 40
0.5
  1
$PN.I
100
AcDbAttributeDefinition
  3

  2
NBSYN
 70
     8
280
     0
  0
ATTDEF
  5
166
330
15E
100
AcDbEntity
  8
AM_6
100
AcDbText
 10
7.161000000000004
 20
1.936999999999999
 30
0.0
 40
0.5
  1
070941
100
AcDbAttributeDefinition
  3

  2
LINA
 70
     8
280
     0
  0
ATTDEF
  5
167
330
15E
100
AcDbEntity
  8
AM_6
100
AcDbText
 10
7.161000000000004
 20
1.436999999999999
 30
0.0
 40
0.5
  1
4-1/2
100
AcDbAttributeDefinition
  3

  2
SS
 70
     8
280
     0
  0
ATTDEF
  5
168
330
15E
100
AcDbEntity
  8
AM_6
100
AcDbText
 10
7.161000000000004
 20
0.9369999999999994
 30
0.0
 40
0.5
  1
4.500000
100
AcDbAttributeDefinition
  3

  2
SS1
 70
     8
280
     0
  0
ATTDEF
  5
169
330
15E
100
AcDbEntity
  8
AM_6
100
AcDbText
 10
7.161000000000004
 20
0.4369999999999994
 30
0.0
 40
0.5
  1
070941
100
AcDbAttributeDefinition
  3

  2
PN
 70
     8
280
     0
  0
ATTDEF
  5
16A
330
15E
100
AcDbEntity
  8
AM_6
100
AcDbText
 10
7.161000000000004
 20
-0.0630000000000006
 30
0.0
 40
0.5
  1
INS-IP-408L
100
AcDbAttributeDefinition
  3

  2
DESCRIPTION
 70
     8
280
     0
  0
ATTDEF
  5
16B
330
15E
100
AcDbEntity
  8
AM_6
100
AcDbText
 10
7.161000000000004
 20
-0.5630000000000006
 30
0.0
 40
0.5
  1
Labyrinth Seal
100
AcDbAttributeDefinition
  3

  2
ST
 70
     8
280
     0
  0
ATTDEF
  5
16C
330
15E
100
AcDbEntity
  8
AM_6
100
AcDbText
 10
7.161000000000004
 20
-1.063000000000001
 30
0.0
 40
0.5
  1
7.8740
100
AcDbAttributeDefinition
  3

  2
A
 70
     8
280
     0
  0
ATTDEF
  5
16D
330
15E
100
AcDbEntity
  8
AM_6
100
AcDbText
 10
7.161000000000004
 20
-1.563000000000001
 30
0.0
 40
0.5
  1
2-5/32
100
AcDbAttributeDefinition
  3

  2
B
 70
     8
280
     0
  0
ATTDEF
  5
16E
330
15E
100
AcDbEntity
  8
AM_6
100
AcDbText
 10
7.161000000000004
 20
-2.063000000000001
 30
0.0
 40
0.5
  1
5-15/64
100
AcDbAttributeDefinition
  3

  2
C
 70
     8
280
     0
  0
ATTDEF
  5
16F
330
15E
100
AcDbEntity
  8
AM_6
100
AcDbText
 10
7.161000000000004
 20
-2.563000000000001
 30
0.0
 40
0.5
  1
1.935
100
AcDbAttributeDefinition
  3

  2
D
 70
     8
280
     0
  0
ATTDEF
  5
170
330
15E
100
AcDbEntity
  8
AM_6
100
AcDbText
 10
7.161000000000004
 20
-3.063000000000001
 30
0.0
 40
0.5
  1
6-7/16
100
AcDbAttributeDefinition
  3

  2
E
 70
     8
280
     0
  0
ATTDEF
  5
171
330
15E
100
AcDbEntity
  8
AM_6
100
AcDbText
 10
7.161000000000004
 20
-3.563000000000001
 30
0.0
 40
0.5
  1
0.2500
100
AcDbAttributeDefinition
  3

  2
NDM
 70
     8
280
     0
  0
ATTDEF
  5
172
330
15E
100
AcDbEntity
  8
AM_6
100
AcDbText
 10
7.161000000000004
 20
-4.063000000000001
 30
0.0
 40
0.5
  1
0.132
100
AcDbAttributeDefinition
  3

  2
H
 70
     8
280
     0
  0
ATTDEF
  5
173
330
15E
100
AcDbEntity
  8
AM_6
100
AcDbText
 10
7.161000000000004
 20
-4.563000000000001
 30
0.0
 40
0.5
  1
0.1960
100
AcDbAttributeDefinition
  3

  2
KDM
 70
     8
280
     0
  0
ATTDEF
  5
174
330
15E
100
AcDbEntity
  8
AM_6
100
AcDbText
 10
7.161000000000004
 20
-5.063000000000001
 30
0.0
 40
0.5
  1
5.60
100
AcDbAttributeDefinition
  3

  2
AL
 70
     8
280
     0
  0
ATTDEF
  5
175
330
15E
100
AcDbEntity
  8
AM_6
100
AcDbText
 10
7.161000000000004
 20
-5.563000000000001
 30
0.0
 40
0.5
  1
0.50
100
AcDbAttributeDefinition
  3

  2
BL
 70
     8
280
     0
  0
ATTDEF
  5
176
330
15E
100
AcDbEntity
  8
AM_6
100
AcDbText
 10
7.161000000000004
 20
-6.063000000000001
 30
0.0
 40
0.5
  1
0.07
100
AcDbAttributeDefinition
  3

  2
CL
 70
     8
280
     0
  0
ATTDEF
  5
177
330
15E
100
AcDbEntity
  8
AM_6
100
AcDbText
 10
7.161000000000004
 20
-6.563000000000001
 30
0.0
 40
0.5
  1
0.50
100
AcDbAttributeDefinition
  3

  2
DL
 70
     8
280
     0
  0
ATTDEF
  5
178
330
15E
100
AcDbEntity
  8
AM_6
100
AcDbText
 10
7.161000000000004
 20
-7.063000000000001
 30
0.0
 40
0.5
  1
0.8000
100
AcDbAttributeDefinition
  3

  2
LL
 70
     8
280
     0
  0
ATTDEF
  5
179
330
15E
100
AcDbEntity
  8
AM_6
100
AcDbText
 10
7.161000000000004
 20
-7.563000000000001
 30
0.0
 40
0.5
  1
0.036
100
AcDbAttributeDefinition
  3

  2
Y
 70
     8
280
     0
  0
ATTDEF
  5
17A
330
15E
100
AcDbEntity
  8
AM_6
100
AcDbText
 10
7.161000000000004
 20
-8.063
 30
0.0
 40
0.5
  1
0.036000
100
AcDbAttributeDefinition
  3

  2
Y1
 70
     8
280
     0
  0
ATTDEF
  5
17B
330
15E
100
AcDbEntity
  8
AM_6
100
AcDbText
 10
7.161000000000004
 20
-8.563
 30
0.0
 40
0.5
  1
5
100
AcDbAttributeDefinition
  3

  2
Z
 70
     8
280
     0
  0
ATTDEF
  5
17C
330
15E
100
AcDbEntity
  8
AM_6
100
AcDbText
 10
7.161000000000004
 20
-9.063
 30
0.0
 40
0.5
  1
5.000000
100
AcDbAttributeDefinition
  3

  2
Z1
 70
     8
280
     0
  0
ATTDEF
  5
17D
330
15E
100
AcDbEntity
  8
AM_6
100
AcDbText
 10
7.161000000000004
 20
-9.563
 30
0.0
 40
0.5
  1
baldor
100
AcDbAttributeDefinition
  3

  2
COMPANY
 70
     8
280
     0
  0
LINE
  5
17E
330
15E
100
AcDbEntity
  8
AM_9
100
AcDbLine
 10
1.268125
 20
2.238703001224561
 30
0.0
 11
-2.716874999999999
 21
2.238703001224561
 31
0.0
  0
LINE
  5
17F
330
15E
100
AcDbEntity
  8
AM_9
100
AcDbLine
 10
1.268125
 20
2.143032143133289
 30
0.0
 11
-2.716874999999999
 21
2.143032143133289
 31
0.0
  0
LINE
  5
180
330
15E
100
AcDbEntity
  8
AM_9
100
AcDbLine
 10
-1.876875
 20
2.859375
 30
0.0
 11
-1.922549835116282
 21
2.957325
 31
0.0
  0
LINE
  5
181
330
15E
100
AcDbEntity
  8
AM_9
100
AcDbLine
 10
-1.922549835116282
 20
2.761425
 30
0.0
 11
-1.876875
 21
2.859375
 31
0.0
  0
LINE
  5
182
330
15E
100
AcDbEntity
  8
AM_9
100
AcDbLine
 10
-1.876875000000007
 20
-2.859375
 30
0.0
 11
-1.92254983511627
 21
-2.761425
 31
0.0
  0
LINE
  5
183
330
15E
100
AcDbEntity
  8
AM_9
100
AcDbLine
 10
-1.92254983511627
 20
-2.957325
 30
0.0
 11
-1.876875000000007
 21
-2.859375
 31
0.0
  0
LINE
  5
184
330
15E
100
AcDbEntity
  8
AM_9
100
AcDbLine
 10
-2.689824999999994
 20
-2.957325
 30
0.0
 11
-1.92254983511627
 21
-2.957325
 31
0.0
  0
LINE
  5
185
330
15E
100
AcDbEntity
  8
AM_9
100
AcDbLine
 10
-1.92254983511627
 20
-2.761425
 30
0.0
 11
-2.689824999999994
 21
-2.761425
 31
0.0
  0
LINE
  5
186
330
15E
100
AcDbEntity
  8
AM_9
100
AcDbLine
 10
-1.92254983511627
 20
-2.761425
 30
0.0
 11
-1.92254983511627
 21
-2.957325
 31
0.0
  0
LINE
  5
187
330
15E
100
AcDbEntity
  8
AM_9
100
AcDbLine
 10
-1.922549835116282
 20
2.761425
 30
0.0
 11
-1.922549835116282
 21
2.957325
 31
0.0
  0
LINE
  5
188
330
15E
100
AcDbEntity
  8
AM_9
100
AcDbLine
 10
-1.922549835116282
 20
2.957325
 30
0.0
 11
-2.689825
 21
2.957325
 31
0.0
  0
LINE
  5
189
330
15E
100
AcDbEntity
  8
AM_9
100
AcDbLine
 10
-2.689825
 20
2.761425
 30
0.0
 11
-1.922549835116282
 21
2.761425
 31
0.0
  0
LINE
  5
18A
330
15E
100
AcDbEntity
  8
AM_9
100
AcDbLine
 10
-2.689825
 20
2.761425
 30
0.0
 11
-2.689825
 21
2.957325
 31
0.0
  0
LINE
  5
18B
330
15E
100
AcDbEntity
  8
AM_9
100
AcDbLine
 10
-2.689825
 20
2.957325
 30
0.0
 11
-2.716874999999999
 21
2.984375
 31
0.0
  0
LINE
  5
18C
330
15E
100
AcDbEntity
  8
AM_9
100
AcDbLine
 10
-2.716874999999999
 20
2.734375
 30
0.0
 11
-2.689825
 21
2.761425
 31
0.0
  0
LINE
  5
18D
330
15E
100
AcDbEntity
  8
AM_9
100
AcDbLine
 10
-2.689824999999994
 20
-2.761425
 30
0.0
 11
-2.716874999999999
 21
-2.734375
 31
0.0
  0
LINE
  5
18E
330
15E
100
AcDbEntity
  8
AM_9
100
AcDbLine
 10
-2.716874999999999
 20
-2.984375
 30
0.0
 11
-2.689824999999994
 21
-2.957325
 31
0.0
  0
LINE
  5
18F
330
15E
100
AcDbEntity
  8
AM_9
100
AcDbLine
 10
-2.689824999999994
 20
-2.761425
 30
0.0
 11
-2.689824999999994
 21
-2.957325
 31
0.0
  0
LINE
  5
190
330
15E
100
AcDbEntity
  8
AM_9
100
AcDbLine
 10
-2.216874999999999
 20
1.803122292025696
 30
0.0
 11
-2.716874999999999
 21
1.803122292025696
 31
0.0
  0
LINE
  5
191
330
15E
100
AcDbEntity
  8
AM_9
100
AcDbLine
 10
-2.216874999999999
 20
-1.803122292025696
 30
0.0
 11
-2.716874999999999
 21
-1.803122292025696
 31
0.0
  0
LINE
  5
192
330
15E
100
AcDbEntity
  8
AM_9
100
AcDbLine
 10
-2.216874999999999
 20
-2.15667568261897
 30
0.0
 11
-2.375
 21
-2.15667568261897
 31
0.0
  0
LINE
  5
193
330
15E
100
AcDbEntity
  8
AM_9
100
AcDbLine
 10
1.268125
 20
2.123353983082296
 30
0.0
 11
-3.109375
 21
2.123353983082297
 31
0.0
  0
LINE
  5
194
330
15E
100
AcDbEntity
  8
AM_9
100
AcDbLine
 10
-3.109375
 20
2.027683124991024
 30
0.0
 11
1.268125
 21
2.027683124991023
 31
0.0
  0
LINE
  5
195
330
15E
100
AcDbEntity
  8
AM_9
100
AcDbLine
 10
1.268125
 20
2.25
 30
0.0
 11
-3.109374999999999
 21
2.25
 31
0.0
  0
LINE
  5
196
330
15E
100
AcDbEntity
  8
AM_9
100
AcDbLine
 10
-3.109374999999999
 20
-2.25
 30
0.0
 11
1.268125
 21
-2.25
 31
0.0
  0
LINE
  5
197
330
15E
100
AcDbEntity
  8
AM_9
100
AcDbLine
 10
2.125
 20
2.368421052631579
 30
0.0
 11
1.268125
 21
2.368421052631579
 31
0.0
  0
LINE
  5
198
330
15E
100
AcDbEntity
  8
AM_9
100
AcDbLine
 10
1.268125
 20
-2.368421052631579
 30
0.0
 11
2.125
 21
-2.368421052631579
 31
0.0
  0
LINE
  5
199
330
15E
100
AcDbEntity
  8
AM_9
100
AcDbLine
 10
-3.109375
 20
2.232921519477117
 30
0.0
 11
-2.716874999999999
 21
2.232921519477117
 31
0.0
  0
LINE
  5
19A
330
15E
100
AcDbEntity
  8
AM_9
100
AcDbLine
 10
-2.716874999999999
 20
2.137250661385844
 30
0.0
 11
-3.109375
 21
2.137250661385844
 31
0.0
  0
LINE
  5
19B
330
15E
100
AcDbEntity
  8
AM_9
100
AcDbLine
 10
-2.716874999999999
 20
2.368421052631579
 30
0.0
 11
-2.786875
 21
2.368421052631579
 31
0.0
  0
LINE
  5
19C
330
15E
100
AcDbEntity
  8
AM_9
100
AcDbLine
 10
-2.786875
 20
-2.368421052631579
 30
0.0
 11
-2.716874999999999
 21
-2.368421052631579
 31
0.0
  0
LINE
  5
19D
330
15E
100
AcDbEntity
  8
AM_9
100
AcDbLine
 10
-2.216874999999999
 20
2.104731320724462
 30
0.0
 11
-2.216874999999999
 21
1.803122292025696
 31
0.0
  0
LINE
  5
19E
330
15E
100
AcDbEntity
  8
AM_9
100
AcDbLine
 10
2.125
 20
-2.5
 30
0.0
 11
2.125
 21
2.5
 31
0.0
  0
LINE
  5
19F
330
15E
100
AcDbEntity
  8
AM_9
100
AcDbLine
 10
2.161000000000004
 20
2.5
 30
0.0
 11
2.125
 21
2.5
 31
0.0
  0
LINE
  5
1A0
330
15E
100
AcDbEntity
  8
AM_9
100
AcDbLine
 10
2.125
 20
-2.5
 30
0.0
 11
2.161000000000004
 21
-2.5
 31
0.0
  0
LINE
  5
1A1
330
15E
100
AcDbEntity
  8
AM_9
100
AcDbLine
 10
2.161
 20
-2.713675213675213
 30
0.0
 11
2.161
 21
-1.889370751358044
 31
0.0
  0
ARC
  5
1A2
330
15E
100
AcDbEntity
  8
AM_9
100
AcDbCircle
 10
2.096897435897436
 20
2.713675213675217
 30
0.0
 40
0.064102564102561
100
AcDbArc
 50
50.6985837789397
 51
90.0
  0
ARC
  5
1A3
330
15E
100
AcDbEntity
  8
AM_9
100
AcDbCircle
 10
2.096897435897436
 20
-2.713675213675214
 30
0.0
 40
0.0641025641025639
100
AcDbArc
 50
270.0
 51
0.0
  0
LINE
  5
1A4
330
15E
100
AcDbEntity
  8
AM_9
100
AcDbLine
 10
2.096897435897437
 20
2.777777777777778
 30
0.0
 11
1.699374999999999
 21
2.777777777777778
 31
0.0
  0
LINE
  5
1A5
330
15E
100
AcDbEntity
  8
AM_9
100
AcDbLine
 10
1.699374999999999
 20
-2.777777777777778
 30
0.0
 11
2.096897435897437
 21
-2.777777777777778
 31
0.0
  0
LINE
  5
1A6
330
15E
100
AcDbEntity
  8
AM_9
100
AcDbLine
 10
2.096897435897437
 20
-2.777777777777778
 30
0.0
 11
2.096897435897437
 21
2.777777777777778
 31
0.0
  0
LINE
  5
1A7
330
15E
100
AcDbEntity
  8
AM_9
100
AcDbLine
 10
-2.375000001854938
 20
-2.100815062415695
 30
0.0
 11
-2.216874999999999
 21
-2.104731320724462
 31
0.0
  0
LINE
  5
1A8
330
15E
100
AcDbEntity
  8
AM_9
100
AcDbLine
 10
-2.216874999999999
 20
-1.803122292025696
 30
0.0
 11
-2.216874999999999
 21
-2.458284711317735
 31
0.0
  0
LINE
  5
1A9
330
15E
100
AcDbEntity
  8
AM_9
100
AcDbLine
 10
-2.216874999999999
 20
-2.458284711317735
 30
0.0
 11
-2.375000001854938
 21
-2.454368453008969
 31
0.0
  0
LINE
  5
1AA
330
15E
100
AcDbEntity
  8
AM_9
100
AcDbLine
 10
-2.375
 20
-3.230688538069995
 30
0.0
 11
-0.8881250000000003
 21
-3.282611357208038
 31
0.0
  0
LINE
  5
1AB
330
15E
100
AcDbEntity
  8
AM_9
100
AcDbLine
 10
-0.8881250000000003
 20
3.282611357208038
 30
0.0
 11
-2.1375
 21
3.238982220824285
 31
0.0
  0
LINE
  5
1AC
330
15E
100
AcDbEntity
  8
AM_9
100
AcDbLine
 10
1.699374999999999
 20
-3.430282670983127
 30
0.0
 11
1.699374999999999
 21
3.430282670983127
 31
0.0
  0
ARC
  5
1AD
330
15E
100
AcDbEntity
  8
AM_9
100
AcDbCircle
 10
1.599374999999999
 20
3.430282669493011
 30
0.0
 40
0.1000000000000001
100
AcDbArc
 50
0.0
 51
59.99999999999986
  0
ARC
  5
1AE
330
15E
100
AcDbEntity
  8
AM_9
100
AcDbCircle
 10
1.599374999999999
 20
-3.430282669493011
 30
0.0
 40
0.1000000000000001
100
AcDbArc
 50
300.0000000000001
 51
0.0
  0
LINE
  5
1AF
330
15E
100
AcDbEntity
  8
AM_9
100
AcDbLine
 10
1.649375
 20
3.516885209871455
 30
0.0
 11
1.268125
 21
3.737
 31
0.0
  0
LINE
  5
1B0
330
15E
100
AcDbEntity
  8
AM_9
100
AcDbLine
 10
1.268125
 20
-3.737
 30
0.0
 11
1.649375
 21
-3.516885209871455
 31
0.0
  0
LINE
  5
1B1
330
15E
100
AcDbEntity
  8
AM_9
100
AcDbLine
 10
1.649375
 20
-3.516885209871455
 30
0.0
 11
1.649375
 21
3.516885209871455
 31
0.0
  0
LINE
  5
1B2
330
15E
100
AcDbEntity
  8
AM_9
100
AcDbLine
 10
0.2522455758970067
 20
3.8291875
 30
0.0
 11
0.1277544241029938
 21
3.8291875
 31
0.0
  0
LINE
  5
1B3
330
15E
100
AcDbEntity
  8
AM_9
100
AcDbLine
 10
0.1277544241029938
 20
-3.8291875
 30
0.0
 11
0.2522455758970067
 21
-3.8291875
 31
0.0
  0
LINE
  5
1B4
330
15E
100
AcDbEntity
  8
AM_9
100
AcDbLine
 10
0.1277544241029938
 20
3.8291875
 30
0.0
 11
0.065508848205987
 21
3.936999999999999
 31
0.0
  0
LINE
  5
1B5
330
15E
100
AcDbEntity
  8
AM_9
100
AcDbLine
 10
0.065508848205987
 20
-3.936999999999999
 30
0.0
 11
0.1277544241029938
 21
-3.8291875
 31
0.0
  0
LINE
  5
1B6
330
15E
100
AcDbEntity
  8
AM_9
100
AcDbLine
 10
0.1277544241029938
 20
-3.8291875
 30
0.0
 11
0.1277544241029938
 21
3.8291875
 31
0.0
  0
LINE
  5
1B7
330
15E
100
AcDbEntity
  8
AM_9
100
AcDbLine
 10
-0.8881250000000003
 20
-3.886999999999998
 30
0.0
 11
-0.8881250000000003
 21
3.886999999999998
 31
0.0
  0
ARC
  5
1B8
330
15E
100
AcDbEntity
  8
AM_9
100
AcDbCircle
 10
-0.8381250000000015
 20
3.887
 30
0.0
 40
0.0499999999999989
100
AcDbArc
 50
90.0
 51
180.0
  0
ARC
  5
1B9
330
15E
100
AcDbEntity
  8
AM_9
100
AcDbCircle
 10
-0.8381250000000015
 20
-3.887
 30
0.0
 40
0.0499999999999988
100
AcDbArc
 50
180.0
 51
270.0
  0
LINE
  5
1BA
330
15E
100
AcDbEntity
  8
AM_9
100
AcDbLine
 10
0.2522455758970067
 20
-3.8291875
 30
0.0
 11
0.3144911517940129
 21
-3.936999999999999
 31
0.0
  0
LINE
  5
1BB
330
15E
100
AcDbEntity
  8
AM_9
100
AcDbLine
 10
0.3144911517940129
 20
3.936999999999999
 30
0.0
 11
0.2522455758970067
 21
3.8291875
 31
0.0
  0
LINE
  5
1BC
330
15E
100
AcDbEntity
  8
AM_9
100
AcDbLine
 10
0.2522455758970067
 20
-3.8291875
 30
0.0
 11
0.2522455758970067
 21
3.8291875
 31
0.0
  0
LINE
  5
1BD
330
15E
100
AcDbEntity
  8
AM_9
100
AcDbLine
 10
1.218125
 20
3.936999999999999
 30
0.0
 11
0.3144911517940129
 21
3.936999999999999
 31
0.0
  0
LINE
  5
1BE
330
15E
100
AcDbEntity
  8
AM_9
100
AcDbLine
 10
0.3144911517940129
 20
-3.936999999999999
 30
0.0
 11
1.218125
 21
-3.936999999999999
 31
0.0
  0
LINE
  5
1BF
330
15E
100
AcDbEntity
  8
AM_9
100
AcDbLine
 10
0.3144911517940129
 20
-3.936999999999999
 30
0.0
 11
0.3144911517940129
 21
3.936999999999999
 31
0.0
  0
LINE
  5
1C0
330
15E
100
AcDbEntity
  8
AM_9
100
AcDbLine
 10
1.268125
 20
-3.887000000000001
 30
0.0
 11
1.268125
 21
3.887000000000001
 31
0.0
  0
ARC
  5
1C1
330
15E
100
AcDbEntity
  8
AM_9
100
AcDbCircle
 10
1.218125000000002
 20
3.887000000000002
 30
0.0
 40
0.0499999999999974
100
AcDbArc
 50
0.0
 51
90.0
  0
ARC
  5
1C2
330
15E
100
AcDbEntity
  8
AM_9
100
AcDbCircle
 10
1.218125000000002
 20
-3.887000000000002
 30
0.0
 40
0.0499999999999976
100
AcDbArc
 50
270.0
 51
0.0
  0
LINE
  5
1C3
330
15E
100
AcDbEntity
  8
AM_9
100
AcDbLine
 10
1.218125
 20
-3.936999999999999
 30
0.0
 11
1.218125
 21
3.936999999999999
 31
0.0
  0
LINE
  5
1C4
330
15E
100
AcDbEntity
  8
AM_9
100
AcDbLine
 10
0.065508848205987
 20
3.936999999999999
 30
0.0
 11
-0.8381250000000005
 21
3.936999999999999
 31
0.0
  0
LINE
  5
1C5
330
15E
100
AcDbEntity
  8
AM_9
100
AcDbLine
 10
-0.8381250000000005
 20
-3.936999999999999
 30
0.0
 11
0.065508848205987
 21
-3.936999999999999
 31
0.0
  0
LINE
  5
1C6
330
15E
100
AcDbEntity
  8
AM_9
100
AcDbLine
 10
0.065508848205987
 20
-3.936999999999999
 30
0.0
 11
0.065508848205987
 21
3.936999999999999
 31
0.0
  0
LINE
  5
1C7
330
15E
100
AcDbEntity
  8
AM_9
100
AcDbLine
 10
-0.8381250000000005
 20
-3.936999999999999
 30
0.0
 11
-0.8381250000000005
 21
3.936999999999999
 31
0.0
  0
LINE
  5
1C8
330
15E
100
AcDbEntity
  8
AM_5
100
AcDbLine
 10
-1.956875
 20
2.957325
 30
0.0
 11
-1.956875
 21
2.984375
 31
0.0
  0
LINE
  5
1C9
330
15E
100
AcDbEntity
  8
AM_5
100
AcDbLine
 10
-1.956875
 20
2.984375
 30
0.0
 11
-1.941257675218421
 21
2.957325
 31
0.0
  0
LINE
  5
1CA
330
15E
100
AcDbEntity
  8
AM_5
100
AcDbLine
 10
-1.956875
 20
2.761425
 30
0.0
 11
-1.956875
 21
2.734375
 31
0.0
  0
LINE
  5
1CB
330
15E
100
AcDbEntity
  8
AM_5
100
AcDbLine
 10
-1.956875
 20
2.734375
 30
0.0
 11
-1.941257675218421
 21
2.761425
 31
0.0
  0
LINE
  5
1CC
330
15E
100
AcDbEntity
  8
AM_5
100
AcDbLine
 10
-1.956875000000003
 20
-2.957325
 30
0.0
 11
-1.956875000000003
 21
-2.984375
 31
0.0
  0
LINE
  5
1CD
330
15E
100
AcDbEntity
  8
AM_5
100
AcDbLine
 10
-1.956875000000003
 20
-2.984375
 30
0.0
 11
-1.941257675218422
 21
-2.957325
 31
0.0
  0
LINE
  5
1CE
330
15E
100
AcDbEntity
  8
AM_5
100
AcDbLine
 10
-1.956875000000003
 20
-2.761425
 30
0.0
 11
-1.956875000000003
 21
-2.734375
 31
0.0
  0
LINE
  5
1CF
330
15E
100
AcDbEntity
  8
AM_5
100
AcDbLine
 10
-1.956875000000003
 20
-2.734375
 30
0.0
 11
-1.941257675218422
 21
-2.761425
 31
0.0
  0
LINE
  5
1D2
330
15E
100
AcDbEntity
  8
AM_7
100
AcDbLine
 10
-1.834875
 20
2.859375
 30
0.0
 11
-2.965475
 21
2.859375
 31
0.0
  0
LINE
  5
1D3
330
15E
100
AcDbEntity
  8
AM_7
100
AcDbLine
 10
-1.834875000000007
 20
-2.859375
 30
0.0
 11
-2.965475
 21
-2.859375
 31
0.0
  0
ARC
  5
1D4
330
15E
100
AcDbEntity
  8
AM_4
100
AcDbCircle
 10
-2.666875000000001
 20
-3.17046556125965
 30
0.0
 40
0.0499999999999989
100
AcDbArc
 50
180.0
 51
268.0000000000005
  0
ARC
  5
1D5
330
15E
100
AcDbEntity
  8
AM_4
100
AcDbCircle
 10
-2.666875
 20
3.17046556125965
 30
0.0
 40
0.0499999999999994
100
AcDbArc
 50
92.00000000000001
 51
180.0
  0
LWPOLYLINE
  5
1D6
330
15E
100
AcDbEntity
  8
AM_4
100
AcDbPolyline
 90
        6
 70
     0
 43
0.0
 10
-2.668619974835125
 20
-2.447096303867925
 10
-2.685019229136175
 20
-2.444700575480429
 10
-2.699380368853466
 20
-2.438601254882651
 10
-2.710102265277026
 20
-2.429476916689536
 10
-2.715981385331661
 20
-2.418329013760631
 10
-2.716874999999999
 20
-2.411653859161965
  0
LWPOLYLINE
  5
1D7
330
15E
100
AcDbEntity
  8
AM_4
100
AcDbPolyline
 90
        6
 70
     0
 43
0.0
 10
-2.716874999999999
 20
2.411653859161965
 10
-2.71632393265234
 20
2.416904818123677
 10
-2.711059045278353
 20
2.428254643563232
 10
-2.7007796397095
 20
2.437719425164448
 10
-2.686675574892906
 20
2.444218690395056
 10
-2.668619974835125
 20
2.447096303867924
  0
LINE
  5
1D8
330
15E
100
AcDbEntity
  8
AM_4
100
AcDbLine
 10
-2.216874999999999
 20
2.156675682618969
 30
0.0
 11
-2.716874999999999
 21
2.156675682618969
 31
0.0
  0
LINE
  5
1D9
330
15E
100
AcDbEntity
  8
AM_4
100
AcDbLine
 10
-2.375
 20
-2.15667568261897
 30
0.0
 11
-2.716874999999999
 21
-2.15667568261897
 31
0.0
  0
LINE
  5
1DA
330
15E
100
AcDbEntity
  8
AM_4
100
AcDbLine
 10
-2.786875
 20
2.368421052631579
 30
0.0
 11
-3.109375
 21
2.368421052631579
 31
0.0
  0
LINE
  5
1DB
330
15E
100
AcDbEntity
  8
AM_4
100
AcDbLine
 10
-3.109375
 20
-2.368421052631579
 30
0.0
 11
-2.786875
 21
-2.368421052631579
 31
0.0
  0
LINE
  5
1DC
330
15E
100
AcDbEntity
  8
AM_4
100
AcDbLine
 10
-3.109375
 20
-2.368421052631579
 30
0.0
 11
-3.109375
 21
2.368421052631579
 31
0.0
  0
LINE
  5
1DD
330
15E
100
AcDbEntity
  8
AM_4
100
AcDbLine
 10
2.161
 20
-1.889370751358044
 30
0.0
 11
2.161
 21
2.713675213675213
 31
0.0
  0
ARC
  5
1DE
330
15E
100
AcDbEntity
  8
AM_4
100
AcDbCircle
 10
2.096897435897438
 20
2.713675213675215
 30
0.0
 40
0.0641025641025612
100
AcDbArc
 50
0.0
 51
50.69858377894248
  0
LWPOLYLINE
  5
1DF
330
15E
100
AcDbEntity
  8
AM_4
100
AcDbPolyline
 90
        6
 70
     0
 43
0.0
 10
-2.668619974835125
 20
2.093542913274651
 10
-2.685019229136175
 20
2.091147184887156
 10
-2.699380368853465
 20
2.085047864289379
 10
-2.710102265277026
 20
2.075923526096263
 10
-2.715981385331661
 20
2.064775623167359
 10
-2.716874999999999
 20
2.058100468568692
  0
LWPOLYLINE
  5
1E0
330
15E
100
AcDbEntity
  8
AM_4
100
AcDbPolyline
 90
        6
 70
     0
 43
0.0
 10
-2.716874999999999
 20
-2.058100468568691
 10
-2.71632393265234
 20
-2.063351427530405
 10
-2.711059045278354
 20
-2.074701252969958
 10
-2.7007796397095
 20
-2.084166034571175
 10
-2.686675574892906
 20
-2.090665299801784
 10
-2.668619974835125
 20
-2.093542913274652
  0
LINE
  5
1E1
330
15E
100
AcDbEntity
  8
AM_4
100
AcDbLine
 10
-2.668619974835125
 20
-2.093542913274652
 30
0.0
 11
-2.668619974835125
 21
2.093542913274651
 31
0.0
  0
LINE
  5
1E2
330
15E
100
AcDbEntity
  8
AM_4
100
AcDbLine
 10
-2.668619974835125
 20
-2.093542913274652
 30
0.0
 11
-2.375000001854938
 21
-2.100815062415695
 31
0.0
  0
LINE
  5
1E3
330
15E
100
AcDbEntity
  8
AM_4
100
AcDbLine
 10
-2.375000001854938
 20
-2.454368453008969
 30
0.0
 11
-2.668619974835125
 21
-2.447096303867925
 31
0.0
  0
LINE
  5
1E4
330
15E
100
AcDbEntity
  8
AM_4
100
AcDbLine
 10
-2.668619974835125
 20
2.447096303867924
 30
0.0
 11
-2.668619974835125
 21
3.220435102610604
 31
0.0
  0
LINE
  5
1E5
330
15E
100
AcDbEntity
  8
AM_4
100
AcDbLine
 10
-2.668619974835125
 20
2.447096303867924
 30
0.0
 11
-2.216874999999999
 21
2.458284711317735
 31
0.0
  0
LINE
  5
1E6
330
15E
100
AcDbEntity
  8
AM_4
100
AcDbLine
 10
-2.216874999999999
 20
2.458284711317735
 30
0.0
 11
-2.216874999999999
 21
2.104731320724462
 31
0.0
  0
LINE
  5
1E7
330
15E
100
AcDbEntity
  8
AM_4
100
AcDbLine
 10
-2.216874999999999
 20
2.104731320724462
 30
0.0
 11
-2.668619974835125
 21
2.093542913274651
 31
0.0
  0
LINE
  5
1E8
330
15E
100
AcDbEntity
  8
AM_4
100
AcDbLine
 10
-2.668619974835125
 20
-3.220435102610604
 30
0.0
 11
-2.375
 21
-3.230688538069995
 31
0.0
  0
LINE
  5
1E9
330
15E
100
AcDbEntity
  8
AM_4
100
AcDbLine
 10
-2.1375
 20
3.238982220824285
 30
0.0
 11
-2.668619974835125
 21
3.220435102610604
 31
0.0
  0
LINE
  5
1EA
330
15E
100
AcDbEntity
  8
AM_4
100
AcDbLine
 10
-2.668619974835125
 20
-3.220435102610604
 30
0.0
 11
-2.668619974835125
 21
-2.447096303867925
 31
0.0
  0
ENDBLK
  5
161
330
15E
100
AcDbEntity
  8
0
100
AcDbBlockEnd
  0
BLOCK
  5
1ED
330
1EB
100
AcDbEntity
  8
0
100
AcDbBlockBegin
  2
7_069589H_0_in_069589_2
 70
     2
 10
0.0
 20
0.0
 30
0.0
  3
7_069589H_0_in_069589_2
  1

  0
ATTDEF
  5
1EF
330
1EB
100
AcDbEntity
  8
AM_6
100
AcDbText
 10
7.6125
 20
4.875
 30
0.0
 40
0.5
  1
P4B-IP -(Labyrinth Seal)-Housing -Inch
100
AcDbAttributeDefinition
  3

  2
NN
 70
     8
280
     0
  0
ATTDEF
  5
1F0
330
1EB
100
AcDbEntity
  8
AM_6
100
AcDbText
 10
7.6125
 20
4.375
 30
0.0
 40
0.5
  1
Imperial $ Bolt Piliow Block Bearings
100
AcDbAttributeDefinition
  3

  2
NT
 70
     8
280
     0
  0
ATTDEF
  5
1F1
330
1EB
100
AcDbEntity
  8
AM_6
100
AcDbText
 10
7.6125
 20
3.875
 30
0.0
 40
0.5
  1
069589H
100
AcDbAttributeDefinition
  3

  2
NB
 70
     8
280
     0
  0
ATTDEF
  5
1F2
330
1EB
100
AcDbEntity
  8
AM_6
100
AcDbText
 10
7.6125
 20
3.375
 30
0.0
 40
0.5
  1
$PN.H
100
AcDbAttributeDefinition
  3

  2
NBSYN
 70
     8
280
     0
  0
ATTDEF
  5
1F3
330
1EB
100
AcDbEntity
  8
AM_6
100
AcDbText
 10
7.6125
 20
2.875
 30
0.0
 40
0.5
  1
069589
100
AcDbAttributeDefinition
  3

  2
LINA
 70
     8
280
     0
  0
ATTDEF
  5
1F4
330
1EB
100
AcDbEntity
  8
AM_6
100
AcDbText
 10
7.6125
 20
2.375
 30
0.0
 40
0.5
  1
4-1/2
100
AcDbAttributeDefinition
  3

  2
SS
 70
     8
280
     0
  0
ATTDEF
  5
1F5
330
1EB
100
AcDbEntity
  8
AM_6
100
AcDbText
 10
7.6125
 20
1.875
 30
0.0
 40
0.5
  1
069589
100
AcDbAttributeDefinition
  3

  2
PN
 70
     8
280
     0
  0
ATTDEF
  5
1F6
330
1EB
100
AcDbEntity
  8
AM_6
100
AcDbText
 10
7.6125
 20
1.375
 30
0.0
 40
0.5
  1
P4B-IP-408LE
100
AcDbAttributeDefinition
  3

  2
DESCRIPTION
 70
     8
280
     0
  0
ATTDEF
  5
1F7
330
1EB
100
AcDbEntity
  8
AM_6
100
AcDbText
 10
7.6125
 20
0.875
 30
0.0
 40
0.5
  1
Expansion Type
100
AcDbAttributeDefinition
  3

  2
EF
 70
     8
280
     0
  0
ATTDEF
  5
1F8
330
1EB
100
AcDbEntity
  8
AM_6
100
AcDbText
 10
7.6125
 20
0.375
 30
0.0
 40
0.5
  1
Labyrinth  Seal
100
AcDbAttributeDefinition
  3

  2
ST
 70
     8
280
     0
  0
ATTDEF
  5
1F9
330
1EB
100
AcDbEntity
  8
AM_6
100
AcDbText
 10
7.6125
 20
-0.125
 30
0.0
 40
0.5
  1
5-15/64
100
AcDbAttributeDefinition
  3

  2
A
 70
     8
280
     0
  0
ATTDEF
  5
1FA
330
1EB
100
AcDbEntity
  8
AM_6
100
AcDbText
 10
7.6125
 20
-0.625
 30
0.0
 40
0.5
  1
16-1/2
100
AcDbAttributeDefinition
  3

  2
B
 70
     8
280
     0
  0
ATTDEF
  5
1FB
330
1EB
100
AcDbEntity
  8
AM_6
100
AcDbText
 10
7.6125
 20
-1.125
 30
0.0
 40
0.5
  1
4-3/4
100
AcDbAttributeDefinition
  3

  2
C
 70
     8
280
     0
  0
ATTDEF
  5
1FC
330
1EB
100
AcDbEntity
  8
AM_6
100
AcDbText
 10
7.6125
 20
-1.625
 30
0.0
 40
0.5
  1
13
100
AcDbAttributeDefinition
  3

  2
DMIN
 70
     8
280
     0
  0
ATTDEF
  5
1FD
330
1EB
100
AcDbEntity
  8
AM_6
100
AcDbText
 10
7.6125
 20
-2.125
 30
0.0
 40
0.5
  1
14
100
AcDbAttributeDefinition
  3

  2
DMAX
 70
     8
280
     0
  0
ATTDEF
  5
1FE
330
1EB
100
AcDbEntity
  8
AM_6
100
AcDbText
 10
7.6125
 20
-2.625
 30
0.0
 40
0.5
  1
2-1/2
100
AcDbAttributeDefinition
  3

  2
E
 70
     8
280
     0
  0
ATTDEF
  5
1FF
330
1EB
100
AcDbEntity
  8
AM_6
100
AcDbText
 10
7.6125
 20
-3.125
 30
0.0
 40
0.5
  1
3/4
100
AcDbAttributeDefinition
  3

  2
F
 70
     8
280
     0
  0
ATTDEF
  5
200
330
1EB
100
AcDbEntity
  8
AM_6
100
AcDbText
 10
7.6125
 20
-3.625
 30
0.0
 40
0.5
  1
1-3/8
100
AcDbAttributeDefinition
  3

  2
G
 70
     8
280
     0
  0
ATTDEF
  5
201
330
1EB
100
AcDbEntity
  8
AM_6
100
AcDbText
 10
7.6125
 20
-4.125
 30
0.0
 40
0.5
  1
2-3/4
100
AcDbAttributeDefinition
  3

  2
H
 70
     8
280
     0
  0
ATTDEF
  5
202
330
1EB
100
AcDbEntity
  8
AM_6
100
AcDbText
 10
7.6125
 20
-4.625
 30
0.0
 40
0.5
  1
9-5/8
100
AcDbAttributeDefinition
  3

  2
J
 70
     8
280
     0
  0
ATTDEF
  5
203
330
1EB
100
AcDbEntity
  8
AM_6
100
AcDbText
 10
7.6125
 20
-5.125
 30
0.0
 40
0.5
  1
6-7/16
100
AcDbAttributeDefinition
  3

  2
L
 70
     8
280
     0
  0
ATTDEF
  5
204
330
1EB
100
AcDbEntity
  8
AM_6
100
AcDbText
 10
7.6125
 20
-5.625
 30
0.0
 40
0.5
  1
4-3/4
100
AcDbAttributeDefinition
  3

  2
M
 70
     8
280
     0
  0
ATTDEF
  5
205
330
1EB
100
AcDbEntity
  8
AM_6
100
AcDbText
 10
7.6125
 20
-6.125
 30
0.0
 40
0.5
  1
1-3/4
100
AcDbAttributeDefinition
  3

  2
R
 70
     8
280
     0
  0
ATTDEF
  5
206
330
1EB
100
AcDbEntity
  8
AM_6
100
AcDbText
 10
7.6125
 20
-6.625
 30
0.0
 40
0.5
  1
3-31/64
100
AcDbAttributeDefinition
  3

  2
S
 70
     8
280
     0
  0
ATTDEF
  5
207
330
1EB
100
AcDbEntity
  8
AM_6
100
AcDbText
 10
7.6125
 20
-7.125
 30
0.0
 40
0.5
  1
3/8
100
AcDbAttributeDefinition
  3

  2
X
 70
     8
280
     0
  0
ATTDEF
  5
208
330
1EB
100
AcDbEntity
  8
AM_6
100
AcDbText
 10
7.6125
 20
-7.625
 30
0.0
 40
0.5
  1
0.036
100
AcDbAttributeDefinition
  3

  2
Y
 70
     8
280
     0
  0
ATTDEF
  5
209
330
1EB
100
AcDbEntity
  8
AM_6
100
AcDbText
 10
7.6125
 20
-8.125
 30
0.0
 40
0.5
  1
5
100
AcDbAttributeDefinition
  3

  2
Z
 70
     8
280
     0
  0
ATTDEF
  5
20A
330
1EB
100
AcDbEntity
  8
AM_6
100
AcDbText
 10
7.6125
 20
-8.625
 30
0.0
 40
0.5
  1
baldor
100
AcDbAttributeDefinition
  3

  2
COMPANY
 70
     8
280
     0
  0
LWPOLYLINE
  5
20B
330
1EB
100
AcDbEntity
  8
AM_9
100
AcDbPolyline
 90
        4
 70
     0
 43
0.0
 10
-0.4737715355306429
 20
4.139697616495713
 10
-0.4875678135125263
 20
4.165380937978231
 10
-0.496872011265968
 20
4.193719981058514
 10
-0.5000000000000002
 20
4.221873843449138
  0
LWPOLYLINE
  5
20C
330
1EB
100
AcDbEntity
  8
AM_9
100
AcDbPolyline
 90
       18
 70
     0
 43
0.0
 10
0.4901549833037735
 20
4.171641684673491
 10
0.4716431505986786
 20
4.136430725612186
 10
0.4372444596432635
 20
4.095434217798632
 10
0.3906615559566171
 20
4.057183367227178
 10
0.3327603305534587
 20
4.022926356636404
 10
0.2654916878672345
 20
3.994053052027819
 10
0.1904480204428091
 20
3.971726890462083
 10
0.1099856266631397
 20
3.956812804618817
 10
0.0553349598344021
 20
3.951424964893621
 10
-0.0000000000000002
 20
3.949609356833084
 10
-0.083686958654637
 20
3.953795498107614
 10
-0.1650090078107275
 20
3.966046290119559
 10
-0.2415999281043469
 20
3.985974537681728
 10
-0.3114080205821743
 20
4.012667652826553
 10
-0.3725647691278598
 20
4.045294059794634
 10
-0.4232449434228207
 20
4.082473607875911
 10
-0.4619335915273812
 20
4.123005804677175
 10
-0.4737715355306429
 20
4.139697616495713
  0
LWPOLYLINE
  5
20D
330
1EB
100
AcDbEntity
  8
AM_9
100
AcDbPolyline
 90
        4
 70
     0
 43
0.0
 10
0.5
 20
4.221873843449139
 10
0.4999984541777813
 20
4.221252051129935
 10
0.4927033584356064
 20
4.178820435767131
 10
0.4901549833037735
 20
4.171641684673491
  0
ELLIPSE
  5
20E
330
1EB
100
AcDbEntity
  8
AM_9
100
AcDbEllipse
 10
-0.0000000000000002
 20
4.221873843449103
 30
0.0
 11
0.5
 21
0.0
 31
0.0
210
0.0
220
0.0
230
1.0
 40
0.4999999999999911
 41
3.141592653589793
 42
3.47602526964579
  0
ELLIPSE
  5
20F
330
1EB
100
AcDbEntity
  8
AM_9
100
AcDbEllipse
 10
-0.0000000000000002
 20
4.308476383827582
 30
0.0
 11
-0.4
 21
4.898587196589413E-17
 31
0.0
210
0.0
220
0.0
230
1.0
 40
0.5000000000000004
 41
0.0
 42
6.283185307179586
  0
LINE
  5
210
330
1EB
100
AcDbEntity
  8
AM_9
100
AcDbLine
 10
-0.4999713726274881
 20
4.225257692857326
 30
0.0
 11
-0.4999999632432892
 21
4.221752588826178
 31
0.0
  0
LWPOLYLINE
  5
211
330
1EB
100
AcDbEntity
  8
AM_9
100
AcDbPolyline
 90
       37
 70
     0
 43
0.0
 10
0.4999999311358089
 20
4.222039812342257
 10
0.499944782703678
 20
4.226573312892972
 10
0.4973169703068716
 20
4.254565222640583
 10
0.4909004788571427
 20
4.281778630170875
 10
0.4808667493988364
 20
4.308067482153153
 10
0.4673021944093414
 20
4.333385081198968
 10
0.4502006378045365
 20
4.357713605642259
 10
0.4294861351751821
 20
4.381017908864987
 10
0.405084766158731
 20
4.403192192154396
 10
0.3770370164741637
 20
4.424028849153326
 10
0.3455859790917308
 20
4.443246803687738
 10
0.3111576684367715
 20
4.460575942421288
 10
0.2742972500305031
 20
4.475811746850826
 10
0.2354590118808927
 20
4.488876556117157
 10
0.1949998931258077
 20
4.49975883893535
 10
0.1532349978941744
 20
4.508463913616144
 10
0.1104599425885225
 20
4.514999197602076
 10
0.0669646033038265
 20
4.519369825173168
 10
0.0230391862019033
 20
4.521578774940612
 10
-0.0210245721333977
 20
4.521628146802569
 10
-0.0649348809224573
 20
4.519520043157895
 10
-0.108382016855459
 20
4.515258947191422
 10
-0.1510830855513681
 20
4.508848312916412
 10
-0.1927645497321586
 20
4.500286958850923
 10
-0.2331629221035945
 20
4.489564525739321
 10
-0.2720228937593505
 20
4.476655650723399
 10
-0.309089632166506
 20
4.461514280654968
 10
-0.3440909890314427
 20
4.444072287017266
 10
-0.376704972813977
 20
4.424252246195618
 10
-0.4064868199279229
 20
4.402034877322907
 10
-0.4328249245572905
 20
4.377593033026835
 10
-0.4529515214471042
 20
4.354183556094347
 10
-0.4694595567736637
 20
4.329821543997331
 10
-0.4823838896962751
 20
4.304676473429349
 10
-0.4925738044376384
 20
4.276061450040973
 10
-0.4983804531836901
 20
4.24729396101627
 10
-0.4999713726274881
 20
4.225257692857326
  0
LWPOLYLINE
  5
212
330
1EB
100
AcDbEntity
  8
AM_9
100
AcDbPolyline
 90
        3
 70
     0
 43
0.0
 10
0.4876905815361515
 20
4.275925229345005
 10
0.4929520174796013
 20
4.262927275256543
 10
0.5
 20
4.221873843449139
  0
LWPOLYLINE
  5
213
330
1EB
100
AcDbEntity
  8
AM_9
100
AcDbPolyline
 90
       17
 70
     0
 43
0.0
 10
-0.4769000085859146
 20
4.29497950587206
 10
-0.4504209391510402
 20
4.326223168841105
 10
-0.4077420764793785
 20
4.359081183177031
 10
-0.3536756972821367
 20
4.387479539840943
 10
-0.2892697433151522
 20
4.410961938205354
 10
-0.2166850460558664
 20
4.429103847227793
 10
-0.1378458512763326
 20
4.441598640490493
 10
-0.0550812270750115
 20
4.448358659604629
 10
0.0288933503503778
 20
4.449249620140382
 10
0.1120504767229017
 20
4.444371805144174
 10
0.1918231984887452
 20
4.433743820351665
 10
0.2662185765528578
 20
4.417550455403626
 10
0.3332970326650709
 20
4.395842203915616
 10
0.3910237178026433
 20
4.36904497802986
 10
0.4377966359188348
 20
4.337397990786295
 10
0.4722071269549565
 20
4.301662581959457
 10
0.4876905815361515
 20
4.275925229345005
  0
LWPOLYLINE
  5
214
330
1EB
100
AcDbEntity
  8
AM_9
100
AcDbPolyline
 90
        4
 70
     0
 43
0.0
 10
-0.5000000000000002
 20
4.221873843449138
 10
-0.4967825431037198
 20
4.249904621995392
 10
-0.4802957639416092
 20
4.289555818249568
 10
-0.4769000085859146
 20
4.29497950587206
  0
ELLIPSE
  5
215
330
1EB
100
AcDbEntity
  8
AM_9
100
AcDbEllipse
 10
0.0000000000000013
 20
4.221873843449146
 30
0.0
 11
0.5000000000000014
 21
0.0
 31
0.0
210
0.0
220
0.0
230
1.0
 40
0.4999999999999941
 41
3.47602526964595
 42
9.42477796076938
  0
LINE
  5
216
330
1EB
100
AcDbEntity
  8
AM_9
100
AcDbLine
 10
-1.6875
 20
-4.546633369868303
 30
0.0
 11
1.6875
 21
-4.546633369868303
 31
0.0
  0
LINE
  5
217
330
1EB
100
AcDbEntity
  8
AM_9
100
AcDbLine
 10
-1.6875
 20
-3.271226425898667
 30
0.0
 11
1.6875
 21
-3.271226425898667
 31
0.0
  0
LINE
  5
218
330
1EB
100
AcDbEntity
  8
AM_9
100
AcDbLine
 10
-2.1375
 20
-3.936999999999999
 30
0.0
 11
2.1375
 21
-3.936999999999999
 31
0.0
  0
LINE
  5
219
330
1EB
100
AcDbEntity
  8
AM_9
100
AcDbLine
 10
2.1375
 20
3.936999999999999
 30
0.0
 11
-2.1375
 21
3.936999999999999
 31
0.0
  0
LINE
  5
21A
330
1EB
100
AcDbEntity
  8
AM_9
100
AcDbLine
 10
-2.1375
 20
-1.851899089169998
 30
0.0
 11
-2.1375
 21
-4.75
 31
0.0
  0
LINE
  5
21B
330
1EB
100
AcDbEntity
  8
AM_9
100
AcDbLine
 10
2.1375
 20
-1.85189908917
 30
0.0
 11
2.1375
 21
-4.75
 31
0.0
  0
LINE
  5
21C
330
1EB
100
AcDbEntity
  8
AM_9
100
AcDbLine
 10
1.6875
 20
-3.1
 30
0.0
 11
-1.6875
 21
-3.1
 31
0.0
  0
LINE
  5
21D
330
1EB
100
AcDbEntity
  8
AM_9
100
AcDbLine
 10
1.6875
 20
-4.75
 30
0.0
 11
1.6875
 21
-2.0
 31
0.0
  0
LINE
  5
21E
330
1EB
100
AcDbEntity
  8
AM_9
100
AcDbLine
 10
1.250000000000001
 20
-3.1
 30
0.0
 11
1.250000000000001
 21
-4.75
 31
0.0
  0
LINE
  5
21F
330
1EB
100
AcDbEntity
  8
AM_9
100
AcDbLine
 10
0.8125000000000004
 20
-2.0
 30
0.0
 11
0.8125000000000004
 21
-3.1
 31
0.0
  0
LINE
  5
220
330
1EB
100
AcDbEntity
  8
AM_9
100
AcDbLine
 10
-1.25
 20
-3.1
 30
0.0
 11
-1.250000000000001
 21
-4.75
 31
0.0
  0
LINE
  5
221
330
1EB
100
AcDbEntity
  8
AM_9
100
AcDbLine
 10
-1.687499999999999
 20
-4.75
 30
0.0
 11
-1.687499999999999
 21
-2.0
 31
0.0
  0
LINE
  5
222
330
1EB
100
AcDbEntity
  8
AM_9
100
AcDbLine
 10
-0.8124999999999998
 20
-2.0
 30
0.0
 11
-0.8124999999999998
 21
-3.1
 31
0.0
  0
LINE
  5
223
330
1EB
100
AcDbEntity
  8
AM_7
100
AcDbLine
 10
2.6125
 20
0.0
 30
0.0
 11
-3.372893750000001
 21
0.0
 31
0.0
  0
LINE
  5
224
330
1EB
100
AcDbEntity
  8
AM_4
100
AcDbLine
 10
-2.1375
 20
4.737500000000004
 30
0.0
 11
2.1375
 21
4.7375
 31
0.0
  0
LINE
  5
225
330
1EB
100
AcDbEntity
  8
AM_4
100
AcDbLine
 10
-2.1375
 20
4.875
 30
0.0
 11
2.1375
 21
4.875
 31
0.0
  0
LINE
  5
226
330
1EB
100
AcDbEntity
  8
AM_4
100
AcDbLine
 10
1.425
 20
0.7302225688103626
 30
0.0
 11
-1.425
 21
0.7302225688103626
 31
0.0
  0
LINE
  5
227
330
1EB
100
AcDbEntity
  8
AM_4
100
AcDbLine
 10
-2.1375
 20
4.695040598570178
 30
0.0
 11
2.1375
 21
4.695040598570178
 31
0.0
  0
LINE
  5
228
330
1EB
100
AcDbEntity
  8
AM_4
100
AcDbLine
 10
-1.425
 20
-1.862500000000002
 30
0.0
 11
1.425
 21
-1.862500000000002
 31
0.0
  0
LINE
  5
229
330
1EB
100
AcDbEntity
  8
AM_4
100
AcDbLine
 10
-2.1375
 20
0.5808800185198275
 30
0.0
 11
-1.425
 21
0.5808800185198275
 31
0.0
  0
LINE
  5
22A
330
1EB
100
AcDbEntity
  8
AM_4
100
AcDbLine
 10
1.425
 20
0.5808800185198275
 30
0.0
 11
2.1375
 21
0.5808800185198275
 31
0.0
  0
LINE
  5
22B
330
1EB
100
AcDbEntity
  8
AM_4
100
AcDbLine
 10
-1.425
 20
0.7302225688103626
 30
0.0
 11
-1.425
 21
-2.0
 31
0.0
  0
LINE
  5
22C
330
1EB
100
AcDbEntity
  8
AM_4
100
AcDbLine
 10
-2.1375
 20
-1.757767590788298
 30
0.0
 11
-1.425
 21
-1.757767590788298
 31
0.0
  0
LINE
  5
22D
330
1EB
100
AcDbEntity
  8
AM_4
100
AcDbLine
 10
-2.1375
 20
-1.851899089169998
 30
0.0
 11
-2.1375
 21
4.875
 31
0.0
  0
LWPOLYLINE
  5
22E
330
1EB
100
AcDbEntity
  8
AM_4
100
AcDbPolyline
 90
       14
 70
     0
 43
0.0
 10
-2.375
 20
-1.999923866183913
 10
-2.351063428576781
 20
-1.998313753726787
 10
-2.327358273581583
 20
-1.994623558572444
 10
-2.304064945557486
 20
-1.988881365334208
 10
-2.281360720795646
 20
-1.981130875569854
 10
-2.259418392155689
 20
-1.971431075186363
 10
-2.238404954007704
 20
-1.959855785521552
 10
-2.218480331304258
 20
-1.946493101519121
 10
-2.199796162454942
 20
-1.931444721272938
 10
-2.182494645266507
 20
-1.914825172043138
 10
-2.166707454731699
 20
-1.896760938634517
 10
-2.152554740903055
 20
-1.877389500770796
 10
-2.140144214478452
 20
-1.856858286790914
 10
-2.1375
 20
-1.851899089169998
  0
LINE
  5
22F
330
1EB
100
AcDbEntity
  8
AM_4
100
AcDbLine
 10
1.425
 20
-1.757767590788298
 30
0.0
 11
2.1375
 21
-1.757767590788298
 31
0.0
  0
LINE
  5
230
330
1EB
100
AcDbEntity
  8
AM_4
100
AcDbLine
 10
1.425
 20
0.7302225688103626
 30
0.0
 11
1.424999999999999
 21
-2.0
 31
0.0
  0
LWPOLYLINE
  5
231
330
1EB
100
AcDbEntity
  8
AM_4
100
AcDbPolyline
 90
       14
 70
     0
 43
0.0
 10
2.1375
 20
-1.851899089170002
 10
2.149488365906921
 20
-1.872679632870908
 10
2.163242256183131
 20
-1.892336245394266
 10
2.178656995418804
 20
-1.910719328049787
 10
2.195615268140681
 20
-1.927688974478452
 10
2.213988011653665
 20
-1.943116035424387
 10
2.233635398285855
 20
-1.95688310163868
 10
2.254407899561564
 20
-1.968885397434657
 10
2.276147424203305
 20
-1.979031578094128
 10
2.298688521301871
 20
-1.987244425055841
 10
2.321859639497654
 20
-1.993461433595366
 10
2.345484432590081
 20
-1.997635288523785
 10
2.369383101638678
 20
-1.99973422428485
 10
2.375
 20
-1.999923866183913
  0
LINE
  5
232
330
1EB
100
AcDbEntity
  8
AM_4
100
AcDbLine
 10
2.1375
 20
4.875
 30
0.0
 11
2.1375
 21
-1.85189908917
 31
0.0
  0
LINE
  5
233
330
1EB
100
AcDbEntity
  8
AM_4
100
AcDbLine
 10
2.375
 20
-1.999999999999999
 30
0.0
 11
2.375
 21
-4.75
 31
0.0
  0
LINE
  5
234
330
1EB
100
AcDbEntity
  8
AM_4
100
AcDbLine
 10
1.9
 20
-2.274999999999998
 30
0.0
 11
1.9
 21
-4.75
 31
0.0
  0
LINE
  5
235
330
1EB
100
AcDbEntity
  8
AM_4
100
AcDbLine
 10
-1.899999999999999
 20
-2.274999999999999
 30
0.0
 11
1.9
 21
-2.274999999999998
 31
0.0
  0
LWPOLYLINE
  5
236
330
1EB
100
AcDbEntity
  8
AM_4
100
AcDbPolyline
 90
       19
 70
     0
 43
0.0
 10
1.9
 20
-2.274999999999999
 10
1.90104645802477
 20
-2.251032170744393
 10
1.904177867921643
 20
-2.227246751141593
 10
1.909370397770506
 20
-2.203824762596806
 10
1.916584529283875
 20
-2.18094446058544
 10
1.925765358564921
 20
-2.158779978021307
 10
1.936843013959279
 20
-2.1375
 10
1.949733187820527
 20
-2.117266480003462
 10
1.964337778142281
 20
-2.098233407336201
 10
1.980545635173699
 20
-2.080545635173699
 10
1.998233407336201
 20
-2.064337778142281
 10
2.017266480003461
 20
-2.049733187820527
 10
2.037499999999999
 20
-2.036843013959279
 10
2.058779978021307
 20
-2.025765358564922
 10
2.08094446058544
 20
-2.016584529283875
 10
2.103824762596806
 20
-2.009370397770506
 10
2.127246751141592
 20
-2.004177867921643
 10
2.151032170744392
 20
-2.00104645802477
 10
2.174999999999998
 20
-2.0
  0
LINE
  5
237
330
1EB
100
AcDbEntity
  8
AM_4
100
AcDbLine
 10
-1.899999999999999
 20
-2.274999999999999
 30
0.0
 11
-1.899999999999999
 21
-4.75
 31
0.0
  0
LWPOLYLINE
  5
238
330
1EB
100
AcDbEntity
  8
AM_4
100
AcDbPolyline
 90
       19
 70
     0
 43
0.0
 10
-2.174999999999998
 20
-2.0
 10
-2.151032170744392
 20
-2.00104645802477
 10
-2.127246751141592
 20
-2.004177867921643
 10
-2.103824762596805
 20
-2.009370397770506
 10
-2.08094446058544
 20
-2.016584529283875
 10
-2.058779978021307
 20
-2.025765358564921
 10
-2.037499999999999
 20
-2.036843013959279
 10
-2.017266480003461
 20
-2.049733187820527
 10
-1.998233407336201
 20
-2.06433777814228
 10
-1.980545635173699
 20
-2.080545635173698
 10
-1.96433777814228
 20
-2.098233407336201
 10
-1.949733187820526
 20
-2.117266480003461
 10
-1.936843013959279
 20
-2.137499999999999
 10
-1.925765358564921
 20
-2.158779978021306
 10
-1.916584529283875
 20
-2.18094446058544
 10
-1.909370397770505
 20
-2.203824762596805
 10
-1.904177867921642
 20
-2.227246751141593
 10
-1.901046458024769
 20
-2.251032170744392
 10
-1.899999999999999
 20
-2.274999999999998
  0
LINE
  5
239
330
1EB
100
AcDbEntity
  8
AM_4
100
AcDbLine
 10
-2.375
 20
-2.0
 30
0.0
 11
2.375
 21
-1.999999999999999
 31
0.0
  0
LINE
  5
23A
330
1EB
100
AcDbEntity
  8
AM_4
100
AcDbLine
 10
-2.375
 20
-2.0
 30
0.0
 11
-2.375
 21
-4.75
 31
0.0
  0
LINE
  5
23B
330
1EB
100
AcDbEntity
  8
AM_4
100
AcDbLine
 10
2.375
 20
-4.75
 30
0.0
 11
-2.375
 21
-4.75
 31
0.0
  0
ENDBLK
  5
1EE
330
1EB
100
AcDbEntity
  8
0
100
AcDbBlockEnd
  0
ENDSEC
  0
SECTION
  2
ENTITIES
  0
INSERT
  5
6F
330
1F
100
AcDbEntity
  8
0
100
AcDbBlockReference
  2
1_069589_2
 10
0.0
 20
0.0
 30
0.0
  0
POINT
  5
23D
330
1F
100
AcDbEntity
  8
ConnectionPoints
100
AcDbPoint
 10
-2.786875
 20
-2.859375
 30
0.0000000000000002
  0
POINT
  5
23E
330
1F
100
AcDbEntity
  8
ConnectionPoints
100
AcDbPoint
 10
-2.786875
 20
2.859375
 30
0.0000000000000002
  0
POINT
  5
23F
330
1F
100
AcDbEntity
  8
ConnectionPoints
100
AcDbPoint
 10
-2.716875
 20
0.0
 30
0.0000000000000002
  0
POINT
  5
240
330
1F
100
AcDbEntity
  8
ConnectionPoints
100
AcDbPoint
 10
-3.109375
 20
0.0
 30
0.0000000000000002
  0
POINT
  5
241
330
1F
100
AcDbEntity
  8
ConnectionPoints
100
AcDbPoint
 10
-2.915875
 20
0.0
 30
0.0000000000000002
  0
POINT
  5
242
330
1F
100
AcDbEntity
  8
ConnectionPoints
100
AcDbPoint
 10
-2.716875
 20
2.859375
 30
0.0000000000000002
  0
POINT
  5
243
330
1F
100
AcDbEntity
  8
ConnectionPoints
100
AcDbPoint
 10
-2.977375
 20
2.859375
 30
0.0000000000000002
  0
POINT
  5
244
330
1F
100
AcDbEntity
  8
ConnectionPoints
100
AcDbPoint
 10
-2.716875
 20
-2.859375
 30
0.0000000000000002
  0
POINT
  5
245
330
1F
100
AcDbEntity
  8
ConnectionPoints
100
AcDbPoint
 10
-2.977375
 20
-2.859375
 30
0.0000000000000002
  0
POINT
  5
246
330
1F
100
AcDbEntity
  8
ConnectionPoints
100
AcDbPoint
 10
-2.716875
 20
0.0
 30
0.0000000000000002
  0
POINT
  5
247
330
1F
100
AcDbEntity
  8
ConnectionPoints
100
AcDbPoint
 10
-0.0000000000000002
 20
4.308476383827582
 30
-2.487499999999999
  0
POINT
  5
248
330
1F
100
AcDbEntity
  8
ConnectionPoints
100
AcDbPoint
 10
-3.109375
 20
0.0
 30
0.0000000000000002
  0
POINT
  5
249
330
1F
100
AcDbEntity
  8
ConnectionPoints
100
AcDbPoint
 10
-3.484375
 20
0.0
 30
0.0000000000000002
  0
ENDSEC
  0
SECTION
  2
OBJECTS
  0
DICTIONARY
  5
C
330
0
100
AcDbDictionary
281
     1
  3
ACAD_DETAILVIEWSTYLE
350
251
  3
ACAD_GROUP
350
D
  3
ACAD_LAYOUT
350
1A
  3
ACAD_MATERIAL
350
43
  3
ACAD_MLEADERSTYLE
350
6B
  3
ACAD_MLINESTYLE
350
17
  3
ACAD_PLOTSETTINGS
350
19
  3
ACAD_PLOTSTYLENAME
350
E
  3
ACAD_SCALELIST
350
47
  3
ACAD_SECTIONVIEWSTYLE
350
252
  3
ACAD_TABLESTYLE
350
69
  3
ACAD_VISUALSTYLE
350
2A
  3
ACDB_RECOMPOSE_DATA
350
24E
  3
AcDbVariableDictionary
350
24A
  0
SUN
  5
6D
330
29
100
AcDbSun
 90
        1
290
     0
 63
     7
421
 16777215
 40
1.0
291
     1
 91
  2455826
 92
 54000000
292
     0
 70
     2
 71
   256
280
     1
  0
DICTIONARY
  5
251
102
{ACAD_REACTORS
330
C
102
}
330
C
100
AcDbDictionary
281
     1
  0
DICTIONARY
  5
D
102
{ACAD_REACTORS
330
C
102
}
330
C
100
AcDbDictionary
281
     1
  0
DICTIONARY
  5
1A
102
{ACAD_REACTORS
330
C
102
}
330
C
100
AcDbDictionary
281
     1
  3
Layout1
350
1E
  3
Layout2
350
26
  3
Model
350
22
  0
DICTIONARY
  5
43
102
{ACAD_REACTORS
330
C
102
}
330
C
100
AcDbDictionary
281
     1
  3
ByBlock
350
45
  3
ByLayer
350
44
  3
Global
350
46
  0
DICTIONARY
  5
6B
102
{ACAD_REACTORS
330
C
102
}
330
C
100
AcDbDictionary
281
     1
  3
Standard
350
6C
  0
DICTIONARY
  5
17
102
{ACAD_REACTORS
330
C
102
}
330
C
100
AcDbDictionary
281
     1
  3
Standard
350
18
  0
DICTIONARY
  5
19
102
{ACAD_REACTORS
330
C
102
}
330
C
100
AcDbDictionary
281
     1
  0
ACDBDICTIONARYWDFLT
  5
E
102
{ACAD_REACTORS
330
C
102
}
330
C
100
AcDbDictionary
281
     1
  3
Normal
350
F
100
AcDbDictionaryWithDefault
340
F
  0
DICTIONARY
  5
47
102
{ACAD_REACTORS
330
C
102
}
330
C
100
AcDbDictionary
281
     1
  3
A0
350
48
  3
A1
350
49
  3
A2
350
4A
  3
A3
350
4B
  3
A4
350
4C
  3
A5
350
4D
  3
A6
350
4E
  3
A7
350
4F
  3
A8
350
50
  3
A9
350
51
  3
B0
350
52
  3
B1
350
53
  3
B2
350
54
  3
B3
350
55
  3
B4
350
56
  3
B5
350
57
  3
B6
350
58
  3
B7
350
59
  3
B8
350
5A
  3
B9
350
5B
  3
C0
350
5C
  3
C1
350
5D
  3
C2
350
5E
  3
C3
350
5F
  3
C4
350
60
  3
C5
350
61
  3
C6
350
62
  3
C7
350
63
  3
C8
350
64
  3
C9
350
65
  3
D0
350
66
  3
D1
350
67
  3
D2
350
68
  0
DICTIONARY
  5
252
102
{ACAD_REACTORS
330
C
102
}
330
C
100
AcDbDictionary
281
     1
  0
DICTIONARY
  5
69
102
{ACAD_REACTORS
330
C
102
}
330
C
100
AcDbDictionary
281
     1
  3
Standard
350
6A
  0
DICTIONARY
  5
2A
102
{ACAD_REACTORS
330
C
102
}
330
C
100
AcDbDictionary
281
     1
  3
2dWireframe
350
2F
  3
Basic
350
32
  3
Brighten
350
36
  3
ColorChange
350
3A
  3
Conceptual
350
34
  3
Dim
350
35
  3
EdgeColorOff
350
3D
  3
Facepattern
350
39
  3
Flat
350
2B
  3
FlatWithEdges
350
2C
  3
Gouraud
350
2D
  3
GouraudWithEdges
350
2E
  3
Hidden
350
31
  3
JitterOff
350
3B
  3
Linepattern
350
38
  3
OverhangOff
350
3C
  3
Realistic
350
33
  3
Shaded
350
42
  3
Shaded with edges
350
41
  3
Shades of Gray
350
3E
  3
Sketchy
350
3F
  3
Thicken
350
37
  3
Wireframe
350
30
  3
X-Ray
350
40
  0
XRECORD
  5
24E
102
{ACAD_REACTORS
330
C
102
}
330
C
100
AcDbXrecord
280
     1
 90
        1
330
6A
  0
DICTIONARY
  5
24A
102
{ACAD_REACTORS
330
C
102
}
330
C
100
AcDbDictionary
281
     1
  3
CANNOSCALE
350
24B
  3
CMLEADERSTYLE
350
250
  3
CTABLESTYLE
350
24F
  0
LAYOUT
  5
1E
102
{ACAD_REACTORS
330
1A
102
}
330
1A
100
AcDbPlotSettings
  1

  2
none_device
  4

  6

 40
0.0
 41
0.0
 42
0.0
 43
0.0
 44
0.0
 45
0.0
 46
0.0
 47
0.0
 48
0.0
 49
0.0
140
0.0
141
0.0
142
1.0
143
1.0
 70
   688
 72
     0
 73
     0
 74
     5
  7

 75
    16
 76
     0
 77
     2
 78
   300
147
1.0
148
0.0
149
0.0
100
AcDbLayout
  1
Layout1
 70
     1
 71
     1
 10
0.0
 20
0.0
 11
12.0
 21
9.0
 12
0.0
 22
0.0
 32
0.0
 14
1.000000000000000E+20
 24
1.000000000000000E+20
 34
1.000000000000000E+20
 15
-1.000000000000000E+20
 25
-1.000000000000000E+20
 35
-1.000000000000000E+20
146
0.0
 13
0.0
 23
0.0
 33
0.0
 16
1.0
 26
0.0
 36
0.0
 17
0.0
 27
1.0
 37
0.0
 76
     0
330
1B
  0
LAYOUT
  5
26
102
{ACAD_REACTORS
330
1A
102
}
330
1A
100
AcDbPlotSettings
  1

  2
none_device
  4

  6

 40
0.0
 41
0.0
 42
0.0
 43
0.0
 44
0.0
 45
0.0
 46
0.0
 47
0.0
 48
0.0
 49
0.0
140
0.0
141
0.0
142
1.0
143
1.0
 70
   688
 72
     0
 73
     0
 74
     5
  7

 75
    16
 76
     0
 77
     2
 78
   300
147
1.0
148
0.0
149
0.0
100
AcDbLayout
  1
Layout2
 70
     1
 71
     2
 10
0.0
 20
0.0
 11
0.0
 21
0.0
 12
0.0
 22
0.0
 32
0.0
 14
0.0
 24
0.0
 34
0.0
 15
0.0
 25
0.0
 35
0.0
146
0.0
 13
0.0
 23
0.0
 33
0.0
 16
1.0
 26
0.0
 36
0.0
 17
0.0
 27
1.0
 37
0.0
 76
     0
330
23
  0
LAYOUT
  5
22
102
{ACAD_REACTORS
330
1A
102
}
330
1A
100
AcDbPlotSettings
  1

  2
none_device
  4
Letter_(8.50_x_11.00_Inches)
  6

 40
6.35
 41
6.35
 42
6.35000508
 43
6.35000508
 44
215.9
 45
279.4
 46
0.0
 47
0.0
 48
0.0
 49
0.0
140
0.0
141
0.0
142
1.0
143
1.0
 70
  1712
 72
     0
 73
     0
 74
     0
  7

 75
     0
 76
     0
 77
     2
 78
   300
147
1.0
148
0.0
149
0.0
100
AcDbLayout
  1
Model
 70
     1
 71
     0
 10
0.0
 20
0.0
 11
12.0
 21
9.0
 12
0.0
 22
0.0
 32
0.0
 14
1.000000000000000E+20
 24
1.000000000000000E+20
 34
1.000000000000000E+20
 15
-1.000000000000000E+20
 25
-1.000000000000000E+20
 35
-1.000000000000000E+20
146
0.0
 13
0.0
 23
0.0
 33
0.0
 16
1.0
 26
0.0
 36
0.0
 17
0.0
 27
1.0
 37
0.0
 76
     0
330
1F
331
29
  0
MATERIAL
  5
45
102
{ACAD_REACTORS
330
43
102
}
330
43
100
AcDbMaterial
  1
ByBlock
 72
     1
 94
      127
  0
MATERIAL
  5
44
102
{ACAD_REACTORS
330
43
102
}
330
43
100
AcDbMaterial
  1
ByLayer
 72
     1
 94
      127
  0
MATERIAL
  5
46
102
{ACAD_REACTORS
330
43
102
}
330
43
100
AcDbMaterial
  1
Global
 72
     1
 94
      127
  0
MLEADERSTYLE
  5
6C
102
{ACAD_REACTORS
330
6B
102
}
330
6B
100
AcDbMLeaderStyle
179
     2
170
     2
171
     1
172
     0
 90
        2
 40
0.0
 41
0.0
173
     1
 91
-1056964608
340
14
 92
       -2
290
     1
 42
0.09
291
     1
 43
0.36
  3
Standard
341
0
 44
0.18
300

342
11
174
     1
178
     6
175
     1
176
     0
 93
-1056964608
 45
0.18
292
     0
297
     0
 46
0.18
343
0
 94
-1056964608
 47
1.0
 49
1.0
140
1.0
293
     1
141
0.0
294
     1
177
     0
142
1.0
295
     0
296
     0
143
0.125
271
     0
272
     9
273
     9
298
     0
  0
MLINESTYLE
  5
18
102
{ACAD_REACTORS
330
17
102
}
330
17
100
AcDbMlineStyle
  2
Standard
 70
     0
  3

 62
   256
 51
90.0
 52
90.0
 71
     2
 49
0.5
 62
   256
  6
BYLAYER
 49
-0.5
 62
   256
  6
BYLAYER
  0
ACDBPLACEHOLDER
  5
F
102
{ACAD_REACTORS
330
E
102
}
330
E
  0
SCALE
  5
48
102
{ACAD_REACTORS
330
47
102
}
330
47
100
AcDbScale
 70
     0
300
1:1
140
1.0
141
1.0
290
     1
  0
SCALE
  5
49
102
{ACAD_REACTORS
330
47
102
}
330
47
100
AcDbScale
 70
     0
300
1:2
140
1.0
141
2.0
290
     0
  0
SCALE
  5
4A
102
{ACAD_REACTORS
330
47
102
}
330
47
100
AcDbScale
 70
     0
300
1:4
140
1.0
141
4.0
290
     0
  0
SCALE
  5
4B
102
{ACAD_REACTORS
330
47
102
}
330
47
100
AcDbScale
 70
     0
300
1:5
140
1.0
141
5.0
290
     0
  0
SCALE
  5
4C
102
{ACAD_REACTORS
330
47
102
}
330
47
100
AcDbScale
 70
     0
300
1:8
140
1.0
141
8.0
290
     0
  0
SCALE
  5
4D
102
{ACAD_REACTORS
330
47
102
}
330
47
100
AcDbScale
 70
     0
300
1:10
140
1.0
141
10.0
290
     0
  0
SCALE
  5
4E
102
{ACAD_REACTORS
330
47
102
}
330
47
100
AcDbScale
 70
     0
300
1:16
140
1.0
141
16.0
290
     0
  0
SCALE
  5
4F
102
{ACAD_REACTORS
330
47
102
}
330
47
100
AcDbScale
 70
     0
300
1:20
140
1.0
141
20.0
290
     0
  0
SCALE
  5
50
102
{ACAD_REACTORS
330
47
102
}
330
47
100
AcDbScale
 70
     0
300
1:30
140
1.0
141
30.0
290
     0
  0
SCALE
  5
51
102
{ACAD_REACTORS
330
47
102
}
330
47
100
AcDbScale
 70
     0
300
1:40
140
1.0
141
40.0
290
     0
  0
SCALE
  5
52
102
{ACAD_REACTORS
330
47
102
}
330
47
100
AcDbScale
 70
     0
300
1:50
140
1.0
141
50.0
290
     0
  0
SCALE
  5
53
102
{ACAD_REACTORS
330
47
102
}
330
47
100
AcDbScale
 70
     0
300
1:100
140
1.0
141
100.0
290
     0
  0
SCALE
  5
54
102
{ACAD_REACTORS
330
47
102
}
330
47
100
AcDbScale
 70
     0
300
2:1
140
2.0
141
1.0
290
     0
  0
SCALE
  5
55
102
{ACAD_REACTORS
330
47
102
}
330
47
100
AcDbScale
 70
     0
300
4:1
140
4.0
141
1.0
290
     0
  0
SCALE
  5
56
102
{ACAD_REACTORS
330
47
102
}
330
47
100
AcDbScale
 70
     0
300
8:1
140
8.0
141
1.0
290
     0
  0
SCALE
  5
57
102
{ACAD_REACTORS
330
47
102
}
330
47
100
AcDbScale
 70
     0
300
10:1
140
10.0
141
1.0
290
     0
  0
SCALE
  5
58
102
{ACAD_REACTORS
330
47
102
}
330
47
100
AcDbScale
 70
     0
300
100:1
140
100.0
141
1.0
290
     0
  0
SCALE
  5
59
102
{ACAD_REACTORS
330
47
102
}
330
47
100
AcDbScale
 70
     0
300
1/128" = 1'-0"
140
0.0078125
141
12.0
290
     0
  0
SCALE
  5
5A
102
{ACAD_REACTORS
330
47
102
}
330
47
100
AcDbScale
 70
     0
300
1/64" = 1'-0"
140
0.015625
141
12.0
290
     0
  0
SCALE
  5
5B
102
{ACAD_REACTORS
330
47
102
}
330
47
100
AcDbScale
 70
     0
300
1/32" = 1'-0"
140
0.03125
141
12.0
290
     0
  0
SCALE
  5
5C
102
{ACAD_REACTORS
330
47
102
}
330
47
100
AcDbScale
 70
     0
300
1/16" = 1'-0"
140
0.0625
141
12.0
290
     0
  0
SCALE
  5
5D
102
{ACAD_REACTORS
330
47
102
}
330
47
100
AcDbScale
 70
     0
300
3/32" = 1'-0"
140
0.09375
141
12.0
290
     0
  0
SCALE
  5
5E
102
{ACAD_REACTORS
330
47
102
}
330
47
100
AcDbScale
 70
     0
300
1/8" = 1'-0"
140
0.125
141
12.0
290
     0
  0
SCALE
  5
5F
102
{ACAD_REACTORS
330
47
102
}
330
47
100
AcDbScale
 70
     0
300
3/16" = 1'-0"
140
0.1875
141
12.0
290
     0
  0
SCALE
  5
60
102
{ACAD_REACTORS
330
47
102
}
330
47
100
AcDbScale
 70
     0
300
1/4" = 1'-0"
140
0.25
141
12.0
290
     0
  0
SCALE
  5
61
102
{ACAD_REACTORS
330
47
102
}
330
47
100
AcDbScale
 70
     0
300
3/8" = 1'-0"
140
0.375
141
12.0
290
     0
  0
SCALE
  5
62
102
{ACAD_REACTORS
330
47
102
}
330
47
100
AcDbScale
 70
     0
300
1/2" = 1'-0"
140
0.5
141
12.0
290
     0
  0
SCALE
  5
63
102
{ACAD_REACTORS
330
47
102
}
330
47
100
AcDbScale
 70
     0
300
3/4" = 1'-0"
140
0.75
141
12.0
290
     0
  0
SCALE
  5
64
102
{ACAD_REACTORS
330
47
102
}
330
47
100
AcDbScale
 70
     0
300
1" = 1'-0"
140
1.0
141
12.0
290
     0
  0
SCALE
  5
65
102
{ACAD_REACTORS
330
47
102
}
330
47
100
AcDbScale
 70
     0
300
1-1/2" = 1'-0"
140
1.5
141
12.0
290
     0
  0
SCALE
  5
66
102
{ACAD_REACTORS
330
47
102
}
330
47
100
AcDbScale
 70
     0
300
3" = 1'-0"
140
3.0
141
12.0
290
     0
  0
SCALE
  5
67
102
{ACAD_REACTORS
330
47
102
}
330
47
100
AcDbScale
 70
     0
300
6" = 1'-0"
140
6.0
141
12.0
290
     0
  0
SCALE
  5
68
102
{ACAD_REACTORS
330
47
102
}
330
47
100
AcDbScale
 70
     0
300
1'-0" = 1'-0"
140
12.0
141
12.0
290
     0
  0
TABLESTYLE
  5
6A
102
{ACAD_REACTORS
330
69
102
}
102
{ACAD_XDICTIONARY
360
24C
102
}
330
69
100
AcDbTableStyle
  3
Standard
 70
     0
 71
     0
 40
0.06
 41
0.06
280
     0
281
     0
  7
Standard
140
0.18
170
     2
 62
     0
 63
   257
283
     0
 90
        4
 91
        0
  1

274
    -2
284
     1
 64
     0
275
    -2
285
     1
 65
     0
276
    -2
286
     1
 66
     0
277
    -2
287
     1
 67
     0
278
    -2
288
     1
 68
     0
279
    -2
289
     1
 69
     0
  7
Standard
140
0.25
170
     5
 62
     0
 63
   257
283
     0
 90
        4
 91
        0
  1

274
    -2
284
     1
 64
     0
275
    -2
285
     1
 65
     0
276
    -2
286
     1
 66
     0
277
    -2
287
     1
 67
     0
278
    -2
288
     1
 68
     0
279
    -2
289
     1
 69
     0
  7
Standard
140
0.18
170
     5
 62
     0
 63
   257
283
     0
 90
        4
 91
        0
  1

274
    -2
284
     1
 64
     0
275
    -2
285
     1
 65
     0
276
    -2
286
     1
 66
     0
277
    -2
287
     1
 67
     0
278
    -2
288
     1
 68
     0
279
    -2
289
     1
 69
     0
  0
VISUALSTYLE
  5
2F
102
{ACAD_REACTORS
330
2A
102
}
330
2A
100
AcDbVisualStyle
  2
2dWireframe
 70
     4
177
     3
291
     0
 70
    58
 90
        0
176
     1
 90
        2
176
     1
 90
        0
176
     1
 90
        0
176
     1
 40
0.6
176
     1
 40
30.0
176
     1
 62
     7
420
 16777215
176
     1
 90
        1
176
     1
 90
        4
176
     1
 62
     7
176
     1
 62
   257
176
     1
 90
        1
176
     1
 90
        1
176
     1
 40
1.0
176
     1
 90
        0
176
     1
 62
   257
176
     1
 40
1.0
176
     1
 90
        1
176
     1
 90
        6
176
     1
 90
        2
176
     1
 62
     7
176
     1
 90
        5
176
     1
 90
        0
176
     1
 90
        0
176
     1
290
     0
176
     1
 90
        1
176
     1
 40
0.0
176
     1
 90
        0
176
     1
290
     1
176
     1
290
     1
176
     1
290
     0
176
     1
290
     0
176
     1
290
     0
176
     1
290
     0
176
     1
290
     0
176
     1
290
     0
176
     1
290
     0
176
     1
 90
       50
176
     1
 40
0.0
176
     1
 40
1.0
176
     1
 90
        0
176
     1
 62
    18
420
        0
176
     1
 90
       50
176
     1
 90
        3
176
     1
 62
     5
420
      255
176
     1
290
     0
176
     1
 90
       50
176
     1
 90
       50
176
     1
 90
       50
176
     1
290
     0
176
     1
 90
       50
176
     1
 62
   256
176
     0
 40
1.0
176
     0
 90
        2
176
     1
  1
strokes_ogs.tif
176
     1
290
     0
176
     1
 40
1.0
176
     1
 40
1.0
176
     1
  0
VISUALSTYLE
  5
32
102
{ACAD_REACTORS
330
2A
102
}
330
2A
100
AcDbVisualStyle
  2
Basic
 70
     7
177
     3
291
     1
 70
    58
 90
        1
176
     1
 90
        0
176
     1
 90
        1
176
     1
 90
        0
176
     1
 40
0.6
176
     1
 40
30.0
176
     1
 62
     7
420
 16777215
176
     1
 90
        0
176
     1
 90
        4
176
     1
 62
     7
176
     1
 62
   257
176
     1
 90
        1
176
     1
 90
        1
176
     1
 40
1.0
176
     1
 90
        8
176
     1
 62
     7
176
     1
 40
1.0
176
     1
 90
        1
176
     1
 90
        6
176
     1
 90
        2
176
     1
 62
     7
176
     1
 90
        5
176
     1
 90
        0
176
     1
 90
        0
176
     1
290
     0
176
     1
 90
        1
176
     1
 40
0.0
176
     1
 90
        0
176
     1
290
     0
176
     1
290
     1
176
     1
290
     1
176
     1
290
     0
176
     1
290
     0
176
     1
290
     0
176
     1
290
     0
176
     1
290
     0
176
     1
290
     0
176
     1
 90
       50
176
     1
 40
0.0
176
     1
 40
1.0
176
     1
 90
        0
176
     1
 62
    18
420
        0
176
     1
 90
       50
176
     1
 90
        3
176
     1
 62
     5
420
      255
176
     1
290
     0
176
     1
 90
       50
176
     1
 90
       50
176
     1
 90
       50
176
     1
290
     0
176
     1
 90
       50
176
     1
 62
   256
176
     0
 40
1.0
176
     0
 90
        2
176
     1
  1
strokes_ogs.tif
176
     1
290
     0
176
     1
 40
1.0
176
     1
 40
1.0
176
     1
  0
VISUALSTYLE
  5
36
102
{ACAD_REACTORS
330
2A
102
}
330
2A
100
AcDbVisualStyle
  2
Brighten
 70
    12
177
     3
291
     1
 70
    58
 90
        2
176
     1
 90
        2
176
     1
 90
        0
176
     1
 90
        0
176
     1
 40
0.6
176
     1
 40
30.0
176
     1
 62
     7
420
 16777215
176
     1
 90
        1
176
     1
 90
        4
176
     1
 62
     7
176
     1
 62
   257
176
     1
 90
        1
176
     1
 90
        1
176
     1
 40
1.0
176
     1
 90
        8
176
     1
 62
     7
176
     1
 40
1.0
176
     1
 90
        1
176
     1
 90
        6
176
     1
 90
        2
176
     1
 62
     7
176
     1
 90
        5
176
     1
 90
        0
176
     1
 90
        0
176
     1
290
     0
176
     1
 90
        1
176
     1
 40
50.0
176
     1
 90
        0
176
     1
290
     0
176
     1
290
     1
176
     1
290
     1
176
     1
290
     0
176
     1
290
     0
176
     1
290
     0
176
     1
290
     0
176
     1
290
     0
176
     1
290
     0
176
     1
 90
       50
176
     1
 40
0.0
176
     1
 40
1.0
176
     1
 90
        0
176
     1
 62
    18
420
        0
176
     1
 90
       50
176
     1
 90
        3
176
     1
 62
     5
420
      255
176
     1
290
     0
176
     1
 90
       50
176
     1
 90
       50
176
     1
 90
       50
176
     1
290
     0
176
     1
 90
       50
176
     1
 62
   256
176
     0
 40
1.0
176
     0
 90
        2
176
     1
  1
strokes_ogs.tif
176
     1
290
     0
176
     1
 40
1.0
176
     1
 40
1.0
176
     1
  0
VISUALSTYLE
  5
3A
102
{ACAD_REACTORS
330
2A
102
}
330
2A
100
AcDbVisualStyle
  2
ColorChange
 70
    16
177
     3
291
     1
 70
    58
 90
        2
176
     1
 90
        2
176
     1
 90
        3
176
     1
 90
        0
176
     1
 40
0.6
176
     1
 40
30.0
176
     1
 62
     8
420
  8421504
176
     1
 90
        1
176
     1
 90
        4
176
     1
 62
     7
176
     1
 62
   257
176
     1
 90
        1
176
     1
 90
        1
176
     1
 40
1.0
176
     1
 90
        8
176
     1
 62
     8
420
  8421504
176
     1
 40
1.0
176
     1
 90
        1
176
     1
 90
        6
176
     1
 90
        2
176
     1
 62
     7
176
     1
 90
        5
176
     1
 90
        0
176
     1
 90
        0
176
     1
290
     0
176
     1
 90
        1
176
     1
 40
0.0
176
     1
 90
        0
176
     1
290
     0
176
     1
290
     1
176
     1
290
     1
176
     1
290
     0
176
     1
290
     0
176
     1
290
     0
176
     1
290
     0
176
     1
290
     0
176
     1
290
     0
176
     1
 90
       50
176
     1
 40
0.0
176
     1
 40
1.0
176
     1
 90
        0
176
     1
 62
    18
420
        0
176
     1
 90
       50
176
     1
 90
        3
176
     1
 62
     5
420
      255
176
     1
290
     0
176
     1
 90
       50
176
     1
 90
       50
176
     1
 90
       50
176
     1
290
     0
176
     1
 90
       50
176
     1
 62
   256
176
     0
 40
1.0
176
     0
 90
        2
176
     1
  1
strokes_ogs.tif
176
     1
290
     0
176
     1
 40
1.0
176
     1
 40
1.0
176
     1
  0
VISUALSTYLE
  5
34
102
{ACAD_REACTORS
330
2A
102
}
330
2A
100
AcDbVisualStyle
  2
Conceptual
 70
     9
177
     3
291
     0
 70
    58
 90
        3
176
     1
 90
        2
176
     1
 90
        0
176
     1
 90
        0
176
     1
 40
0.6
176
     1
 40
30.0
176
     1
 62
     7
420
 16777215
176
     1
 90
        2
176
     1
 90
        2
176
     1
 62
     7
176
     1
 62
   257
176
     1
 90
        1
176
     1
 90
        1
176
     1
 40
179.0
176
     1
 90
        8
176
     1
 62
     7
176
     1
 40
1.0
176
     1
 90
        1
176
     1
 90
        6
176
     1
 90
        2
176
     1
 62
     7
176
     1
 90
        3
176
     1
 90
        0
176
     1
 90
        0
176
     1
290
     0
176
     1
 90
        1
176
     1
 40
0.0
176
     1
 90
        0
176
     1
290
     0
176
     1
290
     1
176
     1
290
     1
176
     1
290
     0
176
     1
290
     0
176
     1
290
     0
176
     1
290
     0
176
     1
290
     0
176
     1
290
     0
176
     1
 90
       50
176
     1
 40
0.0
176
     1
 40
1.0
176
     1
 90
        0
176
     1
 62
    18
420
        0
176
     1
 90
       50
176
     1
 90
        3
176
     1
 62
     5
420
      255
176
     1
290
     0
176
     1
 90
       50
176
     1
 90
       50
176
     1
 90
       50
176
     1
290
     0
176
     1
 90
       50
176
     1
 62
   256
176
     0
 40
1.0
176
     0
 90
        2
176
     1
  1
strokes_ogs.tif
176
     1
290
     0
176
     1
 40
1.0
176
     1
 40
1.0
176
     1
  0
VISUALSTYLE
  5
35
102
{ACAD_REACTORS
330
2A
102
}
330
2A
100
AcDbVisualStyle
  2
Dim
 70
    11
177
     3
291
     1
 70
    58
 90
        2
176
     1
 90
        2
176
     1
 90
        0
176
     1
 90
        0
176
     1
 40
0.6
176
     1
 40
30.0
176
     1
 62
     7
420
 16777215
176
     1
 90
        1
176
     1
 90
        4
176
     1
 62
     7
176
     1
 62
   257
176
     1
 90
        1
176
     1
 90
        1
176
     1
 40
1.0
176
     1
 90
        8
176
     1
 62
     7
176
     1
 40
1.0
176
     1
 90
        1
176
     1
 90
        6
176
     1
 90
        2
176
     1
 62
     7
176
     1
 90
        5
176
     1
 90
        0
176
     1
 90
        0
176
     1
290
     0
176
     1
 90
        1
176
     1
 40
-50.0
176
     1
 90
        0
176
     1
290
     0
176
     1
290
     1
176
     1
290
     1
176
     1
290
     0
176
     1
290
     0
176
     1
290
     0
176
     1
290
     0
176
     1
290
     0
176
     1
290
     0
176
     1
 90
       50
176
     1
 40
0.0
176
     1
 40
1.0
176
     1
 90
        0
176
     1
 62
    18
420
        0
176
     1
 90
       50
176
     1
 90
        3
176
     1
 62
     5
420
      255
176
     1
290
     0
176
     1
 90
       50
176
     1
 90
       50
176
     1
 90
       50
176
     1
290
     0
176
     1
 90
       50
176
     1
 62
   256
176
     0
 40
1.0
176
     0
 90
        2
176
     1
  1
strokes_ogs.tif
176
     1
290
     0
176
     1
 40
1.0
176
     1
 40
1.0
176
     1
  0
VISUALSTYLE
  5
3D
102
{ACAD_REACTORS
330
2A
102
}
330
2A
100
AcDbVisualStyle
  2
EdgeColorOff
 70
    22
177
     3
291
     1
 70
    58
 90
        2
176
     0
 90
        2
176
     0
 90
        0
176
     0
 90
        0
176
     0
 40
0.6
176
     0
 40
30.0
176
     0
 62
     7
420
 16777215
176
     0
 90
        1
176
     0
 90
        4
176
     0
 62
     7
176
     0
 62
   257
176
     0
 90
        1
176
     0
 90
        1
176
     0
 40
1.0
176
     0
 90
        8
176
     2
 62
     7
176
     0
 40
1.0
176
     0
 90
        1
176
     0
 90
        6
176
     0
 90
        2
176
     0
 62
     7
176
     0
 90
        5
176
     0
 90
        0
176
     0
 90
        0
176
     0
290
     0
176
     0
 90
        1
176
     0
 40
0.0
176
     0
 90
        0
176
     0
290
     0
176
     0
290
     1
176
     0
290
     1
176
     0
290
     0
176
     0
290
     0
176
     0
290
     0
176
     0
290
     0
176
     0
290
     0
176
     0
290
     0
176
     0
 90
       50
176
     0
 40
0.0
176
     0
 40
1.0
176
     0
 90
        0
176
     0
 62
    18
420
        0
176
     0
 90
       50
176
     0
 90
        3
176
     0
 62
     5
420
      255
176
     0
290
     0
176
     0
 90
       50
176
     0
 90
       50
176
     0
 90
       50
176
     0
290
     0
176
     0
 90
       50
176
     0
 62
   256
176
     0
 40
1.0
176
     0
 90
        2
176
     0
  1
strokes_ogs.tif
176
     0
290
     0
176
     0
 40
1.0
176
     0
 40
1.0
176
     0
  0
VISUALSTYLE
  5
39
102
{ACAD_REACTORS
330
2A
102
}
330
2A
100
AcDbVisualStyle
  2
Facepattern
 70
    15
177
     3
291
     1
 70
    58
 90
        2
176
     1
 90
        2
176
     1
 90
        0
176
     1
 90
        0
176
     1
 40
0.6
176
     1
 40
30.0
176
     1
 62
     7
420
 16777215
176
     1
 90
        1
176
     1
 90
        4
176
     1
 62
     7
176
     1
 62
   257
176
     1
 90
        1
176
     1
 90
        1
176
     1
 40
1.0
176
     1
 90
        8
176
     1
 62
     7
176
     1
 40
1.0
176
     1
 90
        1
176
     1
 90
        6
176
     1
 90
        2
176
     1
 62
     7
176
     1
 90
        5
176
     1
 90
        0
176
     1
 90
        0
176
     1
290
     0
176
     1
 90
        1
176
     1
 40
0.0
176
     1
 90
        0
176
     1
290
     0
176
     1
290
     1
176
     1
290
     1
176
     1
290
     0
176
     1
290
     0
176
     1
290
     0
176
     1
290
     0
176
     1
290
     0
176
     1
290
     0
176
     1
 90
       50
176
     1
 40
0.0
176
     1
 40
1.0
176
     1
 90
        0
176
     1
 62
    18
420
        0
176
     1
 90
       50
176
     1
 90
        3
176
     1
 62
     5
420
      255
176
     1
290
     0
176
     1
 90
       50
176
     1
 90
       50
176
     1
 90
       50
176
     1
290
     0
176
     1
 90
       50
176
     1
 62
   256
176
     0
 40
1.0
176
     0
 90
        2
176
     1
  1
strokes_ogs.tif
176
     1
290
     0
176
     1
 40
1.0
176
     1
 40
1.0
176
     1
  0
VISUALSTYLE
  5
2B
102
{ACAD_REACTORS
330
2A
102
}
330
2A
100
AcDbVisualStyle
  2
Flat
 70
     0
177
     3
291
     1
 70
    58
 90
        2
176
     1
 90
        1
176
     1
 90
        1
176
     1
 90
        2
176
     1
 40
0.6
176
     1
 40
30.0
176
     1
 62
     7
420
 16777215
176
     1
 90
        0
176
     1
 90
        0
176
     1
 62
     7
176
     1
 62
   257
176
     1
 90
        1
176
     1
 90
        1
176
     1
 40
1.0
176
     1
 90
        8
176
     1
 62
     7
176
     1
 40
1.0
176
     1
 90
        1
176
     1
 90
        6
176
     1
 90
        2
176
     1
 62
     7
176
     1
 90
        5
176
     1
 90
        0
176
     1
 90
        0
176
     1
290
     0
176
     1
 90
       13
176
     1
 40
0.0
176
     1
 90
        0
176
     1
290
     0
176
     1
290
     1
176
     1
290
     1
176
     1
290
     0
176
     1
290
     0
176
     1
290
     0
176
     1
290
     0
176
     1
290
     0
176
     1
290
     0
176
     1
 90
       50
176
     1
 40
0.0
176
     1
 40
1.0
176
     1
 90
        0
176
     1
 62
    18
420
        0
176
     1
 90
       50
176
     1
 90
        3
176
     1
 62
     5
420
      255
176
     1
290
     0
176
     1
 90
       50
176
     1
 90
       50
176
     1
 90
       50
176
     1
290
     0
176
     1
 90
       50
176
     1
 62
   256
176
     0
 40
1.0
176
     0
 90
        2
176
     1
  1
strokes_ogs.tif
176
     1
290
     0
176
     1
 40
1.0
176
     1
 40
1.0
176
     1
  0
VISUALSTYLE
  5
2C
102
{ACAD_REACTORS
330
2A
102
}
330
2A
100
AcDbVisualStyle
  2
FlatWithEdges
 70
     1
177
     3
291
     1
 70
    58
 90
        2
176
     1
 90
        1
176
     1
 90
        1
176
     1
 90
        2
176
     1
 40
0.6
176
     1
 40
30.0
176
     1
 62
     7
420
 16777215
176
     1
 90
        1
176
     1
 90
        0
176
     1
 62
     7
176
     1
 62
   257
176
     1
 90
        1
176
     1
 90
        1
176
     1
 40
1.0
176
     1
 90
        0
176
     1
 62
   257
176
     1
 40
1.0
176
     1
 90
        1
176
     1
 90
        6
176
     1
 90
        2
176
     1
 62
     7
176
     1
 90
        5
176
     1
 90
        0
176
     1
 90
        0
176
     1
290
     0
176
     1
 90
       13
176
     1
 40
0.0
176
     1
 90
        0
176
     1
290
     0
176
     1
290
     1
176
     1
290
     1
176
     1
290
     0
176
     1
290
     0
176
     1
290
     0
176
     1
290
     0
176
     1
290
     0
176
     1
290
     0
176
     1
 90
       50
176
     1
 40
0.0
176
     1
 40
1.0
176
     1
 90
        0
176
     1
 62
    18
420
        0
176
     1
 90
       50
176
     1
 90
        3
176
     1
 62
     5
420
      255
176
     1
290
     0
176
     1
 90
       50
176
     1
 90
       50
176
     1
 90
       50
176
     1
290
     0
176
     1
 90
       50
176
     1
 62
   256
176
     0
 40
1.0
176
     0
 90
        2
176
     1
  1
strokes_ogs.tif
176
     1
290
     0
176
     1
 40
1.0
176
     1
 40
1.0
176
     1
  0
VISUALSTYLE
  5
2D
102
{ACAD_REACTORS
330
2A
102
}
330
2A
100
AcDbVisualStyle
  2
Gouraud
 70
     2
177
     3
291
     1
 70
    58
 90
        2
176
     1
 90
        2
176
     1
 90
        1
176
     1
 90
        2
176
     1
 40
0.6
176
     1
 40
30.0
176
     1
 62
     7
420
 16777215
176
     1
 90
        0
176
     1
 90
        0
176
     1
 62
     7
176
     1
 62
   257
176
     1
 90
        1
176
     1
 90
        1
176
     1
 40
1.0
176
     1
 90
        0
176
     1
 62
     7
176
     1
 40
1.0
176
     1
 90
        1
176
     1
 90
        6
176
     1
 90
        2
176
     1
 62
     7
176
     1
 90
        5
176
     1
 90
        0
176
     1
 90
        0
176
     1
290
     0
176
     1
 90
       13
176
     1
 40
0.0
176
     1
 90
        0
176
     1
290
     0
176
     1
290
     1
176
     1
290
     1
176
     1
290
     0
176
     1
290
     0
176
     1
290
     0
176
     1
290
     0
176
     1
290
     0
176
     1
290
     0
176
     1
 90
       50
176
     1
 40
0.0
176
     1
 40
1.0
176
     1
 90
        0
176
     1
 62
    18
420
        0
176
     1
 90
       50
176
     1
 90
        3
176
     1
 62
     5
420
      255
176
     1
290
     0
176
     1
 90
       50
176
     1
 90
       50
176
     1
 90
       50
176
     1
290
     0
176
     1
 90
       50
176
     1
 62
   256
176
     0
 40
1.0
176
     0
 90
        2
176
     1
  1
strokes_ogs.tif
176
     1
290
     0
176
     1
 40
1.0
176
     1
 40
1.0
176
     1
  0
VISUALSTYLE
  5
2E
102
{ACAD_REACTORS
330
2A
102
}
330
2A
100
AcDbVisualStyle
  2
GouraudWithEdges
 70
     3
177
     3
291
     1
 70
    58
 90
        2
176
     1
 90
        2
176
     1
 90
        1
176
     1
 90
        2
176
     1
 40
0.6
176
     1
 40
30.0
176
     1
 62
     7
420
 16777215
176
     1
 90
        1
176
     1
 90
        0
176
     1
 62
     7
176
     1
 62
   257
176
     1
 90
        1
176
     1
 90
        1
176
     1
 40
1.0
176
     1
 90
        0
176
     1
 62
   257
176
     1
 40
1.0
176
     1
 90
        1
176
     1
 90
        6
176
     1
 90
        2
176
     1
 62
     7
176
     1
 90
        5
176
     1
 90
        0
176
     1
 90
        0
176
     1
290
     0
176
     1
 90
       13
176
     1
 40
0.0
176
     1
 90
        0
176
     1
290
     0
176
     1
290
     1
176
     1
290
     1
176
     1
290
     0
176
     1
290
     0
176
     1
290
     0
176
     1
290
     0
176
     1
290
     0
176
     1
290
     0
176
     1
 90
       50
176
     1
 40
0.0
176
     1
 40
1.0
176
     1
 90
        0
176
     1
 62
    18
420
        0
176
     1
 90
       50
176
     1
 90
        3
176
     1
 62
     5
420
      255
176
     1
290
     0
176
     1
 90
       50
176
     1
 90
       50
176
     1
 90
       50
176
     1
290
     0
176
     1
 90
       50
176
     1
 62
   256
176
     0
 40
1.0
176
     0
 90
        2
176
     1
  1
strokes_ogs.tif
176
     1
290
     0
176
     1
 40
1.0
176
     1
 40
1.0
176
     1
  0
VISUALSTYLE
  5
31
102
{ACAD_REACTORS
330
2A
102
}
330
2A
100
AcDbVisualStyle
  2
Hidden
 70
     6
177
     3
291
     0
 70
    58
 90
        1
176
     1
 90
        2
176
     1
 90
        2
176
     1
 90
        0
176
     1
 40
0.6
176
     1
 40
30.0
176
     1
 62
     7
420
 16777215
176
     1
 90
        2
176
     1
 90
        2
176
     1
 62
     7
176
     1
 62
   257
176
     1
 90
        2
176
     1
 90
        1
176
     1
 40
40.0
176
     1
 90
        0
176
     1
 62
   257
176
     1
 40
1.0
176
     1
 90
        1
176
     1
 90
        6
176
     1
 90
        2
176
     1
 62
     7
176
     1
 90
        3
176
     1
 90
        0
176
     1
 90
        0
176
     1
290
     0
176
     1
 90
        1
176
     1
 40
0.0
176
     1
 90
        0
176
     1
290
     0
176
     1
290
     1
176
     1
290
     1
176
     1
290
     0
176
     1
290
     0
176
     1
290
     0
176
     1
290
     0
176
     1
290
     0
176
     1
290
     0
176
     1
 90
       50
176
     1
 40
0.0
176
     1
 40
1.0
176
     1
 90
        0
176
     1
 62
    18
420
        0
176
     1
 90
       50
176
     1
 90
        3
176
     1
 62
     5
420
      255
176
     1
290
     0
176
     1
 90
       50
176
     1
 90
       50
176
     1
 90
       50
176
     1
290
     0
176
     1
 90
       50
176
     1
 62
   256
176
     0
 40
1.0
176
     0
 90
        2
176
     1
  1
strokes_ogs.tif
176
     1
290
     0
176
     1
 40
1.0
176
     1
 40
1.0
176
     1
  0
VISUALSTYLE
  5
3B
102
{ACAD_REACTORS
330
2A
102
}
330
2A
100
AcDbVisualStyle
  2
JitterOff
 70
    20
177
     3
291
     1
 70
    58
 90
        2
176
     0
 90
        2
176
     0
 90
        0
176
     0
 90
        0
176
     0
 40
0.6
176
     0
 40
30.0
176
     0
 62
     7
420
 16777215
176
     0
 90
        1
176
     0
 90
        4
176
     0
 62
     7
176
     0
 62
   257
176
     0
 90
        1
176
     0
 90
        1
176
     0
 40
1.0
176
     0
 90
       10
176
     2
 62
     7
176
     0
 40
1.0
176
     0
 90
        1
176
     0
 90
        6
176
     0
 90
        2
176
     0
 62
     7
176
     0
 90
        5
176
     0
 90
        0
176
     0
 90
        0
176
     0
290
     0
176
     0
 90
        1
176
     0
 40
0.0
176
     0
 90
        0
176
     0
290
     0
176
     0
290
     1
176
     0
290
     1
176
     0
290
     0
176
     0
290
     0
176
     0
290
     0
176
     0
290
     0
176
     0
290
     0
176
     0
290
     0
176
     0
 90
       50
176
     0
 40
0.0
176
     0
 40
1.0
176
     0
 90
        0
176
     0
 62
    18
420
        0
176
     0
 90
       50
176
     0
 90
        3
176
     0
 62
     5
420
      255
176
     0
290
     0
176
     0
 90
       50
176
     0
 90
       50
176
     0
 90
       50
176
     0
290
     0
176
     0
 90
       50
176
     0
 62
   256
176
     0
 40
1.0
176
     0
 90
        2
176
     0
  1
strokes_ogs.tif
176
     0
290
     0
176
     0
 40
1.0
176
     0
 40
1.0
176
     0
  0
VISUALSTYLE
  5
38
102
{ACAD_REACTORS
330
2A
102
}
330
2A
100
AcDbVisualStyle
  2
Linepattern
 70
    14
177
     3
291
     1
 70
    58
 90
        2
176
     1
 90
        2
176
     1
 90
        0
176
     1
 90
        0
176
     1
 40
0.6
176
     1
 40
30.0
176
     1
 62
     7
420
 16777215
176
     1
 90
        1
176
     1
 90
        4
176
     1
 62
     7
176
     1
 62
   257
176
     1
 90
        7
176
     1
 90
        7
176
     1
 40
1.0
176
     1
 90
        8
176
     1
 62
     7
176
     1
 40
1.0
176
     1
 90
        1
176
     1
 90
        6
176
     1
 90
        2
176
     1
 62
     7
176
     1
 90
        5
176
     1
 90
        0
176
     1
 90
        0
176
     1
290
     0
176
     1
 90
        1
176
     1
 40
0.0
176
     1
 90
        0
176
     1
290
     0
176
     1
290
     1
176
     1
290
     1
176
     1
290
     0
176
     1
290
     0
176
     1
290
     0
176
     1
290
     0
176
     1
290
     0
176
     1
290
     0
176
     1
 90
       50
176
     1
 40
0.0
176
     1
 40
1.0
176
     1
 90
        0
176
     1
 62
    18
420
        0
176
     1
 90
       50
176
     1
 90
        3
176
     1
 62
     5
420
      255
176
     1
290
     0
176
     1
 90
       50
176
     1
 90
       50
176
     1
 90
       50
176
     1
290
     0
176
     1
 90
       50
176
     1
 62
   256
176
     0
 40
1.0
176
     0
 90
        2
176
     1
  1
strokes_ogs.tif
176
     1
290
     0
176
     1
 40
1.0
176
     1
 40
1.0
176
     1
  0
VISUALSTYLE
  5
3C
102
{ACAD_REACTORS
330
2A
102
}
330
2A
100
AcDbVisualStyle
  2
OverhangOff
 70
    21
177
     3
291
     1
 70
    58
 90
        2
176
     0
 90
        2
176
     0
 90
        0
176
     0
 90
        0
176
     0
 40
0.6
176
     0
 40
30.0
176
     0
 62
     7
420
 16777215
176
     0
 90
        1
176
     0
 90
        4
176
     0
 62
     7
176
     0
 62
   257
176
     0
 90
        1
176
     0
 90
        1
176
     0
 40
1.0
176
     0
 90
        9
176
     2
 62
     7
176
     0
 40
1.0
176
     0
 90
        1
176
     0
 90
        6
176
     0
 90
        2
176
     0
 62
     7
176
     0
 90
        5
176
     0
 90
        0
176
     0
 90
        0
176
     0
290
     0
176
     0
 90
        1
176
     0
 40
0.0
176
     0
 90
        0
176
     0
290
     0
176
     0
290
     1
176
     0
290
     1
176
     0
290
     0
176
     0
290
     0
176
     0
290
     0
176
     0
290
     0
176
     0
290
     0
176
     0
290
     0
176
     0
 90
       50
176
     0
 40
0.0
176
     0
 40
1.0
176
     0
 90
        0
176
     0
 62
    18
420
        0
176
     0
 90
       50
176
     0
 90
        3
176
     0
 62
     5
420
      255
176
     0
290
     0
176
     0
 90
       50
176
     0
 90
       50
176
     0
 90
       50
176
     0
290
     0
176
     0
 90
       50
176
     0
 62
   256
176
     0
 40
1.0
176
     0
 90
        2
176
     0
  1
strokes_ogs.tif
176
     0
290
     0
176
     0
 40
1.0
176
     0
 40
1.0
176
     0
  0
VISUALSTYLE
  5
33
102
{ACAD_REACTORS
330
2A
102
}
330
2A
100
AcDbVisualStyle
  2
Realistic
 70
     8
177
     3
291
     0
 70
    58
 90
        2
176
     1
 90
        3
176
     1
 90
        0
176
     1
 90
        2
176
     1
 40
0.6
176
     1
 40
30.0
176
     1
 62
     7
420
 16777215
176
     1
 90
        0
176
     1
 90
        0
176
     1
 62
     7
176
     1
 62
   257
176
     1
 90
        1
176
     1
 90
        1
176
     1
 40
1.0
176
     1
 90
        8
176
     1
 62
   257
176
     1
 40
1.0
176
     1
 90
        1
176
     1
 90
        6
176
     1
 90
        2
176
     1
 62
     7
176
     1
 90
        3
176
     1
 90
        0
176
     1
 90
        0
176
     1
290
     0
176
     1
 90
       13
176
     1
 40
0.0
176
     1
 90
        0
176
     1
290
     0
176
     1
290
     1
176
     1
290
     1
176
     1
290
     0
176
     1
290
     0
176
     1
290
     0
176
     1
290
     0
176
     1
290
     0
176
     1
290
     0
176
     1
 90
       50
176
     1
 40
0.0
176
     1
 40
1.0
176
     1
 90
        0
176
     1
 62
    18
420
        0
176
     1
 90
       50
176
     1
 90
        3
176
     1
 62
     5
420
      255
176
     1
290
     0
176
     1
 90
       50
176
     1
 90
       50
176
     1
 90
       50
176
     1
290
     0
176
     1
 90
       50
176
     1
 62
   256
176
     0
 40
1.0
176
     0
 90
        2
176
     1
  1
strokes_ogs.tif
176
     1
290
     0
176
     1
 40
1.0
176
     1
 40
1.0
176
     1
  0
VISUALSTYLE
  5
42
102
{ACAD_REACTORS
330
2A
102
}
330
2A
100
AcDbVisualStyle
  2
Shaded
 70
    27
177
     3
291
     0
 70
    58
 90
        2
176
     1
 90
        2
176
     1
 90
        1
176
     1
 90
        2
176
     1
 40
0.6
176
     1
 40
30.0
176
     1
 62
     7
420
 16777215
176
     1
 90
        0
176
     1
 90
        4
176
     1
 62
     7
176
     1
 62
   257
176
     1
 90
        1
176
     1
 90
        1
176
     1
 40
1.0
176
     1
 90
        8
176
     1
 62
   257
176
     1
 40
1.0
176
     1
 90
        1
176
     1
 90
        6
176
     1
 90
        2
176
     1
 62
     8
420
  7895160
176
     1
 90
        3
176
     1
 90
        0
176
     1
 90
        0
176
     1
290
     0
176
     1
 90
        5
176
     1
 40
0.0
176
     1
 90
        0
176
     1
290
     0
176
     1
290
     1
176
     1
290
     1
176
     1
290
     0
176
     1
290
     0
176
     1
290
     0
176
     1
290
     0
176
     1
290
     0
176
     1
290
     0
176
     1
 90
       50
176
     1
 40
0.0
176
     1
 40
1.0
176
     1
 90
        0
176
     1
 62
    18
420
        0
176
     1
 90
       50
176
     1
 90
        3
176
     1
 62
     5
420
      255
176
     1
290
     0
176
     1
 90
       50
176
     1
 90
       50
176
     1
 90
       50
176
     1
290
     0
176
     1
 90
       50
176
     1
 62
   256
176
     0
 40
1.0
176
     0
 90
        2
176
     1
  1
strokes_ogs.tif
176
     1
290
     0
176
     1
 40
1.0
176
     1
 40
1.0
176
     1
  0
VISUALSTYLE
  5
41
102
{ACAD_REACTORS
330
2A
102
}
330
2A
100
AcDbVisualStyle
  2
Shaded with edges
 70
    26
177
     3
291
     0
 70
    58
 90
        2
176
     1
 90
        2
176
     1
 90
        1
176
     1
 90
        2
176
     1
 40
0.6
176
     1
 40
30.0
176
     1
 62
     7
420
 16777215
176
     1
 90
        1
176
     1
 90
       10
176
     1
 62
     7
176
     1
 62
   257
176
     1
 90
        2
176
     1
 90
        1
176
     1
 40
1.0
176
     1
 90
        8
176
     1
 62
   257
176
     1
 40
1.0
176
     1
 90
        1
176
     1
 90
        6
176
     1
 90
        2
176
     1
 62
     7
176
     1
 90
        3
176
     1
 90
        0
176
     1
 90
        0
176
     1
290
     0
176
     1
 90
        5
176
     1
 40
0.0
176
     1
 90
        0
176
     1
290
     0
176
     1
290
     1
176
     1
290
     1
176
     1
290
     0
176
     1
290
     0
176
     1
290
     0
176
     1
290
     0
176
     1
290
     0
176
     1
290
     0
176
     1
 90
       50
176
     1
 40
0.0
176
     1
 40
1.0
176
     1
 90
        0
176
     1
 62
    18
420
        0
176
     1
 90
       50
176
     1
 90
        3
176
     1
 62
     5
420
      255
176
     1
290
     0
176
     1
 90
       50
176
     1
 90
       50
176
     1
 90
       50
176
     1
290
     0
176
     1
 90
       50
176
     1
 62
   256
176
     0
 40
1.0
176
     0
 90
        2
176
     1
  1
strokes_ogs.tif
176
     1
290
     0
176
     1
 40
1.0
176
     1
 40
1.0
176
     1
  0
VISUALSTYLE
  5
3E
102
{ACAD_REACTORS
330
2A
102
}
330
2A
100
AcDbVisualStyle
  2
Shades of Gray
 70
    23
177
     3
291
     0
 70
    58
 90
        2
176
     1
 90
        2
176
     1
 90
        3
176
     1
 90
        0
176
     1
 40
0.6
176
     1
 40
30.0
176
     1
 62
     7
420
 16777215
176
     1
 90
        2
176
     1
 90
        2
176
     1
 62
     7
176
     1
 62
     7
176
     1
 90
        1
176
     1
 90
        1
176
     1
 40
40.0
176
     1
 90
        8
176
     1
 62
     7
176
     1
 40
1.0
176
     1
 90
        1
176
     1
 90
        6
176
     1
 90
        2
176
     1
 62
     7
176
     1
 90
        3
176
     1
 90
        0
176
     1
 90
        0
176
     1
290
     0
176
     1
 90
        1
176
     1
 40
0.0
176
     1
 90
        0
176
     1
290
     0
176
     1
290
     1
176
     1
290
     1
176
     1
290
     0
176
     1
290
     0
176
     1
290
     0
176
     1
290
     0
176
     1
290
     0
176
     1
290
     0
176
     1
 90
       50
176
     1
 40
0.0
176
     1
 40
1.0
176
     1
 90
        0
176
     1
 62
    18
420
        0
176
     1
 90
       50
176
     1
 90
        3
176
     1
 62
     5
420
      255
176
     1
290
     0
176
     1
 90
       50
176
     1
 90
       50
176
     1
 90
       50
176
     1
290
     0
176
     1
 90
       50
176
     1
 62
   256
176
     0
 40
1.0
176
     0
 90
        2
176
     1
  1
strokes_ogs.tif
176
     1
290
     0
176
     1
 40
1.0
176
     1
 40
1.0
176
     1
  0
VISUALSTYLE
  5
3F
102
{ACAD_REACTORS
330
2A
102
}
330
2A
100
AcDbVisualStyle
  2
Sketchy
 70
    24
177
     3
291
     0
 70
    58
 90
        1
176
     1
 90
        2
176
     1
 90
        2
176
     1
 90
        0
176
     1
 40
0.6
176
     1
 40
30.0
176
     1
 62
     7
420
 16777215
176
     1
 90
        2
176
     1
 90
        2
176
     1
 62
     7
176
     1
 62
     7
176
     1
 90
        1
176
     1
 90
        1
176
     1
 40
40.0
176
     1
 90
       11
176
     1
 62
     7
176
     1
 40
1.0
176
     1
 90
        1
176
     1
 90
        6
176
     1
 90
        2
176
     1
 62
     7
176
     1
 90
        6
176
     1
 90
        0
176
     1
 90
        0
176
     1
290
     0
176
     1
 90
        1
176
     1
 40
0.0
176
     1
 90
        0
176
     1
290
     0
176
     1
290
     1
176
     1
290
     1
176
     1
290
     0
176
     1
290
     0
176
     1
290
     0
176
     1
290
     0
176
     1
290
     0
176
     1
290
     0
176
     1
 90
       50
176
     1
 40
0.0
176
     1
 40
1.0
176
     1
 90
        0
176
     1
 62
    18
420
        0
176
     1
 90
       50
176
     1
 90
        3
176
     1
 62
     5
420
      255
176
     1
290
     0
176
     1
 90
       50
176
     1
 90
       50
176
     1
 90
       50
176
     1
290
     0
176
     1
 90
       50
176
     1
 62
   256
176
     0
 40
1.0
176
     0
 90
        2
176
     1
  1
strokes_ogs.tif
176
     1
290
     0
176
     1
 40
1.0
176
     1
 40
1.0
176
     1
  0
VISUALSTYLE
  5
37
102
{ACAD_REACTORS
330
2A
102
}
330
2A
100
AcDbVisualStyle
  2
Thicken
 70
    13
177
     3
291
     1
 70
    58
 90
        2
176
     1
 90
        2
176
     1
 90
        0
176
     1
 90
        0
176
     1
 40
0.6
176
     1
 40
30.0
176
     1
 62
     7
420
 16777215
176
     1
 90
        1
176
     1
 90
        4
176
     1
 62
     7
176
     1
 62
   257
176
     1
 90
        1
176
     1
 90
        1
176
     1
 40
1.0
176
     1
 90
       12
176
     1
 62
     7
176
     1
 40
1.0
176
     1
 90
        1
176
     1
 90
        6
176
     1
 90
        2
176
     1
 62
     7
176
     1
 90
        5
176
     1
 90
        0
176
     1
 90
        0
176
     1
290
     0
176
     1
 90
        1
176
     1
 40
0.0
176
     1
 90
        0
176
     1
290
     0
176
     1
290
     1
176
     1
290
     1
176
     1
290
     0
176
     1
290
     0
176
     1
290
     0
176
     1
290
     0
176
     1
290
     0
176
     1
290
     0
176
     1
 90
       50
176
     1
 40
0.0
176
     1
 40
1.0
176
     1
 90
        0
176
     1
 62
    18
420
        0
176
     1
 90
       50
176
     1
 90
        3
176
     1
 62
     5
420
      255
176
     1
290
     0
176
     1
 90
       50
176
     1
 90
       50
176
     1
 90
       50
176
     1
290
     0
176
     1
 90
       50
176
     1
 62
   256
176
     0
 40
1.0
176
     0
 90
        2
176
     1
  1
strokes_ogs.tif
176
     1
290
     0
176
     1
 40
1.0
176
     1
 40
1.0
176
     1
  0
VISUALSTYLE
  5
30
102
{ACAD_REACTORS
330
2A
102
}
330
2A
100
AcDbVisualStyle
  2
Wireframe
 70
     5
177
     3
291
     0
 70
    58
 90
        0
176
     1
 90
        2
176
     1
 90
        0
176
     1
 90
        0
176
     1
 40
0.6
176
     1
 40
30.0
176
     1
 62
     7
420
 16777215
176
     1
 90
        1
176
     1
 90
        4
176
     1
 62
     7
176
     1
 62
   257
176
     1
 90
        1
176
     1
 90
        1
176
     1
 40
1.0
176
     1
 90
        0
176
     1
 62
   257
176
     1
 40
1.0
176
     1
 90
        1
176
     1
 90
        6
176
     1
 90
        2
176
     1
 62
     7
176
     1
 90
        3
176
     1
 90
        0
176
     1
 90
        0
176
     1
290
     0
176
     1
 90
        1
176
     1
 40
0.0
176
     1
 90
        0
176
     1
290
     0
176
     1
290
     1
176
     1
290
     1
176
     1
290
     0
176
     1
290
     0
176
     1
290
     0
176
     1
290
     0
176
     1
290
     0
176
     1
290
     0
176
     1
 90
       50
176
     1
 40
0.0
176
     1
 40
1.0
176
     1
 90
        0
176
     1
 62
    18
420
        0
176
     1
 90
       50
176
     1
 90
        3
176
     1
 62
     5
420
      255
176
     1
290
     0
176
     1
 90
       50
176
     1
 90
       50
176
     1
 90
       50
176
     1
290
     0
176
     1
 90
       50
176
     1
 62
   256
176
     0
 40
1.0
176
     0
 90
        2
176
     1
  1
strokes_ogs.tif
176
     1
290
     0
176
     1
 40
1.0
176
     1
 40
1.0
176
     1
  0
VISUALSTYLE
  5
40
102
{ACAD_REACTORS
330
2A
102
}
330
2A
100
AcDbVisualStyle
  2
X-Ray
 70
    25
177
     3
291
     0
 70
    58
 90
        2
176
     1
 90
        2
176
     1
 90
        1
176
     1
 90
        1
176
     1
 40
0.5
176
     1
 40
30.0
176
     1
 62
     7
420
 16777215
176
     1
 90
        1
176
     1
 90
        0
176
     1
 62
     7
176
     1
 62
   257
176
     1
 90
        1
176
     1
 90
        1
176
     1
 40
1.0
176
     1
 90
        8
176
     1
 62
     7
176
     1
 40
1.0
176
     1
 90
        1
176
     1
 90
        6
176
     1
 90
        2
176
     1
 62
     7
176
     1
 90
        3
176
     1
 90
        0
176
     1
 90
        0
176
     1
290
     0
176
     1
 90
       13
176
     1
 40
0.0
176
     1
 90
        0
176
     1
290
     0
176
     1
290
     1
176
     1
290
     1
176
     1
290
     0
176
     1
290
     0
176
     1
290
     0
176
     1
290
     0
176
     1
290
     0
176
     1
290
     0
176
     1
 90
       50
176
     1
 40
0.0
176
     1
 40
1.0
176
     1
 90
        0
176
     1
 62
    18
420
        0
176
     1
 90
       50
176
     1
 90
        3
176
     1
 62
     5
420
      255
176
     1
290
     0
176
     1
 90
       50
176
     1
 90
       50
176
     1
 90
       50
176
     1
290
     0
176
     1
 90
       50
176
     1
 62
   256
176
     0
 40
1.0
176
     0
 90
        2
176
     1
  1
strokes_ogs.tif
176
     1
290
     0
176
     1
 40
1.0
176
     1
 40
1.0
176
     1
  0
DICTIONARYVAR
  5
24B
102
{ACAD_REACTORS
330
24A
102
}
330
24A
100
DictionaryVariables
280
     0
  1
1:1
  0
DICTIONARYVAR
  5
250
102
{ACAD_REACTORS
330
24A
102
}
330
24A
100
DictionaryVariables
280
     0
  1
Standard
  0
DICTIONARYVAR
  5
24F
102
{ACAD_REACTORS
330
24A
102
}
330
24A
100
DictionaryVariables
280
     0
  1
Standard
  0
DICTIONARY
  5
24C
330
6A
100
AcDbDictionary
280
     1
281
     1
  3
ACAD_ROUNDTRIP_2008_TABLESTYLE_CELLSTYLEMAP
360
24D
  0
CELLSTYLEMAP
  5
24D
102
{ACAD_REACTORS
330
24C
102
}
330
24C
100
AcDbCellStyleMap
 90
        3
300
CELLSTYLE
  1
TABLEFORMAT_BEGIN
 90
        5
170
     1
 91
        0
 92
    32768
 62
   257
 93
        1
300
CONTENTFORMAT
  1
CONTENTFORMAT_BEGIN
 90
        0
 91
        0
 92
        4
 93
        0
300

 40
0.0
140
1.0
 94
        5
 62
     0
340
11
144
0.25
309
CONTENTFORMAT_END
171
     1
301
MARGIN
  1
CELLMARGIN_BEGIN
 40
0.06
 40
0.06
 40
0.06
 40
0.06
 40
0.06
 40
0.06
309
CELLMARGIN_END
 94
        6
 95
        1
302
GRIDFORMAT
  1
GRIDFORMAT_BEGIN
 90
        0
 91
        1
 62
     0
 92
       -2
340
14
 93
        0
 40
0.045
309
GRIDFORMAT_END
 95
        2
302
GRIDFORMAT
  1
GRIDFORMAT_BEGIN
 90
        0
 91
        1
 62
     0
 92
       -2
340
14
 93
        0
 40
0.045
309
GRIDFORMAT_END
 95
        4
302
GRIDFORMAT
  1
GRIDFORMAT_BEGIN
 90
        0
 91
        1
 62
     0
 92
       -2
340
14
 93
        0
 40
0.045
309
GRIDFORMAT_END
 95
        8
302
GRIDFORMAT
  1
GRIDFORMAT_BEGIN
 90
        0
 91
        1
 62
     0
 92
       -2
340
14
 93
        0
 40
0.045
309
GRIDFORMAT_END
 95
       16
302
GRIDFORMAT
  1
GRIDFORMAT_BEGIN
 90
        0
 91
        1
 62
     0
 92
       -2
340
14
 93
        0
 40
0.045
309
GRIDFORMAT_END
 95
       32
302
GRIDFORMAT
  1
GRIDFORMAT_BEGIN
 90
        0
 91
        1
 62
     0
 92
       -2
340
14
 93
        0
 40
0.045
309
GRIDFORMAT_END
309
TABLEFORMAT_END
  1
CELLSTYLE_BEGIN
 90
        1
 91
        1
300
_TITLE
309
CELLSTYLE_END
300
CELLSTYLE
  1
TABLEFORMAT_BEGIN
 90
        5
170
     1
 91
        0
 92
        0
 62
   257
 93
        1
300
CONTENTFORMAT
  1
CONTENTFORMAT_BEGIN
 90
        0
 91
        0
 92
        4
 93
        0
300

 40
0.0
140
1.0
 94
        5
 62
     0
340
11
144
0.18
309
CONTENTFORMAT_END
171
     1
301
MARGIN
  1
CELLMARGIN_BEGIN
 40
0.06
 40
0.06
 40
0.06
 40
0.06
 40
0.06
 40
0.06
309
CELLMARGIN_END
 94
        6
 95
        1
302
GRIDFORMAT
  1
GRIDFORMAT_BEGIN
 90
        0
 91
        1
 62
     0
 92
       -2
340
14
 93
        0
 40
0.045
309
GRIDFORMAT_END
 95
        2
302
GRIDFORMAT
  1
GRIDFORMAT_BEGIN
 90
        0
 91
        1
 62
     0
 92
       -2
340
14
 93
        0
 40
0.045
309
GRIDFORMAT_END
 95
        4
302
GRIDFORMAT
  1
GRIDFORMAT_BEGIN
 90
        0
 91
        1
 62
     0
 92
       -2
340
14
 93
        0
 40
0.045
309
GRIDFORMAT_END
 95
        8
302
GRIDFORMAT
  1
GRIDFORMAT_BEGIN
 90
        0
 91
        1
 62
     0
 92
       -2
340
14
 93
        0
 40
0.045
309
GRIDFORMAT_END
 95
       16
302
GRIDFORMAT
  1
GRIDFORMAT_BEGIN
 90
        0
 91
        1
 62
     0
 92
       -2
340
14
 93
        0
 40
0.045
309
GRIDFORMAT_END
 95
       32
302
GRIDFORMAT
  1
GRIDFORMAT_BEGIN
 90
        0
 91
        1
 62
     0
 92
       -2
340
14
 93
        0
 40
0.045
309
GRIDFORMAT_END
309
TABLEFORMAT_END
  1
CELLSTYLE_BEGIN
 90
        2
 91
        1
300
_HEADER
309
CELLSTYLE_END
300
CELLSTYLE
  1
TABLEFORMAT_BEGIN
 90
        5
170
     1
 91
        0
 92
        0
 62
   257
 93
        1
300
CONTENTFORMAT
  1
CONTENTFORMAT_BEGIN
 90
        0
 91
        0
 92
        4
 93
        0
300

 40
0.0
140
1.0
 94
        2
 62
     0
340
11
144
0.18
309
CONTENTFORMAT_END
171
     1
301
MARGIN
  1
CELLMARGIN_BEGIN
 40
0.06
 40
0.06
 40
0.06
 40
0.06
 40
0.06
 40
0.06
309
CELLMARGIN_END
 94
        6
 95
        1
302
GRIDFORMAT
  1
GRIDFORMAT_BEGIN
 90
        0
 91
        1
 62
     0
 92
       -2
340
14
 93
        0
 40
0.045
309
GRIDFORMAT_END
 95
        2
302
GRIDFORMAT
  1
GRIDFORMAT_BEGIN
 90
        0
 91
        1
 62
     0
 92
       -2
340
14
 93
        0
 40
0.045
309
GRIDFORMAT_END
 95
        4
302
GRIDFORMAT
  1
GRIDFORMAT_BEGIN
 90
        0
 91
        1
 62
     0
 92
       -2
340
14
 93
        0
 40
0.045
309
GRIDFORMAT_END
 95
        8
302
GRIDFORMAT
  1
GRIDFORMAT_BEGIN
 90
        0
 91
        1
 62
     0
 92
       -2
340
14
 93
        0
 40
0.045
309
GRIDFORMAT_END
 95
       16
302
GRIDFORMAT
  1
GRIDFORMAT_BEGIN
 90
        0
 91
        1
 62
     0
 92
       -2
340
14
 93
        0
 40
0.045
309
GRIDFORMAT_END
 95
       32
302
GRIDFORMAT
  1
GRIDFORMAT_BEGIN
 90
        0
 91
        1
 62
     0
 92
       -2
340
14
 93
        0
 40
0.045
309
GRIDFORMAT_END
309
TABLEFORMAT_END
  1
CELLSTYLE_BEGIN
 90
        3
 91
        2
300
_DATA
309
CELLSTYLE_END
  0
ENDSEC
  0
EOF