0
SECTION
  2
HEADER
  9
$ACADVER
  1
AC1027
  9
$ACADMAINTVER
 70
     8
  9
$DWGCODEPAGE
  3
ANSI_1252
  9
$REQUIREDVERSIONS
160
                 0
  9
$COMMENTS
  1
File was created by Cadenas
  9
$CUSTOMPROPERTYTAG
  1
NN
  9
$CUSTOMPROPERTY
  1
Imperial -IP Pillow Block 2-1/8 thru 3-1/2  4-Bolt Inch Bore (Labyrinth Seal)
  9
$CUSTOMPROPERTYTAG
  1
NT
  9
$CUSTOMPROPERTY
  1
Imperial 4 Bolt Piliow Block Bearings
  9
$CUSTOMPROPERTYTAG
  1
NB
  9
$CUSTOMPROPERTY
  1
069580
  9
$CUSTOMPROPERTYTAG
  1
NBSYN
  9
$CUSTOMPROPERTY
  1
$PN.
  9
$CUSTOMPROPERTYTAG
  1
LINA
  9
$CUSTOMPROPERTY
  1
069580
  9
$CUSTOMPROPERTYTAG
  1
SS
  9
$CUSTOMPROPERTY
  1
3
  9
$CUSTOMPROPERTYTAG
  1
PN
  9
$CUSTOMPROPERTY
  1
069580
  9
$CUSTOMPROPERTYTAG
  1
DESCRIPTION
  9
$CUSTOMPROPERTY
  1
P4B-IP-300LE
  9
$CUSTOMPROPERTYTAG
  1
EF
  9
$CUSTOMPROPERTY
  1
Expansion Type
  9
$CUSTOMPROPERTYTAG
  1
ST
  9
$CUSTOMPROPERTY
  1
Labyrinth  Seal
  9
$CUSTOMPROPERTYTAG
  1
A
  9
$CUSTOMPROPERTY
  1
3-1/2
  9
$CUSTOMPROPERTYTAG
  1
B
  9
$CUSTOMPROPERTY
  1
10-7/16
  9
$CUSTOMPROPERTYTAG
  1
C
  9
$CUSTOMPROPERTY
  1
3-3/4
  9
$CUSTOMPROPERTYTAG
  1
DMIN
  9
$CUSTOMPROPERTY
  1
7-15/16
  9
$CUSTOMPROPERTYTAG
  1
DMAX
  9
$CUSTOMPROPERTY
  1
8-5/16
  9
$CUSTOMPROPERTYTAG
  1
E
  9
$CUSTOMPROPERTY
  1
1-7/8
  9
$CUSTOMPROPERTYTAG
  1
F
  9
$CUSTOMPROPERTY
  1
5/8
  9
$CUSTOMPROPERTYTAG
  1
G
  9
$CUSTOMPROPERTY
  1
15/16
  9
$CUSTOMPROPERTYTAG
  1
H
  9
$CUSTOMPROPERTY
  1
1-7/8
  9
$CUSTOMPROPERTYTAG
  1
J
  9
$CUSTOMPROPERTY
  1
6-7/16
  9
$CUSTOMPROPERTYTAG
  1
L
  9
$CUSTOMPROPERTY
  1
4-9/32
  9
$CUSTOMPROPERTYTAG
  1
M
  9
$CUSTOMPROPERTY
  1
3-1/4
  9
$CUSTOMPROPERTYTAG
  1
R
  9
$CUSTOMPROPERTY
  1
1-3/32
  9
$CUSTOMPROPERTYTAG
  1
S
  9
$CUSTOMPROPERTY
  1
2-13/32
  9
$CUSTOMPROPERTYTAG
  1
X
  9
$CUSTOMPROPERTY
  1
1/4
  9
$CUSTOMPROPERTYTAG
  1
Y
  9
$CUSTOMPROPERTY
  1
0.025
  9
$CUSTOMPROPERTYTAG
  1
Z
  9
$CUSTOMPROPERTY
  1
3-15/32
  9
$CUSTOMPROPERTYTAG
  1
COMPANY
  9
$CUSTOMPROPERTY
  1
baldor
  9
$INSBASE
 10
0.0
 20
0.0
 30
0.0
  9
$EXTMIN
 10
1.000000000000000E+20
 20
1.000000000000000E+20
 30
1.000000000000000E+20
  9
$EXTMAX
 10
-1.000000000000000E+20
 20
-1.000000000000000E+20
 30
-1.000000000000000E+20
  9
$LIMMIN
 10
0.0
 20
0.0
  9
$LIMMAX
 10
12.0
 20
9.0
  9
$ORTHOMODE
 70
     0
  9
$REGENMODE
 70
     1
  9
$FILLMODE
 70
     1
  9
$QTEXTMODE
 70
     0
  9
$MIRRTEXT
 70
     1
  9
$LTSCALE
 40
1.0
  9
$ATTMODE
 70
     1
  9
$TEXTSIZE
 40
0.2
  9
$TRACEWID
 40
0.05
  9
$TEXTSTYLE
  7
Standard
  9
$CLAYER
  8
0
  9
$CELTYPE
  6
ByLayer
  9
$CECOLOR
 62
   256
  9
$CELTSCALE
 40
1.0
  9
$DISPSILH
 70
     0
  9
$DIMSCALE
 40
1.0
  9
$DIMASZ
 40
0.18
  9
$DIMEXO
 40
0.0625
  9
$DIMDLI
 40
0.38
  9
$DIMRND
 40
0.0
  9
$DIMDLE
 40
0.0
  9
$DIMEXE
 40
0.18
  9
$DIMTP
 40
0.0
  9
$DIMTM
 40
0.0
  9
$DIMTXT
 40
0.18
  9
$DIMCEN
 40
0.09
  9
$DIMTSZ
 40
0.0
  9
$DIMTOL
 70
     0
  9
$DIMLIM
 70
     0
  9
$DIMTIH
 70
     1
  9
$DIMTOH
 70
     1
  9
$DIMSE1
 70
     0
  9
$DIMSE2
 70
     0
  9
$DIMTAD
 70
     0
  9
$DIMZIN
 70
     0
  9
$DIMBLK
  1

  9
$DIMASO
 70
     1
  9
$DIMSHO
 70
     1
  9
$DIMPOST
  1

  9
$DIMAPOST
  1

  9
$DIMALT
 70
     0
  9
$DIMALTD
 70
     2
  9
$DIMALTF
 40
25.4
  9
$DIMLFAC
 40
1.0
  9
$DIMTOFL
 70
     0
  9
$DIMTVP
 40
0.0
  9
$DIMTIX
 70
     0
  9
$DIMSOXD
 70
     0
  9
$DIMSAH
 70
     0
  9
$DIMBLK1
  1

  9
$DIMBLK2
  1

  9
$DIMSTYLE
  2
Standard
  9
$DIMCLRD
 70
     0
  9
$DIMCLRE
 70
     0
  9
$DIMCLRT
 70
     0
  9
$DIMTFAC
 40
1.0
  9
$DIMGAP
 40
0.09
  9
$DIMJUST
 70
     0
  9
$DIMSD1
 70
     0
  9
$DIMSD2
 70
     0
  9
$DIMTOLJ
 70
     1
  9
$DIMTZIN
 70
     0
  9
$DIMALTZ
 70
     0
  9
$DIMALTTZ
 70
     0
  9
$DIMUPT
 70
     0
  9
$DIMDEC
 70
     4
  9
$DIMTDEC
 70
     4
  9
$DIMALTU
 70
     2
  9
$DIMALTTD
 70
     2
  9
$DIMTXSTY
  7
Standard
  9
$DIMAUNIT
 70
     0
  9
$DIMADEC
 70
     0
  9
$DIMALTRND
 40
0.0
  9
$DIMAZIN
 70
     0
  9
$DIMDSEP
 70
    46
  9
$DIMATFIT
 70
     3
  9
$DIMFRAC
 70
     0
  9
$DIMLDRBLK
  1

  9
$DIMLUNIT
 70
     2
  9
$DIMLWD
 70
    -2
  9
$DIMLWE
 70
    -2
  9
$DIMTMOVE
 70
     0
  9
$DIMFXL
 40
1.0
  9
$DIMFXLON
 70
     0
  9
$DIMJOGANG
 40
0.7853981633974483
  9
$DIMTFILL
 70
     0
  9
$DIMTFILLCLR
 70
     0
  9
$DIMARCSYM
 70
     0
  9
$DIMLTYPE
  6

  9
$DIMLTEX1
  6

  9
$DIMLTEX2
  6

  9
$DIMTXTDIRECTION
 70
     0
  9
$LUNITS
 70
     2
  9
$LUPREC
 70
     4
  9
$SKETCHINC
 40
0.1
  9
$FILLETRAD
 40
0.5
  9
$AUNITS
 70
     0
  9
$AUPREC
 70
     0
  9
$MENU
  1
.
  9
$ELEVATION
 40
0.0
  9
$PELEVATION
 40
0.0
  9
$THICKNESS
 40
0.0
  9
$LIMCHECK
 70
     0
  9
$CHAMFERA
 40
0.0
  9
$CHAMFERB
 40
0.0
  9
$CHAMFERC
 40
0.0
  9
$CHAMFERD
 40
0.0
  9
$SKPOLY
 70
     0
  9
$TDCREATE
 40
2458168.987768322
  9
$TDUCREATE
 40
2458168.946101655
  9
$TDUPDATE
 40
2458168.987768507
  9
$TDUUPDATE
 40
2458168.94610184
  9
$TDINDWG
 40
0.0000000116
  9
$TDUSRTIMER
 40
0.0000000116
  9
$USRTIMER
 70
     1
  9
$ANGBASE
 50
0.0
  9
$ANGDIR
 70
     0
  9
$PDMODE
 70
     0
  9
$PDSIZE
 40
0.0
  9
$PLINEWID
 40
0.0
  9
$SPLFRAME
 70
     0
  9
$SPLINETYPE
 70
     6
  9
$SPLINESEGS
 70
     8
  9
$HANDSEED
  5
256
  9
$SURFTAB1
 70
     6
  9
$SURFTAB2
 70
     6
  9
$SURFTYPE
 70
     6
  9
$SURFU
 70
     6
  9
$SURFV
 70
     6
  9
$UCSBASE
  2

  9
$UCSNAME
  2

  9
$UCSORG
 10
0.0
 20
0.0
 30
0.0
  9
$UCSXDIR
 10
1.0
 20
0.0
 30
0.0
  9
$UCSYDIR
 10
0.0
 20
1.0
 30
0.0
  9
$UCSORTHOREF
  2

  9
$UCSORTHOVIEW
 70
     0
  9
$UCSORGTOP
 10
0.0
 20
0.0
 30
0.0
  9
$UCSORGBOTTOM
 10
0.0
 20
0.0
 30
0.0
  9
$UCSORGLEFT
 10
0.0
 20
0.0
 30
0.0
  9
$UCSORGRIGHT
 10
0.0
 20
0.0
 30
0.0
  9
$UCSORGFRONT
 10
0.0
 20
0.0
 30
0.0
  9
$UCSORGBACK
 10
0.0
 20
0.0
 30
0.0
  9
$PUCSBASE
  2

  9
$PUCSNAME
  2

  9
$PUCSORG
 10
0.0
 20
0.0
 30
0.0
  9
$PUCSXDIR
 10
1.0
 20
0.0
 30
0.0
  9
$PUCSYDIR
 10
0.0
 20
1.0
 30
0.0
  9
$PUCSORTHOREF
  2

  9
$PUCSORTHOVIEW
 70
     0
  9
$PUCSORGTOP
 10
0.0
 20
0.0
 30
0.0
  9
$PUCSORGBOTTOM
 10
0.0
 20
0.0
 30
0.0
  9
$PUCSORGLEFT
 10
0.0
 20
0.0
 30
0.0
  9
$PUCSORGRIGHT
 10
0.0
 20
0.0
 30
0.0
  9
$PUCSORGFRONT
 10
0.0
 20
0.0
 30
0.0
  9
$PUCSORGBACK
 10
0.0
 20
0.0
 30
0.0
  9
$USERI1
 70
     0
  9
$USERI2
 70
     0
  9
$USERI3
 70
     0
  9
$USERI4
 70
     0
  9
$USERI5
 70
     0
  9
$USERR1
 40
0.0
  9
$USERR2
 40
0.0
  9
$USERR3
 40
0.0
  9
$USERR4
 40
0.0
  9
$USERR5
 40
0.0
  9
$WORLDVIEW
 70
     1
  9
$SHADEDGE
 70
     3
  9
$SHADEDIF
 70
    70
  9
$TILEMODE
 70
     1
  9
$MAXACTVP
 70
    64
  9
$PINSBASE
 10
0.0
 20
0.0
 30
0.0
  9
$PLIMCHECK
 70
     0
  9
$PEXTMIN
 10
1.000000000000000E+20
 20
1.000000000000000E+20
 30
1.000000000000000E+20
  9
$PEXTMAX
 10
-1.000000000000000E+20
 20
-1.000000000000000E+20
 30
-1.000000000000000E+20
  9
$PLIMMIN
 10
0.0
 20
0.0
  9
$PLIMMAX
 10
12.0
 20
9.0
  9
$UNITMODE
 70
     0
  9
$VISRETAIN
 70
     1
  9
$PLINEGEN
 70
     0
  9
$PSLTSCALE
 70
     1
  9
$TREEDEPTH
 70
  3020
  9
$CMLSTYLE
  2
Standard
  9
$CMLJUST
 70
     0
  9
$CMLSCALE
 40
1.0
  9
$PROXYGRAPHICS
 70
     1
  9
$MEASUREMENT
 70
     0
  9
$CELWEIGHT
370
    -1
  9
$ENDCAPS
280
     0
  9
$JOINSTYLE
280
     0
  9
$LWDISPLAY
290
     0
  9
$INSUNITS
 70
     1
  9
$HYPERLINKBASE
  1

  9
$STYLESHEET
  1

  9
$XEDIT
290
     1
  9
$CEPSNTYPE
380
     0
  9
$PSTYLEMODE
290
     1
  9
$FINGERPRINTGUID
  2
{507D56E9-8ABF-4D17-A5FD-FF5F948F1528}
  9
$VERSIONGUID
  2
{FAEB1C32-E019-11D5-929B-00C0DF256EC4}
  9
$EXTNAMES
290
     1
  9
$PSVPSCALE
 40
0.0
  9
$OLESTARTUP
290
     0
  9
$SORTENTS
280
   127
  9
$INDEXCTL
280
     0
  9
$HIDETEXT
280
     1
  9
$XCLIPFRAME
280
     2
  9
$HALOGAP
280
     0
  9
$OBSCOLOR
 70
   257
  9
$OBSLTYPE
280
     0
  9
$INTERSECTIONDISPLAY
280
     0
  9
$INTERSECTIONCOLOR
 70
   257
  9
$DIMASSOC
280
     2
  9
$PROJECTNAME
  1

  9
$CAMERADISPLAY
290
     0
  9
$LENSLENGTH
 40
50.0
  9
$CAMERAHEIGHT
 40
0.0
  9
$STEPSPERSEC
 40
2.0
  9
$STEPSIZE
 40
6.0
  9
$3DDWFPREC
 40
2.0
  9
$PSOLWIDTH
 40
0.25
  9
$PSOLHEIGHT
 40
4.0
  9
$LOFTANG1
 40
1.570796326794897
  9
$LOFTANG2
 40
1.570796326794897
  9
$LOFTMAG1
 40
0.0
  9
$LOFTMAG2
 40
0.0
  9
$LOFTPARAM
 70
     7
  9
$LOFTNORMALS
280
     1
  9
$LATITUDE
 40
37.795
  9
$LONGITUDE
 40
-122.394
  9
$NORTHDIRECTION
 40
0.0
  9
$TIMEZONE
 70
 -8000
  9
$LIGHTGLYPHDISPLAY
280
     1
  9
$TILEMODELIGHTSYNCH
280
     1
  9
$CMATERIAL
347
44
  9
$SOLIDHIST
280
     0
  9
$SHOWHIST
280
     1
  9
$DWFFRAME
280
     2
  9
$DGNFRAME
280
     2
  9
$REALWORLDSCALE
290
     1
  9
$INTERFERECOLOR
 62
   256
  9
$CSHADOW
280
     0
  9
$SHADOWPLANELOCATION
 40
0.0
  0
ENDSEC
  0
SECTION
  2
CLASSES
  0
CLASS
  1
ACDBDICTIONARYWDFLT
  2
AcDbDictionaryWithDefault
  3
ObjectDBX Classes
 90
        0
 91
        4
280
     0
281
     0
  0
CLASS
  1
VISUALSTYLE
  2
AcDbVisualStyle
  3
ObjectDBX Classes
 90
     4095
 91
        4
280
     0
281
     0
  0
CLASS
  1
MATERIAL
  2
AcDbMaterial
  3
ObjectDBX Classes
 90
     1153
 91
        4
280
     0
281
     0
  0
CLASS
  1
SCALE
  2
AcDbScale
  3
ObjectDBX Classes
 90
     1153
 91
        4
280
     0
281
     0
  0
CLASS
  1
TABLESTYLE
  2
AcDbTableStyle
  3
ObjectDBX Classes
 90
     4095
 91
        4
280
     0
281
     0
  0
CLASS
  1
MLEADERSTYLE
  2
AcDbMLeaderStyle
  3
ACDB_MLEADERSTYLE_CLASS
 90
     4095
 91
        4
280
     0
281
     0
  0
CLASS
  1
SUN
  2
AcDbSun
  3
SCENEOE
 90
     1153
 91
        4
280
     0
281
     0
  0
CLASS
  1
DICTIONARYVAR
  2
AcDbDictionaryVar
  3
ObjectDBX Classes
 90
        0
 91
        4
280
     0
281
     0
  0
CLASS
  1
CELLSTYLEMAP
  2
AcDbCellStyleMap
  3
ObjectDBX Classes
 90
     1152
 91
        4
280
     0
281
     0
  0
ENDSEC
  0
SECTION
  2
TABLES
  0
TABLE
  2
VPORT
  5
8
330
0
100
AcDbSymbolTable
 70
     1
  0
VPORT
  5
29
330
8
100
AcDbSymbolTableRecord
100
AcDbViewportTableRecord
  2
*Active
 70
     0
 10
0.0
 20
0.0
 11
1.0
 21
1.0
 12
-0.171875
 22
-0.0134215038364491
 13
0.0
 23
0.0
 14
0.5
 24
0.5
 15
0.5
 25
0.5
 16
0.0
 26
0.0
 36
1.0
 17
0.0
 27
0.0
 37
0.0
 40
6.602620132173644
 41
0.6903509377722482
 42
50.0
 43
0.0
 44
0.0
 50
0.0
 51
0.0
 71
     0
 72
   100
 73
     1
 74
     3
 75
     0
 76
     0
 77
     0
 78
     0
281
     0
 65
     1
110
0.0
120
0.0
130
0.0
111
1.0
121
0.0
131
0.0
112
0.0
122
1.0
132
0.0
 79
     0
146
0.0
348
2F
 60
     3
 61
     5
292
     1
282
     1
141
0.0
142
0.0
 63
   250
361
6D
  0
ENDTAB
  0
TABLE
  2
LTYPE
  5
5
330
0
100
AcDbSymbolTable
 70
     3
  0
LTYPE
  5
14
330
5
100
AcDbSymbolTableRecord
100
AcDbLinetypeTableRecord
  2
ByBlock
 70
     0
  3

 72
    65
 73
     0
 40
0.0
  0
LTYPE
  5
15
330
5
100
AcDbSymbolTableRecord
100
AcDbLinetypeTableRecord
  2
ByLayer
 70
     0
  3

 72
    65
 73
     0
 40
0.0
  0
LTYPE
  5
16
330
5
100
AcDbSymbolTableRecord
100
AcDbLinetypeTableRecord
  2
Continuous
 70
     0
  3
Solid line
 72
    65
 73
     0
 40
0.0
  0
LTYPE
  5
9B
330
5
100
AcDbSymbolTableRecord
100
AcDbLinetypeTableRecord
  2
Dashed
 70
     0
  3

 72
    65
 73
     2
 40
2.0
 49
1.0
 74
     0
 49
-1.0
 74
     0
  0
LTYPE
  5
1DB
330
5
100
AcDbSymbolTableRecord
100
AcDbLinetypeTableRecord
  2
Center
 70
     0
  3

 72
    65
 73
     4
 40
1.5
 49
0.45
 74
     0
 49
-0.5
 74
     0
 49
0.05
 74
     0
 49
-0.5
 74
     0
  0
ENDTAB
  0
TABLE
  2
LAYER
  5
2
330
0
100
AcDbSymbolTable
 70
     7
  0
LAYER
  5
10
330
2
100
AcDbSymbolTableRecord
100
AcDbLayerTableRecord
  2
0
 70
     0
 62
     7
  6
Continuous
370
    -3
390
F
347
46
348
0
  0
LAYER
  5
72
330
2
100
AcDbSymbolTableRecord
100
AcDbLayerTableRecord
  2
AM_6
 70
     0
 62
    -2
  6
Continuous
370
    35
390
F
347
46
348
0
  0
LAYER
  5
9C
330
2
100
AcDbSymbolTableRecord
100
AcDbLayerTableRecord
  2
AM_9
 70
     0
 62
     6
  6
Dashed
370
    25
390
F
347
46
348
0
  0
LAYER
  5
E3
330
2
100
AcDbSymbolTableRecord
100
AcDbLayerTableRecord
  2
AM_4
 70
     0
 62
     7
  6
Continuous
370
    50
390
F
347
46
348
0
  0
LAYER
  5
100
330
2
100
AcDbSymbolTableRecord
100
AcDbLayerTableRecord
  2
AM_5
 70
     0
 62
     3
  6
Continuous
370
    25
390
F
347
46
348
0
  0
LAYER
  5
1DC
330
2
100
AcDbSymbolTableRecord
100
AcDbLayerTableRecord
  2
AM_7
 70
     0
 62
     7
  6
Center
370
    25
390
F
347
46
348
0
  0
LAYER
  5
23F
330
2
100
AcDbSymbolTableRecord
100
AcDbLayerTableRecord
  2
ConnectionPoints
 70
     0
 62
     7
  6
Continuous
370
    50
390
F
347
46
348
0
  0
ENDTAB
  0
TABLE
  2
STYLE
  5
3
330
0
100
AcDbSymbolTable
 70
     1
  0
STYLE
  5
11
330
3
100
AcDbSymbolTableRecord
100
AcDbTextStyleTableRecord
  2
Standard
 70
     0
 40
0.0
 41
1.0
 50
0.0
 71
     0
 42
0.2
  3
txt
  4

  0
ENDTAB
  0
TABLE
  2
VIEW
  5
6
330
0
100
AcDbSymbolTable
 70
     0
  0
ENDTAB
  0
TABLE
  2
UCS
  5
7
330
0
100
AcDbSymbolTable
 70
     0
  0
ENDTAB
  0
TABLE
  2
APPID
  5
9
330
0
100
AcDbSymbolTable
 70
     1
  0
APPID
  5
12
330
9
100
AcDbSymbolTableRecord
100
AcDbRegAppTableRecord
  2
ACAD
 70
     0
  0
ENDTAB
  0
TABLE
  2
DIMSTYLE
  5
A
330
0
100
AcDbSymbolTable
 70
     1
100
AcDbDimStyleTable
  0
DIMSTYLE
105
27
330
A
100
AcDbSymbolTableRecord
100
AcDbDimStyleTableRecord
  2
Standard
 70
     0
178
     0
340
11
  0
ENDTAB
  0
TABLE
  2
BLOCK_RECORD
  5
1
330
0
100
AcDbSymbolTable
 70
     8
  0
BLOCK_RECORD
  5
1F
330
1
100
AcDbSymbolTableRecord
100
AcDbBlockTableRecord
  2
*Model_Space
340
22
 70
     0
280
     1
281
     0
  0
BLOCK_RECORD
  5
1B
330
1
100
AcDbSymbolTableRecord
100
AcDbBlockTableRecord
  2
*Paper_Space
340
1E
 70
     0
280
     1
281
     0
  0
BLOCK_RECORD
  5
23
330
1
100
AcDbSymbolTableRecord
100
AcDbBlockTableRecord
  2
*Paper_Space0
340
26
 70
     0
280
     1
281
     0
  0
BLOCK_RECORD
  5
6E
330
1
100
AcDbSymbolTableRecord
100
AcDbBlockTableRecord
  2
1_069580_2
340
0
102
{BLKREFS
331
6F
102
}
 70
     0
280
     1
281
     0
  0
BLOCK_RECORD
  5
8F
330
1
100
AcDbSymbolTableRecord
100
AcDbBlockTableRecord
  2
2_405015E_Inch_0_in_069580_2
340
0
102
{BLKREFS
331
90
102
}
 70
     0
280
     1
281
     0
  0
BLOCK_RECORD
  5
E5
330
1
100
AcDbSymbolTableRecord
100
AcDbBlockTableRecord
  2
3_ASME_B18_3_10_1_0_in_069580_2
340
0
102
{BLKREFS
331
E6
102
}
 70
     0
280
     1
281
     0
  0
BLOCK_RECORD
  5
109
330
1
100
AcDbSymbolTableRecord
100
AcDbBlockTableRecord
  2
4_ASME_B18_3_10_2_0_in_069580_2
340
0
102
{BLKREFS
331
10A
102
}
 70
     0
280
     1
281
     0
  0
BLOCK_RECORD
  5
12D
330
1
100
AcDbSymbolTableRecord
100
AcDbBlockTableRecord
  2
5_070900LW_0_in_069580_2
340
0
102
{BLKREFS
331
12E
102
}
 70
     0
280
     1
281
     0
  0
BLOCK_RECORD
  5
163
330
1
100
AcDbSymbolTableRecord
100
AcDbBlockTableRecord
  2
6_070932I_0_in_069580_2
340
0
102
{BLKREFS
331
164
102
}
 70
     0
280
     1
281
     0
  0
BLOCK_RECORD
  5
1F0
330
1
100
AcDbSymbolTableRecord
100
AcDbBlockTableRecord
  2
7_069580H_0_in_069580_2
340
0
102
{BLKREFS
331
1F1
102
}
 70
     0
280
     1
281
     0
  0
ENDTAB
  0
ENDSEC
  0
SECTION
  2
BLOCKS
  0
BLOCK
  5
20
330
1F
100
AcDbEntity
  8
0
100
AcDbBlockBegin
  2
*Model_Space
 70
     0
 10
0.0
 20
0.0
 30
0.0
  3
*Model_Space
  1

  0
ENDBLK
  5
21
330
1F
100
AcDbEntity
  8
0
100
AcDbBlockEnd
  0
BLOCK
  5
1C
330
1B
100
AcDbEntity
 67
     1
  8
0
100
AcDbBlockBegin
  2
*Paper_Space
 70
     0
 10
0.0
 20
0.0
 30
0.0
  3
*Paper_Space
  1

  0
ENDBLK
  5
1D
330
1B
100
AcDbEntity
 67
     1
  8
0
100
AcDbBlockEnd
  0
BLOCK
  5
24
330
23
100
AcDbEntity
  8
0
100
AcDbBlockBegin
  2
*Paper_Space0
 70
     0
 10
0.0
 20
0.0
 30
0.0
  3
*Paper_Space0
  1

  0
ENDBLK
  5
25
330
23
100
AcDbEntity
  8
0
100
AcDbBlockEnd
  0
BLOCK
  5
70
330
6E
100
AcDbEntity
  8
0
100
AcDbBlockBegin
  2
1_069580_2
 70
     2
 10
0.0
 20
0.0
 30
0.0
  3
1_069580_2
  1

  0
ATTDEF
  5
73
330
6E
100
AcDbEntity
  8
AM_6
100
AcDbText
 10
7.0625
 20
3.2231186611152
 30
0.0
 40
0.5
  1
Imperial -IP Pillow Block 2-1/8 thru 3-1/2  4-Bolt Inch Bore (Labyrinth Seal)
100
AcDbAttributeDefinition
  3

  2
NN
 70
     8
280
     0
  0
ATTDEF
  5
74
330
6E
100
AcDbEntity
  8
AM_6
100
AcDbText
 10
7.0625
 20
2.7231186611152
 30
0.0
 40
0.5
  1
Imperial 4 Bolt Piliow Block Bearings
100
AcDbAttributeDefinition
  3

  2
NT
 70
     8
280
     0
  0
ATTDEF
  5
75
330
6E
100
AcDbEntity
  8
AM_6
100
AcDbText
 10
7.0625
 20
2.2231186611152
 30
0.0
 40
0.5
  1
069580
100
AcDbAttributeDefinition
  3

  2
NB
 70
     8
280
     0
  0
ATTDEF
  5
76
330
6E
100
AcDbEntity
  8
AM_6
100
AcDbText
 10
7.0625
 20
1.7231186611152
 30
0.0
 40
0.5
  1
$PN.
100
AcDbAttributeDefinition
  3

  2
NBSYN
 70
     8
280
     0
  0
ATTDEF
  5
77
330
6E
100
AcDbEntity
  8
AM_6
100
AcDbText
 10
7.0625
 20
1.2231186611152
 30
0.0
 40
0.5
  1
069580
100
AcDbAttributeDefinition
  3

  2
LINA
 70
     8
280
     0
  0
ATTDEF
  5
78
330
6E
100
AcDbEntity
  8
AM_6
100
AcDbText
 10
7.0625
 20
0.7231186611151998
 30
0.0
 40
0.5
  1
3
100
AcDbAttributeDefinition
  3

  2
SS
 70
     8
280
     0
  0
ATTDEF
  5
79
330
6E
100
AcDbEntity
  8
AM_6
100
AcDbText
 10
7.0625
 20
0.2231186611151998
 30
0.0
 40
0.5
  1
069580
100
AcDbAttributeDefinition
  3

  2
PN
 70
     8
280
     0
  0
ATTDEF
  5
7A
330
6E
100
AcDbEntity
  8
AM_6
100
AcDbText
 10
7.0625
 20
-0.2768813388848002
 30
0.0
 40
0.5
  1
P4B-IP-300LE
100
AcDbAttributeDefinition
  3

  2
DESCRIPTION
 70
     8
280
     0
  0
ATTDEF
  5
7B
330
6E
100
AcDbEntity
  8
AM_6
100
AcDbText
 10
7.0625
 20
-0.7768813388848002
 30
0.0
 40
0.5
  1
Expansion Type
100
AcDbAttributeDefinition
  3

  2
EF
 70
     8
280
     0
  0
ATTDEF
  5
7C
330
6E
100
AcDbEntity
  8
AM_6
100
AcDbText
 10
7.0625
 20
-1.2768813388848
 30
0.0
 40
0.5
  1
Labyrinth  Seal
100
AcDbAttributeDefinition
  3

  2
ST
 70
     8
280
     0
  0
ATTDEF
  5
7D
330
6E
100
AcDbEntity
  8
AM_6
100
AcDbText
 10
7.0625
 20
-1.7768813388848
 30
0.0
 40
0.5
  1
3-1/2
100
AcDbAttributeDefinition
  3

  2
A
 70
     8
280
     0
  0
ATTDEF
  5
7E
330
6E
100
AcDbEntity
  8
AM_6
100
AcDbText
 10
7.0625
 20
-2.2768813388848
 30
0.0
 40
0.5
  1
10-7/16
100
AcDbAttributeDefinition
  3

  2
B
 70
     8
280
     0
  0
ATTDEF
  5
7F
330
6E
100
AcDbEntity
  8
AM_6
100
AcDbText
 10
7.0625
 20
-2.7768813388848
 30
0.0
 40
0.5
  1
3-3/4
100
AcDbAttributeDefinition
  3

  2
C
 70
     8
280
     0
  0
ATTDEF
  5
80
330
6E
100
AcDbEntity
  8
AM_6
100
AcDbText
 10
7.0625
 20
-3.2768813388848
 30
0.0
 40
0.5
  1
7-15/16
100
AcDbAttributeDefinition
  3

  2
DMIN
 70
     8
280
     0
  0
ATTDEF
  5
81
330
6E
100
AcDbEntity
  8
AM_6
100
AcDbText
 10
7.0625
 20
-3.7768813388848
 30
0.0
 40
0.5
  1
8-5/16
100
AcDbAttributeDefinition
  3

  2
DMAX
 70
     8
280
     0
  0
ATTDEF
  5
82
330
6E
100
AcDbEntity
  8
AM_6
100
AcDbText
 10
7.0625
 20
-4.276881338884801
 30
0.0
 40
0.5
  1
1-7/8
100
AcDbAttributeDefinition
  3

  2
E
 70
     8
280
     0
  0
ATTDEF
  5
83
330
6E
100
AcDbEntity
  8
AM_6
100
AcDbText
 10
7.0625
 20
-4.776881338884801
 30
0.0
 40
0.5
  1
5/8
100
AcDbAttributeDefinition
  3

  2
F
 70
     8
280
     0
  0
ATTDEF
  5
84
330
6E
100
AcDbEntity
  8
AM_6
100
AcDbText
 10
7.0625
 20
-5.276881338884801
 30
0.0
 40
0.5
  1
15/16
100
AcDbAttributeDefinition
  3

  2
G
 70
     8
280
     0
  0
ATTDEF
  5
85
330
6E
100
AcDbEntity
  8
AM_6
100
AcDbText
 10
7.0625
 20
-5.776881338884801
 30
0.0
 40
0.5
  1
1-7/8
100
AcDbAttributeDefinition
  3

  2
H
 70
     8
280
     0
  0
ATTDEF
  5
86
330
6E
100
AcDbEntity
  8
AM_6
100
AcDbText
 10
7.0625
 20
-6.276881338884801
 30
0.0
 40
0.5
  1
6-7/16
100
AcDbAttributeDefinition
  3

  2
J
 70
     8
280
     0
  0
ATTDEF
  5
87
330
6E
100
AcDbEntity
  8
AM_6
100
AcDbText
 10
7.0625
 20
-6.776881338884801
 30
0.0
 40
0.5
  1
4-9/32
100
AcDbAttributeDefinition
  3

  2
L
 70
     8
280
     0
  0
ATTDEF
  5
88
330
6E
100
AcDbEntity
  8
AM_6
100
AcDbText
 10
7.0625
 20
-7.276881338884801
 30
0.0
 40
0.5
  1
3-1/4
100
AcDbAttributeDefinition
  3

  2
M
 70
     8
280
     0
  0
ATTDEF
  5
89
330
6E
100
AcDbEntity
  8
AM_6
100
AcDbText
 10
7.0625
 20
-7.776881338884801
 30
0.0
 40
0.5
  1
1-3/32
100
AcDbAttributeDefinition
  3

  2
R
 70
     8
280
     0
  0
ATTDEF
  5
8A
330
6E
100
AcDbEntity
  8
AM_6
100
AcDbText
 10
7.0625
 20
-8.2768813388848
 30
0.0
 40
0.5
  1
2-13/32
100
AcDbAttributeDefinition
  3

  2
S
 70
     8
280
     0
  0
ATTDEF
  5
8B
330
6E
100
AcDbEntity
  8
AM_6
100
AcDbText
 10
7.0625
 20
-8.7768813388848
 30
0.0
 40
0.5
  1
1/4
100
AcDbAttributeDefinition
  3

  2
X
 70
     8
280
     0
  0
ATTDEF
  5
8C
330
6E
100
AcDbEntity
  8
AM_6
100
AcDbText
 10
7.0625
 20
-9.2768813388848
 30
0.0
 40
0.5
  1
0.025
100
AcDbAttributeDefinition
  3

  2
Y
 70
     8
280
     0
  0
ATTDEF
  5
8D
330
6E
100
AcDbEntity
  8
AM_6
100
AcDbText
 10
7.0625
 20
-9.7768813388848
 30
0.0
 40
0.5
  1
3-15/32
100
AcDbAttributeDefinition
  3

  2
Z
 70
     8
280
     0
  0
ATTDEF
  5
8E
330
6E
100
AcDbEntity
  8
AM_6
100
AcDbText
 10
7.0625
 20
-10.2768813388848
 30
0.0
 40
0.5
  1
baldor
100
AcDbAttributeDefinition
  3

  2
COMPANY
 70
     8
280
     0
  0
INSERT
  5
90
330
6E
100
AcDbEntity
  8
0
100
AcDbBlockReference
  2
2_405015E_Inch_0_in_069580_2
 10
0.0
 20
0.0
 30
0.0
  0
INSERT
  5
E6
330
6E
100
AcDbEntity
  8
0
100
AcDbBlockReference
  2
3_ASME_B18_3_10_1_0_in_069580_2
 10
0.0
 20
0.0
 30
0.0
  0
INSERT
  5
10A
330
6E
100
AcDbEntity
  8
0
100
AcDbBlockReference
  2
4_ASME_B18_3_10_2_0_in_069580_2
 10
0.0
 20
0.0
 30
0.0
  0
INSERT
  5
12E
330
6E
100
AcDbEntity
  8
0
100
AcDbBlockReference
  2
5_070900LW_0_in_069580_2
 10
0.0
 20
0.0
 30
0.0
  0
INSERT
  5
164
330
6E
100
AcDbEntity
  8
0
100
AcDbBlockReference
  2
6_070932I_0_in_069580_2
 10
0.0
 20
0.0
 30
0.0
  0
INSERT
  5
1F1
330
6E
100
AcDbEntity
  8
0
100
AcDbBlockReference
  2
7_069580H_0_in_069580_2
 10
0.0
 20
0.0
 30
0.0
  0
ENDBLK
  5
71
330
6E
100
AcDbEntity
  8
0
100
AcDbBlockEnd
  0
BLOCK
  5
91
330
8F
100
AcDbEntity
  8
0
100
AcDbBlockBegin
  2
2_405015E_Inch_0_in_069580_2
 70
     2
 10
0.0
 20
0.0
 30
0.0
  3
2_405015E_Inch_0_in_069580_2
  1

  0
ATTDEF
  5
93
330
8F
100
AcDbEntity
  8
AM_6
100
AcDbText
 10
5.252590742770461
 20
3.2231186611152
 30
0.0
 40
0.5
  1
405015E -Inch
100
AcDbAttributeDefinition
  3

  2
NN
 70
     8
280
     0
  0
ATTDEF
  5
94
330
8F
100
AcDbEntity
  8
AM_6
100
AcDbText
 10
5.252590742770461
 20
2.7231186611152
 30
0.0
 40
0.5
  1
Grease Fitting
100
AcDbAttributeDefinition
  3

  2
NT
 70
     8
280
     0
  0
ATTDEF
  5
95
330
8F
100
AcDbEntity
  8
AM_6
100
AcDbText
 10
5.252590742770461
 20
2.2231186611152
 30
0.0
 40
0.5
  1
405015E-Inch
100
AcDbAttributeDefinition
  3

  2
NB
 70
     8
280
     0
  0
ATTDEF
  5
96
330
8F
100
AcDbEntity
  8
AM_6
100
AcDbText
 10
5.252590742770461
 20
1.7231186611152
 30
0.0
 40
0.5
  1
$MN.-Inch
100
AcDbAttributeDefinition
  3

  2
NBSYN
 70
     8
280
     0
  0
ATTDEF
  5
97
330
8F
100
AcDbEntity
  8
AM_6
100
AcDbText
 10
5.252590742770461
 20
1.2231186611152
 30
0.0
 40
0.5
  1
405015E
100
AcDbAttributeDefinition
  3

  2
LINA
 70
     8
280
     0
  0
ATTDEF
  5
98
330
8F
100
AcDbEntity
  8
AM_6
100
AcDbText
 10
5.252590742770461
 20
0.7231186611151998
 30
0.0
 40
0.5
  1
405015E
100
AcDbAttributeDefinition
  3

  2
MN
 70
     8
280
     0
  0
ATTDEF
  5
99
330
8F
100
AcDbEntity
  8
AM_6
100
AcDbText
 10
5.252590742770461
 20
0.2231186611151998
 30
0.0
 40
0.5
  1
1/8 x 27PTF
100
AcDbAttributeDefinition
  3

  2
T
 70
     8
280
     0
  0
ATTDEF
  5
9A
330
8F
100
AcDbEntity
  8
AM_6
100
AcDbText
 10
5.252590742770461
 20
-0.2768813388848002
 30
0.0
 40
0.5
  1
baldor
100
AcDbAttributeDefinition
  3

  2
COMPANY
 70
     8
280
     0
  0
LINE
  5
9D
330
8F
100
AcDbEntity
  8
AM_9
100
AcDbLine
 10
0.1262953713852305
 20
2.81643328363117
 30
0.0
 11
0.1262953713852305
 21
2.745536286629959
 31
0.0
  0
LINE
  5
9E
330
8F
100
AcDbEntity
  8
AM_9
100
AcDbLine
 10
-0.1262953713852308
 20
2.81643328363117
 30
0.0
 11
-0.1262953713852308
 21
2.745536286629959
 31
0.0
  0
LWPOLYLINE
  5
9F
330
8F
100
AcDbEntity
  8
AM_9
100
AcDbPolyline
 90
        4
 70
     0
 43
0.0
 10
-0.0000000000000001
 20
2.824286055319786
 10
-0.048399816055899
 20
2.823058411727339
 10
-0.0967996321117979
 20
2.819538146805308
 10
-0.1262953713852308
 20
2.81643328363117
  0
LWPOLYLINE
  5
A0
330
8F
100
AcDbEntity
  8
AM_9
100
AcDbPolyline
 90
        3
 70
     0
 43
0.0
 10
0.1262953713852305
 20
2.81643328363117
 10
0.0634316146914366
 20
2.822195015375344
 10
-0.0000000000000001
 20
2.824286055319786
  0
LWPOLYLINE
  5
A1
330
8F
100
AcDbEntity
  8
AM_9
100
AcDbPolyline
 90
        3
 70
     0
 43
0.0
 10
0.1894430570778459
 20
2.878973555319786
 10
0.1578692142315382
 20
2.849557076759017
 10
0.1262953713852305
 20
2.81643328363117
  0
LWPOLYLINE
  5
A2
330
8F
100
AcDbEntity
  8
AM_9
100
AcDbPolyline
 90
        3
 70
     0
 43
0.0
 10
-0.1262953713852308
 20
2.81643328363117
 10
-0.1577272497321277
 20
2.849415820512419
 10
-0.1894430570778461
 20
2.878973555319786
  0
LWPOLYLINE
  5
A3
330
8F
100
AcDbEntity
  8
AM_9
100
AcDbPolyline
 90
        3
 70
     0
 43
0.0
 10
0.1262953713852305
 20
2.745536286629959
 10
0.1577272497321275
 20
2.76699536002286
 10
0.1894430570778459
 20
2.792371014941343
  0
LWPOLYLINE
  5
A4
330
8F
100
AcDbEntity
  8
AM_9
100
AcDbPolyline
 90
        3
 70
     0
 43
0.0
 10
0.0199009959326888
 20
2.737893147532008
 10
0.0631476856926152
 20
2.739756243502112
 10
0.1262953713852305
 20
2.745536286629959
  0
LINE
  5
A5
330
8F
100
AcDbEntity
  8
AM_9
100
AcDbLine
 10
-0.0000000000000001
 20
2.737683514941343
 30
0.0
 11
0.0199009959326888
 21
2.737893147532008
 31
0.0
  0
LWPOLYLINE
  5
A6
330
8F
100
AcDbEntity
  8
AM_9
100
AcDbPolyline
 90
        3
 70
     0
 43
0.0
 10
-0.1894430570778461
 20
2.792371014941343
 10
-0.1578692142315384
 20
2.767099993502112
 10
-0.1262953713852308
 20
2.745536286629959
  0
LWPOLYLINE
  5
A7
330
8F
100
AcDbEntity
  8
AM_9
100
AcDbPolyline
 90
        4
 70
     0
 43
0.0
 10
-0.1262953713852308
 20
2.745536286629959
 10
-0.0967996321117979
 20
2.742431423455821
 10
-0.0485424412477545
 20
2.738918318421276
 10
-0.0000000000000001
 20
2.737683514941343
  0
ELLIPSE
  5
A8
330
8F
100
AcDbEntity
  8
AM_9
100
AcDbEllipse
 10
0.0
 20
3.171818041360507
 30
0.0
 11
0.1026779019331875
 21
0.0
 31
0.0
210
0.0
220
0.0
230
1.0
 40
0.4999999999999876
 41
2.90615904904823
 42
6.283185307179586
  0
LINE
  5
A9
330
8F
100
AcDbEntity
  8
AM_9
100
AcDbLine
 10
-0.0998453562378799
 20
3.183793603801705
 30
0.0
 11
-0.131275793898522
 21
3.11828137294933
 31
0.0
  0
LINE
  5
AA
330
8F
100
AcDbEntity
  8
AM_9
100
AcDbLine
 10
0.1312757938985218
 20
3.11828137294933
 30
0.0
 11
0.0998453562378796
 21
3.183793603801705
 31
0.0
  0
ELLIPSE
  5
AB
330
8F
100
AcDbEntity
  8
AM_9
100
AcDbEllipse
 10
-0.00000000000002
 20
3.17181804136081
 30
0.0
 11
0.1026779019332079
 21
0.0
 31
0.0
210
0.0
220
0.0
230
1.0
 40
0.4999999999992525
 41
0.0
 42
0.310420717684441
  0
ELLIPSE
  5
AC
330
8F
100
AcDbEntity
  8
AM_9
100
AcDbEllipse
 10
0.0000000000000288
 20
3.171818041360809
 30
0.0
 11
0.1026779019332173
 21
1.530019967752953E-9
 31
0.0
210
0.0
220
0.0
230
1.0
 40
0.4999999999992542
 41
-3.452013398991015
 42
-3.377026286712023
  0
LINE
  5
AD
330
8F
100
AcDbEntity
  8
AM_9
100
AcDbLine
 10
0.1049999999999999
 20
3.025213368304043
 30
0.0
 11
0.1049999999999999
 21
3.050574484830686
 31
0.0
  0
LINE
  5
AE
330
8F
100
AcDbEntity
  8
AM_9
100
AcDbLine
 10
-0.1050000000000001
 20
3.050574484830686
 30
0.0
 11
-0.1050000000000001
 21
3.025213368304042
 31
0.0
  0
ELLIPSE
  5
AF
330
8F
100
AcDbEntity
  8
AM_9
100
AcDbEllipse
 10
-0.0000000000000001
 20
3.050574484830686
 30
0.0
 11
0.1049999999999998
 21
1.564621925354002E-9
 31
0.0
210
0.0
220
0.0
230
1.0
 40
0.4999999999999984
 41
0.0000017195196831
 42
3.434435397378704
  0
ELLIPSE
  5
B0
330
8F
100
AcDbEntity
  8
AM_9
100
AcDbEllipse
 10
0.0000000000000006
 20
3.024593722717194
 30
0.0
 11
0.1050000000000007
 21
0.0
 31
0.0
210
0.0
220
0.0
230
1.0
 40
0.4999999999999437
 41
2.891559760491722
 42
3.141592653589793
  0
ELLIPSE
  5
B1
330
8F
100
AcDbEntity
  8
AM_9
100
AcDbEllipse
 10
-0.0000000000000029
 20
3.050574484830675
 30
0.0
 11
0.1050000000000028
 21
0.0
 31
0.0
210
0.0
220
0.0
230
1.0
 40
0.4999999999999888
 41
3.434435425318194
 42
6.283185307179586
  0
LINE
  5
B2
330
8F
100
AcDbEntity
  8
AM_9
100
AcDbLine
 10
0.1005298463144154
 20
3.035419040264458
 30
0.0
 11
0.1292526595471055
 21
3.083050437472602
 31
0.0
  0
LINE
  5
B3
330
8F
100
AcDbEntity
  8
AM_9
100
AcDbLine
 10
-0.1292526595471058
 20
3.083050437472602
 30
0.0
 11
-0.1005298463144156
 21
3.035419040264458
 31
0.0
  0
LWPOLYLINE
  5
B4
330
8F
100
AcDbEntity
  8
AM_9
100
AcDbPolyline
 90
        3
 70
     0
 43
0.0
 10
-0.1894430570778461
 20
2.878973555319786
 10
-0.2210168999241537
 20
2.904244576759017
 10
-0.2525907427704613
 20
2.92580828363117
  0
LWPOLYLINE
  5
B5
330
8F
100
AcDbEntity
  8
AM_9
100
AcDbPolyline
 90
        3
 70
     0
 43
0.0
 10
0.2525907427704611
 20
2.92580828363117
 10
0.2211588644235642
 20
2.904349210238269
 10
0.1894430570778459
 20
2.878973555319786
  0
ELLIPSE
  5
B6
330
8F
100
AcDbEntity
  8
AM_9
100
AcDbEllipse
 10
-0.0000000000000009
 20
3.024593722717153
 30
0.0
 11
0.1049999999999992
 21
0.0
 31
0.0
210
0.0
220
0.0
230
1.0
 40
0.5000000000000018
 41
3.141592653589793
 42
4.385881852327178
  0
ELLIPSE
  5
B7
330
8F
100
AcDbEntity
  8
AM_9
100
AcDbEllipse
 10
0.0000000000000001
 20
3.024593722717152
 30
0.0
 11
0.1049999999999996
 21
0.0
 31
0.0
210
0.0
220
0.0
230
1.0
 40
0.4999999999999952
 41
5.03840471436319
 42
6.283185307179586
  0
LINE
  5
B8
330
8F
100
AcDbEntity
  8
AM_9
100
AcDbLine
 10
-0.1017349497468792
 20
3.037584103773919
 30
0.0
 11
-0.1151252948555659
 21
3.011367280711288
 31
0.0
  0
LINE
  5
B9
330
8F
100
AcDbEntity
  8
AM_9
100
AcDbLine
 10
0.1151252948555657
 20
3.011367280711288
 30
0.0
 11
0.101734949746879
 21
3.037584103773919
 31
0.0
  0
ELLIPSE
  5
BA
330
8F
100
AcDbEntity
  8
AM_9
100
AcDbEllipse
 10
-0.0000000000000001
 20
3.024593722717153
 30
0.0
 11
0.1050000000000002
 21
0.0
 31
0.0
210
0.0
220
0.0
230
1.0
 40
0.4999999999999883
 41
0.0
 42
2.891559760490988
  0
ELLIPSE
  5
BB
330
8F
100
AcDbEntity
  8
AM_9
100
AcDbEllipse
 10
0.0000000000000004
 20
2.996667106846084
 30
0.0
 11
0.1188200907348981
 21
0.0
 31
0.0
210
0.0
220
0.0
230
1.0
 40
0.5000000000000226
 41
2.535447513394659
 42
2.89155976049092
  0
ELLIPSE
  5
BC
330
8F
100
AcDbEntity
  8
AM_9
100
AcDbEllipse
 10
-0.000000000000002
 20
2.996667106846076
 30
0.0
 11
0.1188200907348994
 21
0.0
 31
0.0
210
0.0
220
0.0
230
1.0
 40
0.5000000000000134
 41
2.891559760490769
 42
6.889330447374845
  0
ELLIPSE
  5
BD
330
8F
100
AcDbEntity
  8
AM_9
100
AcDbEllipse
 10
0.0000000000000007
 20
2.933661055319785
 30
0.0
 11
0.2187500000000007
 21
0.0
 31
0.0
210
0.0
220
0.0
230
1.0
 40
0.5000000000000023
 41
2.617993877991485
 42
5.759586531581297
  0
ELLIPSE
  5
BE
330
8F
100
AcDbEntity
  8
AM_9
100
AcDbEllipse
 10
0.0
 20
2.933661055319786
 30
0.0
 11
0.2187499999999999
 21
0.0
 31
0.0
210
0.0
220
0.0
230
1.0
 40
0.5000000000000023
 41
5.759586531581292
 42
7.853981633974483
  0
LINE
  5
BF
330
8F
100
AcDbEntity
  8
AM_9
100
AcDbLine
 10
-0.0976523208201059
 20
3.030513222578535
 30
0.0
 11
-0.1417971541629019
 21
2.998671714809829
 31
0.0
  0
LINE
  5
C0
330
8F
100
AcDbEntity
  8
AM_9
100
AcDbLine
 10
0.1417971541629017
 20
2.998671714809829
 30
0.0
 11
0.0976523208201057
 21
3.030513222578535
 31
0.0
  0
ELLIPSE
  5
C1
330
8F
100
AcDbEntity
  8
AM_9
100
AcDbEllipse
 10
-0.0000000000000001
 20
2.996667106846089
 30
0.0
 11
0.118820090734898
 21
0.0
 31
0.0
210
0.0
220
0.0
230
1.0
 40
0.499999999999997
 41
0.6061451401950926
 42
2.535447513394701
  0
LWPOLYLINE
  5
C2
330
8F
100
AcDbEntity
  8
AM_9
100
AcDbPolyline
 90
        3
 70
     0
 43
0.0
 10
0.1894430570778459
 20
2.792371014941343
 10
0.2210168999241535
 20
2.821787493502112
 10
0.2525907427704611
 20
2.854911286629959
  0
LWPOLYLINE
  5
C3
330
8F
100
AcDbEntity
  8
AM_9
100
AcDbPolyline
 90
        3
 70
     0
 43
0.0
 10
-0.2525907427704613
 20
2.854911286629959
 10
-0.2211588644235644
 20
2.82192874974871
 10
-0.1894430570778461
 20
2.792371014941343
  0
ELLIPSE
  5
C4
330
8F
100
AcDbEntity
  8
AM_9
100
AcDbEllipse
 10
-0.0000000000000001
 20
2.933661055319786
 30
0.0
 11
-0.21375
 21
3.185123231361761E-9
 31
0.0
210
0.0
220
0.0
230
1.0
 40
0.5000000000000003
 41
0.0
 42
6.283185307179586
  0
ELLIPSE
  5
C5
330
8F
100
AcDbEntity
  8
AM_9
100
AcDbEllipse
 10
0.0000000000000004
 20
2.933661055319786
 30
0.0
 11
0.2187500000000011
 21
0.0
 31
0.0
210
0.0
220
0.0
230
1.0
 40
0.5000000000000016
 41
1.570796326794897
 42
2.617993877991491
  0
LINE
  5
C6
330
8F
100
AcDbEntity
  8
AM_9
100
AcDbLine
 10
0.2525907427704611
 20
2.92580828363117
 30
0.0
 11
0.2525907427704611
 21
2.854911286629959
 31
0.0
  0
LWPOLYLINE
  5
C7
330
8F
100
AcDbEntity
  8
AM_9
100
AcDbPolyline
 90
        3
 70
     0
 43
0.0
 10
0.1894430570778459
 20
2.988348555319787
 10
0.2210168999241534
 20
2.958932076759017
 10
0.2525907427704611
 20
2.92580828363117
  0
LWPOLYLINE
  5
C8
330
8F
100
AcDbEntity
  8
AM_9
100
AcDbPolyline
 90
        3
 70
     0
 43
0.0
 10
0.1262953713852306
 20
3.035183283631171
 10
0.1577272497321275
 20
3.01372421023827
 10
0.1894430570778459
 20
2.988348555319787
  0
LWPOLYLINE
  5
C9
330
8F
100
AcDbEntity
  8
AM_9
100
AcDbPolyline
 90
        3
 70
     0
 43
0.0
 10
0.2525907427704611
 20
2.854911286629959
 10
0.2211588644235642
 20
2.87637036002286
 10
0.1894430570778459
 20
2.901746014941343
  0
LINE
  5
CA
330
8F
100
AcDbEntity
  8
AM_9
100
AcDbLine
 10
0.1262953713852306
 20
3.035183283631171
 30
0.0
 11
0.1262953713852306
 21
2.964286286629959
 31
0.0
  0
LWPOLYLINE
  5
CB
330
8F
100
AcDbEntity
  8
AM_9
100
AcDbPolyline
 90
        3
 70
     0
 43
0.0
 10
-0.0000000000000001
 20
3.043036055319786
 10
0.0631476856926152
 20
3.040963326759017
 10
0.1262953713852306
 20
3.035183283631171
  0
LWPOLYLINE
  5
CC
330
8F
100
AcDbEntity
  8
AM_9
100
AcDbPolyline
 90
        4
 70
     0
 43
0.0
 10
-0.1262953713852308
 20
3.035183283631171
 10
-0.0967996321117979
 20
3.038288146805308
 10
-0.0485424412477545
 20
3.041801251839853
 10
-0.0000000000000001
 20
3.043036055319786
  0
LWPOLYLINE
  5
CD
330
8F
100
AcDbEntity
  8
AM_9
100
AcDbPolyline
 90
        4
 70
     0
 43
0.0
 10
-0.0000000000000001
 20
2.956433514941343
 10
-0.048399816055899
 20
2.957661158533791
 10
-0.0967996321117979
 20
2.961181423455821
 10
-0.1262953713852308
 20
2.964286286629959
  0
ELLIPSE
  5
CE
330
8F
100
AcDbEntity
  8
AM_9
100
AcDbEllipse
 10
0.0000000000000006
 20
2.847058514941343
 30
0.0
 11
0.218750000000001
 21
3.259629011154191E-9
 31
0.0
210
0.0
220
0.0
230
1.0
 40
0.5000000000000017
 41
1.570796326794897
 42
4.803728530882083
  0
ELLIPSE
  5
CF
330
8F
100
AcDbEntity
  8
AM_9
100
AcDbEllipse
 10
-0.0000000000000017
 20
2.847058514941343
 30
0.0
 11
0.2187500000000024
 21
0.0
 31
0.0
210
0.0
220
0.0
230
1.0
 40
0.4999999999999987
 41
4.803728538518629
 42
5.759586531581287
  0
ELLIPSE
  5
D0
330
8F
100
AcDbEntity
  8
AM_9
100
AcDbEllipse
 10
0.0000000000000002
 20
2.847058514941344
 30
0.0
 11
0.2187499999999997
 21
0.0
 31
0.0
210
0.0
220
0.0
230
1.0
 40
0.4999999999999986
 41
5.759586531581276
 42
7.853981633974483
  0
LWPOLYLINE
  5
D1
330
8F
100
AcDbEntity
  8
AM_9
100
AcDbPolyline
 90
        3
 70
     0
 43
0.0
 10
0.1894430570778459
 20
2.901746014941343
 10
0.1578692142315382
 20
2.931162493502113
 10
0.1262953713852306
 20
2.964286286629959
  0
LWPOLYLINE
  5
D2
330
8F
100
AcDbEntity
  8
AM_9
100
AcDbPolyline
 90
        3
 70
     0
 43
0.0
 10
0.1262953713852306
 20
2.964286286629959
 10
0.0634316146914366
 20
2.958524554885785
 10
-0.0000000000000001
 20
2.956433514941343
  0
LINE
  5
D3
330
8F
100
AcDbEntity
  8
AM_9
100
AcDbLine
 10
-0.1262953713852308
 20
3.035183283631171
 30
0.0
 11
-0.1262953713852308
 21
2.964286286629959
 31
0.0
  0
LWPOLYLINE
  5
D4
330
8F
100
AcDbEntity
  8
AM_9
100
AcDbPolyline
 90
        3
 70
     0
 43
0.0
 10
-0.1894430570778461
 20
2.988348555319787
 10
-0.1578692142315384
 20
3.013619576759017
 10
-0.1262953713852308
 20
3.035183283631171
  0
LWPOLYLINE
  5
D5
330
8F
100
AcDbEntity
  8
AM_9
100
AcDbPolyline
 90
        3
 70
     0
 43
0.0
 10
-0.2525907427704613
 20
2.92580828363117
 10
-0.2211588644235644
 20
2.958790820512419
 10
-0.1894430570778461
 20
2.988348555319787
  0
LINE
  5
D6
330
8F
100
AcDbEntity
  8
AM_9
100
AcDbLine
 10
-0.2525907427704613
 20
2.92580828363117
 30
0.0
 11
-0.2525907427704613
 21
2.854911286629959
 31
0.0
  0
LWPOLYLINE
  5
D7
330
8F
100
AcDbEntity
  8
AM_9
100
AcDbPolyline
 90
        3
 70
     0
 43
0.0
 10
-0.1894430570778461
 20
2.901746014941343
 10
-0.2210168999241537
 20
2.876474993502112
 10
-0.2525907427704613
 20
2.854911286629959
  0
LWPOLYLINE
  5
D8
330
8F
100
AcDbEntity
  8
AM_9
100
AcDbPolyline
 90
        3
 70
     0
 43
0.0
 10
-0.1262953713852308
 20
2.964286286629959
 10
-0.1577272497321277
 20
2.93130374974871
 10
-0.1894430570778461
 20
2.901746014941343
  0
LINE
  5
D9
330
8F
100
AcDbEntity
  8
AM_9
100
AcDbLine
 10
0.1985852938306407
 20
2.647565854254898
 30
0.0
 11
0.2057184028850726
 21
2.845202314163713
 31
0.0
  0
LINE
  5
DA
330
8F
100
AcDbEntity
  8
AM_9
100
AcDbLine
 10
-0.2057184028850728
 20
2.845202314163713
 30
0.0
 11
-0.1985852938306409
 21
2.647565854254898
 31
0.0
  0
ELLIPSE
  5
DB
330
8F
100
AcDbEntity
  8
AM_9
100
AcDbEllipse
 10
-0.0000000000000002
 20
2.649357692863718
 30
0.0
 11
0.1986176267812153
 21
0.0
 31
0.0
210
0.0
220
0.0
230
1.0
 40
0.5000000000000037
 41
0.0
 42
6.265141230475132
  0
ELLIPSE
  5
DC
330
8F
100
AcDbEntity
  8
AM_9
100
AcDbEllipse
 10
-0.0000000000007545
 20
2.649357692863306
 30
0.0
 11
0.1986176267819698
 21
0.0
 31
0.0
210
0.0
220
0.0
230
1.0
 40
0.5000000000000071
 41
6.265141230479359
 42
6.283185307179586
  0
LINE
  5
DD
330
8F
100
AcDbEntity
  8
AM_9
100
AcDbLine
 10
0.1321931418159852
 20
2.570824449436247
 30
0.0
 11
0.1621706131788414
 21
2.592021722719748
 31
0.0
  0
LINE
  5
DE
330
8F
100
AcDbEntity
  8
AM_9
100
AcDbLine
 10
-0.1621706131788417
 20
2.592021722719748
 30
0.0
 11
-0.1321931418159854
 21
2.570824449436247
 31
0.0
  0
ELLIPSE
  5
DF
330
8F
100
AcDbEntity
  8
AM_9
100
AcDbEllipse
 10
0.0000000000000021
 20
3.102536009057758
 30
0.0
 11
0.1349999999999977
 21
0.0
 31
0.0
210
0.0
220
0.0
230
1.0
 40
0.5000000000000078
 41
0.0
 42
6.283185307179586
  0
ELLIPSE
  5
E0
330
8F
100
AcDbEntity
  8
AM_9
100
AcDbEllipse
 10
-0.0000000000000001
 20
2.949525080607757
 30
0.0
 11
0.1725340532830153
 21
0.0
 31
0.0
210
0.0
220
0.0
230
1.0
 40
0.500000000000002
 41
0.0
 42
6.283185307179586
  0
ELLIPSE
  5
E1
330
8F
100
AcDbEntity
  8
AM_9
100
AcDbEllipse
 10
-0.0000000000009708
 20
2.847058514939817
 30
0.0
 11
0.2057518972240403
 21
0.0
 31
0.0
210
0.0
220
0.0
230
1.0
 40
0.4999999999999479
 41
0.0
 42
6.283185307179586
  0
ELLIPSE
  5
E2
330
8F
100
AcDbEntity
  8
AM_9
100
AcDbEllipse
 10
-0.0000000000000013
 20
2.617561782938471
 30
0.0
 11
0.1619028724722702
 21
0.0
 31
0.0
210
0.0
220
0.0
230
1.0
 40
0.5000000000000077
 41
0.0
 42
6.283185307179586
  0
ELLIPSE
  5
E4
330
8F
100
AcDbEntity
  8
AM_4
100
AcDbEllipse
 10
-0.0000000000000001
 20
3.171818041360507
 30
0.0
 11
0.1026779019331874
 21
0.0
 31
0.0
210
0.0
220
0.0
230
1.0
 40
0.4999999999999964
 41
0.3104207176896763
 42
2.831171935900117
  0
ENDBLK
  5
92
330
8F
100
AcDbEntity
  8
0
100
AcDbBlockEnd
  0
BLOCK
  5
E7
330
E5
100
AcDbEntity
  8
0
100
AcDbBlockBegin
  2
3_ASME_B18_3_10_1_0_in_069580_2
 70
     2
 10
0.0
 20
0.0
 30
0.0
  3
3_ASME_B18_3_10_1_0_in_069580_2
  1

  0
ATTDEF
  5
E9
330
E5
100
AcDbEntity
  8
AM_6
100
AcDbText
 10
3.846916666666667
 20
-1.723145833333333
 30
0.0
 40
0.5
  1
ANSI/ASME B18.3-1998
100
AcDbAttributeDefinition
  3

  2
NN
 70
     8
280
     0
  0
ATTDEF
  5
EA
330
E5
100
AcDbEntity
  8
AM_6
100
AcDbText
 10
3.846916666666667
 20
-2.223145833333333
 30
0.0
 40
0.5
  1
Socket Button Head Cap Screws
100
AcDbAttributeDefinition
  3

  2
NT
 70
     8
280
     0
  0
ATTDEF
  5
EB
330
E5
100
AcDbEntity
  8
AM_6
100
AcDbText
 10
3.846916666666667
 20
-2.723145833333333
 30
0.0
 40
0.5
  1
ASME B18.3-10
100
AcDbAttributeDefinition
  3

  2
NB
 70
     8
280
     0
  0
ATTDEF
  5
EC
330
E5
100
AcDbEntity
  8
AM_6
100
AcDbText
 10
3.846916666666667
 20
-3.223145833333333
 30
0.0
 40
0.5
  1
ASME B18.3-$NS.
100
AcDbAttributeDefinition
  3

  2
NBSYN
 70
     8
280
     0
  0
ATTDEF
  5
ED
330
E5
100
AcDbEntity
  8
AM_6
100
AcDbText
 10
3.846916666666667
 20
-3.723145833333333
 30
0.0
 40
0.5
  1
ASME B18.3-10
100
AcDbAttributeDefinition
  3

  2
LINA
 70
     8
280
     0
  0
ATTDEF
  5
EE
330
E5
100
AcDbEntity
  8
AM_6
100
AcDbText
 10
3.846916666666667
 20
-4.223145833333334
 30
0.0
 40
0.5
  1
10
100
AcDbAttributeDefinition
  3

  2
NS
 70
     8
280
     0
  0
ATTDEF
  5
EF
330
E5
100
AcDbEntity
  8
AM_6
100
AcDbText
 10
3.846916666666667
 20
-4.723145833333334
 30
0.0
 40
0.5
  1
0.361
100
AcDbAttributeDefinition
  3

  2
A
 70
     8
280
     0
  0
ATTDEF
  5
F0
330
E5
100
AcDbEntity
  8
AM_6
100
AcDbText
 10
3.846916666666667
 20
-5.223145833333334
 30
0.0
 40
0.5
  1
0.101
100
AcDbAttributeDefinition
  3

  2
H
 70
     8
280
     0
  0
ATTDEF
  5
F1
330
E5
100
AcDbEntity
  8
AM_6
100
AcDbText
 10
3.846916666666667
 20
-5.723145833333334
 30
0.0
 40
0.5
  1
0.800
100
AcDbAttributeDefinition
  3

  2
L
 70
     8
280
     0
  0
ATTDEF
  5
F2
330
E5
100
AcDbEntity
  8
AM_6
100
AcDbText
 10
3.846916666666667
 20
-6.223145833333334
 30
0.0
 40
0.5
  1
0.020
100
AcDbAttributeDefinition
  3

  2
S
 70
     8
280
     0
  0
ATTDEF
  5
F3
330
E5
100
AcDbEntity
  8
AM_6
100
AcDbText
 10
3.846916666666667
 20
-6.723145833333334
 30
0.0
 40
0.5
  1
0.125000
100
AcDbAttributeDefinition
  3

  2
J
 70
     8
280
     0
  0
ATTDEF
  5
F4
330
E5
100
AcDbEntity
  8
AM_6
100
AcDbText
 10
3.846916666666667
 20
-7.223145833333334
 30
0.0
 40
0.5
  1
baldor
100
AcDbAttributeDefinition
  3

  2
COMPANY
 70
     8
280
     0
  0
LINE
  5
F5
330
E5
100
AcDbEntity
  8
AM_9
100
AcDbLine
 10
-1.993083333333334
 20
-1.83147704968463
 30
0.0
 11
-2.054083333333333
 21
-1.83147704968463
 31
0.0
  0
LINE
  5
F6
330
E5
100
AcDbEntity
  8
AM_9
100
AcDbLine
 10
-1.993083333333334
 20
-1.975814616982036
 30
0.0
 11
-2.054083333333333
 21
-1.975814616982036
 31
0.0
  0
LINE
  5
F7
330
E5
100
AcDbEntity
  8
AM_9
100
AcDbLine
 10
-1.993083333333334
 20
-1.867561441508982
 30
0.0
 11
-2.054083333333333
 21
-1.867561441508982
 31
0.0
  0
LINE
  5
F8
330
E5
100
AcDbEntity
  8
AM_9
100
AcDbLine
 10
-1.993083333333334
 20
-1.83147704968463
 30
0.0
 11
-1.993083333333334
 21
-1.975814616982036
 31
0.0
  0
LINE
  5
F9
330
E5
100
AcDbEntity
  8
AM_9
100
AcDbLine
 10
-1.993083333333334
 20
-1.939730225157685
 30
0.0
 11
-2.054083333333333
 21
-1.939730225157685
 31
0.0
  0
LINE
  5
FA
330
E5
100
AcDbEntity
  8
AM_9
100
AcDbLine
 10
-1.153083333333333
 20
-1.827245833333333
 30
0.0
 11
-1.153083333333333
 21
-1.980045833333333
 31
0.0
  0
LINE
  5
FB
330
E5
100
AcDbEntity
  8
AM_9
100
AcDbLine
 10
-1.153083333333333
 20
-1.827245833333333
 30
0.0
 11
-1.171683333333333
 21
-1.808645833333333
 31
0.0
  0
LINE
  5
FC
330
E5
100
AcDbEntity
  8
AM_9
100
AcDbLine
 10
-1.171683333333333
 20
-1.998645833333333
 30
0.0
 11
-1.153083333333333
 21
-1.980045833333333
 31
0.0
  0
LINE
  5
FD
330
E5
100
AcDbEntity
  8
AM_9
100
AcDbLine
 10
-1.171683333333333
 20
-1.808645833333333
 30
0.0
 11
-1.171683333333333
 21
-1.998645833333333
 31
0.0
  0
LINE
  5
FE
330
E5
100
AcDbEntity
  8
AM_9
100
AcDbLine
 10
-1.953083333333333
 20
-1.998645833333333
 30
0.0
 11
-1.171683333333333
 21
-1.998645833333333
 31
0.0
  0
LINE
  5
FF
330
E5
100
AcDbEntity
  8
AM_9
100
AcDbLine
 10
-1.171683333333333
 20
-1.808645833333333
 30
0.0
 11
-1.953083333333333
 21
-1.808645833333333
 31
0.0
  0
LINE
  5
101
330
E5
100
AcDbEntity
  8
AM_5
100
AcDbLine
 10
-1.873083333333333
 20
-1.808645877518604
 30
0.0
 11
-1.873083333333333
 21
-1.998646088977958
 31
0.0
  0
LINE
  5
102
330
E5
100
AcDbEntity
  8
AM_5
100
AcDbLine
 10
-1.873083333333333
 20
-1.827245833333333
 30
0.0
 11
-1.905299478354115
 21
-1.808645833333333
 31
0.0
  0
LINE
  5
103
330
E5
100
AcDbEntity
  8
AM_4
100
AcDbLine
 10
-2.054083333333333
 20
-1.804145833333333
 30
0.0
 11
-2.054083333333333
 21
-2.003145833333333
 31
0.0
  0
ARC
  5
104
330
E5
100
AcDbEntity
  8
AM_4
100
AcDbCircle
 10
-1.973083333333334
 20
-2.003145833333333
 30
0.0
 40
0.0809999999999995
100
AcDbArc
 50
180.0
 51
270.0
  0
ARC
  5
105
330
E5
100
AcDbEntity
  8
AM_4
100
AcDbCircle
 10
-1.973083333333334
 20
-1.804145833333333
 30
0.0
 40
0.0809999999999997
100
AcDbArc
 50
90.0
 51
180.0
  0
LINE
  5
106
330
E5
100
AcDbEntity
  8
AM_4
100
AcDbLine
 10
-1.973083333333333
 20
-1.723145833333333
 30
0.0
 11
-1.973083333333333
 21
-2.084145833333333
 31
0.0
  0
LINE
  5
107
330
E5
100
AcDbEntity
  8
AM_4
100
AcDbLine
 10
-1.973083333333333
 20
-2.084145833333333
 30
0.0
 11
-1.953083333333333
 21
-2.084145833333333
 31
0.0
  0
LINE
  5
108
330
E5
100
AcDbEntity
  8
AM_4
100
AcDbLine
 10
-1.953083333333333
 20
-1.723145833333333
 30
0.0
 11
-1.973083333333333
 21
-1.723145833333333
 31
0.0
  0
ENDBLK
  5
E8
330
E5
100
AcDbEntity
  8
0
100
AcDbBlockEnd
  0
BLOCK
  5
10B
330
109
100
AcDbEntity
  8
0
100
AcDbBlockBegin
  2
4_ASME_B18_3_10_2_0_in_069580_2
 70
     2
 10
0.0
 20
0.0
 30
0.0
  3
4_ASME_B18_3_10_2_0_in_069580_2
  1

  0
ATTDEF
  5
10D
330
109
100
AcDbEntity
  8
AM_6
100
AcDbText
 10
3.846916666666667
 20
2.084145833333333
 30
0.0
 40
0.5
  1
ANSI/ASME B18.3-1998
100
AcDbAttributeDefinition
  3

  2
NN
 70
     8
280
     0
  0
ATTDEF
  5
10E
330
109
100
AcDbEntity
  8
AM_6
100
AcDbText
 10
3.846916666666667
 20
1.584145833333333
 30
0.0
 40
0.5
  1
Socket Button Head Cap Screws
100
AcDbAttributeDefinition
  3

  2
NT
 70
     8
280
     0
  0
ATTDEF
  5
10F
330
109
100
AcDbEntity
  8
AM_6
100
AcDbText
 10
3.846916666666667
 20
1.084145833333333
 30
0.0
 40
0.5
  1
ASME B18.3-10
100
AcDbAttributeDefinition
  3

  2
NB
 70
     8
280
     0
  0
ATTDEF
  5
110
330
109
100
AcDbEntity
  8
AM_6
100
AcDbText
 10
3.846916666666667
 20
0.5841458333333329
 30
0.0
 40
0.5
  1
ASME B18.3-$NS.
100
AcDbAttributeDefinition
  3

  2
NBSYN
 70
     8
280
     0
  0
ATTDEF
  5
111
330
109
100
AcDbEntity
  8
AM_6
100
AcDbText
 10
3.846916666666667
 20
0.0841458333333329
 30
0.0
 40
0.5
  1
ASME B18.3-10
100
AcDbAttributeDefinition
  3

  2
LINA
 70
     8
280
     0
  0
ATTDEF
  5
112
330
109
100
AcDbEntity
  8
AM_6
100
AcDbText
 10
3.846916666666667
 20
-0.4158541666666671
 30
0.0
 40
0.5
  1
10
100
AcDbAttributeDefinition
  3

  2
NS
 70
     8
280
     0
  0
ATTDEF
  5
113
330
109
100
AcDbEntity
  8
AM_6
100
AcDbText
 10
3.846916666666667
 20
-0.9158541666666671
 30
0.0
 40
0.5
  1
0.361
100
AcDbAttributeDefinition
  3

  2
A
 70
     8
280
     0
  0
ATTDEF
  5
114
330
109
100
AcDbEntity
  8
AM_6
100
AcDbText
 10
3.846916666666667
 20
-1.415854166666667
 30
0.0
 40
0.5
  1
0.101
100
AcDbAttributeDefinition
  3

  2
H
 70
     8
280
     0
  0
ATTDEF
  5
115
330
109
100
AcDbEntity
  8
AM_6
100
AcDbText
 10
3.846916666666667
 20
-1.915854166666667
 30
0.0
 40
0.5
  1
0.800
100
AcDbAttributeDefinition
  3

  2
L
 70
     8
280
     0
  0
ATTDEF
  5
116
330
109
100
AcDbEntity
  8
AM_6
100
AcDbText
 10
3.846916666666667
 20
-2.415854166666667
 30
0.0
 40
0.5
  1
0.020
100
AcDbAttributeDefinition
  3

  2
S
 70
     8
280
     0
  0
ATTDEF
  5
117
330
109
100
AcDbEntity
  8
AM_6
100
AcDbText
 10
3.846916666666667
 20
-2.915854166666667
 30
0.0
 40
0.5
  1
0.125000
100
AcDbAttributeDefinition
  3

  2
J
 70
     8
280
     0
  0
ATTDEF
  5
118
330
109
100
AcDbEntity
  8
AM_6
100
AcDbText
 10
3.846916666666667
 20
-3.415854166666667
 30
0.0
 40
0.5
  1
baldor
100
AcDbAttributeDefinition
  3

  2
COMPANY
 70
     8
280
     0
  0
LINE
  5
119
330
109
100
AcDbEntity
  8
AM_9
100
AcDbLine
 10
-1.993083333333334
 20
1.975814616982036
 30
0.0
 11
-2.054083333333333
 21
1.975814616982036
 31
0.0
  0
LINE
  5
11A
330
109
100
AcDbEntity
  8
AM_9
100
AcDbLine
 10
-1.993083333333334
 20
1.83147704968463
 30
0.0
 11
-2.054083333333333
 21
1.83147704968463
 31
0.0
  0
LINE
  5
11B
330
109
100
AcDbEntity
  8
AM_9
100
AcDbLine
 10
-1.993083333333334
 20
1.939730225157685
 30
0.0
 11
-2.054083333333333
 21
1.939730225157685
 31
0.0
  0
LINE
  5
11C
330
109
100
AcDbEntity
  8
AM_9
100
AcDbLine
 10
-1.993083333333334
 20
1.975814616982036
 30
0.0
 11
-1.993083333333334
 21
1.83147704968463
 31
0.0
  0
LINE
  5
11D
330
109
100
AcDbEntity
  8
AM_9
100
AcDbLine
 10
-1.993083333333334
 20
1.867561441508982
 30
0.0
 11
-2.054083333333333
 21
1.867561441508982
 31
0.0
  0
LINE
  5
11E
330
109
100
AcDbEntity
  8
AM_9
100
AcDbLine
 10
-1.153083333333333
 20
1.980045833333333
 30
0.0
 11
-1.153083333333333
 21
1.827245833333333
 31
0.0
  0
LINE
  5
11F
330
109
100
AcDbEntity
  8
AM_9
100
AcDbLine
 10
-1.153083333333333
 20
1.980045833333333
 30
0.0
 11
-1.171683333333333
 21
1.998645833333333
 31
0.0
  0
LINE
  5
120
330
109
100
AcDbEntity
  8
AM_9
100
AcDbLine
 10
-1.171683333333333
 20
1.808645833333333
 30
0.0
 11
-1.153083333333333
 21
1.827245833333333
 31
0.0
  0
LINE
  5
121
330
109
100
AcDbEntity
  8
AM_9
100
AcDbLine
 10
-1.171683333333333
 20
1.998645833333333
 30
0.0
 11
-1.171683333333333
 21
1.808645833333333
 31
0.0
  0
LINE
  5
122
330
109
100
AcDbEntity
  8
AM_9
100
AcDbLine
 10
-1.953083333333333
 20
1.808645833333333
 30
0.0
 11
-1.171683333333333
 21
1.808645833333333
 31
0.0
  0
LINE
  5
123
330
109
100
AcDbEntity
  8
AM_9
100
AcDbLine
 10
-1.171683333333333
 20
1.998645833333333
 30
0.0
 11
-1.953083333333333
 21
1.998645833333333
 31
0.0
  0
LINE
  5
124
330
109
100
AcDbEntity
  8
AM_5
100
AcDbLine
 10
-1.873083333333333
 20
1.827245833333333
 30
0.0
 11
-1.905299478354115
 21
1.808645833333333
 31
0.0
  0
LINE
  5
125
330
109
100
AcDbEntity
  8
AM_5
100
AcDbLine
 10
-1.873083333333333
 20
1.998646088977957
 30
0.0
 11
-1.873083333333333
 21
1.808645877518604
 31
0.0
  0
LINE
  5
126
330
109
100
AcDbEntity
  8
AM_5
100
AcDbLine
 10
-1.873083333333333
 20
1.980045833333333
 30
0.0
 11
-1.905299478354115
 21
1.998645833333333
 31
0.0
  0
LINE
  5
127
330
109
100
AcDbEntity
  8
AM_4
100
AcDbLine
 10
-2.054083333333333
 20
2.003145833333333
 30
0.0
 11
-2.054083333333333
 21
1.804145833333333
 31
0.0
  0
ARC
  5
128
330
109
100
AcDbEntity
  8
AM_4
100
AcDbCircle
 10
-1.973083333333333
 20
1.804145833333333
 30
0.0
 40
0.081
100
AcDbArc
 50
179.9999991462263
 51
270.0
  0
ARC
  5
129
330
109
100
AcDbEntity
  8
AM_4
100
AcDbCircle
 10
-1.973083333333334
 20
2.003145833333333
 30
0.0
 40
0.0809999999999995
100
AcDbArc
 50
90.0
 51
180.0
  0
LINE
  5
12A
330
109
100
AcDbEntity
  8
AM_4
100
AcDbLine
 10
-1.973083333333333
 20
2.084145833333333
 30
0.0
 11
-1.973083333333333
 21
1.723145833333333
 31
0.0
  0
LINE
  5
12B
330
109
100
AcDbEntity
  8
AM_4
100
AcDbLine
 10
-1.973083333333333
 20
1.723145833333333
 30
0.0
 11
-1.953083333333333
 21
1.723145833333333
 31
0.0
  0
LINE
  5
12C
330
109
100
AcDbEntity
  8
AM_4
100
AcDbLine
 10
-1.953083333333333
 20
2.084145833333333
 30
0.0
 11
-1.973083333333333
 21
2.084145833333333
 31
0.0
  0
ENDBLK
  5
10C
330
109
100
AcDbEntity
  8
0
100
AcDbBlockEnd
  0
BLOCK
  5
12F
330
12D
100
AcDbEntity
  8
0
100
AcDbBlockBegin
  2
5_070900LW_0_in_069580_2
 70
     2
 10
0.0
 20
0.0
 30
0.0
  3
5_070900LW_0_in_069580_2
  1

  0
ATTDEF
  5
131
330
12D
100
AcDbEntity
  8
AM_6
100
AcDbText
 10
3.486916666666667
 20
2.140625
 30
0.0
 40
0.5
  1
Imperial Insert Lockwasher -Inch
100
AcDbAttributeDefinition
  3

  2
NN
 70
     8
280
     0
  0
ATTDEF
  5
132
330
12D
100
AcDbEntity
  8
AM_6
100
AcDbText
 10
3.486916666666667
 20
1.640625
 30
0.0
 40
0.5
  1
Imperial Bearings
100
AcDbAttributeDefinition
  3

  2
NT
 70
     8
280
     0
  0
ATTDEF
  5
133
330
12D
100
AcDbEntity
  8
AM_6
100
AcDbText
 10
3.486916666666667
 20
1.140625
 30
0.0
 40
0.5
  1
070900LW
100
AcDbAttributeDefinition
  3

  2
NB
 70
     8
280
     0
  0
ATTDEF
  5
134
330
12D
100
AcDbEntity
  8
AM_6
100
AcDbText
 10
3.486916666666667
 20
0.640625
 30
0.0
 40
0.5
  1
$PN.LW
100
AcDbAttributeDefinition
  3

  2
NBSYN
 70
     8
280
     0
  0
ATTDEF
  5
135
330
12D
100
AcDbEntity
  8
AM_6
100
AcDbText
 10
3.486916666666667
 20
0.140625
 30
0.0
 40
0.5
  1
070900
100
AcDbAttributeDefinition
  3

  2
LINA
 70
     8
280
     0
  0
ATTDEF
  5
136
330
12D
100
AcDbEntity
  8
AM_6
100
AcDbText
 10
3.486916666666667
 20
-0.359375
 30
0.0
 40
0.5
  1
3
100
AcDbAttributeDefinition
  3

  2
SS
 70
     8
280
     0
  0
ATTDEF
  5
137
330
12D
100
AcDbEntity
  8
AM_6
100
AcDbText
 10
3.486916666666667
 20
-0.859375
 30
0.0
 40
0.5
  1
3.000000
100
AcDbAttributeDefinition
  3

  2
SS1
 70
     8
280
     0
  0
ATTDEF
  5
138
330
12D
100
AcDbEntity
  8
AM_6
100
AcDbText
 10
3.486916666666667
 20
-1.359375
 30
0.0
 40
0.5
  1
070900
100
AcDbAttributeDefinition
  3

  2
PN
 70
     8
280
     0
  0
ATTDEF
  5
139
330
12D
100
AcDbEntity
  8
AM_6
100
AcDbText
 10
3.486916666666667
 20
-1.859375
 30
0.0
 40
0.5
  1
INS-IP-300R
100
AcDbAttributeDefinition
  3

  2
DESCRIPTION
 70
     8
280
     0
  0
ATTDEF
  5
13A
330
12D
100
AcDbEntity
  8
AM_6
100
AcDbText
 10
3.486916666666667
 20
-2.359375
 30
0.0
 40
0.5
  1
5.1181
100
AcDbAttributeDefinition
  3

  2
A
 70
     8
280
     0
  0
ATTDEF
  5
13B
330
12D
100
AcDbEntity
  8
AM_6
100
AcDbText
 10
3.486916666666667
 20
-2.859375
 30
0.0
 40
0.5
  1
1-9/32
100
AcDbAttributeDefinition
  3

  2
B
 70
     8
280
     0
  0
ATTDEF
  5
13C
330
12D
100
AcDbEntity
  8
AM_6
100
AcDbText
 10
3.486916666666667
 20
-3.359375
 30
0.0
 40
0.5
  1
3-1/2
100
AcDbAttributeDefinition
  3

  2
C
 70
     8
280
     0
  0
ATTDEF
  5
13D
330
12D
100
AcDbEntity
  8
AM_6
100
AcDbText
 10
3.486916666666667
 20
-3.859375
 30
0.0
 40
0.5
  1
1.219
100
AcDbAttributeDefinition
  3

  2
D
 70
     8
280
     0
  0
ATTDEF
  5
13E
330
12D
100
AcDbEntity
  8
AM_6
100
AcDbText
 10
3.486916666666667
 20
-4.359375
 30
0.0
 40
0.5
  1
4-9/32
100
AcDbAttributeDefinition
  3

  2
E
 70
     8
280
     0
  0
ATTDEF
  5
13F
330
12D
100
AcDbEntity
  8
AM_6
100
AcDbText
 10
3.486916666666667
 20
-4.859375
 30
0.0
 40
0.5
  1
0.1900
100
AcDbAttributeDefinition
  3

  2
NDM
 70
     8
280
     0
  0
ATTDEF
  5
140
330
12D
100
AcDbEntity
  8
AM_6
100
AcDbText
 10
3.486916666666667
 20
-5.359375
 30
0.0
 40
0.5
  1
0.1450
100
AcDbAttributeDefinition
  3

  2
KDM
 70
     8
280
     0
  0
ATTDEF
  5
141
330
12D
100
AcDbEntity
  8
AM_6
100
AcDbText
 10
3.486916666666667
 20
-5.859375
 30
0.0
 40
0.5
  1
3.74
100
AcDbAttributeDefinition
  3

  2
AL
 70
     8
280
     0
  0
ATTDEF
  5
142
330
12D
100
AcDbEntity
  8
AM_6
100
AcDbText
 10
3.486916666666667
 20
-6.359375
 30
0.0
 40
0.5
  1
0.50
100
AcDbAttributeDefinition
  3

  2
BL
 70
     8
280
     0
  0
ATTDEF
  5
143
330
12D
100
AcDbEntity
  8
AM_6
100
AcDbText
 10
3.486916666666667
 20
-6.859375
 30
0.0
 40
0.5
  1
0.07
100
AcDbAttributeDefinition
  3

  2
CL
 70
     8
280
     0
  0
ATTDEF
  5
144
330
12D
100
AcDbEntity
  8
AM_6
100
AcDbText
 10
3.486916666666667
 20
-7.359375
 30
0.0
 40
0.5
  1
0.44
100
AcDbAttributeDefinition
  3

  2
DL
 70
     8
280
     0
  0
ATTDEF
  5
145
330
12D
100
AcDbEntity
  8
AM_6
100
AcDbText
 10
3.486916666666667
 20
-7.859375
 30
0.0
 40
0.5
  1
baldor
100
AcDbAttributeDefinition
  3

  2
COMPANY
 70
     8
280
     0
  0
LINE
  5
146
330
12D
100
AcDbEntity
  8
AM_9
100
AcDbLine
 10
-1.883083333333333
 20
1.445889983053102
 30
0.0
 11
-1.953083333333333
 21
1.445889983053102
 31
0.0
  0
LINE
  5
147
330
12D
100
AcDbEntity
  8
AM_9
100
AcDbLine
 10
-1.513083333333333
 20
1.406343263617087
 30
0.0
 11
-1.883083333333333
 21
1.406343263617088
 31
0.0
  0
LINE
  5
148
330
12D
100
AcDbEntity
  8
AM_9
100
AcDbLine
 10
-1.513083333333333
 20
1.333163614077438
 30
0.0
 11
-1.953083333333333
 21
1.333163614077438
 31
0.0
  0
LINE
  5
149
330
12D
100
AcDbEntity
  8
AM_9
100
AcDbLine
 10
-1.883083333333333
 20
1.50201412170836
 30
0.0
 11
-1.513083333333333
 21
1.50201412170836
 31
0.0
  0
LINE
  5
14A
330
12D
100
AcDbEntity
  8
AM_9
100
AcDbLine
 10
-1.513083333333333
 20
1.42883447216871
 30
0.0
 11
-1.953083333333333
 21
1.42883447216871
 31
0.0
  0
LINE
  5
14B
330
12D
100
AcDbEntity
  8
AM_9
100
AcDbLine
 10
-1.513083333333333
 20
1.333163614077438
 30
0.0
 11
-1.513083333333333
 21
1.50201412170836
 31
0.0
  0
LINE
  5
14C
330
12D
100
AcDbEntity
  8
AM_9
100
AcDbLine
 10
-1.883083333333333
 20
1.541560841144374
 30
0.0
 11
-1.953083333333333
 21
1.541560841144374
 31
0.0
  0
LINE
  5
14D
330
12D
100
AcDbEntity
  8
AM_9
100
AcDbLine
 10
-1.883083333333333
 20
-1.903645833333333
 30
0.0
 11
-1.953083333333333
 21
-1.903645833333333
 31
0.0
  0
LINE
  5
14E
330
12D
100
AcDbEntity
  8
AM_9
100
AcDbLine
 10
-1.953083333333333
 20
-1.996303510358379
 30
0.0
 11
-1.883083333333333
 21
-1.996303510358379
 31
0.0
  0
LINE
  5
14F
330
12D
100
AcDbEntity
  8
AM_9
100
AcDbLine
 10
-1.883083333333333
 20
1.903645833333333
 30
0.0
 11
-1.953083333333333
 21
1.903645833333333
 31
0.0
  0
LINE
  5
150
330
12D
100
AcDbEntity
  8
AM_9
100
AcDbLine
 10
-1.883083333333333
 20
1.998675439498171
 30
0.0
 11
-1.953083333333333
 21
1.998675439498171
 31
0.0
  0
LINE
  5
151
330
12D
100
AcDbEntity
  8
AM_9
100
AcDbLine
 10
-1.883083333333333
 20
1.618836521613822
 30
0.0
 11
-1.953083333333333
 21
1.618836521613822
 31
0.0
  0
LINE
  5
152
330
12D
100
AcDbEntity
  8
AM_9
100
AcDbLine
 10
-1.883083333333333
 20
-1.618836521613822
 30
0.0
 11
-1.953083333333333
 21
-1.618836521613822
 31
0.0
  0
LINE
  5
153
330
12D
100
AcDbEntity
  8
AM_9
100
AcDbLine
 10
-1.883083333333333
 20
-1.211865426278298
 30
0.0
 11
-1.953083333333333
 21
-1.211865426278298
 31
0.0
  0
LINE
  5
154
330
12D
100
AcDbEntity
  8
AM_9
100
AcDbLine
 10
-1.883083333333333
 20
1.211865426278298
 30
0.0
 11
-1.953083333333333
 21
1.211865426278298
 31
0.0
  0
LINE
  5
155
330
12D
100
AcDbEntity
  8
AM_9
100
AcDbLine
 10
-1.883083333333333
 20
1.077515137852854
 30
0.0
 11
-1.953083333333333
 21
1.077515137852854
 31
0.0
  0
LINE
  5
156
330
12D
100
AcDbEntity
  8
AM_9
100
AcDbLine
 10
-1.883083333333333
 20
-1.077515137852852
 30
0.0
 11
-1.953083333333333
 21
-1.077515137852852
 31
0.0
  0
LINE
  5
157
330
12D
100
AcDbEntity
  8
AM_9
100
AcDbLine
 10
-1.883083333333333
 20
1.413256021940238
 30
0.0
 11
-1.953083333333333
 21
1.413256021940238
 31
0.0
  0
LINE
  5
158
330
12D
100
AcDbEntity
  8
AM_9
100
AcDbLine
 10
-1.883083333333333
 20
1.278905733514794
 30
0.0
 11
-1.953083333333333
 21
1.278905733514794
 31
0.0
  0
LINE
  5
159
330
12D
100
AcDbEntity
  8
AM_9
100
AcDbLine
 10
-1.883083333333333
 20
1.441101813798219
 30
0.0
 11
-1.953083333333333
 21
1.441101813798219
 31
0.0
  0
LINE
  5
15A
330
12D
100
AcDbEntity
  8
AM_9
100
AcDbLine
 10
-1.883083333333333
 20
-1.278905733514793
 30
0.0
 11
-1.953083333333333
 21
-1.278905733514793
 31
0.0
  0
LINE
  5
15B
330
12D
100
AcDbEntity
  8
AM_9
100
AcDbLine
 10
-1.883083333333333
 20
-1.413256021940215
 30
0.0
 11
-1.953083333333333
 21
-1.413256021940215
 31
0.0
  0
LINE
  5
15C
330
12D
100
AcDbEntity
  8
AM_9
100
AcDbLine
 10
-1.953083333333333
 20
-1.441101813798218
 30
0.0
 11
-1.883083333333333
 21
-1.441101813798218
 31
0.0
  0
LINE
  5
15D
330
12D
100
AcDbEntity
  8
AM_9
100
AcDbLine
 10
-1.883083333333333
 20
0.0950000000000005
 30
0.0
 11
-1.953083333333333
 21
0.0950000000000005
 31
0.0
  0
LINE
  5
15E
330
12D
100
AcDbEntity
  8
AM_9
100
AcDbLine
 10
-1.883083333333333
 20
-0.0949999999999991
 30
0.0
 11
-1.953083333333333
 21
-0.0949999999999991
 31
0.0
  0
LINE
  5
15F
330
12D
100
AcDbEntity
  8
AM_4
100
AcDbLine
 10
-1.883083333333333
 20
2.140625
 30
0.0
 11
-1.953083333333333
 21
2.140625
 31
0.0
  0
LINE
  5
160
330
12D
100
AcDbEntity
  8
AM_4
100
AcDbLine
 10
-1.953083333333333
 20
-2.140625
 30
0.0
 11
-1.883083333333333
 21
-2.140625
 31
0.0
  0
LINE
  5
161
330
12D
100
AcDbEntity
  8
AM_4
100
AcDbLine
 10
-1.953083333333333
 20
2.140625
 30
0.0
 11
-1.953083333333333
 21
-2.140625
 31
0.0
  0
LINE
  5
162
330
12D
100
AcDbEntity
  8
AM_4
100
AcDbLine
 10
-1.883083333333333
 20
2.140625
 30
0.0
 11
-1.883083333333333
 21
-2.140625
 31
0.0
  0
ENDBLK
  5
130
330
12D
100
AcDbEntity
  8
0
100
AcDbBlockEnd
  0
BLOCK
  5
165
330
163
100
AcDbEntity
  8
0
100
AcDbBlockBegin
  2
6_070932I_0_in_069580_2
 70
     2
 10
0.0
 20
0.0
 30
0.0
  3
6_070932I_0_in_069580_2
  1

  0
ATTDEF
  5
167
330
163
100
AcDbEntity
  8
AM_6
100
AcDbText
 10
6.368749999999999
 20
2.55905
 30
0.0
 40
0.5
  1
Imperial Insert -Inch
100
AcDbAttributeDefinition
  3

  2
NN
 70
     8
280
     0
  0
ATTDEF
  5
168
330
163
100
AcDbEntity
  8
AM_6
100
AcDbText
 10
6.368749999999999
 20
2.05905
 30
0.0
 40
0.5
  1
Imperial Bearings
100
AcDbAttributeDefinition
  3

  2
NT
 70
     8
280
     0
  0
ATTDEF
  5
169
330
163
100
AcDbEntity
  8
AM_6
100
AcDbText
 10
6.368749999999999
 20
1.55905
 30
0.0
 40
0.5
  1
070932I
100
AcDbAttributeDefinition
  3

  2
NB
 70
     8
280
     0
  0
ATTDEF
  5
16A
330
163
100
AcDbEntity
  8
AM_6
100
AcDbText
 10
6.368749999999999
 20
1.05905
 30
0.0
 40
0.5
  1
$PN.I
100
AcDbAttributeDefinition
  3

  2
NBSYN
 70
     8
280
     0
  0
ATTDEF
  5
16B
330
163
100
AcDbEntity
  8
AM_6
100
AcDbText
 10
6.368749999999999
 20
0.5590500000000005
 30
0.0
 40
0.5
  1
070932
100
AcDbAttributeDefinition
  3

  2
LINA
 70
     8
280
     0
  0
ATTDEF
  5
16C
330
163
100
AcDbEntity
  8
AM_6
100
AcDbText
 10
6.368749999999999
 20
0.0590500000000005
 30
0.0
 40
0.5
  1
3
100
AcDbAttributeDefinition
  3

  2
SS
 70
     8
280
     0
  0
ATTDEF
  5
16D
330
163
100
AcDbEntity
  8
AM_6
100
AcDbText
 10
6.368749999999999
 20
-0.4409499999999995
 30
0.0
 40
0.5
  1
3.000000
100
AcDbAttributeDefinition
  3

  2
SS1
 70
     8
280
     0
  0
ATTDEF
  5
16E
330
163
100
AcDbEntity
  8
AM_6
100
AcDbText
 10
6.368749999999999
 20
-0.9409499999999995
 30
0.0
 40
0.5
  1
070932
100
AcDbAttributeDefinition
  3

  2
PN
 70
     8
280
     0
  0
ATTDEF
  5
16F
330
163
100
AcDbEntity
  8
AM_6
100
AcDbText
 10
6.368749999999999
 20
-1.44095
 30
0.0
 40
0.5
  1
INS-IP-300L
100
AcDbAttributeDefinition
  3

  2
DESCRIPTION
 70
     8
280
     0
  0
ATTDEF
  5
170
330
163
100
AcDbEntity
  8
AM_6
100
AcDbText
 10
6.368749999999999
 20
-1.94095
 30
0.0
 40
0.5
  1
Labyrinth Seal
100
AcDbAttributeDefinition
  3

  2
ST
 70
     8
280
     0
  0
ATTDEF
  5
171
330
163
100
AcDbEntity
  8
AM_6
100
AcDbText
 10
6.368749999999999
 20
-2.44095
 30
0.0
 40
0.5
  1
5.1181
100
AcDbAttributeDefinition
  3

  2
A
 70
     8
280
     0
  0
ATTDEF
  5
172
330
163
100
AcDbEntity
  8
AM_6
100
AcDbText
 10
6.368749999999999
 20
-2.94095
 30
0.0
 40
0.5
  1
1-9/32
100
AcDbAttributeDefinition
  3

  2
B
 70
     8
280
     0
  0
ATTDEF
  5
173
330
163
100
AcDbEntity
  8
AM_6
100
AcDbText
 10
6.368749999999999
 20
-3.44095
 30
0.0
 40
0.5
  1
3-1/2
100
AcDbAttributeDefinition
  3

  2
C
 70
     8
280
     0
  0
ATTDEF
  5
174
330
163
100
AcDbEntity
  8
AM_6
100
AcDbText
 10
6.368749999999999
 20
-3.94095
 30
0.0
 40
0.5
  1
1.219
100
AcDbAttributeDefinition
  3

  2
D
 70
     8
280
     0
  0
ATTDEF
  5
175
330
163
100
AcDbEntity
  8
AM_6
100
AcDbText
 10
6.368749999999999
 20
-4.440949999999999
 30
0.0
 40
0.5
  1
4-9/32
100
AcDbAttributeDefinition
  3

  2
E
 70
     8
280
     0
  0
ATTDEF
  5
176
330
163
100
AcDbEntity
  8
AM_6
100
AcDbText
 10
6.368749999999999
 20
-4.940949999999999
 30
0.0
 40
0.5
  1
0.1900
100
AcDbAttributeDefinition
  3

  2
NDM
 70
     8
280
     0
  0
ATTDEF
  5
177
330
163
100
AcDbEntity
  8
AM_6
100
AcDbText
 10
6.368749999999999
 20
-5.440949999999999
 30
0.0
 40
0.5
  1
0.101
100
AcDbAttributeDefinition
  3

  2
H
 70
     8
280
     0
  0
ATTDEF
  5
178
330
163
100
AcDbEntity
  8
AM_6
100
AcDbText
 10
6.368749999999999
 20
-5.940949999999999
 30
0.0
 40
0.5
  1
0.1450
100
AcDbAttributeDefinition
  3

  2
KDM
 70
     8
280
     0
  0
ATTDEF
  5
179
330
163
100
AcDbEntity
  8
AM_6
100
AcDbText
 10
6.368749999999999
 20
-6.440949999999999
 30
0.0
 40
0.5
  1
3.74
100
AcDbAttributeDefinition
  3

  2
AL
 70
     8
280
     0
  0
ATTDEF
  5
17A
330
163
100
AcDbEntity
  8
AM_6
100
AcDbText
 10
6.368749999999999
 20
-6.940949999999999
 30
0.0
 40
0.5
  1
0.50
100
AcDbAttributeDefinition
  3

  2
BL
 70
     8
280
     0
  0
ATTDEF
  5
17B
330
163
100
AcDbEntity
  8
AM_6
100
AcDbText
 10
6.368749999999999
 20
-7.440949999999999
 30
0.0
 40
0.5
  1
0.07
100
AcDbAttributeDefinition
  3

  2
CL
 70
     8
280
     0
  0
ATTDEF
  5
17C
330
163
100
AcDbEntity
  8
AM_6
100
AcDbText
 10
6.368749999999999
 20
-7.940949999999999
 30
0.0
 40
0.5
  1
0.44
100
AcDbAttributeDefinition
  3

  2
DL
 70
     8
280
     0
  0
ATTDEF
  5
17D
330
163
100
AcDbEntity
  8
AM_6
100
AcDbText
 10
6.368749999999999
 20
-8.440949999999999
 30
0.0
 40
0.5
  1
0.8000
100
AcDbAttributeDefinition
  3

  2
LL
 70
     8
280
     0
  0
ATTDEF
  5
17E
330
163
100
AcDbEntity
  8
AM_6
100
AcDbText
 10
6.368749999999999
 20
-8.940949999999999
 30
0.0
 40
0.5
  1
0.025
100
AcDbAttributeDefinition
  3

  2
Y
 70
     8
280
     0
  0
ATTDEF
  5
17F
330
163
100
AcDbEntity
  8
AM_6
100
AcDbText
 10
6.368749999999999
 20
-9.440949999999999
 30
0.0
 40
0.5
  1
0.025000
100
AcDbAttributeDefinition
  3

  2
Y1
 70
     8
280
     0
  0
ATTDEF
  5
180
330
163
100
AcDbEntity
  8
AM_6
100
AcDbText
 10
6.368749999999999
 20
-9.940949999999999
 30
0.0
 40
0.5
  1
3-15/32
100
AcDbAttributeDefinition
  3

  2
Z
 70
     8
280
     0
  0
ATTDEF
  5
181
330
163
100
AcDbEntity
  8
AM_6
100
AcDbText
 10
6.368749999999999
 20
-10.44095
 30
0.0
 40
0.5
  1
3.468750
100
AcDbAttributeDefinition
  3

  2
Z1
 70
     8
280
     0
  0
ATTDEF
  5
182
330
163
100
AcDbEntity
  8
AM_6
100
AcDbText
 10
6.368749999999999
 20
-10.94095
 30
0.0
 40
0.5
  1
baldor
100
AcDbAttributeDefinition
  3

  2
COMPANY
 70
     8
280
     0
  0
LINE
  5
183
330
163
100
AcDbEntity
  8
AM_9
100
AcDbLine
 10
0.7653749999999996
 20
1.50587517155613
 30
0.0
 11
-1.883083333333334
 21
1.50587517155613
 31
0.0
  0
LINE
  5
184
330
163
100
AcDbEntity
  8
AM_9
100
AcDbLine
 10
0.7653749999999996
 20
1.410204313464857
 30
0.0
 11
-1.883083333333334
 21
1.410204313464857
 31
0.0
  0
LINE
  5
185
330
163
100
AcDbEntity
  8
AM_9
100
AcDbLine
 10
-1.043083333333333
 20
1.903645833333333
 30
0.0
 11
-1.076867323166663
 21
1.976095833333333
 31
0.0
  0
LINE
  5
186
330
163
100
AcDbEntity
  8
AM_9
100
AcDbLine
 10
-1.076867323166663
 20
1.831195833333333
 30
0.0
 11
-1.043083333333333
 21
1.903645833333333
 31
0.0
  0
LINE
  5
187
330
163
100
AcDbEntity
  8
AM_9
100
AcDbLine
 10
-1.043083333333336
 20
-1.903645833333333
 30
0.0
 11
-1.076867323166669
 21
-1.831195833333333
 31
0.0
  0
LINE
  5
188
330
163
100
AcDbEntity
  8
AM_9
100
AcDbLine
 10
-1.076867323166669
 20
-1.976095833333333
 30
0.0
 11
-1.043083333333336
 21
-1.903645833333333
 31
0.0
  0
LINE
  5
189
330
163
100
AcDbEntity
  8
AM_9
100
AcDbLine
 10
-1.860533333333337
 20
-1.976095833333333
 30
0.0
 11
-1.076867323166669
 21
-1.976095833333333
 31
0.0
  0
LINE
  5
18A
330
163
100
AcDbEntity
  8
AM_9
100
AcDbLine
 10
-1.076867323166669
 20
-1.831195833333333
 30
0.0
 11
-1.860533333333337
 21
-1.831195833333333
 31
0.0
  0
LINE
  5
18B
330
163
100
AcDbEntity
  8
AM_9
100
AcDbLine
 10
-1.076867323166669
 20
-1.831195833333333
 30
0.0
 11
-1.076867323166669
 21
-1.976095833333333
 31
0.0
  0
LINE
  5
18C
330
163
100
AcDbEntity
  8
AM_9
100
AcDbLine
 10
-1.076867323166663
 20
1.831195833333333
 30
0.0
 11
-1.076867323166663
 21
1.976095833333333
 31
0.0
  0
LINE
  5
18D
330
163
100
AcDbEntity
  8
AM_9
100
AcDbLine
 10
-1.076867323166663
 20
1.976095833333333
 30
0.0
 11
-1.860533333333333
 21
1.976095833333333
 31
0.0
  0
LINE
  5
18E
330
163
100
AcDbEntity
  8
AM_9
100
AcDbLine
 10
-1.860533333333333
 20
1.831195833333333
 30
0.0
 11
-1.076867323166663
 21
1.831195833333333
 31
0.0
  0
LINE
  5
18F
330
163
100
AcDbEntity
  8
AM_9
100
AcDbLine
 10
-1.860533333333333
 20
1.831195833333333
 30
0.0
 11
-1.860533333333333
 21
1.976095833333333
 31
0.0
  0
LINE
  5
190
330
163
100
AcDbEntity
  8
AM_9
100
AcDbLine
 10
-1.860533333333333
 20
1.976095833333333
 30
0.0
 11
-1.883083333333333
 21
1.998645833333333
 31
0.0
  0
LINE
  5
191
330
163
100
AcDbEntity
  8
AM_9
100
AcDbLine
 10
-1.883083333333333
 20
1.808645833333333
 30
0.0
 11
-1.860533333333333
 21
1.831195833333333
 31
0.0
  0
LINE
  5
192
330
163
100
AcDbEntity
  8
AM_9
100
AcDbLine
 10
-1.860533333333337
 20
-1.831195833333333
 30
0.0
 11
-1.883083333333314
 21
-1.808645833333333
 31
0.0
  0
LINE
  5
193
330
163
100
AcDbEntity
  8
AM_9
100
AcDbLine
 10
-1.883083333333314
 20
-1.998645833333333
 30
0.0
 11
-1.860533333333337
 21
-1.976095833333333
 31
0.0
  0
LINE
  5
194
330
163
100
AcDbEntity
  8
AM_9
100
AcDbLine
 10
-1.860533333333337
 20
-1.831195833333333
 30
0.0
 11
-1.860533333333337
 21
-1.976095833333333
 31
0.0
  0
ARC
  5
195
330
163
100
AcDbEntity
  8
AM_9
100
AcDbCircle
 10
-1.833083333333333
 20
-2.092340561259646
 30
0.0
 40
0.0500000000000006
100
AcDbArc
 50
213.0354600335855
 51
267.9999999999998
  0
LWPOLYLINE
  5
196
330
163
100
AcDbEntity
  8
AM_9
100
AcDbPolyline
 90
        4
 70
     0
 43
0.0
 10
-1.834828308168458
 20
-1.68126873179059
 10
-1.851182855520174
 20
-1.678876161346741
 10
-1.865503833641606
 20
-1.672792404581568
 10
-1.875239709171679
 20
-1.664832453054469
  0
LINE
  5
197
330
163
100
AcDbEntity
  8
AM_9
100
AcDbLine
 10
-1.443083333333333
 20
-1.145512985522207
 30
0.0
 11
-1.883083333333333
 21
-1.145512985522207
 31
0.0
  0
LINE
  5
198
330
163
100
AcDbEntity
  8
AM_9
100
AcDbLine
 10
-1.443083333333333
 20
-1.499066376115481
 30
0.0
 11
-2.15625
 21
-1.5
 31
0.0
  0
LINE
  5
199
330
163
100
AcDbEntity
  8
AM_9
100
AcDbLine
 10
-1.443083333333333
 20
1.145512985522207
 30
0.0
 11
-1.883083333333333
 21
1.145512985522207
 31
0.0
  0
LINE
  5
19A
330
163
100
AcDbEntity
  8
AM_9
100
AcDbLine
 10
-1.443083333333333
 20
1.499066376115481
 30
0.0
 11
-1.6875
 21
1.499066376115481
 31
0.0
  0
LINE
  5
19B
330
163
100
AcDbEntity
  8
AM_9
100
AcDbLine
 10
0.7653749999999996
 20
1.42883447216871
 30
0.0
 11
-2.15625
 21
1.42883447216871
 31
0.0
  0
LINE
  5
19C
330
163
100
AcDbEntity
  8
AM_9
100
AcDbLine
 10
-2.15625
 20
1.333163614077437
 30
0.0
 11
0.7653749999999996
 21
1.333163614077438
 31
0.0
  0
LINE
  5
19D
330
163
100
AcDbEntity
  8
AM_9
100
AcDbLine
 10
0.7653749999999996
 20
1.5
 30
0.0
 11
-2.15625
 21
1.5
 31
0.0
  0
LINE
  5
19E
330
163
100
AcDbEntity
  8
AM_9
100
AcDbLine
 10
-1.875
 20
-1.5
 30
0.0
 11
0.7653749999999996
 21
-1.5
 31
0.0
  0
LINE
  5
19F
330
163
100
AcDbEntity
  8
AM_9
100
AcDbLine
 10
1.34375
 20
1.578947368421053
 30
0.0
 11
0.7653749999999996
 21
1.578947368421053
 31
0.0
  0
LINE
  5
1A0
330
163
100
AcDbEntity
  8
AM_9
100
AcDbLine
 10
0.7653749999999996
 20
-1.578947368421053
 30
0.0
 11
1.34375
 21
-1.578947368421053
 31
0.0
  0
LINE
  5
1A1
330
163
100
AcDbEntity
  8
AM_9
100
AcDbLine
 10
-2.15625
 20
1.50201412170836
 30
0.0
 11
-1.883083333333333
 21
1.502014121708361
 31
0.0
  0
LINE
  5
1A2
330
163
100
AcDbEntity
  8
AM_9
100
AcDbLine
 10
-1.883083333333333
 20
1.406343263617088
 30
0.0
 11
-2.15625
 21
1.406343263617088
 31
0.0
  0
LINE
  5
1A3
330
163
100
AcDbEntity
  8
AM_9
100
AcDbLine
 10
-1.883083333333333
 20
1.578947368421053
 30
0.0
 11
-1.953083333333333
 21
1.578947368421053
 31
0.0
  0
LINE
  5
1A4
330
163
100
AcDbEntity
  8
AM_9
100
AcDbLine
 10
-1.953083333333333
 20
-1.578947368421053
 30
0.0
 11
-1.883083333333333
 21
-1.578947368421053
 31
0.0
  0
LINE
  5
1A5
330
163
100
AcDbEntity
  8
AM_9
100
AcDbLine
 10
-1.443083333333333
 20
1.691008097302049
 30
0.0
 11
-1.443083333333333
 21
1.145512985522207
 31
0.0
  0
LINE
  5
1A6
330
163
100
AcDbEntity
  8
AM_9
100
AcDbLine
 10
1.34375
 20
-1.734375
 30
0.0
 11
1.34375
 21
1.734375
 31
0.0
  0
LINE
  5
1A7
330
163
100
AcDbEntity
  8
AM_9
100
AcDbLine
 10
1.368749999999998
 20
1.734375
 30
0.0
 11
1.34375
 21
1.734375
 31
0.0
  0
LINE
  5
1A8
330
163
100
AcDbEntity
  8
AM_9
100
AcDbLine
 10
1.34375
 20
-1.734375
 30
0.0
 11
1.368749999999998
 21
-1.734375
 31
0.0
  0
LINE
  5
1A9
330
163
100
AcDbEntity
  8
AM_9
100
AcDbLine
 10
1.324278846153846
 20
1.927083333333333
 30
0.0
 11
1.021625
 21
1.927083333333333
 31
0.0
  0
LINE
  5
1AA
330
163
100
AcDbEntity
  8
AM_9
100
AcDbLine
 10
1.021625
 20
-1.927083333333333
 30
0.0
 11
1.324278846153846
 21
-1.927083333333333
 31
0.0
  0
LINE
  5
1AB
330
163
100
AcDbEntity
  8
AM_9
100
AcDbLine
 10
1.36875
 20
-1.882612179487178
 30
0.0
 11
1.36875
 21
1.882612179487178
 31
0.0
  0
ARC
  5
1AC
330
163
100
AcDbEntity
  8
AM_9
100
AcDbCircle
 10
1.324278846153845
 20
1.882612179487179
 30
0.0
 40
0.0444711538461542
100
AcDbArc
 50
0.0
 51
90.0
  0
ARC
  5
1AD
330
163
100
AcDbEntity
  8
AM_9
100
AcDbCircle
 10
1.324278846153845
 20
-1.882612179487179
 30
0.0
 40
0.044471153846154
100
AcDbArc
 50
270.0
 51
0.0
  0
LINE
  5
1AE
330
163
100
AcDbEntity
  8
AM_9
100
AcDbLine
 10
1.324278846153846
 20
-1.927083333333333
 30
0.0
 11
1.324278846153846
 21
1.927083333333333
 31
0.0
  0
LINE
  5
1AF
330
163
100
AcDbEntity
  8
AM_9
100
AcDbLine
 10
-1.733332725408978
 20
-1.330238754811004
 30
0.0
 11
-1.443083333333333
 21
-1.337454706708775
 31
0.0
  0
LINE
  5
1B0
330
163
100
AcDbEntity
  8
AM_9
100
AcDbLine
 10
-1.443083333333333
 20
-1.145512985522207
 30
0.0
 11
-1.443083333333333
 21
-1.691008097302049
 31
0.0
  0
LINE
  5
1B1
330
163
100
AcDbEntity
  8
AM_9
100
AcDbLine
 10
-1.443083333333333
 20
-1.691008097302049
 30
0.0
 11
-1.834828308168458
 21
-1.68126873179059
 31
0.0
  0
LINE
  5
1B2
330
163
100
AcDbEntity
  8
AM_9
100
AcDbLine
 10
-1.687500004958746
 20
1.684931633430467
 30
0.0
 11
-1.443083333333333
 21
1.691008097302049
 31
0.0
  0
LINE
  5
1B3
330
163
100
AcDbEntity
  8
AM_9
100
AcDbLine
 10
-1.443083333333333
 20
1.337454706708775
 30
0.0
 11
-1.687500004958746
 21
1.331378242837193
 31
0.0
  0
LINE
  5
1B4
330
163
100
AcDbEntity
  8
AM_9
100
AcDbLine
 10
-1.834828308168458
 20
-2.142310102610601
 30
0.0
 11
-0.5158750000000003
 21
-2.18836896705553
 31
0.0
  0
LINE
  5
1B5
330
163
100
AcDbEntity
  8
AM_9
100
AcDbLine
 10
-0.5158750000000003
 20
2.18836896705553
 30
0.0
 11
-1.6875
 21
2.147454920499761
 31
0.0
  0
LINE
  5
1B6
330
163
100
AcDbEntity
  8
AM_9
100
AcDbLine
 10
-1.834828308168458
 20
-2.142310102610601
 30
0.0
 11
-1.834828308168458
 21
-1.68126873179059
 31
0.0
  0
LINE
  5
1B7
330
163
100
AcDbEntity
  8
AM_9
100
AcDbLine
 10
1.021624999999999
 20
-2.153368966601195
 30
0.0
 11
1.021624999999999
 21
2.153368966601195
 31
0.0
  0
ARC
  5
1B8
330
163
100
AcDbEntity
  8
AM_9
100
AcDbCircle
 10
0.9216249999999988
 20
2.153368966601195
 30
0.0
 40
0.1000000000000005
100
AcDbArc
 50
0.0
 51
59.99999999999971
  0
ARC
  5
1B9
330
163
100
AcDbEntity
  8
AM_9
100
AcDbCircle
 10
0.9216249999999988
 20
-2.153368966601195
 30
0.0
 40
0.1000000000000008
100
AcDbArc
 50
300.0000000000002
 51
0.0
  0
LINE
  5
1BA
330
163
100
AcDbEntity
  8
AM_9
100
AcDbLine
 10
0.9716249999999996
 20
2.239971506979639
 30
0.0
 11
0.7653749999999996
 21
2.35905
 31
0.0
  0
LINE
  5
1BB
330
163
100
AcDbEntity
  8
AM_9
100
AcDbLine
 10
0.7653749999999996
 20
-2.35905
 30
0.0
 11
0.9716249999999996
 21
-2.239971506979639
 31
0.0
  0
LINE
  5
1BC
330
163
100
AcDbEntity
  8
AM_9
100
AcDbLine
 10
0.9716249999999996
 20
-2.239971506979639
 30
0.0
 11
0.9716249999999996
 21
2.239971506979639
 31
0.0
  0
LINE
  5
1BD
330
163
100
AcDbEntity
  8
AM_9
100
AcDbLine
 10
0.1617365016199601
 20
2.4949875
 30
0.0
 11
0.0877634983800393
 21
2.4949875
 31
0.0
  0
LINE
  5
1BE
330
163
100
AcDbEntity
  8
AM_9
100
AcDbLine
 10
0.0877634983800393
 20
-2.4949875
 30
0.0
 11
0.1617365016199601
 21
-2.4949875
 31
0.0
  0
LINE
  5
1BF
330
163
100
AcDbEntity
  8
AM_9
100
AcDbLine
 10
0.1617365016199601
 20
-2.4949875
 30
0.0
 11
0.1987230032399202
 21
-2.55905
 31
0.0
  0
LINE
  5
1C0
330
163
100
AcDbEntity
  8
AM_9
100
AcDbLine
 10
0.1987230032399202
 20
2.55905
 30
0.0
 11
0.1617365016199601
 21
2.4949875
 31
0.0
  0
LINE
  5
1C1
330
163
100
AcDbEntity
  8
AM_9
100
AcDbLine
 10
0.1617365016199601
 20
-2.4949875
 30
0.0
 11
0.1617365016199601
 21
2.4949875
 31
0.0
  0
LINE
  5
1C2
330
163
100
AcDbEntity
  8
AM_9
100
AcDbLine
 10
0.7653749999999996
 20
-2.50905
 30
0.0
 11
0.7653749999999996
 21
2.50905
 31
0.0
  0
ARC
  5
1C3
330
163
100
AcDbEntity
  8
AM_9
100
AcDbCircle
 10
0.715374999999999
 20
2.50905
 30
0.0
 40
0.0500000000000005
100
AcDbArc
 50
0.0
 51
90.0
  0
ARC
  5
1C4
330
163
100
AcDbEntity
  8
AM_9
100
AcDbCircle
 10
0.715374999999999
 20
-2.50905
 30
0.0
 40
0.0500000000000003
100
AcDbArc
 50
270.0
 51
0.0
  0
LINE
  5
1C5
330
163
100
AcDbEntity
  8
AM_9
100
AcDbLine
 10
0.0877634983800393
 20
2.4949875
 30
0.0
 11
0.0507769967600789
 21
2.55905
 31
0.0
  0
LINE
  5
1C6
330
163
100
AcDbEntity
  8
AM_9
100
AcDbLine
 10
0.0507769967600789
 20
-2.55905
 30
0.0
 11
0.0877634983800393
 21
-2.4949875
 31
0.0
  0
LINE
  5
1C7
330
163
100
AcDbEntity
  8
AM_9
100
AcDbLine
 10
0.0877634983800393
 20
-2.4949875
 30
0.0
 11
0.0877634983800393
 21
2.4949875
 31
0.0
  0
LINE
  5
1C8
330
163
100
AcDbEntity
  8
AM_9
100
AcDbLine
 10
0.7153749999999999
 20
2.55905
 30
0.0
 11
0.1987230032399202
 21
2.55905
 31
0.0
  0
LINE
  5
1C9
330
163
100
AcDbEntity
  8
AM_9
100
AcDbLine
 10
0.1987230032399202
 20
-2.55905
 30
0.0
 11
0.7153749999999999
 21
-2.55905
 31
0.0
  0
LINE
  5
1CA
330
163
100
AcDbEntity
  8
AM_9
100
AcDbLine
 10
0.7153749999999999
 20
-2.55905
 30
0.0
 11
0.7153749999999999
 21
2.55905
 31
0.0
  0
LINE
  5
1CB
330
163
100
AcDbEntity
  8
AM_9
100
AcDbLine
 10
0.1987230032399202
 20
-2.55905
 30
0.0
 11
0.1987230032399202
 21
2.55905
 31
0.0
  0
LINE
  5
1CC
330
163
100
AcDbEntity
  8
AM_9
100
AcDbLine
 10
0.0507769967600789
 20
2.55905
 30
0.0
 11
-0.4658750000000003
 21
2.55905
 31
0.0
  0
LINE
  5
1CD
330
163
100
AcDbEntity
  8
AM_9
100
AcDbLine
 10
-0.4658750000000003
 20
-2.55905
 30
0.0
 11
0.0507769967600789
 21
-2.55905
 31
0.0
  0
LINE
  5
1CE
330
163
100
AcDbEntity
  8
AM_9
100
AcDbLine
 10
0.0507769967600789
 20
-2.55905
 30
0.0
 11
0.0507769967600789
 21
2.55905
 31
0.0
  0
LINE
  5
1CF
330
163
100
AcDbEntity
  8
AM_9
100
AcDbLine
 10
-0.5158750000000003
 20
-2.50905
 30
0.0
 11
-0.5158750000000003
 21
2.50905
 31
0.0
  0
ARC
  5
1D0
330
163
100
AcDbEntity
  8
AM_9
100
AcDbCircle
 10
-0.4658750000000008
 20
2.509050000000001
 30
0.0
 40
0.0499999999999998
100
AcDbArc
 50
90.0
 51
180.0
  0
ARC
  5
1D1
330
163
100
AcDbEntity
  8
AM_9
100
AcDbCircle
 10
-0.4658750000000008
 20
-2.509050000000001
 30
0.0
 40
0.0499999999999995
100
AcDbArc
 50
180.0
 51
270.0
  0
LINE
  5
1D2
330
163
100
AcDbEntity
  8
AM_9
100
AcDbLine
 10
-0.4658750000000003
 20
-2.55905
 30
0.0
 11
-0.4658750000000003
 21
2.55905
 31
0.0
  0
LINE
  5
1D3
330
163
100
AcDbEntity
  8
AM_5
100
AcDbLine
 10
-1.123083333333333
 20
1.976095833333333
 30
0.0
 11
-1.123083333333333
 21
1.998645833333333
 31
0.0
  0
LINE
  5
1D4
330
163
100
AcDbEntity
  8
AM_5
100
AcDbLine
 10
-1.123083333333333
 20
1.998645833333333
 30
0.0
 11
-1.110064084763107
 21
1.976095833333333
 31
0.0
  0
LINE
  5
1D5
330
163
100
AcDbEntity
  8
AM_5
100
AcDbLine
 10
-1.123083333333333
 20
1.831195833333334
 30
0.0
 11
-1.123083333333333
 21
1.808645833333333
 31
0.0
  0
LINE
  5
1D6
330
163
100
AcDbEntity
  8
AM_5
100
AcDbLine
 10
-1.123083333333333
 20
1.808645833333333
 30
0.0
 11
-1.110064084763108
 21
1.831195833333333
 31
0.0
  0
LINE
  5
1D7
330
163
100
AcDbEntity
  8
AM_5
100
AcDbLine
 10
-1.123083333333318
 20
-1.976095833333333
 30
0.0
 11
-1.123083333333318
 21
-1.998645833333333
 31
0.0
  0
LINE
  5
1D8
330
163
100
AcDbEntity
  8
AM_5
100
AcDbLine
 10
-1.123083333333318
 20
-1.998645833333333
 30
0.0
 11
-1.11006408476311
 21
-1.976095833333333
 31
0.0
  0
LINE
  5
1D9
330
163
100
AcDbEntity
  8
AM_5
100
AcDbLine
 10
-1.123083333333318
 20
-1.831195833333334
 30
0.0
 11
-1.123083333333318
 21
-1.808645833333333
 31
0.0
  0
LINE
  5
1DA
330
163
100
AcDbEntity
  8
AM_5
100
AcDbLine
 10
-1.123083333333318
 20
-1.808645833333333
 30
0.0
 11
-1.11006408476311
 21
-1.831195833333333
 31
0.0
  0
LINE
  5
1DD
330
163
100
AcDbEntity
  8
AM_7
100
AcDbLine
 10
-1.001083333333333
 20
1.903645833333333
 30
0.0
 11
-2.099133333333333
 21
1.903645833333333
 31
0.0
  0
LINE
  5
1DE
330
163
100
AcDbEntity
  8
AM_7
100
AcDbLine
 10
-1.001083333333337
 20
-1.903645833333333
 30
0.0
 11
-2.099133333333333
 21
-1.903645833333333
 31
0.0
  0
ARC
  5
1DF
330
163
100
AcDbEntity
  8
AM_4
100
AcDbCircle
 10
-1.833083333333336
 20
-2.092340561259647
 30
0.0
 40
0.0499999999999974
100
AcDbArc
 50
180.0
 51
213.0354600335855
  0
ARC
  5
1E0
330
163
100
AcDbEntity
  8
AM_4
100
AcDbCircle
 10
-1.833083333333333
 20
2.092340561259646
 30
0.0
 40
0.0500000000000003
100
AcDbArc
 50
92.0000000000005
 51
180.0
  0
LWPOLYLINE
  5
1E1
330
163
100
AcDbEntity
  8
AM_4
100
AcDbPolyline
 90
        4
 70
     0
 43
0.0
 10
-1.875239709171679
 20
-1.664832453054469
 10
-1.87622683994175
 20
-1.663682867646965
 10
-1.882155870670556
 20
-1.652512800281862
 10
-1.883083333333333
 20
-1.645685988665757
  0
LWPOLYLINE
  5
1E2
330
163
100
AcDbEntity
  8
AM_4
100
AcDbPolyline
 90
        6
 70
     0
 43
0.0
 10
-1.883083333333333
 20
1.645685988665756
 10
-1.882553406027256
 20
1.650856707133888
 10
-1.877299174789223
 20
1.662310724868606
 10
-1.866983595513929
 20
1.671858426813062
 10
-1.85284150615002
 20
1.678393042311169
 10
-1.834828308168458
 20
1.68126873179059
  0
LINE
  5
1E3
330
163
100
AcDbEntity
  8
AM_4
100
AcDbLine
 10
-1.875
 20
-1.499066376115481
 30
0.0
 11
-1.883083333333333
 21
-1.499066376115481
 31
0.0
  0
LINE
  5
1E4
330
163
100
AcDbEntity
  8
AM_4
100
AcDbLine
 10
-1.6875
 20
1.499066376115481
 30
0.0
 11
-1.883083333333333
 21
1.499066376115481
 31
0.0
  0
LINE
  5
1E5
330
163
100
AcDbEntity
  8
AM_4
100
AcDbLine
 10
-1.953083333333333
 20
1.578947368421053
 30
0.0
 11
-2.15625
 21
1.578947368421053
 31
0.0
  0
LINE
  5
1E6
330
163
100
AcDbEntity
  8
AM_4
100
AcDbLine
 10
-2.15625
 20
-1.578947368421053
 30
0.0
 11
-1.953083333333333
 21
-1.578947368421053
 31
0.0
  0
LINE
  5
1E7
330
163
100
AcDbEntity
  8
AM_4
100
AcDbLine
 10
-2.15625
 20
-1.578947368421053
 30
0.0
 11
-2.15625
 21
1.578947368421053
 31
0.0
  0
LWPOLYLINE
  5
1E8
330
163
100
AcDbEntity
  8
AM_4
100
AcDbPolyline
 90
        6
 70
     0
 43
0.0
 10
-1.834828308168458
 20
1.327715341197316
 10
-1.851182855520174
 20
1.325322770753467
 10
-1.865503833641606
 20
1.319239013988293
 10
-1.87622683994175
 20
1.310129477053691
 10
-1.882155870670556
 20
1.298959409688588
 10
-1.883083333333333
 20
1.292132598072483
  0
LWPOLYLINE
  5
1E9
330
163
100
AcDbEntity
  8
AM_4
100
AcDbPolyline
 90
        6
 70
     0
 43
0.0
 10
-1.883083333333333
 20
-1.292132598072483
 10
-1.882553406027257
 20
-1.297303316540614
 10
-1.877299174789223
 20
-1.308757334275331
 10
-1.86698359551393
 20
-1.318305036219789
 10
-1.85284150615002
 20
-1.324839651717895
 10
-1.834828308168458
 20
-1.327715341197316
  0
LINE
  5
1EA
330
163
100
AcDbEntity
  8
AM_4
100
AcDbLine
 10
-1.834828308168458
 20
-1.327715341197316
 30
0.0
 11
-1.834828308168458
 21
1.327715341197316
 31
0.0
  0
LINE
  5
1EB
330
163
100
AcDbEntity
  8
AM_4
100
AcDbLine
 10
-1.834828308168458
 20
-1.327715341197316
 30
0.0
 11
-1.733332725408978
 21
-1.330238754811004
 31
0.0
  0
LINE
  5
1EC
330
163
100
AcDbEntity
  8
AM_4
100
AcDbLine
 10
-1.834828308168458
 20
1.68126873179059
 30
0.0
 11
-1.834828308168458
 21
2.142310102610601
 31
0.0
  0
LINE
  5
1ED
330
163
100
AcDbEntity
  8
AM_4
100
AcDbLine
 10
-1.834828308168458
 20
1.68126873179059
 30
0.0
 11
-1.687500004958746
 21
1.684931633430467
 31
0.0
  0
LINE
  5
1EE
330
163
100
AcDbEntity
  8
AM_4
100
AcDbLine
 10
-1.687500004958746
 20
1.331378242837193
 30
0.0
 11
-1.834828308168458
 21
1.327715341197316
 31
0.0
  0
LINE
  5
1EF
330
163
100
AcDbEntity
  8
AM_4
100
AcDbLine
 10
-1.6875
 20
2.147454920499761
 30
0.0
 11
-1.834828308168458
 21
2.142310102610601
 31
0.0
  0
ENDBLK
  5
166
330
163
100
AcDbEntity
  8
0
100
AcDbBlockEnd
  0
BLOCK
  5
1F2
330
1F0
100
AcDbEntity
  8
0
100
AcDbBlockBegin
  2
7_069580H_0_in_069580_2
 70
     2
 10
0.0
 20
0.0
 30
0.0
  3
7_069580H_0_in_069580_2
  1

  0
ATTDEF
  5
1F4
330
1F0
100
AcDbEntity
  8
AM_6
100
AcDbText
 10
7.0625
 20
3.1875
 30
0.0
 40
0.5
  1
P4B-IP -(Labyrinth Seal)-Housing -Inch
100
AcDbAttributeDefinition
  3

  2
NN
 70
     8
280
     0
  0
ATTDEF
  5
1F5
330
1F0
100
AcDbEntity
  8
AM_6
100
AcDbText
 10
7.0625
 20
2.6875
 30
0.0
 40
0.5
  1
Imperial $ Bolt Piliow Block Bearings
100
AcDbAttributeDefinition
  3

  2
NT
 70
     8
280
     0
  0
ATTDEF
  5
1F6
330
1F0
100
AcDbEntity
  8
AM_6
100
AcDbText
 10
7.0625
 20
2.1875
 30
0.0
 40
0.5
  1
069580H
100
AcDbAttributeDefinition
  3

  2
NB
 70
     8
280
     0
  0
ATTDEF
  5
1F7
330
1F0
100
AcDbEntity
  8
AM_6
100
AcDbText
 10
7.0625
 20
1.6875
 30
0.0
 40
0.5
  1
$PN.H
100
AcDbAttributeDefinition
  3

  2
NBSYN
 70
     8
280
     0
  0
ATTDEF
  5
1F8
330
1F0
100
AcDbEntity
  8
AM_6
100
AcDbText
 10
7.0625
 20
1.1875
 30
0.0
 40
0.5
  1
069580
100
AcDbAttributeDefinition
  3

  2
LINA
 70
     8
280
     0
  0
ATTDEF
  5
1F9
330
1F0
100
AcDbEntity
  8
AM_6
100
AcDbText
 10
7.0625
 20
0.6875
 30
0.0
 40
0.5
  1
3
100
AcDbAttributeDefinition
  3

  2
SS
 70
     8
280
     0
  0
ATTDEF
  5
1FA
330
1F0
100
AcDbEntity
  8
AM_6
100
AcDbText
 10
7.0625
 20
0.1875
 30
0.0
 40
0.5
  1
069580
100
AcDbAttributeDefinition
  3

  2
PN
 70
     8
280
     0
  0
ATTDEF
  5
1FB
330
1F0
100
AcDbEntity
  8
AM_6
100
AcDbText
 10
7.0625
 20
-0.3125
 30
0.0
 40
0.5
  1
P4B-IP-300LE
100
AcDbAttributeDefinition
  3

  2
DESCRIPTION
 70
     8
280
     0
  0
ATTDEF
  5
1FC
330
1F0
100
AcDbEntity
  8
AM_6
100
AcDbText
 10
7.0625
 20
-0.8125
 30
0.0
 40
0.5
  1
Expansion Type
100
AcDbAttributeDefinition
  3

  2
EF
 70
     8
280
     0
  0
ATTDEF
  5
1FD
330
1F0
100
AcDbEntity
  8
AM_6
100
AcDbText
 10
7.0625
 20
-1.3125
 30
0.0
 40
0.5
  1
Labyrinth  Seal
100
AcDbAttributeDefinition
  3

  2
ST
 70
     8
280
     0
  0
ATTDEF
  5
1FE
330
1F0
100
AcDbEntity
  8
AM_6
100
AcDbText
 10
7.0625
 20
-1.8125
 30
0.0
 40
0.5
  1
3-1/2
100
AcDbAttributeDefinition
  3

  2
A
 70
     8
280
     0
  0
ATTDEF
  5
1FF
330
1F0
100
AcDbEntity
  8
AM_6
100
AcDbText
 10
7.0625
 20
-2.3125
 30
0.0
 40
0.5
  1
10-7/16
100
AcDbAttributeDefinition
  3

  2
B
 70
     8
280
     0
  0
ATTDEF
  5
200
330
1F0
100
AcDbEntity
  8
AM_6
100
AcDbText
 10
7.0625
 20
-2.8125
 30
0.0
 40
0.5
  1
3-3/4
100
AcDbAttributeDefinition
  3

  2
C
 70
     8
280
     0
  0
ATTDEF
  5
201
330
1F0
100
AcDbEntity
  8
AM_6
100
AcDbText
 10
7.0625
 20
-3.3125
 30
0.0
 40
0.5
  1
7-15/16
100
AcDbAttributeDefinition
  3

  2
DMIN
 70
     8
280
     0
  0
ATTDEF
  5
202
330
1F0
100
AcDbEntity
  8
AM_6
100
AcDbText
 10
7.0625
 20
-3.8125
 30
0.0
 40
0.5
  1
8-5/16
100
AcDbAttributeDefinition
  3

  2
DMAX
 70
     8
280
     0
  0
ATTDEF
  5
203
330
1F0
100
AcDbEntity
  8
AM_6
100
AcDbText
 10
7.0625
 20
-4.3125
 30
0.0
 40
0.5
  1
1-7/8
100
AcDbAttributeDefinition
  3

  2
E
 70
     8
280
     0
  0
ATTDEF
  5
204
330
1F0
100
AcDbEntity
  8
AM_6
100
AcDbText
 10
7.0625
 20
-4.8125
 30
0.0
 40
0.5
  1
5/8
100
AcDbAttributeDefinition
  3

  2
F
 70
     8
280
     0
  0
ATTDEF
  5
205
330
1F0
100
AcDbEntity
  8
AM_6
100
AcDbText
 10
7.0625
 20
-5.3125
 30
0.0
 40
0.5
  1
15/16
100
AcDbAttributeDefinition
  3

  2
G
 70
     8
280
     0
  0
ATTDEF
  5
206
330
1F0
100
AcDbEntity
  8
AM_6
100
AcDbText
 10
7.0625
 20
-5.8125
 30
0.0
 40
0.5
  1
1-7/8
100
AcDbAttributeDefinition
  3

  2
H
 70
     8
280
     0
  0
ATTDEF
  5
207
330
1F0
100
AcDbEntity
  8
AM_6
100
AcDbText
 10
7.0625
 20
-6.3125
 30
0.0
 40
0.5
  1
6-7/16
100
AcDbAttributeDefinition
  3

  2
J
 70
     8
280
     0
  0
ATTDEF
  5
208
330
1F0
100
AcDbEntity
  8
AM_6
100
AcDbText
 10
7.0625
 20
-6.8125
 30
0.0
 40
0.5
  1
4-9/32
100
AcDbAttributeDefinition
  3

  2
L
 70
     8
280
     0
  0
ATTDEF
  5
209
330
1F0
100
AcDbEntity
  8
AM_6
100
AcDbText
 10
7.0625
 20
-7.3125
 30
0.0
 40
0.5
  1
3-1/4
100
AcDbAttributeDefinition
  3

  2
M
 70
     8
280
     0
  0
ATTDEF
  5
20A
330
1F0
100
AcDbEntity
  8
AM_6
100
AcDbText
 10
7.0625
 20
-7.8125
 30
0.0
 40
0.5
  1
1-3/32
100
AcDbAttributeDefinition
  3

  2
R
 70
     8
280
     0
  0
ATTDEF
  5
20B
330
1F0
100
AcDbEntity
  8
AM_6
100
AcDbText
 10
7.0625
 20
-8.3125
 30
0.0
 40
0.5
  1
2-13/32
100
AcDbAttributeDefinition
  3

  2
S
 70
     8
280
     0
  0
ATTDEF
  5
20C
330
1F0
100
AcDbEntity
  8
AM_6
100
AcDbText
 10
7.0625
 20
-8.8125
 30
0.0
 40
0.5
  1
1/4
100
AcDbAttributeDefinition
  3

  2
X
 70
     8
280
     0
  0
ATTDEF
  5
20D
330
1F0
100
AcDbEntity
  8
AM_6
100
AcDbText
 10
7.0625
 20
-9.3125
 30
0.0
 40
0.5
  1
0.025
100
AcDbAttributeDefinition
  3

  2
Y
 70
     8
280
     0
  0
ATTDEF
  5
20E
330
1F0
100
AcDbEntity
  8
AM_6
100
AcDbText
 10
7.0625
 20
-9.8125
 30
0.0
 40
0.5
  1
3-15/32
100
AcDbAttributeDefinition
  3

  2
Z
 70
     8
280
     0
  0
ATTDEF
  5
20F
330
1F0
100
AcDbEntity
  8
AM_6
100
AcDbText
 10
7.0625
 20
-10.3125
 30
0.0
 40
0.5
  1
baldor
100
AcDbAttributeDefinition
  3

  2
COMPANY
 70
     8
280
     0
  0
LINE
  5
210
330
1F0
100
AcDbEntity
  8
AM_9
100
AcDbLine
 10
-0.4976771789706017
 20
2.736071317942821
 30
0.0
 11
-0.5000000000000002
 21
2.760455974562885
 31
0.0
  0
LWPOLYLINE
  5
211
330
1F0
100
AcDbEntity
  8
AM_9
100
AcDbPolyline
 90
       28
 70
     0
 43
0.0
 10
0.492992923089042
 20
2.717803344495888
 10
0.4882186293098624
 20
2.705002515115974
 10
0.4737375920541554
 20
2.677022486178792
 10
0.4530683632597727
 20
2.648669225336115
 10
0.4267824087478044
 20
2.621010124186467
 10
0.3953693008974274
 20
2.594661431488874
 10
0.3586544134983647
 20
2.569760359000205
 10
0.3173388736428973
 20
2.546932987591947
 10
0.2721806674266928
 20
2.526741002367377
 10
0.223250202807067
 20
2.509464695313413
 10
0.1712999814752259
 20
2.495475620016225
 10
0.1173119633517979
 20
2.485153432851039
 10
0.059077664539874
 20
2.478523761539809
 10
-0.0000000000000001
 20
2.476282668304958
 10
-0.0556589306977893
 20
2.478293164929606
 10
-0.1107874897400996
 20
2.484215487932008
 10
-0.1643454046621506
 20
2.493885887004855
 10
-0.2157828236371102
 20
2.507187101258336
 10
-0.2646801835278252
 20
2.523831341063959
 10
-0.3101454843329228
 20
2.543388727108888
 10
-0.3520263880158712
 20
2.56576687026825
 10
-0.3896277567733532
 20
2.590439944394148
 10
-0.4222558488856563
 20
2.616814214500684
 10
-0.4496621512923774
 20
2.644677385571406
 10
-0.4714675898706152
 20
2.673501866045064
 10
-0.4872462394161544
 20
2.702639939040088
 10
-0.4967897819641275
 20
2.731783309604363
 10
-0.4976771789706017
 20
2.736071317942821
  0
LWPOLYLINE
  5
212
330
1F0
100
AcDbEntity
  8
AM_9
100
AcDbPolyline
 90
        3
 70
     0
 43
0.0
 10
0.5000000000000001
 20
2.760455974562899
 10
0.4970273599822475
 20
2.732993715387193
 10
0.492992923089042
 20
2.717803344495888
  0
ELLIPSE
  5
213
330
1F0
100
AcDbEntity
  8
AM_9
100
AcDbEllipse
 10
-0.0000000000001199
 20
2.760455974563063
 30
0.0
 11
0.4999999999998803
 21
0.0
 31
0.0
210
0.0
220
0.0
230
1.0
 40
0.5000000000000246
 41
3.141592653589793
 42
3.239531439498353
  0
ELLIPSE
  5
214
330
1F0
100
AcDbEntity
  8
AM_9
100
AcDbEllipse
 10
-0.0000000000000001
 20
2.847058514941342
 30
0.0
 11
-0.4000000000000005
 21
4.898587196589419E-17
 31
0.0
210
0.0
220
0.0
230
1.0
 40
0.4999999999999998
 41
0.0
 42
6.283185307179586
  0
LWPOLYLINE
  5
215
330
1F0
100
AcDbEntity
  8
AM_9
100
AcDbPolyline
 90
       43
 70
     0
 43
0.0
 10
0.4999564385405894
 20
2.764630108942858
 10
0.4996228994793009
 20
2.772734059428718
 10
0.4967128153433216
 20
2.796624265688805
 10
0.4910242790768074
 20
2.819957578253596
 10
0.4826451644015589
 20
2.842658840707708
 10
0.4716222823863876
 20
2.864683794888887
 10
0.4579561969776349
 20
2.886006424621976
 10
0.4416084921139952
 20
2.906598250957496
 10
0.4225289148915382
 20
2.926402446794893
 10
0.4007036854397446
 20
2.945311975121856
 10
0.3762094017709744
 20
2.963166893005751
 10
0.3492388677407524
 20
2.979781121796801
 10
0.3200748532350315
 20
2.994986957673737
 10
0.2890587241939799
 20
3.008656211693284
 10
0.2564915035610753
 20
3.020729933464408
 10
0.222608988739792
 20
3.031196244364563
 10
0.1876184215379636
 20
3.040057295009123
 10
0.1517105081886223
 20
3.047318992780785
 10
0.1150686102884973
 20
3.052986564804543
 10
0.0778741736674168
 20
3.057063447555101
 10
0.0403092396534213
 20
3.059551622974347
 10
0.00255704947369
 20
3.060452342034901
 10
-0.0351984886864752
 20
3.059766710529623
 10
-0.0727681454310383
 20
3.057496366464624
 10
-0.1099630064403898
 20
3.053643922327385
 10
-0.1466053844240139
 20
3.048210942124099
 10
-0.1825222508827586
 20
3.041196487303832
 10
-0.2175457370456141
 20
3.032595084640557
 10
-0.2515124358311752
 20
3.022394220572059
 10
-0.2842606165016443
 20
3.010571794165835
 10
-0.3156240332738163
 20
2.997094639653802
 10
-0.3454206801209731
 20
2.981920563565767
 10
-0.3734354732613053
 20
2.965008450950156
 10
-0.3993812995079971
 20
2.946357137105882
 10
-0.4228802635735919
 20
2.926069071399786
 10
-0.4435662673632838
 20
2.904339275337612
 10
-0.4594803071332843
 20
2.883852616906283
 10
-0.4740681967473908
 20
2.860277889147933
 10
-0.4853631796502763
 20
2.836106539386861
 10
-0.4933809109028304
 20
2.81164636172673
 10
-0.4982182484195046
 20
2.787115315413551
 10
-0.4999873833980652
 20
2.762702425383366
 10
-0.4999999994844037
 20
2.760441613552213
  0
LINE
  5
216
330
1F0
100
AcDbEntity
  8
AM_9
100
AcDbLine
 10
0.4999999716336887
 20
2.760562494627007
 30
0.0
 11
0.4999564385405894
 21
2.764630108942858
 31
0.0
  0
LWPOLYLINE
  5
217
330
1F0
100
AcDbEntity
  8
AM_9
100
AcDbPolyline
 90
       30
 70
     0
 43
0.0
 10
-0.5000000000000002
 20
2.760455974562885
 10
-0.4969711981068984
 20
2.787521308386603
 10
-0.4877850298248807
 20
2.813646272128433
 10
-0.4725817582668012
 20
2.838417203605897
 10
-0.451653773133774
 20
2.861447100938745
 10
-0.4250078790549258
 20
2.882669980549128
 10
-0.3930471638310528
 20
2.901946472454014
 10
-0.3563599369611818
 20
2.919057054413007
 10
-0.3147529892094467
 20
2.934104551054604
 10
-0.2690373068723447
 20
2.94692699411308
 10
-0.220058136444176
 20
2.957420684865139
 10
-0.168179018655275
 20
2.965591722703754
 10
-0.1139691874483934
 20
2.971476320184197
 10
-0.0584635932934779
 20
2.97503789483104
 10
-0.0027869579496908
 20
2.976270497647256
 10
0.053101996566064
 20
2.975247089902889
 10
0.1081414116848094
 20
2.971973469042462
 10
0.1614978530794213
 20
2.966456055373508
 10
0.2130054928841814
 20
2.958682828809344
 10
0.2617221835259683
 20
2.948703371077543
 10
0.3075268365187731
 20
2.936361379792204
 10
0.3496376786261672
 20
2.921736304243116
 10
0.3872881290651888
 20
2.904956723590905
 10
0.4203477874116783
 20
2.885818201182521
 10
0.4482039238344968
 20
2.864537056122663
 10
0.4703232688560043
 20
2.841388296578932
 10
0.4863483742296607
 20
2.816552113989748
 10
0.4963007617509961
 20
2.79013386911832
 10
0.4999817322628416
 20
2.762590512141006
 10
0.5000000000000001
 20
2.760455974562899
  0
ELLIPSE
  5
218
330
1F0
100
AcDbEntity
  8
AM_9
100
AcDbEllipse
 10
-0.0000000000000001
 20
2.760455974562899
 30
0.0
 11
0.5000000000000002
 21
0.0
 31
0.0
210
0.0
220
0.0
230
1.0
 40
0.499999999999998
 41
3.239531439497679
 42
9.42477796076938
  0
LINE
  5
219
330
1F0
100
AcDbEntity
  8
AM_9
100
AcDbLine
 10
-1.3125
 20
-3.111847321126151
 30
0.0
 11
1.3125
 21
-3.111847321126151
 31
0.0
  0
LINE
  5
21A
330
1F0
100
AcDbEntity
  8
AM_9
100
AcDbLine
 10
-1.6875
 20
-2.55905
 30
0.0
 11
1.6875
 21
-2.55905
 31
0.0
  0
LINE
  5
21B
330
1F0
100
AcDbEntity
  8
AM_9
100
AcDbLine
 10
1.6875
 20
2.55905
 30
0.0
 11
-1.6875
 21
2.55905
 31
0.0
  0
LINE
  5
21C
330
1F0
100
AcDbEntity
  8
AM_9
100
AcDbLine
 10
-1.3125
 20
-2.241379310344828
 30
0.0
 11
1.3125
 21
-2.241379310344828
 31
0.0
  0
LINE
  5
21D
330
1F0
100
AcDbEntity
  8
AM_9
100
AcDbLine
 10
1.6875
 20
-1.273952333392548
 30
0.0
 11
1.6875
 21
-3.25
 31
0.0
  0
LINE
  5
21E
330
1F0
100
AcDbEntity
  8
AM_9
100
AcDbLine
 10
-1.6875
 20
-1.273952333392548
 30
0.0
 11
-1.6875
 21
-3.25
 31
0.0
  0
LINE
  5
21F
330
1F0
100
AcDbEntity
  8
AM_9
100
AcDbLine
 10
1.3125
 20
-2.124999999999999
 30
0.0
 11
-1.3125
 21
-2.124999999999999
 31
0.0
  0
LINE
  5
220
330
1F0
100
AcDbEntity
  8
AM_9
100
AcDbLine
 10
0.9375000000000003
 20
-2.125
 30
0.0
 11
0.9375000000000003
 21
-3.25
 31
0.0
  0
LINE
  5
221
330
1F0
100
AcDbEntity
  8
AM_9
100
AcDbLine
 10
1.3125
 20
-3.25
 30
0.0
 11
1.3125
 21
-1.375
 31
0.0
  0
LINE
  5
222
330
1F0
100
AcDbEntity
  8
AM_9
100
AcDbLine
 10
0.5625000000000003
 20
-1.375
 30
0.0
 11
0.5625000000000003
 21
-2.125
 31
0.0
  0
LINE
  5
223
330
1F0
100
AcDbEntity
  8
AM_9
100
AcDbLine
 10
-0.9375000000000003
 20
-2.125
 30
0.0
 11
-0.9375000000000003
 21
-3.25
 31
0.0
  0
LINE
  5
224
330
1F0
100
AcDbEntity
  8
AM_9
100
AcDbLine
 10
-1.3125
 20
-3.25
 30
0.0
 11
-1.3125
 21
-1.375
 31
0.0
  0
LINE
  5
225
330
1F0
100
AcDbEntity
  8
AM_9
100
AcDbLine
 10
-0.5624999999999998
 20
-1.375
 30
0.0
 11
-0.5624999999999998
 21
-2.125
 31
0.0
  0
LINE
  5
226
330
1F0
100
AcDbEntity
  8
AM_7
100
AcDbLine
 10
2.0625
 20
0.0
 30
0.0
 11
-2.3325
 21
0.0
 31
0.0
  0
LINE
  5
227
330
1F0
100
AcDbEntity
  8
AM_4
100
AcDbLine
 10
-1.6875
 20
3.1875
 30
0.0
 11
1.6875
 21
3.1875
 31
0.0
  0
LINE
  5
228
330
1F0
100
AcDbEntity
  8
AM_4
100
AcDbLine
 10
-1.6875
 20
3.093750000000002
 30
0.0
 11
1.6875
 21
3.09375
 31
0.0
  0
LINE
  5
229
330
1F0
100
AcDbEntity
  8
AM_4
100
AcDbLine
 10
1.125
 20
0.4875000000000035
 30
0.0
 11
-1.125
 21
0.4875000000000035
 31
0.0
  0
LINE
  5
22A
330
1F0
100
AcDbEntity
  8
AM_4
100
AcDbLine
 10
-1.6875
 20
3.071240598909322
 30
0.0
 11
1.6875
 21
3.071240598909322
 31
0.0
  0
LINE
  5
22B
330
1F0
100
AcDbEntity
  8
AM_4
100
AcDbLine
 10
-1.125
 20
-1.28125
 30
0.0
 11
1.125
 21
-1.28125
 31
0.0
  0
LINE
  5
22C
330
1F0
100
AcDbEntity
  8
AM_4
100
AcDbLine
 10
-1.6875
 20
0.3791210200416354
 30
0.0
 11
-1.125
 21
0.3791210200416354
 31
0.0
  0
LINE
  5
22D
330
1F0
100
AcDbEntity
  8
AM_4
100
AcDbLine
 10
1.125
 20
0.3791210200416354
 30
0.0
 11
1.6875
 21
0.3791210200416354
 31
0.0
  0
LWPOLYLINE
  5
22E
330
1F0
100
AcDbEntity
  8
AM_4
100
AcDbPolyline
 90
       14
 70
     0
 43
0.0
 10
-1.853879818640915
 20
-1.375
 10
-1.837538116875729
 20
-1.374286505892202
 10
-1.821320785328365
 20
-1.372151453689789
 10
-1.805351247684192
 20
-1.3686110924292
 10
-1.789751041767352
 20
-1.363692366397358
 10
-1.774638894564534
 20
-1.357432710069372
 10
-1.760129818640915
 20
-1.349879763209583
 10
-1.746334236825094
 20
-1.341091008304186
 10
-1.733357141824689
 20
-1.331133333084809
 10
-1.721297297168437
 20
-1.320082521472478
 10
-1.710246485556107
 20
-1.308022676816227
 10
-1.700288810336729
 20
-1.295045581815822
 10
-1.691500055431333
 20
-1.281250000000001
 10
-1.6875
 20
-1.273952333392548
  0
LINE
  5
22F
330
1F0
100
AcDbEntity
  8
AM_4
100
AcDbLine
 10
-1.125
 20
0.4875000000000035
 30
0.0
 11
-1.125
 21
-1.375
 31
0.0
  0
LINE
  5
230
330
1F0
100
AcDbEntity
  8
AM_4
100
AcDbLine
 10
-1.6875
 20
-1.209801236473037
 30
0.0
 11
-1.125
 21
-1.209801236473037
 31
0.0
  0
LINE
  5
231
330
1F0
100
AcDbEntity
  8
AM_4
100
AcDbLine
 10
-1.6875
 20
-1.273952333392548
 30
0.0
 11
-1.6875
 21
3.1875
 31
0.0
  0
LWPOLYLINE
  5
232
330
1F0
100
AcDbEntity
  8
AM_4
100
AcDbPolyline
 90
       14
 70
     0
 43
0.0
 10
1.6875
 20
-1.273952333392548
 10
1.695667942770465
 20
-1.288124312835186
 10
1.705039973447247
 20
-1.301530480498527
 10
1.715544765217908
 20
-1.314068807351787
 10
1.727102370274107
 20
-1.325643869156765
 10
1.739624828262694
 20
-1.336167572703911
 10
1.753016835717109
 20
-1.345559826254845
 10
1.767176471374308
 20
-1.353749149088848
 10
1.781995971857118
 20
-1.360673215514304
 10
1.797362551818606
 20
-1.36627932920485
 10
1.813159262306671
 20
-1.370524824250236
 10
1.829265880816184
 20
-1.373377389869667
 10
1.845559826254845
 20
-1.374815316316354
 10
1.853879818640916
 20
-1.375
  0
LINE
  5
233
330
1F0
100
AcDbEntity
  8
AM_4
100
AcDbLine
 10
1.125
 20
-1.209801236473037
 30
0.0
 11
1.6875
 21
-1.209801236473037
 31
0.0
  0
LINE
  5
234
330
1F0
100
AcDbEntity
  8
AM_4
100
AcDbLine
 10
1.125
 20
0.4875000000000035
 30
0.0
 11
1.125
 21
-1.375
 31
0.0
  0
LINE
  5
235
330
1F0
100
AcDbEntity
  8
AM_4
100
AcDbLine
 10
1.6875
 20
3.1875
 30
0.0
 11
1.6875
 21
-1.273952333392548
 31
0.0
  0
LINE
  5
236
330
1F0
100
AcDbEntity
  8
AM_4
100
AcDbLine
 10
1.875
 20
-1.375
 30
0.0
 11
1.875
 21
-3.25
 31
0.0
  0
LINE
  5
237
330
1F0
100
AcDbEntity
  8
AM_4
100
AcDbLine
 10
1.5
 20
-1.562499999999999
 30
0.0
 11
1.5
 21
-3.25
 31
0.0
  0
LINE
  5
238
330
1F0
100
AcDbEntity
  8
AM_4
100
AcDbLine
 10
-1.5
 20
-1.562499999999998
 30
0.0
 11
1.5
 21
-1.562499999999999
 31
0.0
  0
LWPOLYLINE
  5
239
330
1F0
100
AcDbEntity
  8
AM_4
100
AcDbPolyline
 90
       19
 70
     0
 43
0.0
 10
1.5
 20
-1.562500006843794
 10
1.500713493511322
 20
-1.546158305052565
 10
1.502848545121798
 20
-1.529940973427272
 10
1.506388905799495
 20
-1.513971435653875
 10
1.511307631261926
 20
-1.4983712295575
 10
1.517567287038315
 20
-1.483259082126203
 10
1.52512023336852
 20
-1.4687500059269
 10
1.533908987770374
 20
-1.454954423790287
 10
1.543866662516084
 20
-1.441977328426424
 10
1.554917473688228
 20
-1.429917483366816
 10
1.566977317941122
 20
-1.418866671314298
 10
1.579954412578069
 20
-1.408908995621253
 10
1.593749994073099
 20
-1.400120240212315
 10
1.608259069721033
 20
-1.39256729282294
 10
1.623371216695372
 20
-1.386307635943357
 10
1.638971422432678
 20
-1.381388909342104
 10
1.654940959947627
 20
-1.377848547498623
 10
1.671158291417061
 20
-1.375713494704273
 10
1.687499993156204
 20
-1.374999999999999
  0
LINE
  5
23A
330
1F0
100
AcDbEntity
  8
AM_4
100
AcDbLine
 10
-1.5
 20
-1.562499999999998
 30
0.0
 11
-1.5
 21
-3.25
 31
0.0
  0
LWPOLYLINE
  5
23B
330
1F0
100
AcDbEntity
  8
AM_4
100
AcDbPolyline
 90
       19
 70
     0
 43
0.0
 10
-1.687499999999999
 20
-1.374999999999999
 10
-1.671158298234813
 20
-1.375713494107797
 10
-1.654940966687449
 20
-1.37784854631021
 10
-1.638971429043276
 20
-1.381388907570799
 10
-1.623371223126436
 20
-1.386307633602641
 10
-1.608259075923618
 20
-1.392567289930627
 10
-1.593749999999999
 20
-1.400120236790417
 10
-1.579954418184178
 20
-1.408908991695813
 10
-1.566977323183773
 20
-1.418866666915191
 10
-1.554917478527522
 20
-1.429917478527521
 10
-1.543866666915191
 20
-1.441977323183773
 10
-1.533908991695813
 20
-1.454954418184178
 10
-1.525120236790417
 20
-1.468749999999999
 10
-1.517567289930628
 20
-1.483259075923617
 10
-1.511307633602642
 20
-1.498371223126436
 10
-1.506388907570799
 20
-1.513971429043276
 10
-1.502848546310211
 20
-1.529940966687449
 10
-1.500713494107797
 20
-1.546158298234812
 10
-1.5
 20
-1.562499999999998
  0
LINE
  5
23C
330
1F0
100
AcDbEntity
  8
AM_4
100
AcDbLine
 10
-1.875
 20
-1.375
 30
0.0
 11
1.875
 21
-1.375
 31
0.0
  0
LINE
  5
23D
330
1F0
100
AcDbEntity
  8
AM_4
100
AcDbLine
 10
-1.875
 20
-1.375
 30
0.0
 11
-1.875
 21
-3.25
 31
0.0
  0
LINE
  5
23E
330
1F0
100
AcDbEntity
  8
AM_4
100
AcDbLine
 10
1.875
 20
-3.25
 30
0.0
 11
-1.875
 21
-3.25
 31
0.0
  0
ENDBLK
  5
1F3
330
1F0
100
AcDbEntity
  8
0
100
AcDbBlockEnd
  0
ENDSEC
  0
SECTION
  2
ENTITIES
  0
INSERT
  5
6F
330
1F
100
AcDbEntity
  8
0
100
AcDbBlockReference
  2
1_069580_2
 10
0.0
 20
0.0
 30
0.0
  0
POINT
  5
240
330
1F
100
AcDbEntity
  8
ConnectionPoints
100
AcDbPoint
 10
-1.953083333333334
 20
-1.903645833333333
 30
0.0000000000000001
  0
POINT
  5
241
330
1F
100
AcDbEntity
  8
ConnectionPoints
100
AcDbPoint
 10
-1.953083333333334
 20
1.903645833333333
 30
0.0000000000000001
  0
POINT
  5
242
330
1F
100
AcDbEntity
  8
ConnectionPoints
100
AcDbPoint
 10
-1.883083333333333
 20
0.0
 30
0.0000000000000001
  0
POINT
  5
243
330
1F
100
AcDbEntity
  8
ConnectionPoints
100
AcDbPoint
 10
-2.15625
 20
0.0
 30
0.0000000000000001
  0
POINT
  5
244
330
1F
100
AcDbEntity
  8
ConnectionPoints
100
AcDbPoint
 10
-2.082083333333333
 20
0.0
 30
0.0000000000000001
  0
POINT
  5
245
330
1F
100
AcDbEntity
  8
ConnectionPoints
100
AcDbPoint
 10
-1.883083333333333
 20
1.903645833333333
 30
0.0000000000000001
  0
POINT
  5
246
330
1F
100
AcDbEntity
  8
ConnectionPoints
100
AcDbPoint
 10
-2.05525
 20
1.903645833333333
 30
0.0000000000000001
  0
POINT
  5
247
330
1F
100
AcDbEntity
  8
ConnectionPoints
100
AcDbPoint
 10
-1.883083333333333
 20
-1.903645833333333
 30
0.0000000000000001
  0
POINT
  5
248
330
1F
100
AcDbEntity
  8
ConnectionPoints
100
AcDbPoint
 10
-2.05525
 20
-1.903645833333333
 30
0.0000000000000001
  0
POINT
  5
249
330
1F
100
AcDbEntity
  8
ConnectionPoints
100
AcDbPoint
 10
-1.883083333333333
 20
0.0
 30
0.0000000000000001
  0
POINT
  5
24A
330
1F
100
AcDbEntity
  8
ConnectionPoints
100
AcDbPoint
 10
-0.0000000000000001
 20
2.847058514941343
 30
-1.64375
  0
POINT
  5
24B
330
1F
100
AcDbEntity
  8
ConnectionPoints
100
AcDbPoint
 10
-2.15625
 20
0.0
 30
0.0000000000000001
  0
POINT
  5
24C
330
1F
100
AcDbEntity
  8
ConnectionPoints
100
AcDbPoint
 10
-2.40625
 20
0.0
 30
0.0000000000000001
  0
ENDSEC
  0
SECTION
  2
OBJECTS
  0
DICTIONARY
  5
C
330
0
100
AcDbDictionary
281
     1
  3
ACAD_DETAILVIEWSTYLE
350
254
  3
ACAD_GROUP
350
D
  3
ACAD_LAYOUT
350
1A
  3
ACAD_MATERIAL
350
43
  3
ACAD_MLEADERSTYLE
350
6B
  3
ACAD_MLINESTYLE
350
17
  3
ACAD_PLOTSETTINGS
350
19
  3
ACAD_PLOTSTYLENAME
350
E
  3
ACAD_SCALELIST
350
47
  3
ACAD_SECTIONVIEWSTYLE
350
255
  3
ACAD_TABLESTYLE
350
69
  3
ACAD_VISUALSTYLE
350
2A
  3
ACDB_RECOMPOSE_DATA
350
251
  3
AcDbVariableDictionary
350
24D
  0
SUN
  5
6D
330
29
100
AcDbSun
 90
        1
290
     0
 63
     7
421
 16777215
 40
1.0
291
     1
 91
  2455826
 92
 54000000
292
     0
 70
     2
 71
   256
280
     1
  0
DICTIONARY
  5
254
102
{ACAD_REACTORS
330
C
102
}
330
C
100
AcDbDictionary
281
     1
  0
DICTIONARY
  5
D
102
{ACAD_REACTORS
330
C
102
}
330
C
100
AcDbDictionary
281
     1
  0
DICTIONARY
  5
1A
102
{ACAD_REACTORS
330
C
102
}
330
C
100
AcDbDictionary
281
     1
  3
Layout1
350
1E
  3
Layout2
350
26
  3
Model
350
22
  0
DICTIONARY
  5
43
102
{ACAD_REACTORS
330
C
102
}
330
C
100
AcDbDictionary
281
     1
  3
ByBlock
350
45
  3
ByLayer
350
44
  3
Global
350
46
  0
DICTIONARY
  5
6B
102
{ACAD_REACTORS
330
C
102
}
330
C
100
AcDbDictionary
281
     1
  3
Standard
350
6C
  0
DICTIONARY
  5
17
102
{ACAD_REACTORS
330
C
102
}
330
C
100
AcDbDictionary
281
     1
  3
Standard
350
18
  0
DICTIONARY
  5
19
102
{ACAD_REACTORS
330
C
102
}
330
C
100
AcDbDictionary
281
     1
  0
ACDBDICTIONARYWDFLT
  5
E
102
{ACAD_REACTORS
330
C
102
}
330
C
100
AcDbDictionary
281
     1
  3
Normal
350
F
100
AcDbDictionaryWithDefault
340
F
  0
DICTIONARY
  5
47
102
{ACAD_REACTORS
330
C
102
}
330
C
100
AcDbDictionary
281
     1
  3
A0
350
48
  3
A1
350
49
  3
A2
350
4A
  3
A3
350
4B
  3
A4
350
4C
  3
A5
350
4D
  3
A6
350
4E
  3
A7
350
4F
  3
A8
350
50
  3
A9
350
51
  3
B0
350
52
  3
B1
350
53
  3
B2
350
54
  3
B3
350
55
  3
B4
350
56
  3
B5
350
57
  3
B6
350
58
  3
B7
350
59
  3
B8
350
5A
  3
B9
350
5B
  3
C0
350
5C
  3
C1
350
5D
  3
C2
350
5E
  3
C3
350
5F
  3
C4
350
60
  3
C5
350
61
  3
C6
350
62
  3
C7
350
63
  3
C8
350
64
  3
C9
350
65
  3
D0
350
66
  3
D1
350
67
  3
D2
350
68
  0
DICTIONARY
  5
255
102
{ACAD_REACTORS
330
C
102
}
330
C
100
AcDbDictionary
281
     1
  0
DICTIONARY
  5
69
102
{ACAD_REACTORS
330
C
102
}
330
C
100
AcDbDictionary
281
     1
  3
Standard
350
6A
  0
DICTIONARY
  5
2A
102
{ACAD_REACTORS
330
C
102
}
330
C
100
AcDbDictionary
281
     1
  3
2dWireframe
350
2F
  3
Basic
350
32
  3
Brighten
350
36
  3
ColorChange
350
3A
  3
Conceptual
350
34
  3
Dim
350
35
  3
EdgeColorOff
350
3D
  3
Facepattern
350
39
  3
Flat
350
2B
  3
FlatWithEdges
350
2C
  3
Gouraud
350
2D
  3
GouraudWithEdges
350
2E
  3
Hidden
350
31
  3
JitterOff
350
3B
  3
Linepattern
350
38
  3
OverhangOff
350
3C
  3
Realistic
350
33
  3
Shaded
350
42
  3
Shaded with edges
350
41
  3
Shades of Gray
350
3E
  3
Sketchy
350
3F
  3
Thicken
350
37
  3
Wireframe
350
30
  3
X-Ray
350
40
  0
XRECORD
  5
251
102
{ACAD_REACTORS
330
C
102
}
330
C
100
AcDbXrecord
280
     1
 90
        1
330
6A
  0
DICTIONARY
  5
24D
102
{ACAD_REACTORS
330
C
102
}
330
C
100
AcDbDictionary
281
     1
  3
CANNOSCALE
350
24E
  3
CMLEADERSTYLE
350
253
  3
CTABLESTYLE
350
252
  0
LAYOUT
  5
1E
102
{ACAD_REACTORS
330
1A
102
}
330
1A
100
AcDbPlotSettings
  1

  2
none_device
  4

  6

 40
0.0
 41
0.0
 42
0.0
 43
0.0
 44
0.0
 45
0.0
 46
0.0
 47
0.0
 48
0.0
 49
0.0
140
0.0
141
0.0
142
1.0
143
1.0
 70
   688
 72
     0
 73
     0
 74
     5
  7

 75
    16
 76
     0
 77
     2
 78
   300
147
1.0
148
0.0
149
0.0
100
AcDbLayout
  1
Layout1
 70
     1
 71
     1
 10
0.0
 20
0.0
 11
12.0
 21
9.0
 12
0.0
 22
0.0
 32
0.0
 14
1.000000000000000E+20
 24
1.000000000000000E+20
 34
1.000000000000000E+20
 15
-1.000000000000000E+20
 25
-1.000000000000000E+20
 35
-1.000000000000000E+20
146
0.0
 13
0.0
 23
0.0
 33
0.0
 16
1.0
 26
0.0
 36
0.0
 17
0.0
 27
1.0
 37
0.0
 76
     0
330
1B
  0
LAYOUT
  5
26
102
{ACAD_REACTORS
330
1A
102
}
330
1A
100
AcDbPlotSettings
  1

  2
none_device
  4

  6

 40
0.0
 41
0.0
 42
0.0
 43
0.0
 44
0.0
 45
0.0
 46
0.0
 47
0.0
 48
0.0
 49
0.0
140
0.0
141
0.0
142
1.0
143
1.0
 70
   688
 72
     0
 73
     0
 74
     5
  7

 75
    16
 76
     0
 77
     2
 78
   300
147
1.0
148
0.0
149
0.0
100
AcDbLayout
  1
Layout2
 70
     1
 71
     2
 10
0.0
 20
0.0
 11
0.0
 21
0.0
 12
0.0
 22
0.0
 32
0.0
 14
0.0
 24
0.0
 34
0.0
 15
0.0
 25
0.0
 35
0.0
146
0.0
 13
0.0
 23
0.0
 33
0.0
 16
1.0
 26
0.0
 36
0.0
 17
0.0
 27
1.0
 37
0.0
 76
     0
330
23
  0
LAYOUT
  5
22
102
{ACAD_REACTORS
330
1A
102
}
330
1A
100
AcDbPlotSettings
  1

  2
none_device
  4
Letter_(8.50_x_11.00_Inches)
  6

 40
6.35
 41
6.35
 42
6.35000508
 43
6.35000508
 44
215.9
 45
279.4
 46
0.0
 47
0.0
 48
0.0
 49
0.0
140
0.0
141
0.0
142
1.0
143
1.0
 70
  1712
 72
     0
 73
     0
 74
     0
  7

 75
     0
 76
     0
 77
     2
 78
   300
147
1.0
148
0.0
149
0.0
100
AcDbLayout
  1
Model
 70
     1
 71
     0
 10
0.0
 20
0.0
 11
12.0
 21
9.0
 12
0.0
 22
0.0
 32
0.0
 14
1.000000000000000E+20
 24
1.000000000000000E+20
 34
1.000000000000000E+20
 15
-1.000000000000000E+20
 25
-1.000000000000000E+20
 35
-1.000000000000000E+20
146
0.0
 13
0.0
 23
0.0
 33
0.0
 16
1.0
 26
0.0
 36
0.0
 17
0.0
 27
1.0
 37
0.0
 76
     0
330
1F
331
29
  0
MATERIAL
  5
45
102
{ACAD_REACTORS
330
43
102
}
330
43
100
AcDbMaterial
  1
ByBlock
 72
     1
 94
      127
  0
MATERIAL
  5
44
102
{ACAD_REACTORS
330
43
102
}
330
43
100
AcDbMaterial
  1
ByLayer
 72
     1
 94
      127
  0
MATERIAL
  5
46
102
{ACAD_REACTORS
330
43
102
}
330
43
100
AcDbMaterial
  1
Global
 72
     1
 94
      127
  0
MLEADERSTYLE
  5
6C
102
{ACAD_REACTORS
330
6B
102
}
330
6B
100
AcDbMLeaderStyle
179
     2
170
     2
171
     1
172
     0
 90
        2
 40
0.0
 41
0.0
173
     1
 91
-1056964608
340
14
 92
       -2
290
     1
 42
0.09
291
     1
 43
0.36
  3
Standard
341
0
 44
0.18
300

342
11
174
     1
178
     6
175
     1
176
     0
 93
-1056964608
 45
0.18
292
     0
297
     0
 46
0.18
343
0
 94
-1056964608
 47
1.0
 49
1.0
140
1.0
293
     1
141
0.0
294
     1
177
     0
142
1.0
295
     0
296
     0
143
0.125
271
     0
272
     9
273
     9
298
     0
  0
MLINESTYLE
  5
18
102
{ACAD_REACTORS
330
17
102
}
330
17
100
AcDbMlineStyle
  2
Standard
 70
     0
  3

 62
   256
 51
90.0
 52
90.0
 71
     2
 49
0.5
 62
   256
  6
BYLAYER
 49
-0.5
 62
   256
  6
BYLAYER
  0
ACDBPLACEHOLDER
  5
F
102
{ACAD_REACTORS
330
E
102
}
330
E
  0
SCALE
  5
48
102
{ACAD_REACTORS
330
47
102
}
330
47
100
AcDbScale
 70
     0
300
1:1
140
1.0
141
1.0
290
     1
  0
SCALE
  5
49
102
{ACAD_REACTORS
330
47
102
}
330
47
100
AcDbScale
 70
     0
300
1:2
140
1.0
141
2.0
290
     0
  0
SCALE
  5
4A
102
{ACAD_REACTORS
330
47
102
}
330
47
100
AcDbScale
 70
     0
300
1:4
140
1.0
141
4.0
290
     0
  0
SCALE
  5
4B
102
{ACAD_REACTORS
330
47
102
}
330
47
100
AcDbScale
 70
     0
300
1:5
140
1.0
141
5.0
290
     0
  0
SCALE
  5
4C
102
{ACAD_REACTORS
330
47
102
}
330
47
100
AcDbScale
 70
     0
300
1:8
140
1.0
141
8.0
290
     0
  0
SCALE
  5
4D
102
{ACAD_REACTORS
330
47
102
}
330
47
100
AcDbScale
 70
     0
300
1:10
140
1.0
141
10.0
290
     0
  0
SCALE
  5
4E
102
{ACAD_REACTORS
330
47
102
}
330
47
100
AcDbScale
 70
     0
300
1:16
140
1.0
141
16.0
290
     0
  0
SCALE
  5
4F
102
{ACAD_REACTORS
330
47
102
}
330
47
100
AcDbScale
 70
     0
300
1:20
140
1.0
141
20.0
290
     0
  0
SCALE
  5
50
102
{ACAD_REACTORS
330
47
102
}
330
47
100
AcDbScale
 70
     0
300
1:30
140
1.0
141
30.0
290
     0
  0
SCALE
  5
51
102
{ACAD_REACTORS
330
47
102
}
330
47
100
AcDbScale
 70
     0
300
1:40
140
1.0
141
40.0
290
     0
  0
SCALE
  5
52
102
{ACAD_REACTORS
330
47
102
}
330
47
100
AcDbScale
 70
     0
300
1:50
140
1.0
141
50.0
290
     0
  0
SCALE
  5
53
102
{ACAD_REACTORS
330
47
102
}
330
47
100
AcDbScale
 70
     0
300
1:100
140
1.0
141
100.0
290
     0
  0
SCALE
  5
54
102
{ACAD_REACTORS
330
47
102
}
330
47
100
AcDbScale
 70
     0
300
2:1
140
2.0
141
1.0
290
     0
  0
SCALE
  5
55
102
{ACAD_REACTORS
330
47
102
}
330
47
100
AcDbScale
 70
     0
300
4:1
140
4.0
141
1.0
290
     0
  0
SCALE
  5
56
102
{ACAD_REACTORS
330
47
102
}
330
47
100
AcDbScale
 70
     0
300
8:1
140
8.0
141
1.0
290
     0
  0
SCALE
  5
57
102
{ACAD_REACTORS
330
47
102
}
330
47
100
AcDbScale
 70
     0
300
10:1
140
10.0
141
1.0
290
     0
  0
SCALE
  5
58
102
{ACAD_REACTORS
330
47
102
}
330
47
100
AcDbScale
 70
     0
300
100:1
140
100.0
141
1.0
290
     0
  0
SCALE
  5
59
102
{ACAD_REACTORS
330
47
102
}
330
47
100
AcDbScale
 70
     0
300
1/128" = 1'-0"
140
0.0078125
141
12.0
290
     0
  0
SCALE
  5
5A
102
{ACAD_REACTORS
330
47
102
}
330
47
100
AcDbScale
 70
     0
300
1/64" = 1'-0"
140
0.015625
141
12.0
290
     0
  0
SCALE
  5
5B
102
{ACAD_REACTORS
330
47
102
}
330
47
100
AcDbScale
 70
     0
300
1/32" = 1'-0"
140
0.03125
141
12.0
290
     0
  0
SCALE
  5
5C
102
{ACAD_REACTORS
330
47
102
}
330
47
100
AcDbScale
 70
     0
300
1/16" = 1'-0"
140
0.0625
141
12.0
290
     0
  0
SCALE
  5
5D
102
{ACAD_REACTORS
330
47
102
}
330
47
100
AcDbScale
 70
     0
300
3/32" = 1'-0"
140
0.09375
141
12.0
290
     0
  0
SCALE
  5
5E
102
{ACAD_REACTORS
330
47
102
}
330
47
100
AcDbScale
 70
     0
300
1/8" = 1'-0"
140
0.125
141
12.0
290
     0
  0
SCALE
  5
5F
102
{ACAD_REACTORS
330
47
102
}
330
47
100
AcDbScale
 70
     0
300
3/16" = 1'-0"
140
0.1875
141
12.0
290
     0
  0
SCALE
  5
60
102
{ACAD_REACTORS
330
47
102
}
330
47
100
AcDbScale
 70
     0
300
1/4" = 1'-0"
140
0.25
141
12.0
290
     0
  0
SCALE
  5
61
102
{ACAD_REACTORS
330
47
102
}
330
47
100
AcDbScale
 70
     0
300
3/8" = 1'-0"
140
0.375
141
12.0
290
     0
  0
SCALE
  5
62
102
{ACAD_REACTORS
330
47
102
}
330
47
100
AcDbScale
 70
     0
300
1/2" = 1'-0"
140
0.5
141
12.0
290
     0
  0
SCALE
  5
63
102
{ACAD_REACTORS
330
47
102
}
330
47
100
AcDbScale
 70
     0
300
3/4" = 1'-0"
140
0.75
141
12.0
290
     0
  0
SCALE
  5
64
102
{ACAD_REACTORS
330
47
102
}
330
47
100
AcDbScale
 70
     0
300
1" = 1'-0"
140
1.0
141
12.0
290
     0
  0
SCALE
  5
65
102
{ACAD_REACTORS
330
47
102
}
330
47
100
AcDbScale
 70
     0
300
1-1/2" = 1'-0"
140
1.5
141
12.0
290
     0
  0
SCALE
  5
66
102
{ACAD_REACTORS
330
47
102
}
330
47
100
AcDbScale
 70
     0
300
3" = 1'-0"
140
3.0
141
12.0
290
     0
  0
SCALE
  5
67
102
{ACAD_REACTORS
330
47
102
}
330
47
100
AcDbScale
 70
     0
300
6" = 1'-0"
140
6.0
141
12.0
290
     0
  0
SCALE
  5
68
102
{ACAD_REACTORS
330
47
102
}
330
47
100
AcDbScale
 70
     0
300
1'-0" = 1'-0"
140
12.0
141
12.0
290
     0
  0
TABLESTYLE
  5
6A
102
{ACAD_REACTORS
330
69
102
}
102
{ACAD_XDICTIONARY
360
24F
102
}
330
69
100
AcDbTableStyle
  3
Standard
 70
     0
 71
     0
 40
0.06
 41
0.06
280
     0
281
     0
  7
Standard
140
0.18
170
     2
 62
     0
 63
   257
283
     0
 90
        4
 91
        0
  1

274
    -2
284
     1
 64
     0
275
    -2
285
     1
 65
     0
276
    -2
286
     1
 66
     0
277
    -2
287
     1
 67
     0
278
    -2
288
     1
 68
     0
279
    -2
289
     1
 69
     0
  7
Standard
140
0.25
170
     5
 62
     0
 63
   257
283
     0
 90
        4
 91
        0
  1

274
    -2
284
     1
 64
     0
275
    -2
285
     1
 65
     0
276
    -2
286
     1
 66
     0
277
    -2
287
     1
 67
     0
278
    -2
288
     1
 68
     0
279
    -2
289
     1
 69
     0
  7
Standard
140
0.18
170
     5
 62
     0
 63
   257
283
     0
 90
        4
 91
        0
  1

274
    -2
284
     1
 64
     0
275
    -2
285
     1
 65
     0
276
    -2
286
     1
 66
     0
277
    -2
287
     1
 67
     0
278
    -2
288
     1
 68
     0
279
    -2
289
     1
 69
     0
  0
VISUALSTYLE
  5
2F
102
{ACAD_REACTORS
330
2A
102
}
330
2A
100
AcDbVisualStyle
  2
2dWireframe
 70
     4
177
     3
291
     0
 70
    58
 90
        0
176
     1
 90
        2
176
     1
 90
        0
176
     1
 90
        0
176
     1
 40
0.6
176
     1
 40
30.0
176
     1
 62
     7
420
 16777215
176
     1
 90
        1
176
     1
 90
        4
176
     1
 62
     7
176
     1
 62
   257
176
     1
 90
        1
176
     1
 90
        1
176
     1
 40
1.0
176
     1
 90
        0
176
     1
 62
   257
176
     1
 40
1.0
176
     1
 90
        1
176
     1
 90
        6
176
     1
 90
        2
176
     1
 62
     7
176
     1
 90
        5
176
     1
 90
        0
176
     1
 90
        0
176
     1
290
     0
176
     1
 90
        1
176
     1
 40
0.0
176
     1
 90
        0
176
     1
290
     1
176
     1
290
     1
176
     1
290
     0
176
     1
290
     0
176
     1
290
     0
176
     1
290
     0
176
     1
290
     0
176
     1
290
     0
176
     1
290
     0
176
     1
 90
       50
176
     1
 40
0.0
176
     1
 40
1.0
176
     1
 90
        0
176
     1
 62
    18
420
        0
176
     1
 90
       50
176
     1
 90
        3
176
     1
 62
     5
420
      255
176
     1
290
     0
176
     1
 90
       50
176
     1
 90
       50
176
     1
 90
       50
176
     1
290
     0
176
     1
 90
       50
176
     1
 62
   256
176
     0
 40
1.0
176
     0
 90
        2
176
     1
  1
strokes_ogs.tif
176
     1
290
     0
176
     1
 40
1.0
176
     1
 40
1.0
176
     1
  0
VISUALSTYLE
  5
32
102
{ACAD_REACTORS
330
2A
102
}
330
2A
100
AcDbVisualStyle
  2
Basic
 70
     7
177
     3
291
     1
 70
    58
 90
        1
176
     1
 90
        0
176
     1
 90
        1
176
     1
 90
        0
176
     1
 40
0.6
176
     1
 40
30.0
176
     1
 62
     7
420
 16777215
176
     1
 90
        0
176
     1
 90
        4
176
     1
 62
     7
176
     1
 62
   257
176
     1
 90
        1
176
     1
 90
        1
176
     1
 40
1.0
176
     1
 90
        8
176
     1
 62
     7
176
     1
 40
1.0
176
     1
 90
        1
176
     1
 90
        6
176
     1
 90
        2
176
     1
 62
     7
176
     1
 90
        5
176
     1
 90
        0
176
     1
 90
        0
176
     1
290
     0
176
     1
 90
        1
176
     1
 40
0.0
176
     1
 90
        0
176
     1
290
     0
176
     1
290
     1
176
     1
290
     1
176
     1
290
     0
176
     1
290
     0
176
     1
290
     0
176
     1
290
     0
176
     1
290
     0
176
     1
290
     0
176
     1
 90
       50
176
     1
 40
0.0
176
     1
 40
1.0
176
     1
 90
        0
176
     1
 62
    18
420
        0
176
     1
 90
       50
176
     1
 90
        3
176
     1
 62
     5
420
      255
176
     1
290
     0
176
     1
 90
       50
176
     1
 90
       50
176
     1
 90
       50
176
     1
290
     0
176
     1
 90
       50
176
     1
 62
   256
176
     0
 40
1.0
176
     0
 90
        2
176
     1
  1
strokes_ogs.tif
176
     1
290
     0
176
     1
 40
1.0
176
     1
 40
1.0
176
     1
  0
VISUALSTYLE
  5
36
102
{ACAD_REACTORS
330
2A
102
}
330
2A
100
AcDbVisualStyle
  2
Brighten
 70
    12
177
     3
291
     1
 70
    58
 90
        2
176
     1
 90
        2
176
     1
 90
        0
176
     1
 90
        0
176
     1
 40
0.6
176
     1
 40
30.0
176
     1
 62
     7
420
 16777215
176
     1
 90
        1
176
     1
 90
        4
176
     1
 62
     7
176
     1
 62
   257
176
     1
 90
        1
176
     1
 90
        1
176
     1
 40
1.0
176
     1
 90
        8
176
     1
 62
     7
176
     1
 40
1.0
176
     1
 90
        1
176
     1
 90
        6
176
     1
 90
        2
176
     1
 62
     7
176
     1
 90
        5
176
     1
 90
        0
176
     1
 90
        0
176
     1
290
     0
176
     1
 90
        1
176
     1
 40
50.0
176
     1
 90
        0
176
     1
290
     0
176
     1
290
     1
176
     1
290
     1
176
     1
290
     0
176
     1
290
     0
176
     1
290
     0
176
     1
290
     0
176
     1
290
     0
176
     1
290
     0
176
     1
 90
       50
176
     1
 40
0.0
176
     1
 40
1.0
176
     1
 90
        0
176
     1
 62
    18
420
        0
176
     1
 90
       50
176
     1
 90
        3
176
     1
 62
     5
420
      255
176
     1
290
     0
176
     1
 90
       50
176
     1
 90
       50
176
     1
 90
       50
176
     1
290
     0
176
     1
 90
       50
176
     1
 62
   256
176
     0
 40
1.0
176
     0
 90
        2
176
     1
  1
strokes_ogs.tif
176
     1
290
     0
176
     1
 40
1.0
176
     1
 40
1.0
176
     1
  0
VISUALSTYLE
  5
3A
102
{ACAD_REACTORS
330
2A
102
}
330
2A
100
AcDbVisualStyle
  2
ColorChange
 70
    16
177
     3
291
     1
 70
    58
 90
        2
176
     1
 90
        2
176
     1
 90
        3
176
     1
 90
        0
176
     1
 40
0.6
176
     1
 40
30.0
176
     1
 62
     8
420
  8421504
176
     1
 90
        1
176
     1
 90
        4
176
     1
 62
     7
176
     1
 62
   257
176
     1
 90
        1
176
     1
 90
        1
176
     1
 40
1.0
176
     1
 90
        8
176
     1
 62
     8
420
  8421504
176
     1
 40
1.0
176
     1
 90
        1
176
     1
 90
        6
176
     1
 90
        2
176
     1
 62
     7
176
     1
 90
        5
176
     1
 90
        0
176
     1
 90
        0
176
     1
290
     0
176
     1
 90
        1
176
     1
 40
0.0
176
     1
 90
        0
176
     1
290
     0
176
     1
290
     1
176
     1
290
     1
176
     1
290
     0
176
     1
290
     0
176
     1
290
     0
176
     1
290
     0
176
     1
290
     0
176
     1
290
     0
176
     1
 90
       50
176
     1
 40
0.0
176
     1
 40
1.0
176
     1
 90
        0
176
     1
 62
    18
420
        0
176
     1
 90
       50
176
     1
 90
        3
176
     1
 62
     5
420
      255
176
     1
290
     0
176
     1
 90
       50
176
     1
 90
       50
176
     1
 90
       50
176
     1
290
     0
176
     1
 90
       50
176
     1
 62
   256
176
     0
 40
1.0
176
     0
 90
        2
176
     1
  1
strokes_ogs.tif
176
     1
290
     0
176
     1
 40
1.0
176
     1
 40
1.0
176
     1
  0
VISUALSTYLE
  5
34
102
{ACAD_REACTORS
330
2A
102
}
330
2A
100
AcDbVisualStyle
  2
Conceptual
 70
     9
177
     3
291
     0
 70
    58
 90
        3
176
     1
 90
        2
176
     1
 90
        0
176
     1
 90
        0
176
     1
 40
0.6
176
     1
 40
30.0
176
     1
 62
     7
420
 16777215
176
     1
 90
        2
176
     1
 90
        2
176
     1
 62
     7
176
     1
 62
   257
176
     1
 90
        1
176
     1
 90
        1
176
     1
 40
179.0
176
     1
 90
        8
176
     1
 62
     7
176
     1
 40
1.0
176
     1
 90
        1
176
     1
 90
        6
176
     1
 90
        2
176
     1
 62
     7
176
     1
 90
        3
176
     1
 90
        0
176
     1
 90
        0
176
     1
290
     0
176
     1
 90
        1
176
     1
 40
0.0
176
     1
 90
        0
176
     1
290
     0
176
     1
290
     1
176
     1
290
     1
176
     1
290
     0
176
     1
290
     0
176
     1
290
     0
176
     1
290
     0
176
     1
290
     0
176
     1
290
     0
176
     1
 90
       50
176
     1
 40
0.0
176
     1
 40
1.0
176
     1
 90
        0
176
     1
 62
    18
420
        0
176
     1
 90
       50
176
     1
 90
        3
176
     1
 62
     5
420
      255
176
     1
290
     0
176
     1
 90
       50
176
     1
 90
       50
176
     1
 90
       50
176
     1
290
     0
176
     1
 90
       50
176
     1
 62
   256
176
     0
 40
1.0
176
     0
 90
        2
176
     1
  1
strokes_ogs.tif
176
     1
290
     0
176
     1
 40
1.0
176
     1
 40
1.0
176
     1
  0
VISUALSTYLE
  5
35
102
{ACAD_REACTORS
330
2A
102
}
330
2A
100
AcDbVisualStyle
  2
Dim
 70
    11
177
     3
291
     1
 70
    58
 90
        2
176
     1
 90
        2
176
     1
 90
        0
176
     1
 90
        0
176
     1
 40
0.6
176
     1
 40
30.0
176
     1
 62
     7
420
 16777215
176
     1
 90
        1
176
     1
 90
        4
176
     1
 62
     7
176
     1
 62
   257
176
     1
 90
        1
176
     1
 90
        1
176
     1
 40
1.0
176
     1
 90
        8
176
     1
 62
     7
176
     1
 40
1.0
176
     1
 90
        1
176
     1
 90
        6
176
     1
 90
        2
176
     1
 62
     7
176
     1
 90
        5
176
     1
 90
        0
176
     1
 90
        0
176
     1
290
     0
176
     1
 90
        1
176
     1
 40
-50.0
176
     1
 90
        0
176
     1
290
     0
176
     1
290
     1
176
     1
290
     1
176
     1
290
     0
176
     1
290
     0
176
     1
290
     0
176
     1
290
     0
176
     1
290
     0
176
     1
290
     0
176
     1
 90
       50
176
     1
 40
0.0
176
     1
 40
1.0
176
     1
 90
        0
176
     1
 62
    18
420
        0
176
     1
 90
       50
176
     1
 90
        3
176
     1
 62
     5
420
      255
176
     1
290
     0
176
     1
 90
       50
176
     1
 90
       50
176
     1
 90
       50
176
     1
290
     0
176
     1
 90
       50
176
     1
 62
   256
176
     0
 40
1.0
176
     0
 90
        2
176
     1
  1
strokes_ogs.tif
176
     1
290
     0
176
     1
 40
1.0
176
     1
 40
1.0
176
     1
  0
VISUALSTYLE
  5
3D
102
{ACAD_REACTORS
330
2A
102
}
330
2A
100
AcDbVisualStyle
  2
EdgeColorOff
 70
    22
177
     3
291
     1
 70
    58
 90
        2
176
     0
 90
        2
176
     0
 90
        0
176
     0
 90
        0
176
     0
 40
0.6
176
     0
 40
30.0
176
     0
 62
     7
420
 16777215
176
     0
 90
        1
176
     0
 90
        4
176
     0
 62
     7
176
     0
 62
   257
176
     0
 90
        1
176
     0
 90
        1
176
     0
 40
1.0
176
     0
 90
        8
176
     2
 62
     7
176
     0
 40
1.0
176
     0
 90
        1
176
     0
 90
        6
176
     0
 90
        2
176
     0
 62
     7
176
     0
 90
        5
176
     0
 90
        0
176
     0
 90
        0
176
     0
290
     0
176
     0
 90
        1
176
     0
 40
0.0
176
     0
 90
        0
176
     0
290
     0
176
     0
290
     1
176
     0
290
     1
176
     0
290
     0
176
     0
290
     0
176
     0
290
     0
176
     0
290
     0
176
     0
290
     0
176
     0
290
     0
176
     0
 90
       50
176
     0
 40
0.0
176
     0
 40
1.0
176
     0
 90
        0
176
     0
 62
    18
420
        0
176
     0
 90
       50
176
     0
 90
        3
176
     0
 62
     5
420
      255
176
     0
290
     0
176
     0
 90
       50
176
     0
 90
       50
176
     0
 90
       50
176
     0
290
     0
176
     0
 90
       50
176
     0
 62
   256
176
     0
 40
1.0
176
     0
 90
        2
176
     0
  1
strokes_ogs.tif
176
     0
290
     0
176
     0
 40
1.0
176
     0
 40
1.0
176
     0
  0
VISUALSTYLE
  5
39
102
{ACAD_REACTORS
330
2A
102
}
330
2A
100
AcDbVisualStyle
  2
Facepattern
 70
    15
177
     3
291
     1
 70
    58
 90
        2
176
     1
 90
        2
176
     1
 90
        0
176
     1
 90
        0
176
     1
 40
0.6
176
     1
 40
30.0
176
     1
 62
     7
420
 16777215
176
     1
 90
        1
176
     1
 90
        4
176
     1
 62
     7
176
     1
 62
   257
176
     1
 90
        1
176
     1
 90
        1
176
     1
 40
1.0
176
     1
 90
        8
176
     1
 62
     7
176
     1
 40
1.0
176
     1
 90
        1
176
     1
 90
        6
176
     1
 90
        2
176
     1
 62
     7
176
     1
 90
        5
176
     1
 90
        0
176
     1
 90
        0
176
     1
290
     0
176
     1
 90
        1
176
     1
 40
0.0
176
     1
 90
        0
176
     1
290
     0
176
     1
290
     1
176
     1
290
     1
176
     1
290
     0
176
     1
290
     0
176
     1
290
     0
176
     1
290
     0
176
     1
290
     0
176
     1
290
     0
176
     1
 90
       50
176
     1
 40
0.0
176
     1
 40
1.0
176
     1
 90
        0
176
     1
 62
    18
420
        0
176
     1
 90
       50
176
     1
 90
        3
176
     1
 62
     5
420
      255
176
     1
290
     0
176
     1
 90
       50
176
     1
 90
       50
176
     1
 90
       50
176
     1
290
     0
176
     1
 90
       50
176
     1
 62
   256
176
     0
 40
1.0
176
     0
 90
        2
176
     1
  1
strokes_ogs.tif
176
     1
290
     0
176
     1
 40
1.0
176
     1
 40
1.0
176
     1
  0
VISUALSTYLE
  5
2B
102
{ACAD_REACTORS
330
2A
102
}
330
2A
100
AcDbVisualStyle
  2
Flat
 70
     0
177
     3
291
     1
 70
    58
 90
        2
176
     1
 90
        1
176
     1
 90
        1
176
     1
 90
        2
176
     1
 40
0.6
176
     1
 40
30.0
176
     1
 62
     7
420
 16777215
176
     1
 90
        0
176
     1
 90
        0
176
     1
 62
     7
176
     1
 62
   257
176
     1
 90
        1
176
     1
 90
        1
176
     1
 40
1.0
176
     1
 90
        8
176
     1
 62
     7
176
     1
 40
1.0
176
     1
 90
        1
176
     1
 90
        6
176
     1
 90
        2
176
     1
 62
     7
176
     1
 90
        5
176
     1
 90
        0
176
     1
 90
        0
176
     1
290
     0
176
     1
 90
       13
176
     1
 40
0.0
176
     1
 90
        0
176
     1
290
     0
176
     1
290
     1
176
     1
290
     1
176
     1
290
     0
176
     1
290
     0
176
     1
290
     0
176
     1
290
     0
176
     1
290
     0
176
     1
290
     0
176
     1
 90
       50
176
     1
 40
0.0
176
     1
 40
1.0
176
     1
 90
        0
176
     1
 62
    18
420
        0
176
     1
 90
       50
176
     1
 90
        3
176
     1
 62
     5
420
      255
176
     1
290
     0
176
     1
 90
       50
176
     1
 90
       50
176
     1
 90
       50
176
     1
290
     0
176
     1
 90
       50
176
     1
 62
   256
176
     0
 40
1.0
176
     0
 90
        2
176
     1
  1
strokes_ogs.tif
176
     1
290
     0
176
     1
 40
1.0
176
     1
 40
1.0
176
     1
  0
VISUALSTYLE
  5
2C
102
{ACAD_REACTORS
330
2A
102
}
330
2A
100
AcDbVisualStyle
  2
FlatWithEdges
 70
     1
177
     3
291
     1
 70
    58
 90
        2
176
     1
 90
        1
176
     1
 90
        1
176
     1
 90
        2
176
     1
 40
0.6
176
     1
 40
30.0
176
     1
 62
     7
420
 16777215
176
     1
 90
        1
176
     1
 90
        0
176
     1
 62
     7
176
     1
 62
   257
176
     1
 90
        1
176
     1
 90
        1
176
     1
 40
1.0
176
     1
 90
        0
176
     1
 62
   257
176
     1
 40
1.0
176
     1
 90
        1
176
     1
 90
        6
176
     1
 90
        2
176
     1
 62
     7
176
     1
 90
        5
176
     1
 90
        0
176
     1
 90
        0
176
     1
290
     0
176
     1
 90
       13
176
     1
 40
0.0
176
     1
 90
        0
176
     1
290
     0
176
     1
290
     1
176
     1
290
     1
176
     1
290
     0
176
     1
290
     0
176
     1
290
     0
176
     1
290
     0
176
     1
290
     0
176
     1
290
     0
176
     1
 90
       50
176
     1
 40
0.0
176
     1
 40
1.0
176
     1
 90
        0
176
     1
 62
    18
420
        0
176
     1
 90
       50
176
     1
 90
        3
176
     1
 62
     5
420
      255
176
     1
290
     0
176
     1
 90
       50
176
     1
 90
       50
176
     1
 90
       50
176
     1
290
     0
176
     1
 90
       50
176
     1
 62
   256
176
     0
 40
1.0
176
     0
 90
        2
176
     1
  1
strokes_ogs.tif
176
     1
290
     0
176
     1
 40
1.0
176
     1
 40
1.0
176
     1
  0
VISUALSTYLE
  5
2D
102
{ACAD_REACTORS
330
2A
102
}
330
2A
100
AcDbVisualStyle
  2
Gouraud
 70
     2
177
     3
291
     1
 70
    58
 90
        2
176
     1
 90
        2
176
     1
 90
        1
176
     1
 90
        2
176
     1
 40
0.6
176
     1
 40
30.0
176
     1
 62
     7
420
 16777215
176
     1
 90
        0
176
     1
 90
        0
176
     1
 62
     7
176
     1
 62
   257
176
     1
 90
        1
176
     1
 90
        1
176
     1
 40
1.0
176
     1
 90
        0
176
     1
 62
     7
176
     1
 40
1.0
176
     1
 90
        1
176
     1
 90
        6
176
     1
 90
        2
176
     1
 62
     7
176
     1
 90
        5
176
     1
 90
        0
176
     1
 90
        0
176
     1
290
     0
176
     1
 90
       13
176
     1
 40
0.0
176
     1
 90
        0
176
     1
290
     0
176
     1
290
     1
176
     1
290
     1
176
     1
290
     0
176
     1
290
     0
176
     1
290
     0
176
     1
290
     0
176
     1
290
     0
176
     1
290
     0
176
     1
 90
       50
176
     1
 40
0.0
176
     1
 40
1.0
176
     1
 90
        0
176
     1
 62
    18
420
        0
176
     1
 90
       50
176
     1
 90
        3
176
     1
 62
     5
420
      255
176
     1
290
     0
176
     1
 90
       50
176
     1
 90
       50
176
     1
 90
       50
176
     1
290
     0
176
     1
 90
       50
176
     1
 62
   256
176
     0
 40
1.0
176
     0
 90
        2
176
     1
  1
strokes_ogs.tif
176
     1
290
     0
176
     1
 40
1.0
176
     1
 40
1.0
176
     1
  0
VISUALSTYLE
  5
2E
102
{ACAD_REACTORS
330
2A
102
}
330
2A
100
AcDbVisualStyle
  2
GouraudWithEdges
 70
     3
177
     3
291
     1
 70
    58
 90
        2
176
     1
 90
        2
176
     1
 90
        1
176
     1
 90
        2
176
     1
 40
0.6
176
     1
 40
30.0
176
     1
 62
     7
420
 16777215
176
     1
 90
        1
176
     1
 90
        0
176
     1
 62
     7
176
     1
 62
   257
176
     1
 90
        1
176
     1
 90
        1
176
     1
 40
1.0
176
     1
 90
        0
176
     1
 62
   257
176
     1
 40
1.0
176
     1
 90
        1
176
     1
 90
        6
176
     1
 90
        2
176
     1
 62
     7
176
     1
 90
        5
176
     1
 90
        0
176
     1
 90
        0
176
     1
290
     0
176
     1
 90
       13
176
     1
 40
0.0
176
     1
 90
        0
176
     1
290
     0
176
     1
290
     1
176
     1
290
     1
176
     1
290
     0
176
     1
290
     0
176
     1
290
     0
176
     1
290
     0
176
     1
290
     0
176
     1
290
     0
176
     1
 90
       50
176
     1
 40
0.0
176
     1
 40
1.0
176
     1
 90
        0
176
     1
 62
    18
420
        0
176
     1
 90
       50
176
     1
 90
        3
176
     1
 62
     5
420
      255
176
     1
290
     0
176
     1
 90
       50
176
     1
 90
       50
176
     1
 90
       50
176
     1
290
     0
176
     1
 90
       50
176
     1
 62
   256
176
     0
 40
1.0
176
     0
 90
        2
176
     1
  1
strokes_ogs.tif
176
     1
290
     0
176
     1
 40
1.0
176
     1
 40
1.0
176
     1
  0
VISUALSTYLE
  5
31
102
{ACAD_REACTORS
330
2A
102
}
330
2A
100
AcDbVisualStyle
  2
Hidden
 70
     6
177
     3
291
     0
 70
    58
 90
        1
176
     1
 90
        2
176
     1
 90
        2
176
     1
 90
        0
176
     1
 40
0.6
176
     1
 40
30.0
176
     1
 62
     7
420
 16777215
176
     1
 90
        2
176
     1
 90
        2
176
     1
 62
     7
176
     1
 62
   257
176
     1
 90
        2
176
     1
 90
        1
176
     1
 40
40.0
176
     1
 90
        0
176
     1
 62
   257
176
     1
 40
1.0
176
     1
 90
        1
176
     1
 90
        6
176
     1
 90
        2
176
     1
 62
     7
176
     1
 90
        3
176
     1
 90
        0
176
     1
 90
        0
176
     1
290
     0
176
     1
 90
        1
176
     1
 40
0.0
176
     1
 90
        0
176
     1
290
     0
176
     1
290
     1
176
     1
290
     1
176
     1
290
     0
176
     1
290
     0
176
     1
290
     0
176
     1
290
     0
176
     1
290
     0
176
     1
290
     0
176
     1
 90
       50
176
     1
 40
0.0
176
     1
 40
1.0
176
     1
 90
        0
176
     1
 62
    18
420
        0
176
     1
 90
       50
176
     1
 90
        3
176
     1
 62
     5
420
      255
176
     1
290
     0
176
     1
 90
       50
176
     1
 90
       50
176
     1
 90
       50
176
     1
290
     0
176
     1
 90
       50
176
     1
 62
   256
176
     0
 40
1.0
176
     0
 90
        2
176
     1
  1
strokes_ogs.tif
176
     1
290
     0
176
     1
 40
1.0
176
     1
 40
1.0
176
     1
  0
VISUALSTYLE
  5
3B
102
{ACAD_REACTORS
330
2A
102
}
330
2A
100
AcDbVisualStyle
  2
JitterOff
 70
    20
177
     3
291
     1
 70
    58
 90
        2
176
     0
 90
        2
176
     0
 90
        0
176
     0
 90
        0
176
     0
 40
0.6
176
     0
 40
30.0
176
     0
 62
     7
420
 16777215
176
     0
 90
        1
176
     0
 90
        4
176
     0
 62
     7
176
     0
 62
   257
176
     0
 90
        1
176
     0
 90
        1
176
     0
 40
1.0
176
     0
 90
       10
176
     2
 62
     7
176
     0
 40
1.0
176
     0
 90
        1
176
     0
 90
        6
176
     0
 90
        2
176
     0
 62
     7
176
     0
 90
        5
176
     0
 90
        0
176
     0
 90
        0
176
     0
290
     0
176
     0
 90
        1
176
     0
 40
0.0
176
     0
 90
        0
176
     0
290
     0
176
     0
290
     1
176
     0
290
     1
176
     0
290
     0
176
     0
290
     0
176
     0
290
     0
176
     0
290
     0
176
     0
290
     0
176
     0
290
     0
176
     0
 90
       50
176
     0
 40
0.0
176
     0
 40
1.0
176
     0
 90
        0
176
     0
 62
    18
420
        0
176
     0
 90
       50
176
     0
 90
        3
176
     0
 62
     5
420
      255
176
     0
290
     0
176
     0
 90
       50
176
     0
 90
       50
176
     0
 90
       50
176
     0
290
     0
176
     0
 90
       50
176
     0
 62
   256
176
     0
 40
1.0
176
     0
 90
        2
176
     0
  1
strokes_ogs.tif
176
     0
290
     0
176
     0
 40
1.0
176
     0
 40
1.0
176
     0
  0
VISUALSTYLE
  5
38
102
{ACAD_REACTORS
330
2A
102
}
330
2A
100
AcDbVisualStyle
  2
Linepattern
 70
    14
177
     3
291
     1
 70
    58
 90
        2
176
     1
 90
        2
176
     1
 90
        0
176
     1
 90
        0
176
     1
 40
0.6
176
     1
 40
30.0
176
     1
 62
     7
420
 16777215
176
     1
 90
        1
176
     1
 90
        4
176
     1
 62
     7
176
     1
 62
   257
176
     1
 90
        7
176
     1
 90
        7
176
     1
 40
1.0
176
     1
 90
        8
176
     1
 62
     7
176
     1
 40
1.0
176
     1
 90
        1
176
     1
 90
        6
176
     1
 90
        2
176
     1
 62
     7
176
     1
 90
        5
176
     1
 90
        0
176
     1
 90
        0
176
     1
290
     0
176
     1
 90
        1
176
     1
 40
0.0
176
     1
 90
        0
176
     1
290
     0
176
     1
290
     1
176
     1
290
     1
176
     1
290
     0
176
     1
290
     0
176
     1
290
     0
176
     1
290
     0
176
     1
290
     0
176
     1
290
     0
176
     1
 90
       50
176
     1
 40
0.0
176
     1
 40
1.0
176
     1
 90
        0
176
     1
 62
    18
420
        0
176
     1
 90
       50
176
     1
 90
        3
176
     1
 62
     5
420
      255
176
     1
290
     0
176
     1
 90
       50
176
     1
 90
       50
176
     1
 90
       50
176
     1
290
     0
176
     1
 90
       50
176
     1
 62
   256
176
     0
 40
1.0
176
     0
 90
        2
176
     1
  1
strokes_ogs.tif
176
     1
290
     0
176
     1
 40
1.0
176
     1
 40
1.0
176
     1
  0
VISUALSTYLE
  5
3C
102
{ACAD_REACTORS
330
2A
102
}
330
2A
100
AcDbVisualStyle
  2
OverhangOff
 70
    21
177
     3
291
     1
 70
    58
 90
        2
176
     0
 90
        2
176
     0
 90
        0
176
     0
 90
        0
176
     0
 40
0.6
176
     0
 40
30.0
176
     0
 62
     7
420
 16777215
176
     0
 90
        1
176
     0
 90
        4
176
     0
 62
     7
176
     0
 62
   257
176
     0
 90
        1
176
     0
 90
        1
176
     0
 40
1.0
176
     0
 90
        9
176
     2
 62
     7
176
     0
 40
1.0
176
     0
 90
        1
176
     0
 90
        6
176
     0
 90
        2
176
     0
 62
     7
176
     0
 90
        5
176
     0
 90
        0
176
     0
 90
        0
176
     0
290
     0
176
     0
 90
        1
176
     0
 40
0.0
176
     0
 90
        0
176
     0
290
     0
176
     0
290
     1
176
     0
290
     1
176
     0
290
     0
176
     0
290
     0
176
     0
290
     0
176
     0
290
     0
176
     0
290
     0
176
     0
290
     0
176
     0
 90
       50
176
     0
 40
0.0
176
     0
 40
1.0
176
     0
 90
        0
176
     0
 62
    18
420
        0
176
     0
 90
       50
176
     0
 90
        3
176
     0
 62
     5
420
      255
176
     0
290
     0
176
     0
 90
       50
176
     0
 90
       50
176
     0
 90
       50
176
     0
290
     0
176
     0
 90
       50
176
     0
 62
   256
176
     0
 40
1.0
176
     0
 90
        2
176
     0
  1
strokes_ogs.tif
176
     0
290
     0
176
     0
 40
1.0
176
     0
 40
1.0
176
     0
  0
VISUALSTYLE
  5
33
102
{ACAD_REACTORS
330
2A
102
}
330
2A
100
AcDbVisualStyle
  2
Realistic
 70
     8
177
     3
291
     0
 70
    58
 90
        2
176
     1
 90
        3
176
     1
 90
        0
176
     1
 90
        2
176
     1
 40
0.6
176
     1
 40
30.0
176
     1
 62
     7
420
 16777215
176
     1
 90
        0
176
     1
 90
        0
176
     1
 62
     7
176
     1
 62
   257
176
     1
 90
        1
176
     1
 90
        1
176
     1
 40
1.0
176
     1
 90
        8
176
     1
 62
   257
176
     1
 40
1.0
176
     1
 90
        1
176
     1
 90
        6
176
     1
 90
        2
176
     1
 62
     7
176
     1
 90
        3
176
     1
 90
        0
176
     1
 90
        0
176
     1
290
     0
176
     1
 90
       13
176
     1
 40
0.0
176
     1
 90
        0
176
     1
290
     0
176
     1
290
     1
176
     1
290
     1
176
     1
290
     0
176
     1
290
     0
176
     1
290
     0
176
     1
290
     0
176
     1
290
     0
176
     1
290
     0
176
     1
 90
       50
176
     1
 40
0.0
176
     1
 40
1.0
176
     1
 90
        0
176
     1
 62
    18
420
        0
176
     1
 90
       50
176
     1
 90
        3
176
     1
 62
     5
420
      255
176
     1
290
     0
176
     1
 90
       50
176
     1
 90
       50
176
     1
 90
       50
176
     1
290
     0
176
     1
 90
       50
176
     1
 62
   256
176
     0
 40
1.0
176
     0
 90
        2
176
     1
  1
strokes_ogs.tif
176
     1
290
     0
176
     1
 40
1.0
176
     1
 40
1.0
176
     1
  0
VISUALSTYLE
  5
42
102
{ACAD_REACTORS
330
2A
102
}
330
2A
100
AcDbVisualStyle
  2
Shaded
 70
    27
177
     3
291
     0
 70
    58
 90
        2
176
     1
 90
        2
176
     1
 90
        1
176
     1
 90
        2
176
     1
 40
0.6
176
     1
 40
30.0
176
     1
 62
     7
420
 16777215
176
     1
 90
        0
176
     1
 90
        4
176
     1
 62
     7
176
     1
 62
   257
176
     1
 90
        1
176
     1
 90
        1
176
     1
 40
1.0
176
     1
 90
        8
176
     1
 62
   257
176
     1
 40
1.0
176
     1
 90
        1
176
     1
 90
        6
176
     1
 90
        2
176
     1
 62
     8
420
  7895160
176
     1
 90
        3
176
     1
 90
        0
176
     1
 90
        0
176
     1
290
     0
176
     1
 90
        5
176
     1
 40
0.0
176
     1
 90
        0
176
     1
290
     0
176
     1
290
     1
176
     1
290
     1
176
     1
290
     0
176
     1
290
     0
176
     1
290
     0
176
     1
290
     0
176
     1
290
     0
176
     1
290
     0
176
     1
 90
       50
176
     1
 40
0.0
176
     1
 40
1.0
176
     1
 90
        0
176
     1
 62
    18
420
        0
176
     1
 90
       50
176
     1
 90
        3
176
     1
 62
     5
420
      255
176
     1
290
     0
176
     1
 90
       50
176
     1
 90
       50
176
     1
 90
       50
176
     1
290
     0
176
     1
 90
       50
176
     1
 62
   256
176
     0
 40
1.0
176
     0
 90
        2
176
     1
  1
strokes_ogs.tif
176
     1
290
     0
176
     1
 40
1.0
176
     1
 40
1.0
176
     1
  0
VISUALSTYLE
  5
41
102
{ACAD_REACTORS
330
2A
102
}
330
2A
100
AcDbVisualStyle
  2
Shaded with edges
 70
    26
177
     3
291
     0
 70
    58
 90
        2
176
     1
 90
        2
176
     1
 90
        1
176
     1
 90
        2
176
     1
 40
0.6
176
     1
 40
30.0
176
     1
 62
     7
420
 16777215
176
     1
 90
        1
176
     1
 90
       10
176
     1
 62
     7
176
     1
 62
   257
176
     1
 90
        2
176
     1
 90
        1
176
     1
 40
1.0
176
     1
 90
        8
176
     1
 62
   257
176
     1
 40
1.0
176
     1
 90
        1
176
     1
 90
        6
176
     1
 90
        2
176
     1
 62
     7
176
     1
 90
        3
176
     1
 90
        0
176
     1
 90
        0
176
     1
290
     0
176
     1
 90
        5
176
     1
 40
0.0
176
     1
 90
        0
176
     1
290
     0
176
     1
290
     1
176
     1
290
     1
176
     1
290
     0
176
     1
290
     0
176
     1
290
     0
176
     1
290
     0
176
     1
290
     0
176
     1
290
     0
176
     1
 90
       50
176
     1
 40
0.0
176
     1
 40
1.0
176
     1
 90
        0
176
     1
 62
    18
420
        0
176
     1
 90
       50
176
     1
 90
        3
176
     1
 62
     5
420
      255
176
     1
290
     0
176
     1
 90
       50
176
     1
 90
       50
176
     1
 90
       50
176
     1
290
     0
176
     1
 90
       50
176
     1
 62
   256
176
     0
 40
1.0
176
     0
 90
        2
176
     1
  1
strokes_ogs.tif
176
     1
290
     0
176
     1
 40
1.0
176
     1
 40
1.0
176
     1
  0
VISUALSTYLE
  5
3E
102
{ACAD_REACTORS
330
2A
102
}
330
2A
100
AcDbVisualStyle
  2
Shades of Gray
 70
    23
177
     3
291
     0
 70
    58
 90
        2
176
     1
 90
        2
176
     1
 90
        3
176
     1
 90
        0
176
     1
 40
0.6
176
     1
 40
30.0
176
     1
 62
     7
420
 16777215
176
     1
 90
        2
176
     1
 90
        2
176
     1
 62
     7
176
     1
 62
     7
176
     1
 90
        1
176
     1
 90
        1
176
     1
 40
40.0
176
     1
 90
        8
176
     1
 62
     7
176
     1
 40
1.0
176
     1
 90
        1
176
     1
 90
        6
176
     1
 90
        2
176
     1
 62
     7
176
     1
 90
        3
176
     1
 90
        0
176
     1
 90
        0
176
     1
290
     0
176
     1
 90
        1
176
     1
 40
0.0
176
     1
 90
        0
176
     1
290
     0
176
     1
290
     1
176
     1
290
     1
176
     1
290
     0
176
     1
290
     0
176
     1
290
     0
176
     1
290
     0
176
     1
290
     0
176
     1
290
     0
176
     1
 90
       50
176
     1
 40
0.0
176
     1
 40
1.0
176
     1
 90
        0
176
     1
 62
    18
420
        0
176
     1
 90
       50
176
     1
 90
        3
176
     1
 62
     5
420
      255
176
     1
290
     0
176
     1
 90
       50
176
     1
 90
       50
176
     1
 90
       50
176
     1
290
     0
176
     1
 90
       50
176
     1
 62
   256
176
     0
 40
1.0
176
     0
 90
        2
176
     1
  1
strokes_ogs.tif
176
     1
290
     0
176
     1
 40
1.0
176
     1
 40
1.0
176
     1
  0
VISUALSTYLE
  5
3F
102
{ACAD_REACTORS
330
2A
102
}
330
2A
100
AcDbVisualStyle
  2
Sketchy
 70
    24
177
     3
291
     0
 70
    58
 90
        1
176
     1
 90
        2
176
     1
 90
        2
176
     1
 90
        0
176
     1
 40
0.6
176
     1
 40
30.0
176
     1
 62
     7
420
 16777215
176
     1
 90
        2
176
     1
 90
        2
176
     1
 62
     7
176
     1
 62
     7
176
     1
 90
        1
176
     1
 90
        1
176
     1
 40
40.0
176
     1
 90
       11
176
     1
 62
     7
176
     1
 40
1.0
176
     1
 90
        1
176
     1
 90
        6
176
     1
 90
        2
176
     1
 62
     7
176
     1
 90
        6
176
     1
 90
        0
176
     1
 90
        0
176
     1
290
     0
176
     1
 90
        1
176
     1
 40
0.0
176
     1
 90
        0
176
     1
290
     0
176
     1
290
     1
176
     1
290
     1
176
     1
290
     0
176
     1
290
     0
176
     1
290
     0
176
     1
290
     0
176
     1
290
     0
176
     1
290
     0
176
     1
 90
       50
176
     1
 40
0.0
176
     1
 40
1.0
176
     1
 90
        0
176
     1
 62
    18
420
        0
176
     1
 90
       50
176
     1
 90
        3
176
     1
 62
     5
420
      255
176
     1
290
     0
176
     1
 90
       50
176
     1
 90
       50
176
     1
 90
       50
176
     1
290
     0
176
     1
 90
       50
176
     1
 62
   256
176
     0
 40
1.0
176
     0
 90
        2
176
     1
  1
strokes_ogs.tif
176
     1
290
     0
176
     1
 40
1.0
176
     1
 40
1.0
176
     1
  0
VISUALSTYLE
  5
37
102
{ACAD_REACTORS
330
2A
102
}
330
2A
100
AcDbVisualStyle
  2
Thicken
 70
    13
177
     3
291
     1
 70
    58
 90
        2
176
     1
 90
        2
176
     1
 90
        0
176
     1
 90
        0
176
     1
 40
0.6
176
     1
 40
30.0
176
     1
 62
     7
420
 16777215
176
     1
 90
        1
176
     1
 90
        4
176
     1
 62
     7
176
     1
 62
   257
176
     1
 90
        1
176
     1
 90
        1
176
     1
 40
1.0
176
     1
 90
       12
176
     1
 62
     7
176
     1
 40
1.0
176
     1
 90
        1
176
     1
 90
        6
176
     1
 90
        2
176
     1
 62
     7
176
     1
 90
        5
176
     1
 90
        0
176
     1
 90
        0
176
     1
290
     0
176
     1
 90
        1
176
     1
 40
0.0
176
     1
 90
        0
176
     1
290
     0
176
     1
290
     1
176
     1
290
     1
176
     1
290
     0
176
     1
290
     0
176
     1
290
     0
176
     1
290
     0
176
     1
290
     0
176
     1
290
     0
176
     1
 90
       50
176
     1
 40
0.0
176
     1
 40
1.0
176
     1
 90
        0
176
     1
 62
    18
420
        0
176
     1
 90
       50
176
     1
 90
        3
176
     1
 62
     5
420
      255
176
     1
290
     0
176
     1
 90
       50
176
     1
 90
       50
176
     1
 90
       50
176
     1
290
     0
176
     1
 90
       50
176
     1
 62
   256
176
     0
 40
1.0
176
     0
 90
        2
176
     1
  1
strokes_ogs.tif
176
     1
290
     0
176
     1
 40
1.0
176
     1
 40
1.0
176
     1
  0
VISUALSTYLE
  5
30
102
{ACAD_REACTORS
330
2A
102
}
330
2A
100
AcDbVisualStyle
  2
Wireframe
 70
     5
177
     3
291
     0
 70
    58
 90
        0
176
     1
 90
        2
176
     1
 90
        0
176
     1
 90
        0
176
     1
 40
0.6
176
     1
 40
30.0
176
     1
 62
     7
420
 16777215
176
     1
 90
        1
176
     1
 90
        4
176
     1
 62
     7
176
     1
 62
   257
176
     1
 90
        1
176
     1
 90
        1
176
     1
 40
1.0
176
     1
 90
        0
176
     1
 62
   257
176
     1
 40
1.0
176
     1
 90
        1
176
     1
 90
        6
176
     1
 90
        2
176
     1
 62
     7
176
     1
 90
        3
176
     1
 90
        0
176
     1
 90
        0
176
     1
290
     0
176
     1
 90
        1
176
     1
 40
0.0
176
     1
 90
        0
176
     1
290
     0
176
     1
290
     1
176
     1
290
     1
176
     1
290
     0
176
     1
290
     0
176
     1
290
     0
176
     1
290
     0
176
     1
290
     0
176
     1
290
     0
176
     1
 90
       50
176
     1
 40
0.0
176
     1
 40
1.0
176
     1
 90
        0
176
     1
 62
    18
420
        0
176
     1
 90
       50
176
     1
 90
        3
176
     1
 62
     5
420
      255
176
     1
290
     0
176
     1
 90
       50
176
     1
 90
       50
176
     1
 90
       50
176
     1
290
     0
176
     1
 90
       50
176
     1
 62
   256
176
     0
 40
1.0
176
     0
 90
        2
176
     1
  1
strokes_ogs.tif
176
     1
290
     0
176
     1
 40
1.0
176
     1
 40
1.0
176
     1
  0
VISUALSTYLE
  5
40
102
{ACAD_REACTORS
330
2A
102
}
330
2A
100
AcDbVisualStyle
  2
X-Ray
 70
    25
177
     3
291
     0
 70
    58
 90
        2
176
     1
 90
        2
176
     1
 90
        1
176
     1
 90
        1
176
     1
 40
0.5
176
     1
 40
30.0
176
     1
 62
     7
420
 16777215
176
     1
 90
        1
176
     1
 90
        0
176
     1
 62
     7
176
     1
 62
   257
176
     1
 90
        1
176
     1
 90
        1
176
     1
 40
1.0
176
     1
 90
        8
176
     1
 62
     7
176
     1
 40
1.0
176
     1
 90
        1
176
     1
 90
        6
176
     1
 90
        2
176
     1
 62
     7
176
     1
 90
        3
176
     1
 90
        0
176
     1
 90
        0
176
     1
290
     0
176
     1
 90
       13
176
     1
 40
0.0
176
     1
 90
        0
176
     1
290
     0
176
     1
290
     1
176
     1
290
     1
176
     1
290
     0
176
     1
290
     0
176
     1
290
     0
176
     1
290
     0
176
     1
290
     0
176
     1
290
     0
176
     1
 90
       50
176
     1
 40
0.0
176
     1
 40
1.0
176
     1
 90
        0
176
     1
 62
    18
420
        0
176
     1
 90
       50
176
     1
 90
        3
176
     1
 62
     5
420
      255
176
     1
290
     0
176
     1
 90
       50
176
     1
 90
       50
176
     1
 90
       50
176
     1
290
     0
176
     1
 90
       50
176
     1
 62
   256
176
     0
 40
1.0
176
     0
 90
        2
176
     1
  1
strokes_ogs.tif
176
     1
290
     0
176
     1
 40
1.0
176
     1
 40
1.0
176
     1
  0
DICTIONARYVAR
  5
24E
102
{ACAD_REACTORS
330
24D
102
}
330
24D
100
DictionaryVariables
280
     0
  1
1:1
  0
DICTIONARYVAR
  5
253
102
{ACAD_REACTORS
330
24D
102
}
330
24D
100
DictionaryVariables
280
     0
  1
Standard
  0
DICTIONARYVAR
  5
252
102
{ACAD_REACTORS
330
24D
102
}
330
24D
100
DictionaryVariables
280
     0
  1
Standard
  0
DICTIONARY
  5
24F
330
6A
100
AcDbDictionary
280
     1
281
     1
  3
ACAD_ROUNDTRIP_2008_TABLESTYLE_CELLSTYLEMAP
360
250
  0
CELLSTYLEMAP
  5
250
102
{ACAD_REACTORS
330
24F
102
}
330
24F
100
AcDbCellStyleMap
 90
        3
300
CELLSTYLE
  1
TABLEFORMAT_BEGIN
 90
        5
170
     1
 91
        0
 92
    32768
 62
   257
 93
        1
300
CONTENTFORMAT
  1
CONTENTFORMAT_BEGIN
 90
        0
 91
        0
 92
        4
 93
        0
300

 40
0.0
140
1.0
 94
        5
 62
     0
340
11
144
0.25
309
CONTENTFORMAT_END
171
     1
301
MARGIN
  1
CELLMARGIN_BEGIN
 40
0.06
 40
0.06
 40
0.06
 40
0.06
 40
0.06
 40
0.06
309
CELLMARGIN_END
 94
        6
 95
        1
302
GRIDFORMAT
  1
GRIDFORMAT_BEGIN
 90
        0
 91
        1
 62
     0
 92
       -2
340
14
 93
        0
 40
0.045
309
GRIDFORMAT_END
 95
        2
302
GRIDFORMAT
  1
GRIDFORMAT_BEGIN
 90
        0
 91
        1
 62
     0
 92
       -2
340
14
 93
        0
 40
0.045
309
GRIDFORMAT_END
 95
        4
302
GRIDFORMAT
  1
GRIDFORMAT_BEGIN
 90
        0
 91
        1
 62
     0
 92
       -2
340
14
 93
        0
 40
0.045
309
GRIDFORMAT_END
 95
        8
302
GRIDFORMAT
  1
GRIDFORMAT_BEGIN
 90
        0
 91
        1
 62
     0
 92
       -2
340
14
 93
        0
 40
0.045
309
GRIDFORMAT_END
 95
       16
302
GRIDFORMAT
  1
GRIDFORMAT_BEGIN
 90
        0
 91
        1
 62
     0
 92
       -2
340
14
 93
        0
 40
0.045
309
GRIDFORMAT_END
 95
       32
302
GRIDFORMAT
  1
GRIDFORMAT_BEGIN
 90
        0
 91
        1
 62
     0
 92
       -2
340
14
 93
        0
 40
0.045
309
GRIDFORMAT_END
309
TABLEFORMAT_END
  1
CELLSTYLE_BEGIN
 90
        1
 91
        1
300
_TITLE
309
CELLSTYLE_END
300
CELLSTYLE
  1
TABLEFORMAT_BEGIN
 90
        5
170
     1
 91
        0
 92
        0
 62
   257
 93
        1
300
CONTENTFORMAT
  1
CONTENTFORMAT_BEGIN
 90
        0
 91
        0
 92
        4
 93
        0
300

 40
0.0
140
1.0
 94
        5
 62
     0
340
11
144
0.18
309
CONTENTFORMAT_END
171
     1
301
MARGIN
  1
CELLMARGIN_BEGIN
 40
0.06
 40
0.06
 40
0.06
 40
0.06
 40
0.06
 40
0.06
309
CELLMARGIN_END
 94
        6
 95
        1
302
GRIDFORMAT
  1
GRIDFORMAT_BEGIN
 90
        0
 91
        1
 62
     0
 92
       -2
340
14
 93
        0
 40
0.045
309
GRIDFORMAT_END
 95
        2
302
GRIDFORMAT
  1
GRIDFORMAT_BEGIN
 90
        0
 91
        1
 62
     0
 92
       -2
340
14
 93
        0
 40
0.045
309
GRIDFORMAT_END
 95
        4
302
GRIDFORMAT
  1
GRIDFORMAT_BEGIN
 90
        0
 91
        1
 62
     0
 92
       -2
340
14
 93
        0
 40
0.045
309
GRIDFORMAT_END
 95
        8
302
GRIDFORMAT
  1
GRIDFORMAT_BEGIN
 90
        0
 91
        1
 62
     0
 92
       -2
340
14
 93
        0
 40
0.045
309
GRIDFORMAT_END
 95
       16
302
GRIDFORMAT
  1
GRIDFORMAT_BEGIN
 90
        0
 91
        1
 62
     0
 92
       -2
340
14
 93
        0
 40
0.045
309
GRIDFORMAT_END
 95
       32
302
GRIDFORMAT
  1
GRIDFORMAT_BEGIN
 90
        0
 91
        1
 62
     0
 92
       -2
340
14
 93
        0
 40
0.045
309
GRIDFORMAT_END
309
TABLEFORMAT_END
  1
CELLSTYLE_BEGIN
 90
        2
 91
        1
300
_HEADER
309
CELLSTYLE_END
300
CELLSTYLE
  1
TABLEFORMAT_BEGIN
 90
        5
170
     1
 91
        0
 92
        0
 62
   257
 93
        1
300
CONTENTFORMAT
  1
CONTENTFORMAT_BEGIN
 90
        0
 91
        0
 92
        4
 93
        0
300

 40
0.0
140
1.0
 94
        2
 62
     0
340
11
144
0.18
309
CONTENTFORMAT_END
171
     1
301
MARGIN
  1
CELLMARGIN_BEGIN
 40
0.06
 40
0.06
 40
0.06
 40
0.06
 40
0.06
 40
0.06
309
CELLMARGIN_END
 94
        6
 95
        1
302
GRIDFORMAT
  1
GRIDFORMAT_BEGIN
 90
        0
 91
        1
 62
     0
 92
       -2
340
14
 93
        0
 40
0.045
309
GRIDFORMAT_END
 95
        2
302
GRIDFORMAT
  1
GRIDFORMAT_BEGIN
 90
        0
 91
        1
 62
     0
 92
       -2
340
14
 93
        0
 40
0.045
309
GRIDFORMAT_END
 95
        4
302
GRIDFORMAT
  1
GRIDFORMAT_BEGIN
 90
        0
 91
        1
 62
     0
 92
       -2
340
14
 93
        0
 40
0.045
309
GRIDFORMAT_END
 95
        8
302
GRIDFORMAT
  1
GRIDFORMAT_BEGIN
 90
        0
 91
        1
 62
     0
 92
       -2
340
14
 93
        0
 40
0.045
309
GRIDFORMAT_END
 95
       16
302
GRIDFORMAT
  1
GRIDFORMAT_BEGIN
 90
        0
 91
        1
 62
     0
 92
       -2
340
14
 93
        0
 40
0.045
309
GRIDFORMAT_END
 95
       32
302
GRIDFORMAT
  1
GRIDFORMAT_BEGIN
 90
        0
 91
        1
 62
     0
 92
       -2
340
14
 93
        0
 40
0.045
309
GRIDFORMAT_END
309
TABLEFORMAT_END
  1
CELLSTYLE_BEGIN
 90
        3
 91
        2
300
_DATA
309
CELLSTYLE_END
  0
ENDSEC
  0
EOF