0
SECTION
  2
HEADER
  9
$ACADVER
  1
AC1027
  9
$ACADMAINTVER
 70
     8
  9
$DWGCODEPAGE
  3
ANSI_1252
  9
$REQUIREDVERSIONS
160
                 0
  9
$COMMENTS
  1
File was created by Cadenas
  9
$CUSTOMPROPERTYTAG
  1
NN
  9
$CUSTOMPROPERTY
  1
Imperial -IP Pillow Block 2-1/8 thru 3-1/2  4-Bolt Inch Bore (Labyrinth Seal)
  9
$CUSTOMPROPERTYTAG
  1
NT
  9
$CUSTOMPROPERTY
  1
Imperial 4 Bolt Piliow Block Bearings
  9
$CUSTOMPROPERTYTAG
  1
NB
  9
$CUSTOMPROPERTY
  1
069564
  9
$CUSTOMPROPERTYTAG
  1
NBSYN
  9
$CUSTOMPROPERTY
  1
$PN.
  9
$CUSTOMPROPERTYTAG
  1
LINA
  9
$CUSTOMPROPERTY
  1
069564
  9
$CUSTOMPROPERTYTAG
  1
SS
  9
$CUSTOMPROPERTY
  1
3-1/4
  9
$CUSTOMPROPERTYTAG
  1
PN
  9
$CUSTOMPROPERTY
  1
069564
  9
$CUSTOMPROPERTYTAG
  1
DESCRIPTION
  9
$CUSTOMPROPERTY
  1
P4B-IP-304L
  9
$CUSTOMPROPERTYTAG
  1
EF
  9
$CUSTOMPROPERTY
  1
Non-Expansion Type
  9
$CUSTOMPROPERTYTAG
  1
ST
  9
$CUSTOMPROPERTY
  1
Labyrinth  Seal
  9
$CUSTOMPROPERTYTAG
  1
A
  9
$CUSTOMPROPERTY
  1
4-11/64
  9
$CUSTOMPROPERTYTAG
  1
B
  9
$CUSTOMPROPERTY
  1
13
  9
$CUSTOMPROPERTYTAG
  1
C
  9
$CUSTOMPROPERTY
  1
4-1/8
  9
$CUSTOMPROPERTYTAG
  1
DMIN
  9
$CUSTOMPROPERTY
  1
9-3/8
  9
$CUSTOMPROPERTYTAG
  1
DMAX
  9
$CUSTOMPROPERTY
  1
10-5/8
  9
$CUSTOMPROPERTYTAG
  1
E
  9
$CUSTOMPROPERTY
  1
2
  9
$CUSTOMPROPERTYTAG
  1
F
  9
$CUSTOMPROPERTY
  1
3/4
  9
$CUSTOMPROPERTYTAG
  1
G
  9
$CUSTOMPROPERTY
  1
1-1/2
  9
$CUSTOMPROPERTYTAG
  1
H
  9
$CUSTOMPROPERTY
  1
2-1/4
  9
$CUSTOMPROPERTYTAG
  1
J
  9
$CUSTOMPROPERTY
  1
7-9/16
  9
$CUSTOMPROPERTYTAG
  1
L
  9
$CUSTOMPROPERTY
  1
5
  9
$CUSTOMPROPERTYTAG
  1
M
  9
$CUSTOMPROPERTY
  1
3-3/4
  9
$CUSTOMPROPERTYTAG
  1
R
  9
$CUSTOMPROPERTY
  1
1-7/16
  9
$CUSTOMPROPERTYTAG
  1
S
  9
$CUSTOMPROPERTY
  1
2-47/64
  9
$CUSTOMPROPERTYTAG
  1
X
  9
$CUSTOMPROPERTY
  1
1/4
  9
$CUSTOMPROPERTYTAG
  1
Y
  9
$CUSTOMPROPERTY
  1
0.025
  9
$CUSTOMPROPERTYTAG
  1
Z
  9
$CUSTOMPROPERTY
  1
4-3/64
  9
$CUSTOMPROPERTYTAG
  1
COMPANY
  9
$CUSTOMPROPERTY
  1
baldor
  9
$INSBASE
 10
0.0
 20
0.0
 30
0.0
  9
$EXTMIN
 10
1.000000000000000E+20
 20
1.000000000000000E+20
 30
1.000000000000000E+20
  9
$EXTMAX
 10
-1.000000000000000E+20
 20
-1.000000000000000E+20
 30
-1.000000000000000E+20
  9
$LIMMIN
 10
0.0
 20
0.0
  9
$LIMMAX
 10
12.0
 20
9.0
  9
$ORTHOMODE
 70
     0
  9
$REGENMODE
 70
     1
  9
$FILLMODE
 70
     1
  9
$QTEXTMODE
 70
     0
  9
$MIRRTEXT
 70
     1
  9
$LTSCALE
 40
1.0
  9
$ATTMODE
 70
     1
  9
$TEXTSIZE
 40
0.2
  9
$TRACEWID
 40
0.05
  9
$TEXTSTYLE
  7
Standard
  9
$CLAYER
  8
0
  9
$CELTYPE
  6
ByLayer
  9
$CECOLOR
 62
   256
  9
$CELTSCALE
 40
1.0
  9
$DISPSILH
 70
     0
  9
$DIMSCALE
 40
1.0
  9
$DIMASZ
 40
0.18
  9
$DIMEXO
 40
0.0625
  9
$DIMDLI
 40
0.38
  9
$DIMRND
 40
0.0
  9
$DIMDLE
 40
0.0
  9
$DIMEXE
 40
0.18
  9
$DIMTP
 40
0.0
  9
$DIMTM
 40
0.0
  9
$DIMTXT
 40
0.18
  9
$DIMCEN
 40
0.09
  9
$DIMTSZ
 40
0.0
  9
$DIMTOL
 70
     0
  9
$DIMLIM
 70
     0
  9
$DIMTIH
 70
     1
  9
$DIMTOH
 70
     1
  9
$DIMSE1
 70
     0
  9
$DIMSE2
 70
     0
  9
$DIMTAD
 70
     0
  9
$DIMZIN
 70
     0
  9
$DIMBLK
  1

  9
$DIMASO
 70
     1
  9
$DIMSHO
 70
     1
  9
$DIMPOST
  1

  9
$DIMAPOST
  1

  9
$DIMALT
 70
     0
  9
$DIMALTD
 70
     2
  9
$DIMALTF
 40
25.4
  9
$DIMLFAC
 40
1.0
  9
$DIMTOFL
 70
     0
  9
$DIMTVP
 40
0.0
  9
$DIMTIX
 70
     0
  9
$DIMSOXD
 70
     0
  9
$DIMSAH
 70
     0
  9
$DIMBLK1
  1

  9
$DIMBLK2
  1

  9
$DIMSTYLE
  2
Standard
  9
$DIMCLRD
 70
     0
  9
$DIMCLRE
 70
     0
  9
$DIMCLRT
 70
     0
  9
$DIMTFAC
 40
1.0
  9
$DIMGAP
 40
0.09
  9
$DIMJUST
 70
     0
  9
$DIMSD1
 70
     0
  9
$DIMSD2
 70
     0
  9
$DIMTOLJ
 70
     1
  9
$DIMTZIN
 70
     0
  9
$DIMALTZ
 70
     0
  9
$DIMALTTZ
 70
     0
  9
$DIMUPT
 70
     0
  9
$DIMDEC
 70
     4
  9
$DIMTDEC
 70
     4
  9
$DIMALTU
 70
     2
  9
$DIMALTTD
 70
     2
  9
$DIMTXSTY
  7
Standard
  9
$DIMAUNIT
 70
     0
  9
$DIMADEC
 70
     0
  9
$DIMALTRND
 40
0.0
  9
$DIMAZIN
 70
     0
  9
$DIMDSEP
 70
    46
  9
$DIMATFIT
 70
     3
  9
$DIMFRAC
 70
     0
  9
$DIMLDRBLK
  1

  9
$DIMLUNIT
 70
     2
  9
$DIMLWD
 70
    -2
  9
$DIMLWE
 70
    -2
  9
$DIMTMOVE
 70
     0
  9
$DIMFXL
 40
1.0
  9
$DIMFXLON
 70
     0
  9
$DIMJOGANG
 40
0.7853981633974483
  9
$DIMTFILL
 70
     0
  9
$DIMTFILLCLR
 70
     0
  9
$DIMARCSYM
 70
     0
  9
$DIMLTYPE
  6

  9
$DIMLTEX1
  6

  9
$DIMLTEX2
  6

  9
$DIMTXTDIRECTION
 70
     0
  9
$LUNITS
 70
     2
  9
$LUPREC
 70
     4
  9
$SKETCHINC
 40
0.1
  9
$FILLETRAD
 40
0.5
  9
$AUNITS
 70
     0
  9
$AUPREC
 70
     0
  9
$MENU
  1
.
  9
$ELEVATION
 40
0.0
  9
$PELEVATION
 40
0.0
  9
$THICKNESS
 40
0.0
  9
$LIMCHECK
 70
     0
  9
$CHAMFERA
 40
0.0
  9
$CHAMFERB
 40
0.0
  9
$CHAMFERC
 40
0.0
  9
$CHAMFERD
 40
0.0
  9
$SKPOLY
 70
     0
  9
$TDCREATE
 40
2458168.987726007
  9
$TDUCREATE
 40
2458168.94605934
  9
$TDUPDATE
 40
2458168.987726192
  9
$TDUUPDATE
 40
2458168.946059525
  9
$TDINDWG
 40
0.0000000116
  9
$TDUSRTIMER
 40
0.0000000116
  9
$USRTIMER
 70
     1
  9
$ANGBASE
 50
0.0
  9
$ANGDIR
 70
     0
  9
$PDMODE
 70
     0
  9
$PDSIZE
 40
0.0
  9
$PLINEWID
 40
0.0
  9
$SPLFRAME
 70
     0
  9
$SPLINETYPE
 70
     6
  9
$SPLINESEGS
 70
     8
  9
$HANDSEED
  5
25D
  9
$SURFTAB1
 70
     6
  9
$SURFTAB2
 70
     6
  9
$SURFTYPE
 70
     6
  9
$SURFU
 70
     6
  9
$SURFV
 70
     6
  9
$UCSBASE
  2

  9
$UCSNAME
  2

  9
$UCSORG
 10
0.0
 20
0.0
 30
0.0
  9
$UCSXDIR
 10
1.0
 20
0.0
 30
0.0
  9
$UCSYDIR
 10
0.0
 20
1.0
 30
0.0
  9
$UCSORTHOREF
  2

  9
$UCSORTHOVIEW
 70
     0
  9
$UCSORGTOP
 10
0.0
 20
0.0
 30
0.0
  9
$UCSORGBOTTOM
 10
0.0
 20
0.0
 30
0.0
  9
$UCSORGLEFT
 10
0.0
 20
0.0
 30
0.0
  9
$UCSORGRIGHT
 10
0.0
 20
0.0
 30
0.0
  9
$UCSORGFRONT
 10
0.0
 20
0.0
 30
0.0
  9
$UCSORGBACK
 10
0.0
 20
0.0
 30
0.0
  9
$PUCSBASE
  2

  9
$PUCSNAME
  2

  9
$PUCSORG
 10
0.0
 20
0.0
 30
0.0
  9
$PUCSXDIR
 10
1.0
 20
0.0
 30
0.0
  9
$PUCSYDIR
 10
0.0
 20
1.0
 30
0.0
  9
$PUCSORTHOREF
  2

  9
$PUCSORTHOVIEW
 70
     0
  9
$PUCSORGTOP
 10
0.0
 20
0.0
 30
0.0
  9
$PUCSORGBOTTOM
 10
0.0
 20
0.0
 30
0.0
  9
$PUCSORGLEFT
 10
0.0
 20
0.0
 30
0.0
  9
$PUCSORGRIGHT
 10
0.0
 20
0.0
 30
0.0
  9
$PUCSORGFRONT
 10
0.0
 20
0.0
 30
0.0
  9
$PUCSORGBACK
 10
0.0
 20
0.0
 30
0.0
  9
$USERI1
 70
     0
  9
$USERI2
 70
     0
  9
$USERI3
 70
     0
  9
$USERI4
 70
     0
  9
$USERI5
 70
     0
  9
$USERR1
 40
0.0
  9
$USERR2
 40
0.0
  9
$USERR3
 40
0.0
  9
$USERR4
 40
0.0
  9
$USERR5
 40
0.0
  9
$WORLDVIEW
 70
     1
  9
$SHADEDGE
 70
     3
  9
$SHADEDIF
 70
    70
  9
$TILEMODE
 70
     1
  9
$MAXACTVP
 70
    64
  9
$PINSBASE
 10
0.0
 20
0.0
 30
0.0
  9
$PLIMCHECK
 70
     0
  9
$PEXTMIN
 10
1.000000000000000E+20
 20
1.000000000000000E+20
 30
1.000000000000000E+20
  9
$PEXTMAX
 10
-1.000000000000000E+20
 20
-1.000000000000000E+20
 30
-1.000000000000000E+20
  9
$PLIMMIN
 10
0.0
 20
0.0
  9
$PLIMMAX
 10
12.0
 20
9.0
  9
$UNITMODE
 70
     0
  9
$VISRETAIN
 70
     1
  9
$PLINEGEN
 70
     0
  9
$PSLTSCALE
 70
     1
  9
$TREEDEPTH
 70
  3020
  9
$CMLSTYLE
  2
Standard
  9
$CMLJUST
 70
     0
  9
$CMLSCALE
 40
1.0
  9
$PROXYGRAPHICS
 70
     1
  9
$MEASUREMENT
 70
     0
  9
$CELWEIGHT
370
    -1
  9
$ENDCAPS
280
     0
  9
$JOINSTYLE
280
     0
  9
$LWDISPLAY
290
     0
  9
$INSUNITS
 70
     1
  9
$HYPERLINKBASE
  1

  9
$STYLESHEET
  1

  9
$XEDIT
290
     1
  9
$CEPSNTYPE
380
     0
  9
$PSTYLEMODE
290
     1
  9
$FINGERPRINTGUID
  2
{B9EC5F4E-8746-4B6C-BC09-ADE5D27CE392}
  9
$VERSIONGUID
  2
{FAEB1C32-E019-11D5-929B-00C0DF256EC4}
  9
$EXTNAMES
290
     1
  9
$PSVPSCALE
 40
0.0
  9
$OLESTARTUP
290
     0
  9
$SORTENTS
280
   127
  9
$INDEXCTL
280
     0
  9
$HIDETEXT
280
     1
  9
$XCLIPFRAME
280
     2
  9
$HALOGAP
280
     0
  9
$OBSCOLOR
 70
   257
  9
$OBSLTYPE
280
     0
  9
$INTERSECTIONDISPLAY
280
     0
  9
$INTERSECTIONCOLOR
 70
   257
  9
$DIMASSOC
280
     2
  9
$PROJECTNAME
  1

  9
$CAMERADISPLAY
290
     0
  9
$LENSLENGTH
 40
50.0
  9
$CAMERAHEIGHT
 40
0.0
  9
$STEPSPERSEC
 40
2.0
  9
$STEPSIZE
 40
6.0
  9
$3DDWFPREC
 40
2.0
  9
$PSOLWIDTH
 40
0.25
  9
$PSOLHEIGHT
 40
4.0
  9
$LOFTANG1
 40
1.570796326794897
  9
$LOFTANG2
 40
1.570796326794897
  9
$LOFTMAG1
 40
0.0
  9
$LOFTMAG2
 40
0.0
  9
$LOFTPARAM
 70
     7
  9
$LOFTNORMALS
280
     1
  9
$LATITUDE
 40
37.795
  9
$LONGITUDE
 40
-122.394
  9
$NORTHDIRECTION
 40
0.0
  9
$TIMEZONE
 70
 -8000
  9
$LIGHTGLYPHDISPLAY
280
     1
  9
$TILEMODELIGHTSYNCH
280
     1
  9
$CMATERIAL
347
44
  9
$SOLIDHIST
280
     0
  9
$SHOWHIST
280
     1
  9
$DWFFRAME
280
     2
  9
$DGNFRAME
280
     2
  9
$REALWORLDSCALE
290
     1
  9
$INTERFERECOLOR
 62
   256
  9
$CSHADOW
280
     0
  9
$SHADOWPLANELOCATION
 40
0.0
  0
ENDSEC
  0
SECTION
  2
CLASSES
  0
CLASS
  1
ACDBDICTIONARYWDFLT
  2
AcDbDictionaryWithDefault
  3
ObjectDBX Classes
 90
        0
 91
        4
280
     0
281
     0
  0
CLASS
  1
VISUALSTYLE
  2
AcDbVisualStyle
  3
ObjectDBX Classes
 90
     4095
 91
        4
280
     0
281
     0
  0
CLASS
  1
MATERIAL
  2
AcDbMaterial
  3
ObjectDBX Classes
 90
     1153
 91
        4
280
     0
281
     0
  0
CLASS
  1
SCALE
  2
AcDbScale
  3
ObjectDBX Classes
 90
     1153
 91
        4
280
     0
281
     0
  0
CLASS
  1
TABLESTYLE
  2
AcDbTableStyle
  3
ObjectDBX Classes
 90
     4095
 91
        4
280
     0
281
     0
  0
CLASS
  1
MLEADERSTYLE
  2
AcDbMLeaderStyle
  3
ACDB_MLEADERSTYLE_CLASS
 90
     4095
 91
        4
280
     0
281
     0
  0
CLASS
  1
SUN
  2
AcDbSun
  3
SCENEOE
 90
     1153
 91
        4
280
     0
281
     0
  0
CLASS
  1
DICTIONARYVAR
  2
AcDbDictionaryVar
  3
ObjectDBX Classes
 90
        0
 91
        4
280
     0
281
     0
  0
CLASS
  1
CELLSTYLEMAP
  2
AcDbCellStyleMap
  3
ObjectDBX Classes
 90
     1152
 91
        4
280
     0
281
     0
  0
ENDSEC
  0
SECTION
  2
TABLES
  0
TABLE
  2
VPORT
  5
8
330
0
100
AcDbSymbolTable
 70
     1
  0
VPORT
  5
29
330
8
100
AcDbSymbolTableRecord
100
AcDbViewportTableRecord
  2
*Active
 70
     0
 10
0.0
 20
0.0
 11
1.0
 21
1.0
 12
0.0
 22
-0.3377343749999993
 13
0.0
 23
0.0
 14
0.5
 24
0.5
 15
0.5
 25
0.5
 16
0.0
 26
0.0
 36
1.0
 17
0.0
 27
0.0
 37
0.0
 40
5.317228124999998
 41
2.493780535323563
 42
50.0
 43
0.0
 44
0.0
 50
0.0
 51
0.0
 71
     0
 72
   100
 73
     1
 74
     3
 75
     0
 76
     0
 77
     0
 78
     0
281
     0
 65
     1
110
0.0
120
0.0
130
0.0
111
1.0
121
0.0
131
0.0
112
0.0
122
1.0
132
0.0
 79
     0
146
0.0
348
2F
 60
     3
 61
     5
292
     1
282
     1
141
0.0
142
0.0
 63
   250
361
6D
  0
ENDTAB
  0
TABLE
  2
LTYPE
  5
5
330
0
100
AcDbSymbolTable
 70
     3
  0
LTYPE
  5
14
330
5
100
AcDbSymbolTableRecord
100
AcDbLinetypeTableRecord
  2
ByBlock
 70
     0
  3

 72
    65
 73
     0
 40
0.0
  0
LTYPE
  5
15
330
5
100
AcDbSymbolTableRecord
100
AcDbLinetypeTableRecord
  2
ByLayer
 70
     0
  3

 72
    65
 73
     0
 40
0.0
  0
LTYPE
  5
16
330
5
100
AcDbSymbolTableRecord
100
AcDbLinetypeTableRecord
  2
Continuous
 70
     0
  3
Solid line
 72
    65
 73
     0
 40
0.0
  0
LTYPE
  5
9B
330
5
100
AcDbSymbolTableRecord
100
AcDbLinetypeTableRecord
  2
Dashed
 70
     0
  3

 72
    65
 73
     2
 40
2.0
 49
1.0
 74
     0
 49
-1.0
 74
     0
  0
LTYPE
  5
1F8
330
5
100
AcDbSymbolTableRecord
100
AcDbLinetypeTableRecord
  2
Center
 70
     0
  3

 72
    65
 73
     4
 40
1.5
 49
0.45
 74
     0
 49
-0.5
 74
     0
 49
0.05
 74
     0
 49
-0.5
 74
     0
  0
ENDTAB
  0
TABLE
  2
LAYER
  5
2
330
0
100
AcDbSymbolTable
 70
     7
  0
LAYER
  5
10
330
2
100
AcDbSymbolTableRecord
100
AcDbLayerTableRecord
  2
0
 70
     0
 62
     7
  6
Continuous
370
    -3
390
F
347
46
348
0
  0
LAYER
  5
72
330
2
100
AcDbSymbolTableRecord
100
AcDbLayerTableRecord
  2
AM_6
 70
     0
 62
    -2
  6
Continuous
370
    35
390
F
347
46
348
0
  0
LAYER
  5
9C
330
2
100
AcDbSymbolTableRecord
100
AcDbLayerTableRecord
  2
AM_9
 70
     0
 62
     6
  6
Dashed
370
    25
390
F
347
46
348
0
  0
LAYER
  5
B9
330
2
100
AcDbSymbolTableRecord
100
AcDbLayerTableRecord
  2
AM_4
 70
     0
 62
     7
  6
Continuous
370
    50
390
F
347
46
348
0
  0
LAYER
  5
EC
330
2
100
AcDbSymbolTableRecord
100
AcDbLayerTableRecord
  2
AM_5
 70
     0
 62
     3
  6
Continuous
370
    25
390
F
347
46
348
0
  0
LAYER
  5
1F9
330
2
100
AcDbSymbolTableRecord
100
AcDbLayerTableRecord
  2
AM_7
 70
     0
 62
     7
  6
Center
370
    25
390
F
347
46
348
0
  0
LAYER
  5
246
330
2
100
AcDbSymbolTableRecord
100
AcDbLayerTableRecord
  2
ConnectionPoints
 70
     0
 62
     7
  6
Continuous
370
    50
390
F
347
46
348
0
  0
ENDTAB
  0
TABLE
  2
STYLE
  5
3
330
0
100
AcDbSymbolTable
 70
     1
  0
STYLE
  5
11
330
3
100
AcDbSymbolTableRecord
100
AcDbTextStyleTableRecord
  2
Standard
 70
     0
 40
0.0
 41
1.0
 50
0.0
 71
     0
 42
0.2
  3
txt
  4

  0
ENDTAB
  0
TABLE
  2
VIEW
  5
6
330
0
100
AcDbSymbolTable
 70
     0
  0
ENDTAB
  0
TABLE
  2
UCS
  5
7
330
0
100
AcDbSymbolTable
 70
     0
  0
ENDTAB
  0
TABLE
  2
APPID
  5
9
330
0
100
AcDbSymbolTable
 70
     1
  0
APPID
  5
12
330
9
100
AcDbSymbolTableRecord
100
AcDbRegAppTableRecord
  2
ACAD
 70
     0
  0
ENDTAB
  0
TABLE
  2
DIMSTYLE
  5
A
330
0
100
AcDbSymbolTable
 70
     1
100
AcDbDimStyleTable
  0
DIMSTYLE
105
27
330
A
100
AcDbSymbolTableRecord
100
AcDbDimStyleTableRecord
  2
Standard
 70
     0
178
     0
340
11
  0
ENDTAB
  0
TABLE
  2
BLOCK_RECORD
  5
1
330
0
100
AcDbSymbolTable
 70
     8
  0
BLOCK_RECORD
  5
1F
330
1
100
AcDbSymbolTableRecord
100
AcDbBlockTableRecord
  2
*Model_Space
340
22
 70
     0
280
     1
281
     0
  0
BLOCK_RECORD
  5
1B
330
1
100
AcDbSymbolTableRecord
100
AcDbBlockTableRecord
  2
*Paper_Space
340
1E
 70
     0
280
     1
281
     0
  0
BLOCK_RECORD
  5
23
330
1
100
AcDbSymbolTableRecord
100
AcDbBlockTableRecord
  2
*Paper_Space0
340
26
 70
     0
280
     1
281
     0
  0
BLOCK_RECORD
  5
6E
330
1
100
AcDbSymbolTableRecord
100
AcDbBlockTableRecord
  2
1_069564_4
340
0
102
{BLKREFS
331
6F
102
}
 70
     0
280
     1
281
     0
  0
BLOCK_RECORD
  5
8F
330
1
100
AcDbSymbolTableRecord
100
AcDbBlockTableRecord
  2
2_405015E_Inch_0_in_069564_4
340
0
102
{BLKREFS
331
90
102
}
 70
     0
280
     1
281
     0
  0
BLOCK_RECORD
  5
DC
330
1
100
AcDbSymbolTableRecord
100
AcDbBlockTableRecord
  2
3_ASME_B18_3_1_4_1_0_in_069564_4
340
0
102
{BLKREFS
331
DD
102
}
 70
     0
280
     1
281
     0
  0
BLOCK_RECORD
  5
EF
330
1
100
AcDbSymbolTableRecord
100
AcDbBlockTableRecord
  2
4_ASME_B18_3_1_4_2_0_in_069564_4
340
0
102
{BLKREFS
331
F0
102
}
 70
     0
280
     1
281
     0
  0
BLOCK_RECORD
  5
111
330
1
100
AcDbSymbolTableRecord
100
AcDbBlockTableRecord
  2
5_070902LW_0_in_069564_4
340
0
102
{BLKREFS
331
112
102
}
 70
     0
280
     1
281
     0
  0
BLOCK_RECORD
  5
147
330
1
100
AcDbSymbolTableRecord
100
AcDbBlockTableRecord
  2
6_070934I_0_in_069564_4
340
0
102
{BLKREFS
331
148
102
}
 70
     0
280
     1
281
     0
  0
BLOCK_RECORD
  5
1C6
330
1
100
AcDbSymbolTableRecord
100
AcDbBlockTableRecord
  2
7_069564H_0_in_069564_4
340
0
102
{BLKREFS
331
1C7
102
}
 70
     0
280
     1
281
     0
  0
ENDTAB
  0
ENDSEC
  0
SECTION
  2
BLOCKS
  0
BLOCK
  5
20
330
1F
100
AcDbEntity
  8
0
100
AcDbBlockBegin
  2
*Model_Space
 70
     0
 10
0.0
 20
0.0
 30
0.0
  3
*Model_Space
  1

  0
ENDBLK
  5
21
330
1F
100
AcDbEntity
  8
0
100
AcDbBlockEnd
  0
BLOCK
  5
1C
330
1B
100
AcDbEntity
 67
     1
  8
0
100
AcDbBlockBegin
  2
*Paper_Space
 70
     0
 10
0.0
 20
0.0
 30
0.0
  3
*Paper_Space
  1

  0
ENDBLK
  5
1D
330
1B
100
AcDbEntity
 67
     1
  8
0
100
AcDbBlockEnd
  0
BLOCK
  5
24
330
23
100
AcDbEntity
  8
0
100
AcDbBlockBegin
  2
*Paper_Space0
 70
     0
 10
0.0
 20
0.0
 30
0.0
  3
*Paper_Space0
  1

  0
ENDBLK
  5
25
330
23
100
AcDbEntity
  8
0
100
AcDbBlockEnd
  0
BLOCK
  5
70
330
6E
100
AcDbEntity
  8
0
100
AcDbBlockBegin
  2
1_069564_4
 70
     2
 10
0.0
 20
0.0
 30
0.0
  3
1_069564_4
  1

  0
ATTDEF
  5
73
330
6E
100
AcDbEntity
  8
AM_6
100
AcDbText
 10
11.5
 20
2.26875
 30
0.0
 40
0.5
  1
Imperial -IP Pillow Block 2-1/8 thru 3-1/2  4-Bolt Inch Bore (Labyrinth Seal)
100
AcDbAttributeDefinition
  3

  2
NN
 70
     8
280
     0
  0
ATTDEF
  5
74
330
6E
100
AcDbEntity
  8
AM_6
100
AcDbText
 10
11.5
 20
1.76875
 30
0.0
 40
0.5
  1
Imperial 4 Bolt Piliow Block Bearings
100
AcDbAttributeDefinition
  3

  2
NT
 70
     8
280
     0
  0
ATTDEF
  5
75
330
6E
100
AcDbEntity
  8
AM_6
100
AcDbText
 10
11.5
 20
1.26875
 30
0.0
 40
0.5
  1
069564
100
AcDbAttributeDefinition
  3

  2
NB
 70
     8
280
     0
  0
ATTDEF
  5
76
330
6E
100
AcDbEntity
  8
AM_6
100
AcDbText
 10
11.5
 20
0.7687499999999998
 30
0.0
 40
0.5
  1
$PN.
100
AcDbAttributeDefinition
  3

  2
NBSYN
 70
     8
280
     0
  0
ATTDEF
  5
77
330
6E
100
AcDbEntity
  8
AM_6
100
AcDbText
 10
11.5
 20
0.2687499999999998
 30
0.0
 40
0.5
  1
069564
100
AcDbAttributeDefinition
  3

  2
LINA
 70
     8
280
     0
  0
ATTDEF
  5
78
330
6E
100
AcDbEntity
  8
AM_6
100
AcDbText
 10
11.5
 20
-0.2312500000000002
 30
0.0
 40
0.5
  1
3-1/4
100
AcDbAttributeDefinition
  3

  2
SS
 70
     8
280
     0
  0
ATTDEF
  5
79
330
6E
100
AcDbEntity
  8
AM_6
100
AcDbText
 10
11.5
 20
-0.7312500000000002
 30
0.0
 40
0.5
  1
069564
100
AcDbAttributeDefinition
  3

  2
PN
 70
     8
280
     0
  0
ATTDEF
  5
7A
330
6E
100
AcDbEntity
  8
AM_6
100
AcDbText
 10
11.5
 20
-1.23125
 30
0.0
 40
0.5
  1
P4B-IP-304L
100
AcDbAttributeDefinition
  3

  2
DESCRIPTION
 70
     8
280
     0
  0
ATTDEF
  5
7B
330
6E
100
AcDbEntity
  8
AM_6
100
AcDbText
 10
11.5
 20
-1.73125
 30
0.0
 40
0.5
  1
Non-Expansion Type
100
AcDbAttributeDefinition
  3

  2
EF
 70
     8
280
     0
  0
ATTDEF
  5
7C
330
6E
100
AcDbEntity
  8
AM_6
100
AcDbText
 10
11.5
 20
-2.23125
 30
0.0
 40
0.5
  1
Labyrinth  Seal
100
AcDbAttributeDefinition
  3

  2
ST
 70
     8
280
     0
  0
ATTDEF
  5
7D
330
6E
100
AcDbEntity
  8
AM_6
100
AcDbText
 10
11.5
 20
-2.73125
 30
0.0
 40
0.5
  1
4-11/64
100
AcDbAttributeDefinition
  3

  2
A
 70
     8
280
     0
  0
ATTDEF
  5
7E
330
6E
100
AcDbEntity
  8
AM_6
100
AcDbText
 10
11.5
 20
-3.23125
 30
0.0
 40
0.5
  1
13
100
AcDbAttributeDefinition
  3

  2
B
 70
     8
280
     0
  0
ATTDEF
  5
7F
330
6E
100
AcDbEntity
  8
AM_6
100
AcDbText
 10
11.5
 20
-3.73125
 30
0.0
 40
0.5
  1
4-1/8
100
AcDbAttributeDefinition
  3

  2
C
 70
     8
280
     0
  0
ATTDEF
  5
80
330
6E
100
AcDbEntity
  8
AM_6
100
AcDbText
 10
11.5
 20
-4.23125
 30
0.0
 40
0.5
  1
9-3/8
100
AcDbAttributeDefinition
  3

  2
DMIN
 70
     8
280
     0
  0
ATTDEF
  5
81
330
6E
100
AcDbEntity
  8
AM_6
100
AcDbText
 10
11.5
 20
-4.73125
 30
0.0
 40
0.5
  1
10-5/8
100
AcDbAttributeDefinition
  3

  2
DMAX
 70
     8
280
     0
  0
ATTDEF
  5
82
330
6E
100
AcDbEntity
  8
AM_6
100
AcDbText
 10
11.5
 20
-5.23125
 30
0.0
 40
0.5
  1
2
100
AcDbAttributeDefinition
  3

  2
E
 70
     8
280
     0
  0
ATTDEF
  5
83
330
6E
100
AcDbEntity
  8
AM_6
100
AcDbText
 10
11.5
 20
-5.73125
 30
0.0
 40
0.5
  1
3/4
100
AcDbAttributeDefinition
  3

  2
F
 70
     8
280
     0
  0
ATTDEF
  5
84
330
6E
100
AcDbEntity
  8
AM_6
100
AcDbText
 10
11.5
 20
-6.23125
 30
0.0
 40
0.5
  1
1-1/2
100
AcDbAttributeDefinition
  3

  2
G
 70
     8
280
     0
  0
ATTDEF
  5
85
330
6E
100
AcDbEntity
  8
AM_6
100
AcDbText
 10
11.5
 20
-6.73125
 30
0.0
 40
0.5
  1
2-1/4
100
AcDbAttributeDefinition
  3

  2
H
 70
     8
280
     0
  0
ATTDEF
  5
86
330
6E
100
AcDbEntity
  8
AM_6
100
AcDbText
 10
11.5
 20
-7.23125
 30
0.0
 40
0.5
  1
7-9/16
100
AcDbAttributeDefinition
  3

  2
J
 70
     8
280
     0
  0
ATTDEF
  5
87
330
6E
100
AcDbEntity
  8
AM_6
100
AcDbText
 10
11.5
 20
-7.73125
 30
0.0
 40
0.5
  1
5
100
AcDbAttributeDefinition
  3

  2
L
 70
     8
280
     0
  0
ATTDEF
  5
88
330
6E
100
AcDbEntity
  8
AM_6
100
AcDbText
 10
11.5
 20
-8.23125
 30
0.0
 40
0.5
  1
3-3/4
100
AcDbAttributeDefinition
  3

  2
M
 70
     8
280
     0
  0
ATTDEF
  5
89
330
6E
100
AcDbEntity
  8
AM_6
100
AcDbText
 10
11.5
 20
-8.73125
 30
0.0
 40
0.5
  1
1-7/16
100
AcDbAttributeDefinition
  3

  2
R
 70
     8
280
     0
  0
ATTDEF
  5
8A
330
6E
100
AcDbEntity
  8
AM_6
100
AcDbText
 10
11.5
 20
-9.23125
 30
0.0
 40
0.5
  1
2-47/64
100
AcDbAttributeDefinition
  3

  2
S
 70
     8
280
     0
  0
ATTDEF
  5
8B
330
6E
100
AcDbEntity
  8
AM_6
100
AcDbText
 10
11.5
 20
-9.73125
 30
0.0
 40
0.5
  1
1/4
100
AcDbAttributeDefinition
  3

  2
X
 70
     8
280
     0
  0
ATTDEF
  5
8C
330
6E
100
AcDbEntity
  8
AM_6
100
AcDbText
 10
11.5
 20
-10.23125
 30
0.0
 40
0.5
  1
0.025
100
AcDbAttributeDefinition
  3

  2
Y
 70
     8
280
     0
  0
ATTDEF
  5
8D
330
6E
100
AcDbEntity
  8
AM_6
100
AcDbText
 10
11.5
 20
-10.73125
 30
0.0
 40
0.5
  1
4-3/64
100
AcDbAttributeDefinition
  3

  2
Z
 70
     8
280
     0
  0
ATTDEF
  5
8E
330
6E
100
AcDbEntity
  8
AM_6
100
AcDbText
 10
11.5
 20
-11.23125
 30
0.0
 40
0.5
  1
baldor
100
AcDbAttributeDefinition
  3

  2
COMPANY
 70
     8
280
     0
  0
INSERT
  5
90
330
6E
100
AcDbEntity
  8
0
100
AcDbBlockReference
  2
2_405015E_Inch_0_in_069564_4
 10
0.0
 20
0.0
 30
0.0
  0
INSERT
  5
DD
330
6E
100
AcDbEntity
  8
0
100
AcDbBlockReference
  2
3_ASME_B18_3_1_4_1_0_in_069564_4
 10
0.0
 20
0.0
 30
0.0
  0
INSERT
  5
F0
330
6E
100
AcDbEntity
  8
0
100
AcDbBlockReference
  2
4_ASME_B18_3_1_4_2_0_in_069564_4
 10
0.0
 20
0.0
 30
0.0
  0
INSERT
  5
112
330
6E
100
AcDbEntity
  8
0
100
AcDbBlockReference
  2
5_070902LW_0_in_069564_4
 10
0.0
 20
0.0
 30
0.0
  0
INSERT
  5
148
330
6E
100
AcDbEntity
  8
0
100
AcDbBlockReference
  2
6_070934I_0_in_069564_4
 10
0.0
 20
0.0
 30
0.0
  0
INSERT
  5
1C7
330
6E
100
AcDbEntity
  8
0
100
AcDbBlockReference
  2
7_069564H_0_in_069564_4
 10
0.0
 20
0.0
 30
0.0
  0
ENDBLK
  5
71
330
6E
100
AcDbEntity
  8
0
100
AcDbBlockEnd
  0
BLOCK
  5
91
330
8F
100
AcDbEntity
  8
0
100
AcDbBlockBegin
  2
2_405015E_Inch_0_in_069564_4
 70
     2
 10
0.0
 20
0.0
 30
0.0
  3
2_405015E_Inch_0_in_069564_4
  1

  0
ATTDEF
  5
93
330
8F
100
AcDbEntity
  8
AM_6
100
AcDbText
 10
3.329900533277435
 20
0.2525907427704614
 30
0.0
 40
0.5
  1
405015E -Inch
100
AcDbAttributeDefinition
  3

  2
NN
 70
     8
280
     0
  0
ATTDEF
  5
94
330
8F
100
AcDbEntity
  8
AM_6
100
AcDbText
 10
3.329900533277435
 20
-0.2474092572295386
 30
0.0
 40
0.5
  1
Grease Fitting
100
AcDbAttributeDefinition
  3

  2
NT
 70
     8
280
     0
  0
ATTDEF
  5
95
330
8F
100
AcDbEntity
  8
AM_6
100
AcDbText
 10
3.329900533277435
 20
-0.7474092572295385
 30
0.0
 40
0.5
  1
405015E-Inch
100
AcDbAttributeDefinition
  3

  2
NB
 70
     8
280
     0
  0
ATTDEF
  5
96
330
8F
100
AcDbEntity
  8
AM_6
100
AcDbText
 10
3.329900533277435
 20
-1.247409257229539
 30
0.0
 40
0.5
  1
$MN.-Inch
100
AcDbAttributeDefinition
  3

  2
NBSYN
 70
     8
280
     0
  0
ATTDEF
  5
97
330
8F
100
AcDbEntity
  8
AM_6
100
AcDbText
 10
3.329900533277435
 20
-1.747409257229539
 30
0.0
 40
0.5
  1
405015E
100
AcDbAttributeDefinition
  3

  2
LINA
 70
     8
280
     0
  0
ATTDEF
  5
98
330
8F
100
AcDbEntity
  8
AM_6
100
AcDbText
 10
3.329900533277435
 20
-2.247409257229538
 30
0.0
 40
0.5
  1
405015E
100
AcDbAttributeDefinition
  3

  2
MN
 70
     8
280
     0
  0
ATTDEF
  5
99
330
8F
100
AcDbEntity
  8
AM_6
100
AcDbText
 10
3.329900533277435
 20
-2.747409257229538
 30
0.0
 40
0.5
  1
1/8 x 27PTF
100
AcDbAttributeDefinition
  3

  2
T
 70
     8
280
     0
  0
ATTDEF
  5
9A
330
8F
100
AcDbEntity
  8
AM_6
100
AcDbText
 10
3.329900533277435
 20
-3.247409257229538
 30
0.0
 40
0.5
  1
baldor
100
AcDbAttributeDefinition
  3

  2
COMPANY
 70
     8
280
     0
  0
ELLIPSE
  5
9D
330
8F
100
AcDbEntity
  8
AM_9
100
AcDbEllipse
 10
-1.82375
 20
0.0000000000000002
 30
0.0
 11
-2.974107518188895E-17
 21
-0.161902872472269
 31
0.0
210
0.0
220
0.0
230
1.0
 40
0.8660254037844383
 41
0.0
 42
6.283185307179586
  0
LWPOLYLINE
  5
9E
330
8F
100
AcDbEntity
  8
AM_9
100
AcDbPolyline
 90
        3
 70
     0
 43
0.0
 10
-2.150226856926153
 20
0.1262953713852309
 10
-2.09975250203231
 20
0.1577272497321278
 10
-2.050971528538923
 20
0.1894430570778462
  0
LWPOLYLINE
  5
9F
330
8F
100
AcDbEntity
  8
AM_9
100
AcDbPolyline
 90
        3
 70
     0
 43
0.0
 10
-2.145833052874996
 20
0.0214068775141765
 10
-2.146889747470363
 20
0.0631476856926155
 10
-2.150226856926153
 20
0.1262953713852309
  0
LINE
  5
A0
330
8F
100
AcDbEntity
  8
AM_9
100
AcDbLine
 10
-2.145852626965072
 20
-0.0228582840760209
 30
0.0
 11
-2.145833052874996
 21
0.0214068775141765
 31
0.0
  0
LWPOLYLINE
  5
A1
330
8F
100
AcDbEntity
  8
AM_9
100
AcDbPolyline
 90
        3
 70
     0
 43
0.0
 10
-2.050971528538923
 20
-0.1894430570778458
 10
-2.099528983200902
 20
-0.1578692142315381
 10
-2.150226856926153
 20
-0.1262953713852304
  0
LWPOLYLINE
  5
A2
330
8F
100
AcDbEntity
  8
AM_9
100
AcDbPolyline
 90
        4
 70
     0
 43
0.0
 10
-2.150226856926153
 20
-0.1262953713852304
 10
-2.148434263336768
 20
-0.0967996321117976
 10
-2.146405971199382
 20
-0.0485424412477542
 10
-2.145852626965072
 20
-0.0228582840760209
  0
LINE
  5
A3
330
8F
100
AcDbEntity
  8
AM_9
100
AcDbLine
 10
-2.191159257229538
 20
-0.1262953713852304
 30
0.0
 11
-2.150226856926153
 21
-0.1262953713852304
 31
0.0
  0
LINE
  5
A4
330
8F
100
AcDbEntity
  8
AM_9
100
AcDbLine
 10
-2.191159257229538
 20
0.1262953713852309
 30
0.0
 11
-2.150226856926153
 21
0.1262953713852309
 31
0.0
  0
LWPOLYLINE
  5
A5
330
8F
100
AcDbEntity
  8
AM_9
100
AcDbPolyline
 90
        3
 70
     0
 43
0.0
 10
-2.193418054366515
 20
0.0878491423263092
 10
-2.194485794603036
 20
0.0634316146914369
 10
-2.195693057077846
 20
0.0000000000000002
  0
LWPOLYLINE
  5
A6
330
8F
100
AcDbEntity
  8
AM_9
100
AcDbPolyline
 90
        3
 70
     0
 43
0.0
 10
-2.195693057077846
 20
0.0000000000000002
 10
-2.194984276719277
 20
-0.0483998160558987
 10
-2.193427270281705
 20
-0.0876643906215057
  0
LWPOLYLINE
  5
A7
330
8F
100
AcDbEntity
  8
AM_9
100
AcDbPolyline
 90
        3
 70
     0
 43
0.0
 10
-1.960783799848307
 20
-0.252590742770461
 10
-2.004605079995156
 20
-0.2211588644235641
 10
-2.050971528538923
 20
-0.1894430570778458
  0
LWPOLYLINE
  5
A8
330
8F
100
AcDbEntity
  8
AM_9
100
AcDbPolyline
 90
        3
 70
     0
 43
0.0
 10
-2.050971528538923
 20
0.1894430570778462
 10
-2.004807454661979
 20
0.2210168999241538
 10
-1.960783799848307
 20
0.2525907427704614
  0
LINE
  5
A9
330
8F
100
AcDbEntity
  8
AM_9
100
AcDbLine
 10
-1.832796710626154
 20
0.1983264404626882
 30
0.0
 11
-1.94660489783229
 21
0.2054502516015137
 31
0.0
  0
LINE
  5
AA
330
8F
100
AcDbEntity
  8
AM_9
100
AcDbLine
 10
-1.94660489783229
 20
-0.2054502516015133
 30
0.0
 11
-1.832796710626154
 21
-0.1983264404626877
 31
0.0
  0
ELLIPSE
  5
AB
330
8F
100
AcDbEntity
  8
AM_9
100
AcDbEllipse
 10
-2.006250000000019
 20
0.0000000000000043
 30
0.0
 11
1.339457436567321E-17
 21
0.2187499999999842
 31
0.0
210
0.0
220
0.0
230
1.0
 40
0.8660254037844154
 41
1.0329703296149
 42
2.108622323974926
  0
ELLIPSE
  5
AC
330
8F
100
AcDbEntity
  8
AM_9
100
AcDbEllipse
 10
-2.006249999999999
 20
0.0000000000000002
 30
0.0
 11
1.308841266588746E-17
 21
0.213750000000002
 31
0.0
210
0.0
220
0.0
230
1.0
 40
0.8660254037844349
 41
0.9862868522354225
 42
2.155305801354371
  0
ELLIPSE
  5
AD
330
8F
100
AcDbEntity
  8
AM_9
100
AcDbEllipse
 10
-2.01540909927044
 20
0.0000000000000002
 30
0.0
 11
1.056466380484823E-17
 21
0.1725340532830161
 31
0.0
210
0.0
220
0.0
230
1.0
 40
0.8660254037844418
 41
0.6732704101474614
 42
2.468322243442332
  0
LINE
  5
AE
330
8F
100
AcDbEntity
  8
AM_9
100
AcDbLine
 10
-2.12625
 20
-0.0703562363973514
 30
0.0
 11
-2.119010904853149
 21
-0.0796165180238019
 31
0.0
  0
LINE
  5
AF
330
8F
100
AcDbEntity
  8
AM_9
100
AcDbLine
 10
-2.119010904853149
 20
0.0796165180238023
 30
0.0
 11
-2.12625
 21
0.0703562363973519
 31
0.0
  0
ELLIPSE
  5
B0
330
8F
100
AcDbEntity
  8
AM_9
100
AcDbEllipse
 10
-2.042626560809286
 20
-0.0000000000000014
 30
0.0
 11
7.275632189644408E-18
 21
0.1188200907348957
 31
0.0
210
0.0
220
0.0
230
1.0
 40
0.8660254037844418
 41
0.0521714424102306
 42
3.089421211179558
  0
LINE
  5
B1
330
8F
100
AcDbEntity
  8
AM_9
100
AcDbLine
 10
-2.05875
 20
0.1050000000000002
 30
0.0
 11
-2.07375
 21
0.1050000000000002
 31
0.0
  0
LINE
  5
B2
330
8F
100
AcDbEntity
  8
AM_9
100
AcDbLine
 10
-2.07375
 20
-0.1049999999999998
 30
0.0
 11
-2.05875
 21
-0.1049999999999998
 31
0.0
  0
ELLIPSE
  5
B3
330
8F
100
AcDbEntity
  8
AM_9
100
AcDbEllipse
 10
-2.07375
 20
-0.0000000000000009
 30
0.0
 11
6.429395695523538E-18
 21
0.1049999999999989
 31
0.0
210
0.0
220
0.0
230
1.0
 40
0.8660254037844455
 41
5.235987755983
 42
10.47197551196598
  0
ELLIPSE
  5
B4
330
8F
100
AcDbEntity
  8
AM_9
100
AcDbEllipse
 10
-2.058750000000003
 20
0.0000000000000016
 30
0.0
 11
6.429395695523518E-18
 21
0.1049999999999986
 31
0.0
210
0.0
220
0.0
230
1.0
 40
0.8660254037844395
 41
5.858105981270329
 42
9.849857286678626
  0
ELLIPSE
  5
B5
330
8F
100
AcDbEntity
  8
AM_9
100
AcDbEllipse
 10
-2.103749999999999
 20
0.0000000000000002
 30
0.0
 11
8.266365894244645E-18
 21
0.1350000000000002
 31
0.0
210
0.0
220
0.0
230
1.0
 40
0.8660254037844434
 41
0.77510901071512
 42
2.366483642874672
  0
ELLIPSE
  5
B6
330
8F
100
AcDbEntity
  8
AM_9
100
AcDbEllipse
 10
-1.95625
 20
0.0
 30
0.0
 11
1.339457436567417E-17
 21
0.2187499999999998
 31
0.0
210
0.0
220
0.0
230
1.0
 40
0.8660254037844397
 41
0.0
 42
6.283185307179586
  0
ELLIPSE
  5
B7
330
8F
100
AcDbEntity
  8
AM_9
100
AcDbEllipse
 10
-1.95625
 20
0.0000000000000002
 30
0.0
 11
1.259867011763637E-17
 21
0.2057518972230697
 31
0.0
210
0.0
220
0.0
230
1.0
 40
0.8660254037844308
 41
0.0
 42
6.283185307179586
  0
ELLIPSE
  5
B8
330
8F
100
AcDbEntity
  8
AM_9
100
AcDbEllipse
 10
-1.842107377154473
 20
0.0000000000000002
 30
0.0
 11
1.216182204459295E-17
 21
0.1986176267812154
 31
0.0
210
0.0
220
0.0
230
1.0
 40
0.8660254037844354
 41
0.0
 42
6.283185307179586
  0
LWPOLYLINE
  5
BA
330
8F
100
AcDbEntity
  8
AM_4
100
AcDbPolyline
 90
        3
 70
     0
 43
0.0
 10
-2.100971528538923
 20
0.1894430570778462
 10
-2.147135602415867
 20
0.1578692142315385
 10
-2.191159257229538
 20
0.1262953713852309
  0
LINE
  5
BB
330
8F
100
AcDbEntity
  8
AM_4
100
AcDbLine
 10
-2.191159257229538
 20
0.1262953713852309
 30
0.0
 11
-2.193418054366515
 21
0.0878491423263092
 31
0.0
  0
LWPOLYLINE
  5
BC
330
8F
100
AcDbEntity
  8
AM_4
100
AcDbPolyline
 90
        3
 70
     0
 43
0.0
 10
-2.191159257229538
 20
-0.1262953713852304
 10
-2.147337977082691
 20
-0.1577272497321274
 10
-2.100971528538923
 20
-0.1894430570778458
  0
LINE
  5
BD
330
8F
100
AcDbEntity
  8
AM_4
100
AcDbLine
 10
-2.193427270281705
 20
-0.0876643906215057
 30
0.0
 11
-2.191159257229538
 21
-0.1262953713852304
 31
0.0
  0
LWPOLYLINE
  5
BE
330
8F
100
AcDbEntity
  8
AM_4
100
AcDbPolyline
 90
        3
 70
     0
 43
0.0
 10
-2.100971528538923
 20
-0.1894430570778458
 10
-2.052414073876944
 20
-0.2210168999241534
 10
-2.001716200151693
 20
-0.252590742770461
  0
LWPOLYLINE
  5
BF
330
8F
100
AcDbEntity
  8
AM_4
100
AcDbPolyline
 90
        3
 70
     0
 43
0.0
 10
-2.001716200151693
 20
0.2525907427704614
 10
-2.052190555045535
 20
0.2211588644235645
 10
-2.100971528538923
 20
0.1894430570778462
  0
LWPOLYLINE
  5
C0
330
8F
100
AcDbEntity
  8
AM_4
100
AcDbPolyline
 90
        3
 70
     0
 43
0.0
 10
-1.816806942922154
 20
0.0000000000000002
 10
-1.815610252529637
 20
0.0631476856926155
 10
-1.812273143073847
 20
0.1262953713852309
  0
LWPOLYLINE
  5
C1
330
8F
100
AcDbEntity
  8
AM_4
100
AcDbPolyline
 90
        4
 70
     0
 43
0.0
 10
-1.766806942922154
 20
0.0000000000000002
 10
-1.767515723280723
 20
-0.0483998160558987
 10
-1.769548149181076
 20
-0.0967996321117976
 10
-1.771340742770461
 20
-0.1262953713852304
  0
LWPOLYLINE
  5
C2
330
8F
100
AcDbEntity
  8
AM_4
100
AcDbPolyline
 90
        3
 70
     0
 43
0.0
 10
-1.771340742770461
 20
0.1262953713852308
 10
-1.768014205396964
 20
0.0634316146914369
 10
-1.766806942922154
 20
0.0000000000000002
  0
LINE
  5
C3
330
8F
100
AcDbEntity
  8
AM_4
100
AcDbLine
 10
-2.001716200151693
 20
0.2525907427704614
 30
0.0
 11
-1.960783799848307
 21
0.2525907427704614
 31
0.0
  0
LWPOLYLINE
  5
C4
330
8F
100
AcDbEntity
  8
AM_4
100
AcDbPolyline
 90
        3
 70
     0
 43
0.0
 10
-1.911528471461077
 20
0.1894430570778462
 10
-1.957692545338021
 20
0.2210168999241537
 10
-2.001716200151693
 20
0.2525907427704614
  0
LWPOLYLINE
  5
C5
330
8F
100
AcDbEntity
  8
AM_4
100
AcDbPolyline
 90
        3
 70
     0
 43
0.0
 10
-1.812273143073847
 20
0.1262953713852309
 10
-1.862747497967689
 20
0.1577272497321278
 10
-1.911528471461077
 20
0.1894430570778462
  0
LINE
  5
C6
330
8F
100
AcDbEntity
  8
AM_4
100
AcDbLine
 10
-1.812273143073847
 20
0.1262953713852309
 30
0.0
 11
-1.771340742770461
 21
0.1262953713852308
 31
0.0
  0
LWPOLYLINE
  5
C7
330
8F
100
AcDbEntity
  8
AM_4
100
AcDbPolyline
 90
        3
 70
     0
 43
0.0
 10
-1.861528471461077
 20
0.1894430570778462
 10
-1.815364397584133
 20
0.1578692142315385
 10
-1.771340742770461
 20
0.1262953713852308
  0
LWPOLYLINE
  5
C8
330
8F
100
AcDbEntity
  8
AM_4
100
AcDbPolyline
 90
        3
 70
     0
 43
0.0
 10
-1.960783799848307
 20
0.2525907427704614
 10
-1.910309444954465
 20
0.2211588644235645
 10
-1.861528471461077
 20
0.1894430570778462
  0
ELLIPSE
  5
C9
330
8F
100
AcDbEntity
  8
AM_4
100
AcDbEllipse
 10
-2.006250000000001
 20
0.0000000000000003
 30
0.0
 11
1.339457436567420E-17
 21
0.2187500000000004
 31
0.0
210
0.0
220
0.0
230
1.0
 40
0.8660254037844404
 41
2.108622323974873
 42
7.316155636794507
  0
LWPOLYLINE
  5
CA
330
8F
100
AcDbEntity
  8
AM_4
100
AcDbPolyline
 90
        4
 70
     0
 43
0.0
 10
-1.812273143073847
 20
-0.1262953713852304
 10
-1.814065736663232
 20
-0.0967996321117976
 10
-1.816094028800618
 20
-0.0485424412477542
 10
-1.816806942922154
 20
0.0000000000000002
  0
LINE
  5
CB
330
8F
100
AcDbEntity
  8
AM_4
100
AcDbLine
 10
-1.812273143073847
 20
-0.1262953713852304
 30
0.0
 11
-1.771340742770461
 21
-0.1262953713852304
 31
0.0
  0
LWPOLYLINE
  5
CC
330
8F
100
AcDbEntity
  8
AM_4
100
AcDbPolyline
 90
        3
 70
     0
 43
0.0
 10
-1.911528471461077
 20
-0.1894430570778458
 10
-1.862971016799098
 20
-0.1578692142315381
 10
-1.812273143073847
 20
-0.1262953713852304
  0
LWPOLYLINE
  5
CD
330
8F
100
AcDbEntity
  8
AM_4
100
AcDbPolyline
 90
        3
 70
     0
 43
0.0
 10
-2.001716200151693
 20
-0.252590742770461
 10
-1.957894920004845
 20
-0.2211588644235641
 10
-1.911528471461077
 20
-0.1894430570778458
  0
LINE
  5
CE
330
8F
100
AcDbEntity
  8
AM_4
100
AcDbLine
 10
-2.001716200151693
 20
-0.252590742770461
 30
0.0
 11
-1.960783799848307
 21
-0.252590742770461
 31
0.0
  0
LWPOLYLINE
  5
CF
330
8F
100
AcDbEntity
  8
AM_4
100
AcDbPolyline
 90
        3
 70
     0
 43
0.0
 10
-1.861528471461077
 20
-0.1894430570778458
 10
-1.910085926123056
 20
-0.2210168999241534
 10
-1.960783799848307
 20
-0.252590742770461
  0
LWPOLYLINE
  5
D0
330
8F
100
AcDbEntity
  8
AM_4
100
AcDbPolyline
 90
        3
 70
     0
 43
0.0
 10
-1.771340742770461
 20
-0.1262953713852304
 10
-1.81516202291731
 20
-0.1577272497321274
 10
-1.861528471461077
 20
-0.1894430570778458
  0
ELLIPSE
  5
D1
330
8F
100
AcDbEntity
  8
AM_4
100
AcDbEllipse
 10
-2.00625
 20
0.0000000000000004
 30
0.0
 11
1.308841266588735E-17
 21
0.2137500000000002
 31
0.0
210
0.0
220
0.0
230
1.0
 40
0.8660254037844382
 41
2.155305801354377
 42
7.269472159415003
  0
ELLIPSE
  5
D2
330
8F
100
AcDbEntity
  8
AM_4
100
AcDbEllipse
 10
-2.015409099270441
 20
0.0000000000000002
 30
0.0
 11
1.056466380484819E-17
 21
0.1725340532830155
 31
0.0
210
0.0
220
0.0
230
1.0
 40
0.866025403784437
 41
2.468322243442333
 42
6.956455717327047
  0
ELLIPSE
  5
D3
330
8F
100
AcDbEntity
  8
AM_4
100
AcDbEllipse
 10
-2.042626560808994
 20
0.0000000000000262
 30
0.0
 11
7.275632189642927E-18
 21
0.1188200907348716
 31
0.0
210
0.0
220
0.0
230
1.0
 40
0.8660254037844799
 41
3.089421211176741
 42
6.335356749592663
  0
ELLIPSE
  5
D4
330
8F
100
AcDbEntity
  8
AM_4
100
AcDbEllipse
 10
-2.05875
 20
0.0000000000000002
 30
0.0
 11
6.429395695523596E-18
 21
0.1049999999999999
 31
0.0
210
0.0
220
0.0
230
1.0
 40
0.8660254037844418
 41
3.566671979499016
 42
5.858105981270363
  0
LINE
  5
D5
330
8F
100
AcDbEntity
  8
AM_4
100
AcDbLine
 10
-1.995
 20
0.0525000000000004
 30
0.0
 11
-2.0025
 21
0.0675000000000004
 31
0.0
  0
LINE
  5
D6
330
8F
100
AcDbEntity
  8
AM_4
100
AcDbLine
 10
-2.0025
 20
-0.0675
 30
0.0
 11
-1.995
 21
-0.0525
 31
0.0
  0
ELLIPSE
  5
D7
330
8F
100
AcDbEntity
  8
AM_4
100
AcDbEllipse
 10
-2.073750000000002
 20
0.0000000000000002
 30
0.0
 11
6.429395695523674E-18
 21
0.1050000000000011
 31
0.0
210
0.0
220
0.0
230
1.0
 40
0.8660254037844525
 41
4.188790204786393
 42
5.235987755982984
  0
ELLIPSE
  5
D8
330
8F
100
AcDbEntity
  8
AM_4
100
AcDbEllipse
 10
-2.103750000000001
 20
-0.0000000000000012
 30
0.0
 11
8.266365894244721E-18
 21
0.1350000000000014
 31
0.0
210
0.0
220
0.0
230
1.0
 40
0.866025403784432
 41
2.366483642874667
 42
7.058294317894698
  0
LINE
  5
D9
330
8F
100
AcDbEntity
  8
AM_4
100
AcDbLine
 10
-2.205976847792107
 20
-0.0733474205218685
 30
0.0
 11
-2.185565310731619
 21
-0.0964365416902989
 31
0.0
  0
LINE
  5
DA
330
8F
100
AcDbEntity
  8
AM_4
100
AcDbLine
 10
-2.185565310731619
 20
0.0964365416902994
 30
0.0
 11
-2.205976847792107
 21
0.073347420521869
 31
0.0
  0
ELLIPSE
  5
DB
330
8F
100
AcDbEntity
  8
AM_4
100
AcDbEllipse
 10
-2.143750000000002
 20
0.0000000000000023
 30
0.0
 11
6.287208197282071E-18
 21
0.1026779019331855
 31
0.0
210
0.0
220
0.0
230
1.0
 40
0.866025403784431
 41
0.0
 42
6.283185307179586
  0
ENDBLK
  5
92
330
8F
100
AcDbEntity
  8
0
100
AcDbBlockEnd
  0
BLOCK
  5
DE
330
DC
100
AcDbEntity
  8
0
100
AcDbBlockBegin
  2
3_ASME_B18_3_1_4_1_0_in_069564_4
 70
     2
 10
0.0
 20
0.0
 30
0.0
  3
3_ASME_B18_3_1_4_1_0_in_069564_4
  1

  0
ATTDEF
  5
E0
330
DC
100
AcDbEntity
  8
AM_6
100
AcDbText
 10
5.125
 20
-2.407208333333333
 30
0.0
 40
0.5
  1
ANSI/ASME B18.3-1998
100
AcDbAttributeDefinition
  3

  2
NN
 70
     8
280
     0
  0
ATTDEF
  5
E1
330
DC
100
AcDbEntity
  8
AM_6
100
AcDbText
 10
5.125
 20
-2.907208333333333
 30
0.0
 40
0.5
  1
Socket Button Head Cap Screws
100
AcDbAttributeDefinition
  3

  2
NT
 70
     8
280
     0
  0
ATTDEF
  5
E2
330
DC
100
AcDbEntity
  8
AM_6
100
AcDbText
 10
5.125
 20
-3.407208333333333
 30
0.0
 40
0.5
  1
ASME B18.3-1/4
100
AcDbAttributeDefinition
  3

  2
NB
 70
     8
280
     0
  0
ATTDEF
  5
E3
330
DC
100
AcDbEntity
  8
AM_6
100
AcDbText
 10
5.125
 20
-3.907208333333333
 30
0.0
 40
0.5
  1
ASME B18.3-$NS.
100
AcDbAttributeDefinition
  3

  2
NBSYN
 70
     8
280
     0
  0
ATTDEF
  5
E4
330
DC
100
AcDbEntity
  8
AM_6
100
AcDbText
 10
5.125
 20
-4.407208333333333
 30
0.0
 40
0.5
  1
ASME B18.3-1/4
100
AcDbAttributeDefinition
  3

  2
LINA
 70
     8
280
     0
  0
ATTDEF
  5
E5
330
DC
100
AcDbEntity
  8
AM_6
100
AcDbText
 10
5.125
 20
-4.907208333333333
 30
0.0
 40
0.5
  1
1/4
100
AcDbAttributeDefinition
  3

  2
NS
 70
     8
280
     0
  0
ATTDEF
  5
E6
330
DC
100
AcDbEntity
  8
AM_6
100
AcDbText
 10
5.125
 20
-5.407208333333333
 30
0.0
 40
0.5
  1
0.437
100
AcDbAttributeDefinition
  3

  2
A
 70
     8
280
     0
  0
ATTDEF
  5
E7
330
DC
100
AcDbEntity
  8
AM_6
100
AcDbText
 10
5.125
 20
-5.907208333333333
 30
0.0
 40
0.5
  1
0.132
100
AcDbAttributeDefinition
  3

  2
H
 70
     8
280
     0
  0
ATTDEF
  5
E8
330
DC
100
AcDbEntity
  8
AM_6
100
AcDbText
 10
5.125
 20
-6.407208333333333
 30
0.0
 40
0.5
  1
0.800
100
AcDbAttributeDefinition
  3

  2
L
 70
     8
280
     0
  0
ATTDEF
  5
E9
330
DC
100
AcDbEntity
  8
AM_6
100
AcDbText
 10
5.125
 20
-6.907208333333333
 30
0.0
 40
0.5
  1
0.031
100
AcDbAttributeDefinition
  3

  2
S
 70
     8
280
     0
  0
ATTDEF
  5
EA
330
DC
100
AcDbEntity
  8
AM_6
100
AcDbText
 10
5.125
 20
-7.407208333333333
 30
0.0
 40
0.5
  1
0.156250
100
AcDbAttributeDefinition
  3

  2
J
 70
     8
280
     0
  0
ATTDEF
  5
EB
330
DC
100
AcDbEntity
  8
AM_6
100
AcDbText
 10
5.125
 20
-7.907208333333333
 30
0.0
 40
0.5
  1
baldor
100
AcDbAttributeDefinition
  3

  2
COMPANY
 70
     8
280
     0
  0
LINE
  5
ED
330
DC
100
AcDbEntity
  8
AM_5
100
AcDbLine
 10
0.125
 20
-2.407208333333333
 30
0.0
 11
-0.125
 21
-2.407208333333333
 31
0.0
  0
LINE
  5
EE
330
DC
100
AcDbEntity
  8
AM_5
100
AcDbLine
 10
0.1064
 20
-2.407208333333333
 30
0.0
 11
0.1250000000000001
 21
-2.439424478354114
 31
0.0
  0
ENDBLK
  5
DF
330
DC
100
AcDbEntity
  8
0
100
AcDbBlockEnd
  0
BLOCK
  5
F1
330
EF
100
AcDbEntity
  8
0
100
AcDbBlockBegin
  2
4_ASME_B18_3_1_4_2_0_in_069564_4
 70
     2
 10
0.0
 20
0.0
 30
0.0
  3
4_ASME_B18_3_1_4_2_0_in_069564_4
  1

  0
ATTDEF
  5
F3
330
EF
100
AcDbEntity
  8
AM_6
100
AcDbText
 10
5.218500000000001
 20
-1.687208333333333
 30
0.0
 40
0.5
  1
ANSI/ASME B18.3-1998
100
AcDbAttributeDefinition
  3

  2
NN
 70
     8
280
     0
  0
ATTDEF
  5
F4
330
EF
100
AcDbEntity
  8
AM_6
100
AcDbText
 10
5.218500000000001
 20
-2.187208333333333
 30
0.0
 40
0.5
  1
Socket Button Head Cap Screws
100
AcDbAttributeDefinition
  3

  2
NT
 70
     8
280
     0
  0
ATTDEF
  5
F5
330
EF
100
AcDbEntity
  8
AM_6
100
AcDbText
 10
5.218500000000001
 20
-2.687208333333333
 30
0.0
 40
0.5
  1
ASME B18.3-1/4
100
AcDbAttributeDefinition
  3

  2
NB
 70
     8
280
     0
  0
ATTDEF
  5
F6
330
EF
100
AcDbEntity
  8
AM_6
100
AcDbText
 10
5.218500000000001
 20
-3.187208333333333
 30
0.0
 40
0.5
  1
ASME B18.3-$NS.
100
AcDbAttributeDefinition
  3

  2
NBSYN
 70
     8
280
     0
  0
ATTDEF
  5
F7
330
EF
100
AcDbEntity
  8
AM_6
100
AcDbText
 10
5.218500000000001
 20
-3.687208333333333
 30
0.0
 40
0.5
  1
ASME B18.3-1/4
100
AcDbAttributeDefinition
  3

  2
LINA
 70
     8
280
     0
  0
ATTDEF
  5
F8
330
EF
100
AcDbEntity
  8
AM_6
100
AcDbText
 10
5.218500000000001
 20
-4.187208333333333
 30
0.0
 40
0.5
  1
1/4
100
AcDbAttributeDefinition
  3

  2
NS
 70
     8
280
     0
  0
ATTDEF
  5
F9
330
EF
100
AcDbEntity
  8
AM_6
100
AcDbText
 10
5.218500000000001
 20
-4.687208333333333
 30
0.0
 40
0.5
  1
0.437
100
AcDbAttributeDefinition
  3

  2
A
 70
     8
280
     0
  0
ATTDEF
  5
FA
330
EF
100
AcDbEntity
  8
AM_6
100
AcDbText
 10
5.218500000000001
 20
-5.187208333333333
 30
0.0
 40
0.5
  1
0.132
100
AcDbAttributeDefinition
  3

  2
H
 70
     8
280
     0
  0
ATTDEF
  5
FB
330
EF
100
AcDbEntity
  8
AM_6
100
AcDbText
 10
5.218500000000001
 20
-5.687208333333333
 30
0.0
 40
0.5
  1
0.800
100
AcDbAttributeDefinition
  3

  2
L
 70
     8
280
     0
  0
ATTDEF
  5
FC
330
EF
100
AcDbEntity
  8
AM_6
100
AcDbText
 10
5.218500000000001
 20
-6.187208333333333
 30
0.0
 40
0.5
  1
0.031
100
AcDbAttributeDefinition
  3

  2
S
 70
     8
280
     0
  0
ATTDEF
  5
FD
330
EF
100
AcDbEntity
  8
AM_6
100
AcDbText
 10
5.218500000000001
 20
-6.687208333333333
 30
0.0
 40
0.5
  1
0.156250
100
AcDbAttributeDefinition
  3

  2
J
 70
     8
280
     0
  0
ATTDEF
  5
FE
330
EF
100
AcDbEntity
  8
AM_6
100
AcDbText
 10
5.218500000000001
 20
-7.187208333333333
 30
0.0
 40
0.5
  1
baldor
100
AcDbAttributeDefinition
  3

  2
COMPANY
 70
     8
280
     0
  0
LINE
  5
FF
330
EF
100
AcDbEntity
  8
AM_9
100
AcDbLine
 10
0.078125
 20
-2.549208333333333
 30
0.0
 11
0.078125
 21
-2.619208333333333
 31
0.0
  0
LINE
  5
100
330
EF
100
AcDbEntity
  8
AM_9
100
AcDbLine
 10
-0.078125
 20
-2.549208333333333
 30
0.0
 11
-0.078125
 21
-2.619208333333333
 31
0.0
  0
LINE
  5
101
330
EF
100
AcDbEntity
  8
AM_9
100
AcDbLine
 10
0.0
 20
-2.549208333333333
 30
0.0
 11
0.0
 21
-2.619208333333333
 31
0.0
  0
LINE
  5
102
330
EF
100
AcDbEntity
  8
AM_9
100
AcDbLine
 10
-0.078125
 20
-2.549208333333333
 30
0.0
 11
0.078125
 21
-2.549208333333333
 31
0.0
  0
LINE
  5
103
330
EF
100
AcDbEntity
  8
AM_9
100
AcDbLine
 10
-0.1064
 20
-1.687208333333333
 30
0.0
 11
-0.125
 21
-1.705808333333333
 31
0.0
  0
LINE
  5
104
330
EF
100
AcDbEntity
  8
AM_9
100
AcDbLine
 10
0.125
 20
-1.705808333333333
 30
0.0
 11
0.1064
 21
-1.687208333333333
 31
0.0
  0
LINE
  5
105
330
EF
100
AcDbEntity
  8
AM_9
100
AcDbLine
 10
-0.1064
 20
-1.687208333333333
 30
0.0
 11
0.1064
 21
-1.687208333333333
 31
0.0
  0
LINE
  5
106
330
EF
100
AcDbEntity
  8
AM_9
100
AcDbLine
 10
0.125
 20
-2.487208333333333
 30
0.0
 11
0.125
 21
-1.705808333333333
 31
0.0
  0
LINE
  5
107
330
EF
100
AcDbEntity
  8
AM_9
100
AcDbLine
 10
-0.125
 20
-1.705808333333333
 30
0.0
 11
-0.125
 21
-2.487208333333333
 31
0.0
  0
LINE
  5
108
330
EF
100
AcDbEntity
  8
AM_9
100
AcDbLine
 10
-0.125
 20
-1.705808333333333
 30
0.0
 11
0.125
 21
-1.705808333333333
 31
0.0
  0
LINE
  5
109
330
EF
100
AcDbEntity
  8
AM_5
100
AcDbLine
 10
-0.1250000001400746
 20
-2.407208333333333
 30
0.0
 11
0.125000000140076
 21
-2.407208333333333
 31
0.0
  0
LINE
  5
10A
330
EF
100
AcDbEntity
  8
AM_5
100
AcDbLine
 10
-0.1064
 20
-2.407208333333333
 30
0.0
 11
-0.1250000111286593
 21
-2.439424497629517
 31
0.0
  0
LINE
  5
10B
330
EF
100
AcDbEntity
  8
AM_4
100
AcDbLine
 10
-0.1174999943295598
 20
-2.619208333333333
 30
0.0
 11
0.1175
 21
-2.619208333333333
 31
0.0
  0
ARC
  5
10C
330
EF
100
AcDbEntity
  8
AM_4
100
AcDbCircle
 10
0.1174999999999997
 20
-2.518208333333332
 30
0.0
 40
0.1010000000000004
100
AcDbArc
 50
270.0
 51
0.0
  0
ARC
  5
10D
330
EF
100
AcDbEntity
  8
AM_4
100
AcDbCircle
 10
-0.1174999999999998
 20
-2.518208333333332
 30
0.0
 40
0.1010000000000003
100
AcDbArc
 50
180.0
 51
270.0
  0
LINE
  5
10E
330
EF
100
AcDbEntity
  8
AM_4
100
AcDbLine
 10
0.2185
 20
-2.518208333333332
 30
0.0
 11
0.2185
 21
-2.487208333333333
 31
0.0
  0
LINE
  5
10F
330
EF
100
AcDbEntity
  8
AM_4
100
AcDbLine
 10
-0.2185
 20
-2.487208333333333
 30
0.0
 11
-0.2185
 21
-2.518208333333332
 31
0.0
  0
LINE
  5
110
330
EF
100
AcDbEntity
  8
AM_4
100
AcDbLine
 10
-0.2185
 20
-2.518208333333332
 30
0.0
 11
0.2185
 21
-2.518208333333332
 31
0.0
  0
ENDBLK
  5
F2
330
EF
100
AcDbEntity
  8
0
100
AcDbBlockEnd
  0
BLOCK
  5
113
330
111
100
AcDbEntity
  8
0
100
AcDbBlockBegin
  2
5_070902LW_0_in_069564_4
 70
     2
 10
0.0
 20
0.0
 30
0.0
  3
5_070902LW_0_in_069564_4
  1

  0
ATTDEF
  5
115
330
111
100
AcDbEntity
  8
AM_6
100
AcDbText
 10
7.5
 20
-2.047208333333333
 30
0.0
 40
0.5
  1
Imperial Insert Lockwasher -Inch
100
AcDbAttributeDefinition
  3

  2
NN
 70
     8
280
     0
  0
ATTDEF
  5
116
330
111
100
AcDbEntity
  8
AM_6
100
AcDbText
 10
7.5
 20
-2.547208333333333
 30
0.0
 40
0.5
  1
Imperial Bearings
100
AcDbAttributeDefinition
  3

  2
NT
 70
     8
280
     0
  0
ATTDEF
  5
117
330
111
100
AcDbEntity
  8
AM_6
100
AcDbText
 10
7.5
 20
-3.047208333333333
 30
0.0
 40
0.5
  1
070902LW
100
AcDbAttributeDefinition
  3

  2
NB
 70
     8
280
     0
  0
ATTDEF
  5
118
330
111
100
AcDbEntity
  8
AM_6
100
AcDbText
 10
7.5
 20
-3.547208333333333
 30
0.0
 40
0.5
  1
$PN.LW
100
AcDbAttributeDefinition
  3

  2
NBSYN
 70
     8
280
     0
  0
ATTDEF
  5
119
330
111
100
AcDbEntity
  8
AM_6
100
AcDbText
 10
7.5
 20
-4.047208333333333
 30
0.0
 40
0.5
  1
070902
100
AcDbAttributeDefinition
  3

  2
LINA
 70
     8
280
     0
  0
ATTDEF
  5
11A
330
111
100
AcDbEntity
  8
AM_6
100
AcDbText
 10
7.5
 20
-4.547208333333333
 30
0.0
 40
0.5
  1
3-1/4
100
AcDbAttributeDefinition
  3

  2
SS
 70
     8
280
     0
  0
ATTDEF
  5
11B
330
111
100
AcDbEntity
  8
AM_6
100
AcDbText
 10
7.5
 20
-5.047208333333333
 30
0.0
 40
0.5
  1
3.250000
100
AcDbAttributeDefinition
  3

  2
SS1
 70
     8
280
     0
  0
ATTDEF
  5
11C
330
111
100
AcDbEntity
  8
AM_6
100
AcDbText
 10
7.5
 20
-5.547208333333333
 30
0.0
 40
0.5
  1
070902
100
AcDbAttributeDefinition
  3

  2
PN
 70
     8
280
     0
  0
ATTDEF
  5
11D
330
111
100
AcDbEntity
  8
AM_6
100
AcDbText
 10
7.5
 20
-6.047208333333333
 30
0.0
 40
0.5
  1
INS-IP-304R
100
AcDbAttributeDefinition
  3

  2
DESCRIPTION
 70
     8
280
     0
  0
ATTDEF
  5
11E
330
111
100
AcDbEntity
  8
AM_6
100
AcDbText
 10
7.5
 20
-6.547208333333333
 30
0.0
 40
0.5
  1
6.2992
100
AcDbAttributeDefinition
  3

  2
A
 70
     8
280
     0
  0
ATTDEF
  5
11F
330
111
100
AcDbEntity
  8
AM_6
100
AcDbText
 10
7.5
 20
-7.047208333333333
 30
0.0
 40
0.5
  1
1-5/8
100
AcDbAttributeDefinition
  3

  2
B
 70
     8
280
     0
  0
ATTDEF
  5
120
330
111
100
AcDbEntity
  8
AM_6
100
AcDbText
 10
7.5
 20
-7.547208333333333
 30
0.0
 40
0.5
  1
4-11/64
100
AcDbAttributeDefinition
  3

  2
C
 70
     8
280
     0
  0
ATTDEF
  5
121
330
111
100
AcDbEntity
  8
AM_6
100
AcDbText
 10
7.5
 20
-8.047208333333334
 30
0.0
 40
0.5
  1
1.483
100
AcDbAttributeDefinition
  3

  2
D
 70
     8
280
     0
  0
ATTDEF
  5
122
330
111
100
AcDbEntity
  8
AM_6
100
AcDbText
 10
7.5
 20
-8.547208333333334
 30
0.0
 40
0.5
  1
5
100
AcDbAttributeDefinition
  3

  2
E
 70
     8
280
     0
  0
ATTDEF
  5
123
330
111
100
AcDbEntity
  8
AM_6
100
AcDbText
 10
7.5
 20
-9.047208333333334
 30
0.0
 40
0.5
  1
0.2500
100
AcDbAttributeDefinition
  3

  2
NDM
 70
     8
280
     0
  0
ATTDEF
  5
124
330
111
100
AcDbEntity
  8
AM_6
100
AcDbText
 10
7.5
 20
-9.547208333333334
 30
0.0
 40
0.5
  1
0.1960
100
AcDbAttributeDefinition
  3

  2
KDM
 70
     8
280
     0
  0
ATTDEF
  5
125
330
111
100
AcDbEntity
  8
AM_6
100
AcDbText
 10
7.5
 20
-10.04720833333333
 30
0.0
 40
0.5
  1
4.28
100
AcDbAttributeDefinition
  3

  2
AL
 70
     8
280
     0
  0
ATTDEF
  5
126
330
111
100
AcDbEntity
  8
AM_6
100
AcDbText
 10
7.5
 20
-10.54720833333333
 30
0.0
 40
0.5
  1
0.50
100
AcDbAttributeDefinition
  3

  2
BL
 70
     8
280
     0
  0
ATTDEF
  5
127
330
111
100
AcDbEntity
  8
AM_6
100
AcDbText
 10
7.5
 20
-11.04720833333333
 30
0.0
 40
0.5
  1
0.07
100
AcDbAttributeDefinition
  3

  2
CL
 70
     8
280
     0
  0
ATTDEF
  5
128
330
111
100
AcDbEntity
  8
AM_6
100
AcDbText
 10
7.5
 20
-11.54720833333333
 30
0.0
 40
0.5
  1
0.44
100
AcDbAttributeDefinition
  3

  2
DL
 70
     8
280
     0
  0
ATTDEF
  5
129
330
111
100
AcDbEntity
  8
AM_6
100
AcDbText
 10
7.5
 20
-12.04720833333333
 30
0.0
 40
0.5
  1
baldor
100
AcDbAttributeDefinition
  3

  2
COMPANY
 70
     8
280
     0
  0
LINE
  5
12A
330
111
100
AcDbEntity
  8
AM_9
100
AcDbLine
 10
2.152777777777778
 20
-2.417208333333333
 30
0.0
 11
2.152777777777778
 21
-2.487208333333333
 31
0.0
  0
LINE
  5
12B
330
111
100
AcDbEntity
  8
AM_9
100
AcDbLine
 10
2.274198438901627
 20
-2.487208333333333
 30
0.0
 11
2.274198438901627
 21
-2.417208333333333
 31
0.0
  0
LINE
  5
12C
330
111
100
AcDbEntity
  8
AM_9
100
AcDbLine
 10
-2.152777777777778
 20
-2.417208333333333
 30
0.0
 11
-2.152777777777778
 21
-2.487208333333333
 31
0.0
  0
LINE
  5
12D
330
111
100
AcDbEntity
  8
AM_9
100
AcDbLine
 10
-2.281462631371696
 20
-2.417208333333333
 30
0.0
 11
-2.281462631371696
 21
-2.487208333333333
 31
0.0
  0
LINE
  5
12E
330
111
100
AcDbEntity
  8
AM_9
100
AcDbLine
 10
-1.752303998286404
 20
-2.417208333333333
 30
0.0
 11
-1.752303998286404
 21
-2.487208333333333
 31
0.0
  0
LINE
  5
12F
330
111
100
AcDbEntity
  8
AM_9
100
AcDbLine
 10
1.752303998286404
 20
-2.417208333333333
 30
0.0
 11
1.752303998286404
 21
-2.487208333333333
 31
0.0
  0
LINE
  5
130
330
111
100
AcDbEntity
  8
AM_9
100
AcDbLine
 10
-1.327454387536935
 20
-2.417208333333333
 30
0.0
 11
-1.327454387536935
 21
-2.487208333333333
 31
0.0
  0
LINE
  5
131
330
111
100
AcDbEntity
  8
AM_9
100
AcDbLine
 10
1.327454387536935
 20
-2.417208333333333
 30
0.0
 11
1.327454387536935
 21
-2.487208333333333
 31
0.0
  0
LINE
  5
132
330
111
100
AcDbEntity
  8
AM_9
100
AcDbLine
 10
-0.7860626501752224
 20
-2.417208333333333
 30
0.0
 11
-0.7860626501752224
 21
-2.487208333333333
 31
0.0
  0
LINE
  5
133
330
111
100
AcDbEntity
  8
AM_9
100
AcDbLine
 10
-0.7355029652476233
 20
-2.047208333333333
 30
0.0
 11
-0.7355029652476233
 21
-2.487208333333333
 31
0.0
  0
LINE
  5
134
330
111
100
AcDbEntity
  8
AM_9
100
AcDbLine
 10
-1.150677692240298
 20
-2.417208333333333
 30
0.0
 11
-1.150677692240298
 21
-2.487208333333333
 31
0.0
  0
LINE
  5
135
330
111
100
AcDbEntity
  8
AM_9
100
AcDbLine
 10
1.150677692240298
 20
-2.417208333333333
 30
0.0
 11
1.150677692240296
 21
-2.487208333333333
 31
0.0
  0
LINE
  5
136
330
111
100
AcDbEntity
  8
AM_9
100
AcDbLine
 10
-0.555092767047401
 20
-2.417208333333333
 30
0.0
 11
-0.555092767047401
 21
-2.487208333333333
 31
0.0
  0
LINE
  5
137
330
111
100
AcDbEntity
  8
AM_9
100
AcDbLine
 10
-0.5045330821198014
 20
-2.047208333333333
 30
0.0
 11
-0.7683248505447332
 21
-2.047208333333333
 31
0.0
  0
LINE
  5
138
330
111
100
AcDbEntity
  8
AM_9
100
AcDbLine
 10
-0.5045330821198014
 20
-2.047208333333333
 30
0.0
 11
-0.5045330821198014
 21
-2.487208333333333
 31
0.0
  0
LINE
  5
139
330
111
100
AcDbEntity
  8
AM_9
100
AcDbLine
 10
-0.5373549674169114
 20
-2.417208333333333
 30
0.0
 11
-0.5373549674169115
 21
-2.047208333333333
 31
0.0
  0
LINE
  5
13A
330
111
100
AcDbEntity
  8
AM_9
100
AcDbLine
 10
-0.7683248505447332
 20
-2.047208333333333
 30
0.0
 11
-0.7683248505447332
 21
-2.417208333333333
 31
0.0
  0
LINE
  5
13B
330
111
100
AcDbEntity
  8
AM_9
100
AcDbLine
 10
-1.610632112702692
 20
-2.417208333333333
 30
0.0
 11
-1.610632112702692
 21
-2.487208333333333
 31
0.0
  0
LINE
  5
13C
330
111
100
AcDbEntity
  8
AM_9
100
AcDbLine
 10
-1.433855417406047
 20
-2.417208333333333
 30
0.0
 11
-1.433855417406047
 21
-2.487208333333333
 31
0.0
  0
LINE
  5
13D
330
111
100
AcDbEntity
  8
AM_9
100
AcDbLine
 10
-1.647281073400108
 20
-2.417208333333333
 30
0.0
 11
-1.647281073400108
 21
-2.487208333333333
 31
0.0
  0
LINE
  5
13E
330
111
100
AcDbEntity
  8
AM_9
100
AcDbLine
 10
1.433855417406054
 20
-2.417208333333333
 30
0.0
 11
1.433855417406054
 21
-2.487208333333333
 31
0.0
  0
LINE
  5
13F
330
111
100
AcDbEntity
  8
AM_9
100
AcDbLine
 10
1.610632112702691
 20
-2.417208333333333
 30
0.0
 11
1.610632112702691
 21
-2.487208333333333
 31
0.0
  0
LINE
  5
140
330
111
100
AcDbEntity
  8
AM_9
100
AcDbLine
 10
1.647281073400107
 20
-2.487208333333333
 30
0.0
 11
1.647281073400107
 21
-2.417208333333333
 31
0.0
  0
LINE
  5
141
330
111
100
AcDbEntity
  8
AM_9
100
AcDbLine
 10
-0.1250000000000004
 20
-2.417208333333333
 30
0.0
 11
-0.1250000000000004
 21
-2.487208333333333
 31
0.0
  0
LINE
  5
142
330
111
100
AcDbEntity
  8
AM_9
100
AcDbLine
 10
0.1249999999999998
 20
-2.417208333333333
 30
0.0
 11
0.1249999999999998
 21
-2.487208333333333
 31
0.0
  0
LINE
  5
143
330
111
100
AcDbEntity
  8
AM_4
100
AcDbLine
 10
-2.5
 20
-2.417208333333333
 30
0.0
 11
-2.5
 21
-2.487208333333333
 31
0.0
  0
LINE
  5
144
330
111
100
AcDbEntity
  8
AM_4
100
AcDbLine
 10
2.5
 20
-2.487208333333333
 30
0.0
 11
2.5
 21
-2.417208333333333
 31
0.0
  0
LINE
  5
145
330
111
100
AcDbEntity
  8
AM_4
100
AcDbLine
 10
-2.5
 20
-2.487208333333333
 30
0.0
 11
2.5
 21
-2.487208333333333
 31
0.0
  0
LINE
  5
146
330
111
100
AcDbEntity
  8
AM_4
100
AcDbLine
 10
-2.5
 20
-2.417208333333333
 30
0.0
 11
2.5
 21
-2.417208333333333
 31
0.0
  0
ENDBLK
  5
114
330
111
100
AcDbEntity
  8
0
100
AcDbBlockEnd
  0
BLOCK
  5
149
330
147
100
AcDbEntity
  8
0
100
AcDbBlockBegin
  2
6_070934I_0_in_069564_4
 70
     2
 10
0.0
 20
0.0
 30
0.0
  3
6_070934I_0_in_069564_4
  1

  0
ATTDEF
  5
14B
330
147
100
AcDbEntity
  8
AM_6
100
AcDbText
 10
8.1496
 20
1.4625
 30
0.0
 40
0.5
  1
Imperial Insert -Inch
100
AcDbAttributeDefinition
  3

  2
NN
 70
     8
280
     0
  0
ATTDEF
  5
14C
330
147
100
AcDbEntity
  8
AM_6
100
AcDbText
 10
8.1496
 20
0.9624999999999997
 30
0.0
 40
0.5
  1
Imperial Bearings
100
AcDbAttributeDefinition
  3

  2
NT
 70
     8
280
     0
  0
ATTDEF
  5
14D
330
147
100
AcDbEntity
  8
AM_6
100
AcDbText
 10
8.1496
 20
0.4624999999999997
 30
0.0
 40
0.5
  1
070934I
100
AcDbAttributeDefinition
  3

  2
NB
 70
     8
280
     0
  0
ATTDEF
  5
14E
330
147
100
AcDbEntity
  8
AM_6
100
AcDbText
 10
8.1496
 20
-0.0375000000000003
 30
0.0
 40
0.5
  1
$PN.I
100
AcDbAttributeDefinition
  3

  2
NBSYN
 70
     8
280
     0
  0
ATTDEF
  5
14F
330
147
100
AcDbEntity
  8
AM_6
100
AcDbText
 10
8.1496
 20
-0.5375000000000003
 30
0.0
 40
0.5
  1
070934
100
AcDbAttributeDefinition
  3

  2
LINA
 70
     8
280
     0
  0
ATTDEF
  5
150
330
147
100
AcDbEntity
  8
AM_6
100
AcDbText
 10
8.1496
 20
-1.0375
 30
0.0
 40
0.5
  1
3-1/4
100
AcDbAttributeDefinition
  3

  2
SS
 70
     8
280
     0
  0
ATTDEF
  5
151
330
147
100
AcDbEntity
  8
AM_6
100
AcDbText
 10
8.1496
 20
-1.5375
 30
0.0
 40
0.5
  1
3.250000
100
AcDbAttributeDefinition
  3

  2
SS1
 70
     8
280
     0
  0
ATTDEF
  5
152
330
147
100
AcDbEntity
  8
AM_6
100
AcDbText
 10
8.1496
 20
-2.037500000000001
 30
0.0
 40
0.5
  1
070934
100
AcDbAttributeDefinition
  3

  2
PN
 70
     8
280
     0
  0
ATTDEF
  5
153
330
147
100
AcDbEntity
  8
AM_6
100
AcDbText
 10
8.1496
 20
-2.537500000000001
 30
0.0
 40
0.5
  1
INS-IP-304L
100
AcDbAttributeDefinition
  3

  2
DESCRIPTION
 70
     8
280
     0
  0
ATTDEF
  5
154
330
147
100
AcDbEntity
  8
AM_6
100
AcDbText
 10
8.1496
 20
-3.037500000000001
 30
0.0
 40
0.5
  1
Labyrinth Seal
100
AcDbAttributeDefinition
  3

  2
ST
 70
     8
280
     0
  0
ATTDEF
  5
155
330
147
100
AcDbEntity
  8
AM_6
100
AcDbText
 10
8.1496
 20
-3.537500000000001
 30
0.0
 40
0.5
  1
6.2992
100
AcDbAttributeDefinition
  3

  2
A
 70
     8
280
     0
  0
ATTDEF
  5
156
330
147
100
AcDbEntity
  8
AM_6
100
AcDbText
 10
8.1496
 20
-4.037500000000001
 30
0.0
 40
0.5
  1
1-5/8
100
AcDbAttributeDefinition
  3

  2
B
 70
     8
280
     0
  0
ATTDEF
  5
157
330
147
100
AcDbEntity
  8
AM_6
100
AcDbText
 10
8.1496
 20
-4.537500000000001
 30
0.0
 40
0.5
  1
4-11/64
100
AcDbAttributeDefinition
  3

  2
C
 70
     8
280
     0
  0
ATTDEF
  5
158
330
147
100
AcDbEntity
  8
AM_6
100
AcDbText
 10
8.1496
 20
-5.037500000000001
 30
0.0
 40
0.5
  1
1.483
100
AcDbAttributeDefinition
  3

  2
D
 70
     8
280
     0
  0
ATTDEF
  5
159
330
147
100
AcDbEntity
  8
AM_6
100
AcDbText
 10
8.1496
 20
-5.537500000000001
 30
0.0
 40
0.5
  1
5
100
AcDbAttributeDefinition
  3

  2
E
 70
     8
280
     0
  0
ATTDEF
  5
15A
330
147
100
AcDbEntity
  8
AM_6
100
AcDbText
 10
8.1496
 20
-6.037500000000001
 30
0.0
 40
0.5
  1
0.2500
100
AcDbAttributeDefinition
  3

  2
NDM
 70
     8
280
     0
  0
ATTDEF
  5
15B
330
147
100
AcDbEntity
  8
AM_6
100
AcDbText
 10
8.1496
 20
-6.537500000000001
 30
0.0
 40
0.5
  1
0.132
100
AcDbAttributeDefinition
  3

  2
H
 70
     8
280
     0
  0
ATTDEF
  5
15C
330
147
100
AcDbEntity
  8
AM_6
100
AcDbText
 10
8.1496
 20
-7.037500000000001
 30
0.0
 40
0.5
  1
0.1960
100
AcDbAttributeDefinition
  3

  2
KDM
 70
     8
280
     0
  0
ATTDEF
  5
15D
330
147
100
AcDbEntity
  8
AM_6
100
AcDbText
 10
8.1496
 20
-7.537500000000001
 30
0.0
 40
0.5
  1
4.28
100
AcDbAttributeDefinition
  3

  2
AL
 70
     8
280
     0
  0
ATTDEF
  5
15E
330
147
100
AcDbEntity
  8
AM_6
100
AcDbText
 10
8.1496
 20
-8.037500000000001
 30
0.0
 40
0.5
  1
0.50
100
AcDbAttributeDefinition
  3

  2
BL
 70
     8
280
     0
  0
ATTDEF
  5
15F
330
147
100
AcDbEntity
  8
AM_6
100
AcDbText
 10
8.1496
 20
-8.537500000000001
 30
0.0
 40
0.5
  1
0.07
100
AcDbAttributeDefinition
  3

  2
CL
 70
     8
280
     0
  0
ATTDEF
  5
160
330
147
100
AcDbEntity
  8
AM_6
100
AcDbText
 10
8.1496
 20
-9.037500000000001
 30
0.0
 40
0.5
  1
0.44
100
AcDbAttributeDefinition
  3

  2
DL
 70
     8
280
     0
  0
ATTDEF
  5
161
330
147
100
AcDbEntity
  8
AM_6
100
AcDbText
 10
8.1496
 20
-9.537500000000001
 30
0.0
 40
0.5
  1
0.8000
100
AcDbAttributeDefinition
  3

  2
LL
 70
     8
280
     0
  0
ATTDEF
  5
162
330
147
100
AcDbEntity
  8
AM_6
100
AcDbText
 10
8.1496
 20
-10.0375
 30
0.0
 40
0.5
  1
0.025
100
AcDbAttributeDefinition
  3

  2
Y
 70
     8
280
     0
  0
ATTDEF
  5
163
330
147
100
AcDbEntity
  8
AM_6
100
AcDbText
 10
8.1496
 20
-10.5375
 30
0.0
 40
0.5
  1
0.025000
100
AcDbAttributeDefinition
  3

  2
Y1
 70
     8
280
     0
  0
ATTDEF
  5
164
330
147
100
AcDbEntity
  8
AM_6
100
AcDbText
 10
8.1496
 20
-11.0375
 30
0.0
 40
0.5
  1
4-3/64
100
AcDbAttributeDefinition
  3

  2
Z
 70
     8
280
     0
  0
ATTDEF
  5
165
330
147
100
AcDbEntity
  8
AM_6
100
AcDbText
 10
8.1496
 20
-11.5375
 30
0.0
 40
0.5
  1
4.046875
100
AcDbAttributeDefinition
  3

  2
Z1
 70
     8
280
     0
  0
ATTDEF
  5
166
330
147
100
AcDbEntity
  8
AM_6
100
AcDbText
 10
8.1496
 20
-12.0375
 30
0.0
 40
0.5
  1
baldor
100
AcDbAttributeDefinition
  3

  2
COMPANY
 70
     8
280
     0
  0
LINE
  5
167
330
147
100
AcDbEntity
  8
AM_9
100
AcDbLine
 10
-0.7700566191720563
 20
0.7670000000000001
 30
0.0
 11
-0.7700566191720563
 21
-2.417208333333333
 31
0.0
  0
LINE
  5
168
330
147
100
AcDbEntity
  8
AM_9
100
AcDbLine
 10
-0.5045330821198016
 20
0.7670000000000001
 30
0.0
 11
-0.5045330821198012
 21
-2.734375
 31
0.0
  0
LINE
  5
169
330
147
100
AcDbEntity
  8
AM_9
100
AcDbLine
 10
-0.7355029652476234
 20
-2.487208333333333
 30
0.0
 11
-0.7355029652476234
 21
0.7670000000000001
 31
0.0
  0
LINE
  5
16A
330
147
100
AcDbEntity
  8
AM_9
100
AcDbLine
 10
-1.625
 20
0.767
 30
0.0
 11
-1.625
 21
-2.734374999999999
 31
0.0
  0
LINE
  5
16B
330
147
100
AcDbEntity
  8
AM_9
100
AcDbLine
 10
1.625
 20
-2.734374999999999
 30
0.0
 11
1.625
 21
0.767
 31
0.0
  0
LINE
  5
16C
330
147
100
AcDbEntity
  8
AM_9
100
AcDbLine
 10
-0.5390867360442345
 20
0.7670000000000001
 30
0.0
 11
-0.5390867360442345
 21
-2.417208333333333
 31
0.0
  0
LINE
  5
16D
330
147
100
AcDbEntity
  8
AM_9
100
AcDbLine
 10
1.336431816442575
 20
-1.977208333333333
 30
0.0
 11
1.336431816442575
 21
-2.417208333333333
 31
0.0
  0
LINE
  5
16E
330
147
100
AcDbEntity
  8
AM_9
100
AcDbLine
 10
-1.336431816442575
 20
-1.977208333333333
 30
0.0
 11
-1.336431816442575
 21
-2.417208333333333
 31
0.0
  0
LINE
  5
16F
330
147
100
AcDbEntity
  8
AM_9
100
AcDbLine
 10
-0.5373549674169111
 20
-2.487208333333333
 30
0.0
 11
-0.5373549674169109
 21
-2.417208333333333
 31
0.0
  0
LINE
  5
170
330
147
100
AcDbEntity
  8
AM_9
100
AcDbLine
 10
-0.7683248505447328
 20
-2.417208333333333
 30
0.0
 11
-0.7683248505447329
 21
-2.487208333333333
 31
0.0
  0
LINE
  5
171
330
147
100
AcDbEntity
  8
AM_9
100
AcDbLine
 10
-1.710526315789474
 20
-2.417208333333333
 30
0.0
 11
-1.710526315789474
 21
-2.487208333333333
 31
0.0
  0
LINE
  5
172
330
147
100
AcDbEntity
  8
AM_9
100
AcDbLine
 10
1.710526315789474
 20
-2.487208333333333
 30
0.0
 11
1.710526315789474
 21
-2.417208333333333
 31
0.0
  0
LINE
  5
173
330
147
100
AcDbEntity
  8
AM_9
100
AcDbLine
 10
-1.710526315789474
 20
1.4375
 30
0.0
 11
-1.710526315789474
 21
0.767
 31
0.0
  0
LINE
  5
174
330
147
100
AcDbEntity
  8
AM_9
100
AcDbLine
 10
1.710526315789474
 20
0.767
 30
0.0
 11
1.710526315789474
 21
1.4375
 31
0.0
  0
LINE
  5
175
330
147
100
AcDbEntity
  8
AM_9
100
AcDbLine
 10
1.336431816442575
 20
-1.977208333333333
 30
0.0
 11
1.593048406283363
 21
-1.977208333333333
 31
0.0
  0
LINE
  5
176
330
147
100
AcDbEntity
  8
AM_9
100
AcDbLine
 10
-1.593048406283363
 20
-1.977208333333333
 30
0.0
 11
-1.336431816442575
 21
-1.977208333333333
 31
0.0
  0
LINE
  5
177
330
147
100
AcDbEntity
  8
AM_9
100
AcDbLine
 10
2.0234375
 20
1.4375
 30
0.0
 11
-2.0234375
 21
1.4375
 31
0.0
  0
LINE
  5
178
330
147
100
AcDbEntity
  8
AM_9
100
AcDbLine
 10
-2.0234375
 20
1.462499999999999
 30
0.0
 11
-2.0234375
 21
1.4375
 31
0.0
  0
LINE
  5
179
330
147
100
AcDbEntity
  8
AM_9
100
AcDbLine
 10
2.0234375
 20
1.4375
 30
0.0
 11
2.0234375
 21
1.462499999999999
 31
0.0
  0
LINE
  5
17A
330
147
100
AcDbEntity
  8
AM_9
100
AcDbLine
 10
2.196380876068376
 20
1.4625
 30
0.0
 11
-2.196380876064728
 21
1.4625
 31
0.0
  0
ARC
  5
17B
330
147
100
AcDbEntity
  8
AM_9
100
AcDbCircle
 10
-2.196380876068375
 20
1.410616987179486
 30
0.0
 40
0.0518830128205137
100
AcDbArc
 50
90.0
 51
180.0
  0
ARC
  5
17C
330
147
100
AcDbEntity
  8
AM_9
100
AcDbCircle
 10
2.196380876068375
 20
1.410616987179486
 30
0.0
 40
0.0518830128205137
100
AcDbArc
 50
0.0
 51
90.0
  0
LINE
  5
17D
330
147
100
AcDbEntity
  8
AM_9
100
AcDbLine
 10
2.248263888888889
 20
1.410616987179484
 30
0.0
 11
-2.248263888888889
 21
1.410616987179484
 31
0.0
  0
LINE
  5
17E
330
147
100
AcDbEntity
  8
AM_9
100
AcDbLine
 10
-2.248263888888889
 20
1.410616987179484
 30
0.0
 11
-2.248263888888889
 21
1.091999999999999
 31
0.0
  0
LINE
  5
17F
330
147
100
AcDbEntity
  8
AM_9
100
AcDbLine
 10
2.248263888888889
 20
1.091999999999999
 30
0.0
 11
2.248263888888889
 21
1.410616987179484
 31
0.0
  0
LINE
  5
180
330
147
100
AcDbEntity
  8
AM_9
100
AcDbLine
 10
0.0
 20
-1.577208333333333
 30
0.0
 11
-0.0979499999999999
 21
-1.622883168449615
 31
0.0
  0
LINE
  5
181
330
147
100
AcDbEntity
  8
AM_9
100
AcDbLine
 10
0.0979499999999999
 20
-1.622883168449615
 30
0.0
 11
0.0
 21
-1.577208333333333
 31
0.0
  0
LINE
  5
182
330
147
100
AcDbEntity
  8
AM_9
100
AcDbLine
 10
0.09795
 20
-1.622883168449615
 30
0.0
 11
-0.09795
 21
-1.622883168449615
 31
0.0
  0
LINE
  5
183
330
147
100
AcDbEntity
  8
AM_9
100
AcDbLine
 10
-0.09795
 20
-1.622883168449615
 30
0.0
 11
-0.09795
 21
-2.390158333333333
 31
0.0
  0
LINE
  5
184
330
147
100
AcDbEntity
  8
AM_9
100
AcDbLine
 10
0.09795
 20
-2.390158333333333
 30
0.0
 11
0.09795
 21
-1.622883168449615
 31
0.0
  0
LINE
  5
185
330
147
100
AcDbEntity
  8
AM_9
100
AcDbLine
 10
0.09795
 20
-2.390158333333333
 30
0.0
 11
-0.09795
 21
-2.390158333333333
 31
0.0
  0
LINE
  5
186
330
147
100
AcDbEntity
  8
AM_9
100
AcDbLine
 10
-0.09795
 20
-2.390158333333333
 30
0.0
 11
-0.1249999999999999
 21
-2.417208333333333
 31
0.0
  0
LINE
  5
187
330
147
100
AcDbEntity
  8
AM_9
100
AcDbLine
 10
0.1249999999999999
 20
-2.417208333333333
 30
0.0
 11
0.09795
 21
-2.390158333333333
 31
0.0
  0
LINE
  5
188
330
147
100
AcDbEntity
  8
AM_9
100
AcDbLine
 10
2.519589096652808
 20
-1.85625
 30
0.0
 11
2.554448754797947
 21
-0.858
 31
0.0
  0
LINE
  5
189
330
147
100
AcDbEntity
  8
AM_9
100
AcDbLine
 10
-2.554448754797947
 20
-0.858
 30
0.0
 11
-2.519589096652808
 21
-1.85625
 31
0.0
  0
LINE
  5
18A
330
147
100
AcDbEntity
  8
AM_9
100
AcDbLine
 10
2.70422613559441
 20
1.091999999999999
 30
0.0
 11
-2.70422613558261
 21
1.091999999999999
 31
0.0
  0
ARC
  5
18B
330
147
100
AcDbEntity
  8
AM_9
100
AcDbCircle
 10
-2.70422613559441
 20
0.9920000000000011
 30
0.0
 40
0.0999999999999983
100
AcDbArc
 50
90.0
 51
150.0000000000006
  0
ARC
  5
18C
330
147
100
AcDbEntity
  8
AM_9
100
AcDbCircle
 10
2.70422613559441
 20
0.992000000000001
 30
0.0
 40
0.0999999999999989
100
AcDbArc
 50
29.99999999999944
 51
90.0
  0
LINE
  5
18D
330
147
100
AcDbEntity
  8
AM_9
100
AcDbLine
 10
2.790828675972853
 20
1.042
 30
0.0
 11
-2.790828675972853
 21
1.042
 31
0.0
  0
LINE
  5
18E
330
147
100
AcDbEntity
  8
AM_9
100
AcDbLine
 10
-2.790828675972853
 20
1.042
 30
0.0
 11
-2.9496
 21
0.767
 31
0.0
  0
LINE
  5
18F
330
147
100
AcDbEntity
  8
AM_9
100
AcDbLine
 10
2.9496
 20
0.767
 30
0.0
 11
2.790828675972853
 21
1.042
 31
0.0
  0
LINE
  5
190
330
147
100
AcDbEntity
  8
AM_9
100
AcDbLine
 10
-3.06835
 20
0.0014097093716568
 30
0.0
 11
-3.06835
 21
-0.092409709371657
 31
0.0
  0
LINE
  5
191
330
147
100
AcDbEntity
  8
AM_9
100
AcDbLine
 10
3.06835
 20
-0.092409709371657
 30
0.0
 11
3.06835
 21
0.0014097093716568
 31
0.0
  0
LINE
  5
192
330
147
100
AcDbEntity
  8
AM_9
100
AcDbLine
 10
-3.1496
 20
0.7169999999999997
 30
0.0
 11
-3.1496
 21
0.0483194187433138
 31
0.0
  0
LINE
  5
193
330
147
100
AcDbEntity
  8
AM_9
100
AcDbLine
 10
3.1496
 20
0.0483194187433138
 30
0.0
 11
3.1496
 21
0.7169999999999997
 31
0.0
  0
LINE
  5
194
330
147
100
AcDbEntity
  8
AM_9
100
AcDbLine
 10
3.1496
 20
0.0483194187433138
 30
0.0
 11
-3.1496
 21
0.0483194187433138
 31
0.0
  0
LINE
  5
195
330
147
100
AcDbEntity
  8
AM_9
100
AcDbLine
 10
-2.197040220978851
 20
0.001409709371657
 30
0.0
 11
-3.06835
 21
0.0014097093716568
 31
0.0
  0
LINE
  5
196
330
147
100
AcDbEntity
  8
AM_9
100
AcDbLine
 10
-1.769801236297476
 20
0.001409709371657
 30
0.0
 11
-2.194459910342657
 21
0.001409709371657
 31
0.0
  0
LINE
  5
197
330
147
100
AcDbEntity
  8
AM_9
100
AcDbLine
 10
3.06835
 20
0.0014097093716568
 30
0.0
 11
-1.767272747207109
 21
0.001409709371657
 31
0.0
  0
LINE
  5
198
330
147
100
AcDbEntity
  8
AM_9
100
AcDbLine
 10
3.06835
 20
0.0014097093716568
 30
0.0
 11
3.1496
 21
0.0483194187433138
 31
0.0
  0
LINE
  5
199
330
147
100
AcDbEntity
  8
AM_9
100
AcDbLine
 10
-3.1496
 20
0.0483194187433138
 30
0.0
 11
-3.06835
 21
0.0014097093716568
 31
0.0
  0
LINE
  5
19A
330
147
100
AcDbEntity
  8
AM_9
100
AcDbLine
 10
3.0996
 20
0.767
 30
0.0
 11
-3.099599999994544
 21
0.767
 31
0.0
  0
LINE
  5
19B
330
147
100
AcDbEntity
  8
AM_9
100
AcDbLine
 10
3.1496
 20
0.7169999999999997
 30
0.0
 11
-3.1496
 21
0.7169999999999997
 31
0.0
  0
ARC
  5
19C
330
147
100
AcDbEntity
  8
AM_9
100
AcDbCircle
 10
-3.0996
 20
0.717000000000001
 30
0.0
 40
0.049999999999999
100
AcDbArc
 50
90.0
 51
180.0
  0
ARC
  5
19D
330
147
100
AcDbEntity
  8
AM_9
100
AcDbCircle
 10
3.0996
 20
0.717000000000001
 30
0.0
 40
0.0499999999999994
100
AcDbArc
 50
0.0
 51
90.0
  0
LINE
  5
19E
330
147
100
AcDbEntity
  8
AM_9
100
AcDbLine
 10
3.0996
 20
-0.8580000000000002
 30
0.0
 11
-3.099599999994544
 21
-0.8580000000000002
 31
0.0
  0
ARC
  5
19F
330
147
100
AcDbEntity
  8
AM_9
100
AcDbCircle
 10
-3.0996
 20
-0.8080000000000007
 30
0.0
 40
0.0499999999999994
100
AcDbArc
 50
180.0
 51
270.0
  0
ARC
  5
1A0
330
147
100
AcDbEntity
  8
AM_9
100
AcDbCircle
 10
3.0996
 20
-0.8080000000000007
 30
0.0
 40
0.0499999999999995
100
AcDbArc
 50
270.0
 51
0.0
  0
LINE
  5
1A1
330
147
100
AcDbEntity
  8
AM_9
100
AcDbLine
 10
-2.194506388050296
 20
-0.0924097093716569
 30
0.0
 11
-3.06835
 21
-0.092409709371657
 31
0.0
  0
LINE
  5
1A2
330
147
100
AcDbEntity
  8
AM_9
100
AcDbLine
 10
3.06835
 20
-0.092409709371657
 30
0.0
 11
-2.189125161992684
 21
-0.0924097093716569
 31
0.0
  0
LINE
  5
1A3
330
147
100
AcDbEntity
  8
AM_9
100
AcDbLine
 10
-3.06835
 20
-0.092409709371657
 30
0.0
 11
-3.1496
 21
-0.139319418743314
 31
0.0
  0
LINE
  5
1A4
330
147
100
AcDbEntity
  8
AM_9
100
AcDbLine
 10
3.1496
 20
-0.139319418743314
 30
0.0
 11
3.06835
 21
-0.092409709371657
 31
0.0
  0
LINE
  5
1A5
330
147
100
AcDbEntity
  8
AM_9
100
AcDbLine
 10
3.1496
 20
-0.139319418743314
 30
0.0
 11
-3.1496
 21
-0.139319418743314
 31
0.0
  0
LINE
  5
1A6
330
147
100
AcDbEntity
  8
AM_9
100
AcDbLine
 10
3.1496
 20
-0.8080000000000005
 30
0.0
 11
-3.1496
 21
-0.8080000000000005
 31
0.0
  0
LINE
  5
1A7
330
147
100
AcDbEntity
  8
AM_9
100
AcDbLine
 10
-3.1496
 20
-0.139319418743314
 30
0.0
 11
-3.1496
 21
-0.8080000000000005
 31
0.0
  0
LINE
  5
1A8
330
147
100
AcDbEntity
  8
AM_9
100
AcDbLine
 10
3.1496
 20
-0.8080000000000005
 30
0.0
 11
3.1496
 21
-0.139319418743314
 31
0.0
  0
LINE
  5
1A9
330
147
100
AcDbEntity
  8
AM_5
100
AcDbLine
 10
0.1250000000000002
 20
-1.657208333333333
 30
0.0
 11
0.09795
 21
-1.641591008551754
 31
0.0
  0
LINE
  5
1AA
330
147
100
AcDbEntity
  8
AM_5
100
AcDbLine
 10
0.09795
 20
-1.657208333333346
 30
0.0
 11
0.1249999999999999
 21
-1.657208333333346
 31
0.0
  0
LINE
  5
1AB
330
147
100
AcDbEntity
  8
AM_5
100
AcDbLine
 10
-0.09795
 20
-1.657208333333346
 30
0.0
 11
-0.1250000000000002
 21
-1.657208333333346
 31
0.0
  0
LINE
  5
1AC
330
147
100
AcDbEntity
  8
AM_5
100
AcDbLine
 10
-0.1250000000000002
 20
-1.657208333333346
 30
0.0
 11
-0.09795
 21
-1.641591008551766
 31
0.0
  0
ARC
  5
1AD
330
147
100
AcDbEntity
  8
AM_4
100
AcDbCircle
 10
2.451715561259646
 20
-2.367208333333333
 30
0.0
 40
0.0500000000000007
100
AcDbArc
 50
270.0
 51
357.9999999999991
  0
ARC
  5
1AE
330
147
100
AcDbEntity
  8
AM_4
100
AcDbCircle
 10
-2.451715561259646
 20
-2.367208333333333
 30
0.0
 40
0.0500000000000003
100
AcDbArc
 50
182.0000000000008
 51
270.0
  0
LWPOLYLINE
  5
1AF
330
147
100
AcDbEntity
  8
AM_4
100
AcDbPolyline
 90
        6
 70
     0
 43
0.0
 10
1.936880151435482
 20
-2.368953308168459
 10
1.934486066876636
 20
-2.385329277847101
 10
1.928394861241001
 20
-2.399669505113438
 10
1.919278208205407
 20
-2.410392061431032
 10
1.908118701042668
 20
-2.416297213756794
 10
1.90136493504007
 20
-2.417208333333333
  0
LWPOLYLINE
  5
1B0
330
147
100
AcDbEntity
  8
AM_4
100
AcDbPolyline
 90
        6
 70
     0
 43
0.0
 10
-1.901364935040069
 20
-2.417208333333333
 10
-1.906574535217859
 20
-2.41666824476616
 10
-1.917978192677443
 20
-2.411408839127761
 10
-1.927485891094621
 20
-2.401110702644239
 10
-1.934003513616657
 20
-2.386986909572901
 10
-1.936880151435481
 20
-2.368953308168459
  0
LINE
  5
1B1
330
147
100
AcDbEntity
  8
AM_4
100
AcDbLine
 10
-0.7355029652476232
 20
-2.734375
 30
0.0
 11
-0.7355029652476234
 21
-2.487208333333333
 31
0.0
  0
LINE
  5
1B2
330
147
100
AcDbEntity
  8
AM_4
100
AcDbLine
 10
1.689985207035849
 20
-1.977208333333333
 30
0.0
 11
1.689985207035849
 21
-2.417208333333333
 31
0.0
  0
LINE
  5
1B3
330
147
100
AcDbEntity
  8
AM_4
100
AcDbLine
 10
-1.689985207035848
 20
-1.977208333333333
 30
0.0
 11
-1.689985207035848
 21
-2.417208333333333
 31
0.0
  0
LINE
  5
1B4
330
147
100
AcDbEntity
  8
AM_4
100
AcDbLine
 10
-0.5373549674169111
 20
-2.734375
 30
0.0
 11
-0.5373549674169111
 21
-2.487208333333333
 31
0.0
  0
LINE
  5
1B5
330
147
100
AcDbEntity
  8
AM_4
100
AcDbLine
 10
-0.7683248505447329
 20
-2.487208333333333
 30
0.0
 11
-0.7683248505447329
 21
-2.734375
 31
0.0
  0
LINE
  5
1B6
330
147
100
AcDbEntity
  8
AM_4
100
AcDbLine
 10
-1.710526315789474
 20
-2.487208333333333
 30
0.0
 11
-1.710526315789474
 21
-2.734375
 31
0.0
  0
LINE
  5
1B7
330
147
100
AcDbEntity
  8
AM_4
100
AcDbLine
 10
1.710526315789474
 20
-2.734375
 30
0.0
 11
1.710526315789474
 21
-2.487208333333333
 31
0.0
  0
LINE
  5
1B8
330
147
100
AcDbEntity
  8
AM_4
100
AcDbLine
 10
1.710526315789474
 20
-2.734375
 30
0.0
 11
-1.710526315789474
 21
-2.734375
 31
0.0
  0
LWPOLYLINE
  5
1B9
330
147
100
AcDbEntity
  8
AM_4
100
AcDbPolyline
 90
        6
 70
     0
 43
0.0
 10
1.547811544446796
 20
-2.417208333333333
 10
1.553021144624585
 20
-2.41666824476616
 10
1.56442480208417
 20
-2.411408839127761
 10
1.573932500501348
 20
-2.40111070264424
 10
1.580450123023384
 20
-2.386986909572901
 10
1.583326760842208
 20
-2.368953308168459
  0
LWPOLYLINE
  5
1BA
330
147
100
AcDbEntity
  8
AM_4
100
AcDbPolyline
 90
        6
 70
     0
 43
0.0
 10
-1.583326760842207
 20
-2.368953308168459
 10
-1.580932676283362
 20
-2.385329277847101
 10
-1.574841470647727
 20
-2.399669505113438
 10
-1.565724817612132
 20
-2.410392061431032
 10
-1.554565310449393
 20
-2.416297213756794
 10
-1.547811544446795
 20
-2.417208333333333
  0
LINE
  5
1BB
330
147
100
AcDbEntity
  8
AM_4
100
AcDbLine
 10
-1.936880151435481
 20
-2.368953308168459
 30
0.0
 11
-2.501685102610601
 21
-2.368953308168459
 31
0.0
  0
LINE
  5
1BC
330
147
100
AcDbEntity
  8
AM_4
100
AcDbLine
 10
-1.936880151435481
 20
-2.368953308168459
 30
0.0
 11
-1.946601796876636
 21
-1.977208333333333
 31
0.0
  0
LINE
  5
1BD
330
147
100
AcDbEntity
  8
AM_4
100
AcDbLine
 10
-1.946601796876636
 20
-1.977208333333333
 30
0.0
 11
-1.593048406283363
 21
-1.977208333333333
 31
0.0
  0
LINE
  5
1BE
330
147
100
AcDbEntity
  8
AM_4
100
AcDbLine
 10
-1.593048406283363
 20
-1.977208333333333
 30
0.0
 11
-1.583326760842207
 21
-2.368953308168459
 31
0.0
  0
LINE
  5
1BF
330
147
100
AcDbEntity
  8
AM_4
100
AcDbLine
 10
1.583326760842208
 20
-2.368953308168459
 30
0.0
 11
-1.583326760842207
 21
-2.368953308168459
 31
0.0
  0
LINE
  5
1C0
330
147
100
AcDbEntity
  8
AM_4
100
AcDbLine
 10
1.583326760842208
 20
-2.368953308168459
 30
0.0
 11
1.593048406283363
 21
-1.977208333333333
 31
0.0
  0
LINE
  5
1C1
330
147
100
AcDbEntity
  8
AM_4
100
AcDbLine
 10
1.593048406283363
 20
-1.977208333333333
 30
0.0
 11
1.946601796876637
 21
-1.977208333333333
 31
0.0
  0
LINE
  5
1C2
330
147
100
AcDbEntity
  8
AM_4
100
AcDbLine
 10
1.946601796876637
 20
-1.977208333333333
 30
0.0
 11
1.936880151435482
 21
-2.368953308168459
 31
0.0
  0
LINE
  5
1C3
330
147
100
AcDbEntity
  8
AM_4
100
AcDbLine
 10
2.501685102610601
 20
-2.368953308168459
 30
0.0
 11
2.519589096652808
 21
-1.85625
 31
0.0
  0
LINE
  5
1C4
330
147
100
AcDbEntity
  8
AM_4
100
AcDbLine
 10
-2.519589096652808
 20
-1.85625
 30
0.0
 11
-2.501685102610601
 21
-2.368953308168459
 31
0.0
  0
LINE
  5
1C5
330
147
100
AcDbEntity
  8
AM_4
100
AcDbLine
 10
2.501685102610601
 20
-2.368953308168459
 30
0.0
 11
1.936880151435482
 21
-2.368953308168459
 31
0.0
  0
ENDBLK
  5
14A
330
147
100
AcDbEntity
  8
0
100
AcDbBlockEnd
  0
BLOCK
  5
1C8
330
1C6
100
AcDbEntity
  8
0
100
AcDbBlockBegin
  2
7_069564H_0_in_069564_4
 70
     2
 10
0.0
 20
0.0
 30
0.0
  3
7_069564H_0_in_069564_4
  1

  0
ATTDEF
  5
1CA
330
1C6
100
AcDbEntity
  8
AM_6
100
AcDbText
 10
11.5
 20
2.26875
 30
0.0
 40
0.5
  1
P4B-IP -(Labyrinth Seal)-Housing -Inch
100
AcDbAttributeDefinition
  3

  2
NN
 70
     8
280
     0
  0
ATTDEF
  5
1CB
330
1C6
100
AcDbEntity
  8
AM_6
100
AcDbText
 10
11.5
 20
1.76875
 30
0.0
 40
0.5
  1
Imperial $ Bolt Piliow Block Bearings
100
AcDbAttributeDefinition
  3

  2
NT
 70
     8
280
     0
  0
ATTDEF
  5
1CC
330
1C6
100
AcDbEntity
  8
AM_6
100
AcDbText
 10
11.5
 20
1.26875
 30
0.0
 40
0.5
  1
069564H
100
AcDbAttributeDefinition
  3

  2
NB
 70
     8
280
     0
  0
ATTDEF
  5
1CD
330
1C6
100
AcDbEntity
  8
AM_6
100
AcDbText
 10
11.5
 20
0.7687499999999998
 30
0.0
 40
0.5
  1
$PN.H
100
AcDbAttributeDefinition
  3

  2
NBSYN
 70
     8
280
     0
  0
ATTDEF
  5
1CE
330
1C6
100
AcDbEntity
  8
AM_6
100
AcDbText
 10
11.5
 20
0.2687499999999998
 30
0.0
 40
0.5
  1
069564
100
AcDbAttributeDefinition
  3

  2
LINA
 70
     8
280
     0
  0
ATTDEF
  5
1CF
330
1C6
100
AcDbEntity
  8
AM_6
100
AcDbText
 10
11.5
 20
-0.2312500000000002
 30
0.0
 40
0.5
  1
3-1/4
100
AcDbAttributeDefinition
  3

  2
SS
 70
     8
280
     0
  0
ATTDEF
  5
1D0
330
1C6
100
AcDbEntity
  8
AM_6
100
AcDbText
 10
11.5
 20
-0.7312500000000002
 30
0.0
 40
0.5
  1
069564
100
AcDbAttributeDefinition
  3

  2
PN
 70
     8
280
     0
  0
ATTDEF
  5
1D1
330
1C6
100
AcDbEntity
  8
AM_6
100
AcDbText
 10
11.5
 20
-1.23125
 30
0.0
 40
0.5
  1
P4B-IP-304L
100
AcDbAttributeDefinition
  3

  2
DESCRIPTION
 70
     8
280
     0
  0
ATTDEF
  5
1D2
330
1C6
100
AcDbEntity
  8
AM_6
100
AcDbText
 10
11.5
 20
-1.73125
 30
0.0
 40
0.5
  1
Non-Expansion Type
100
AcDbAttributeDefinition
  3

  2
EF
 70
     8
280
     0
  0
ATTDEF
  5
1D3
330
1C6
100
AcDbEntity
  8
AM_6
100
AcDbText
 10
11.5
 20
-2.23125
 30
0.0
 40
0.5
  1
Labyrinth  Seal
100
AcDbAttributeDefinition
  3

  2
ST
 70
     8
280
     0
  0
ATTDEF
  5
1D4
330
1C6
100
AcDbEntity
  8
AM_6
100
AcDbText
 10
11.5
 20
-2.73125
 30
0.0
 40
0.5
  1
4-11/64
100
AcDbAttributeDefinition
  3

  2
A
 70
     8
280
     0
  0
ATTDEF
  5
1D5
330
1C6
100
AcDbEntity
  8
AM_6
100
AcDbText
 10
11.5
 20
-3.23125
 30
0.0
 40
0.5
  1
13
100
AcDbAttributeDefinition
  3

  2
B
 70
     8
280
     0
  0
ATTDEF
  5
1D6
330
1C6
100
AcDbEntity
  8
AM_6
100
AcDbText
 10
11.5
 20
-3.73125
 30
0.0
 40
0.5
  1
4-1/8
100
AcDbAttributeDefinition
  3

  2
C
 70
     8
280
     0
  0
ATTDEF
  5
1D7
330
1C6
100
AcDbEntity
  8
AM_6
100
AcDbText
 10
11.5
 20
-4.23125
 30
0.0
 40
0.5
  1
9-3/8
100
AcDbAttributeDefinition
  3

  2
DMIN
 70
     8
280
     0
  0
ATTDEF
  5
1D8
330
1C6
100
AcDbEntity
  8
AM_6
100
AcDbText
 10
11.5
 20
-4.73125
 30
0.0
 40
0.5
  1
10-5/8
100
AcDbAttributeDefinition
  3

  2
DMAX
 70
     8
280
     0
  0
ATTDEF
  5
1D9
330
1C6
100
AcDbEntity
  8
AM_6
100
AcDbText
 10
11.5
 20
-5.23125
 30
0.0
 40
0.5
  1
2
100
AcDbAttributeDefinition
  3

  2
E
 70
     8
280
     0
  0
ATTDEF
  5
1DA
330
1C6
100
AcDbEntity
  8
AM_6
100
AcDbText
 10
11.5
 20
-5.73125
 30
0.0
 40
0.5
  1
3/4
100
AcDbAttributeDefinition
  3

  2
F
 70
     8
280
     0
  0
ATTDEF
  5
1DB
330
1C6
100
AcDbEntity
  8
AM_6
100
AcDbText
 10
11.5
 20
-6.23125
 30
0.0
 40
0.5
  1
1-1/2
100
AcDbAttributeDefinition
  3

  2
G
 70
     8
280
     0
  0
ATTDEF
  5
1DC
330
1C6
100
AcDbEntity
  8
AM_6
100
AcDbText
 10
11.5
 20
-6.73125
 30
0.0
 40
0.5
  1
2-1/4
100
AcDbAttributeDefinition
  3

  2
H
 70
     8
280
     0
  0
ATTDEF
  5
1DD
330
1C6
100
AcDbEntity
  8
AM_6
100
AcDbText
 10
11.5
 20
-7.23125
 30
0.0
 40
0.5
  1
7-9/16
100
AcDbAttributeDefinition
  3

  2
J
 70
     8
280
     0
  0
ATTDEF
  5
1DE
330
1C6
100
AcDbEntity
  8
AM_6
100
AcDbText
 10
11.5
 20
-7.73125
 30
0.0
 40
0.5
  1
5
100
AcDbAttributeDefinition
  3

  2
L
 70
     8
280
     0
  0
ATTDEF
  5
1DF
330
1C6
100
AcDbEntity
  8
AM_6
100
AcDbText
 10
11.5
 20
-8.23125
 30
0.0
 40
0.5
  1
3-3/4
100
AcDbAttributeDefinition
  3

  2
M
 70
     8
280
     0
  0
ATTDEF
  5
1E0
330
1C6
100
AcDbEntity
  8
AM_6
100
AcDbText
 10
11.5
 20
-8.73125
 30
0.0
 40
0.5
  1
1-7/16
100
AcDbAttributeDefinition
  3

  2
R
 70
     8
280
     0
  0
ATTDEF
  5
1E1
330
1C6
100
AcDbEntity
  8
AM_6
100
AcDbText
 10
11.5
 20
-9.23125
 30
0.0
 40
0.5
  1
2-47/64
100
AcDbAttributeDefinition
  3

  2
S
 70
     8
280
     0
  0
ATTDEF
  5
1E2
330
1C6
100
AcDbEntity
  8
AM_6
100
AcDbText
 10
11.5
 20
-9.73125
 30
0.0
 40
0.5
  1
1/4
100
AcDbAttributeDefinition
  3

  2
X
 70
     8
280
     0
  0
ATTDEF
  5
1E3
330
1C6
100
AcDbEntity
  8
AM_6
100
AcDbText
 10
11.5
 20
-10.23125
 30
0.0
 40
0.5
  1
0.025
100
AcDbAttributeDefinition
  3

  2
Y
 70
     8
280
     0
  0
ATTDEF
  5
1E4
330
1C6
100
AcDbEntity
  8
AM_6
100
AcDbText
 10
11.5
 20
-10.73125
 30
0.0
 40
0.5
  1
4-3/64
100
AcDbAttributeDefinition
  3

  2
Z
 70
     8
280
     0
  0
ATTDEF
  5
1E5
330
1C6
100
AcDbEntity
  8
AM_6
100
AcDbText
 10
11.5
 20
-11.23125
 30
0.0
 40
0.5
  1
baldor
100
AcDbAttributeDefinition
  3

  2
COMPANY
 70
     8
280
     0
  0
LINE
  5
1E6
330
1C6
100
AcDbEntity
  8
AM_9
100
AcDbLine
 10
1.124999999999998
 20
-1.4375
 30
0.0
 11
1.124999999999998
 21
1.4375
 31
0.0
  0
LINE
  5
1E7
330
1C6
100
AcDbEntity
  8
AM_9
100
AcDbLine
 10
-1.125
 20
-1.4375
 30
0.0
 11
-1.125
 21
1.4375
 31
0.0
  0
LINE
  5
1E8
330
1C6
100
AcDbEntity
  8
AM_9
100
AcDbLine
 10
2.754504080518276
 20
-1.4375
 30
0.0
 11
2.754504080518276
 21
1.4375
 31
0.0
  0
LINE
  5
1E9
330
1C6
100
AcDbEntity
  8
AM_9
100
AcDbLine
 10
-2.754504080518278
 20
-1.4375
 30
0.0
 11
-2.754504080518278
 21
1.4375
 31
0.0
  0
LINE
  5
1EA
330
1C6
100
AcDbEntity
  8
AM_9
100
AcDbLine
 10
5.75
 20
-1.0
 30
0.0
 11
5.75
 21
0.9999999999999999
 31
0.0
  0
LINE
  5
1EB
330
1C6
100
AcDbEntity
  8
AM_9
100
AcDbLine
 10
3.085044570180469
 20
-1.4375
 30
0.0
 11
3.085044570180469
 21
1.4375
 31
0.0
  0
LINE
  5
1EC
330
1C6
100
AcDbEntity
  8
AM_9
100
AcDbLine
 10
-3.085044570180469
 20
-1.4375
 30
0.0
 11
-3.085044570180469
 21
1.4375
 31
0.0
  0
LINE
  5
1ED
330
1C6
100
AcDbEntity
  8
AM_9
100
AcDbLine
 10
-5.75
 20
0.9999999999999999
 30
0.0
 11
-5.75
 21
-1.0
 31
0.0
  0
LINE
  5
1EE
330
1C6
100
AcDbEntity
  8
AM_9
100
AcDbLine
 10
-2.0234375
 20
1.4375
 30
0.0
 11
-4.6875
 21
1.4375
 31
0.0
  0
LINE
  5
1EF
330
1C6
100
AcDbEntity
  8
AM_9
100
AcDbLine
 10
-1.125
 20
-1.4375
 30
0.0
 11
-4.6875
 21
-1.4375
 31
0.0
  0
LINE
  5
1F0
330
1C6
100
AcDbEntity
  8
AM_9
100
AcDbLine
 10
4.6875
 20
1.4375
 30
0.0
 11
2.0234375
 21
1.4375
 31
0.0
  0
LINE
  5
1F1
330
1C6
100
AcDbEntity
  8
AM_9
100
AcDbLine
 10
4.6875
 20
-1.4375
 30
0.0
 11
1.124999999999998
 21
-1.4375
 31
0.0
  0
LINE
  5
1F2
330
1C6
100
AcDbEntity
  8
AM_9
100
AcDbLine
 10
3.1496
 20
-1.85625
 30
0.0
 11
3.1496
 21
1.85625
 31
0.0
  0
LINE
  5
1F3
330
1C6
100
AcDbEntity
  8
AM_9
100
AcDbLine
 10
-3.1496
 20
1.85625
 30
0.0
 11
-3.1496
 21
-1.85625
 31
0.0
  0
ELLIPSE
  5
1F4
330
1C6
100
AcDbEntity
  8
AM_9
100
AcDbEllipse
 10
-1.90625
 20
0.0000000000000004
 30
0.0
 11
3.061616997868382E-17
 21
0.4999999999999998
 31
0.0
210
0.0
220
0.0
230
1.0
 40
0.8660254037843715
 41
0.0
 42
3.141592653589793
  0
LINE
  5
1F5
330
1C6
100
AcDbEntity
  8
AM_9
100
AcDbLine
 10
-1.908273394688282
 20
-0.4999945392031399
 30
0.0
 11
-1.906250000000012
 21
-0.4999999999999996
 31
0.0
  0
LWPOLYLINE
  5
1F6
330
1C6
100
AcDbEntity
  8
AM_9
100
AcDbPolyline
 90
       20
 70
     0
 43
0.0
 10
-1.909668392903314
 20
0.4999844098899603
 10
-1.977412951363473
 20
0.4930644898197753
 10
-2.045753025766186
 20
0.4726506138295529
 10
-2.109895587380723
 20
0.4388513065105927
 10
-2.167765084619437
 20
0.3929131287353355
 10
-2.218215051342471
 20
0.3355088727489633
 10
-2.259740829384333
 20
0.2686724433986619
 10
-2.291374273412492
 20
0.1938414972679419
 10
-2.312352999148407
 20
0.1134633915522983
 10
-2.320171801687049
 20
0.0571101149422771
 10
-2.322798155984826
 20
0.0000000000000002
 10
-2.317136244383515
 20
-0.0835294654619663
 10
-2.300426827014981
 20
-0.1646946462584881
 10
-2.272915434510715
 20
-0.2411285441919027
 10
-2.235351455718227
 20
-0.3108101387218851
 10
-2.188169953237267
 20
-0.3720162116993193
 10
-2.132751993267284
 20
-0.4227774677658416
 10
-2.070064120452771
 20
-0.4616302840111747
 10
-2.001971103656489
 20
-0.4874160258779151
 10
-1.954855404114054
 20
-0.496812799334364
  0
LINE
  5
1F7
330
1C6
100
AcDbEntity
  8
AM_9
100
AcDbLine
 10
-1.906250000000004
 20
0.5000000000000001
 30
0.0
 11
-1.909668392903314
 21
0.4999844098899603
 31
0.0
  0
LINE
  5
1FA
330
1C6
100
AcDbEntity
  8
AM_7
100
AcDbLine
 10
0.0
 20
2.26875
 30
0.0
 11
0.0
 21
-2.94421875
 31
0.0
  0
LINE
  5
1FB
330
1C6
100
AcDbEntity
  8
AM_7
100
AcDbLine
 10
4.228125
 20
1.0
 30
0.0
 11
5.771874999999998
 21
1.0
 31
0.0
  0
LINE
  5
1FC
330
1C6
100
AcDbEntity
  8
AM_7
100
AcDbLine
 10
5.312499999999998
 20
0.5406249999999999
 30
0.0
 11
5.312499999999998
 21
1.459375
 31
0.0
  0
LINE
  5
1FD
330
1C6
100
AcDbEntity
  8
AM_7
100
AcDbLine
 10
4.228125
 20
-1.0
 30
0.0
 11
5.771875
 21
-1.0
 31
0.0
  0
LINE
  5
1FE
330
1C6
100
AcDbEntity
  8
AM_7
100
AcDbLine
 10
5.3125
 20
-1.459375
 30
0.0
 11
5.3125
 21
-0.5406249999999999
 31
0.0
  0
LINE
  5
1FF
330
1C6
100
AcDbEntity
  8
AM_7
100
AcDbLine
 10
-5.771875
 20
-1.0
 30
0.0
 11
-4.228125
 21
-1.0
 31
0.0
  0
LINE
  5
200
330
1C6
100
AcDbEntity
  8
AM_7
100
AcDbLine
 10
-5.3125
 20
-1.459375
 30
0.0
 11
-5.3125
 21
-0.5406249999999999
 31
0.0
  0
LINE
  5
201
330
1C6
100
AcDbEntity
  8
AM_7
100
AcDbLine
 10
-5.771875
 20
1.0
 30
0.0
 11
-4.228125
 21
1.0
 31
0.0
  0
LINE
  5
202
330
1C6
100
AcDbEntity
  8
AM_7
100
AcDbLine
 10
-5.3125
 20
0.5406249999999999
 30
0.0
 11
-5.3125
 21
1.459375
 31
0.0
  0
LINE
  5
203
330
1C6
100
AcDbEntity
  8
AM_7
100
AcDbLine
 10
-4.6875
 20
-1.459375
 30
0.0
 11
-4.6875
 21
-0.5406250000000001
 31
0.0
  0
LINE
  5
204
330
1C6
100
AcDbEntity
  8
AM_7
100
AcDbLine
 10
4.6875
 20
0.5406249999999999
 30
0.0
 11
4.6875
 21
1.459375
 31
0.0
  0
LINE
  5
205
330
1C6
100
AcDbEntity
  8
AM_7
100
AcDbLine
 10
4.6875
 20
-1.459375
 30
0.0
 11
4.6875
 21
-0.5406249999999999
 31
0.0
  0
LINE
  5
206
330
1C6
100
AcDbEntity
  8
AM_7
100
AcDbLine
 10
-4.6875
 20
0.5406249999999999
 30
0.0
 11
-4.6875
 21
1.459375
 31
0.0
  0
LINE
  5
207
330
1C6
100
AcDbEntity
  8
AM_4
100
AcDbLine
 10
-6.0875
 20
2.0625
 30
0.0
 11
-6.500000000000001
 21
1.65
 31
0.0
  0
LINE
  5
208
330
1C6
100
AcDbEntity
  8
AM_4
100
AcDbLine
 10
-6.5
 20
-1.65
 30
0.0
 11
-6.0875
 21
-2.0625
 31
0.0
  0
LINE
  5
209
330
1C6
100
AcDbEntity
  8
AM_4
100
AcDbLine
 10
-6.5
 20
-1.65
 30
0.0
 11
-6.5
 21
1.65
 31
0.0
  0
LINE
  5
20A
330
1C6
100
AcDbEntity
  8
AM_4
100
AcDbLine
 10
6.087499999999999
 20
-2.0625
 30
0.0
 11
6.5
 21
-1.65
 31
0.0
  0
LINE
  5
20B
330
1C6
100
AcDbEntity
  8
AM_4
100
AcDbLine
 10
6.5
 20
1.65
 30
0.0
 11
6.0875
 21
2.0625
 31
0.0
  0
LINE
  5
20C
330
1C6
100
AcDbEntity
  8
AM_4
100
AcDbLine
 10
6.5
 20
-1.65
 30
0.0
 11
6.5
 21
1.65
 31
0.0
  0
LINE
  5
20D
330
1C6
100
AcDbEntity
  8
AM_4
100
AcDbLine
 10
4.243749999999999
 20
2.0625
 30
0.0
 11
4.0375
 21
1.85625
 31
0.0
  0
LINE
  5
20E
330
1C6
100
AcDbEntity
  8
AM_4
100
AcDbLine
 10
4.0375
 20
-1.85625
 30
0.0
 11
4.243749999999999
 21
-2.0625
 31
0.0
  0
LINE
  5
20F
330
1C6
100
AcDbEntity
  8
AM_4
100
AcDbLine
 10
5.3125
 20
-0.5625000000000001
 30
0.0
 11
4.6875
 21
-0.5625000000000001
 31
0.0
  0
ARC
  5
210
330
1C6
100
AcDbEntity
  8
AM_4
100
AcDbCircle
 10
5.3125
 20
-1.0
 30
0.0
 40
0.4375
100
AcDbArc
 50
270.0
 51
90.0
  0
LINE
  5
211
330
1C6
100
AcDbEntity
  8
AM_4
100
AcDbLine
 10
4.6875
 20
-1.4375
 30
0.0
 11
5.3125
 21
-1.4375
 31
0.0
  0
ARC
  5
212
330
1C6
100
AcDbEntity
  8
AM_4
100
AcDbCircle
 10
4.6875
 20
-1.0
 30
0.0
 40
0.4374999999999999
100
AcDbArc
 50
90.0
 51
270.0
  0
LINE
  5
213
330
1C6
100
AcDbEntity
  8
AM_4
100
AcDbLine
 10
6.087499999999999
 20
-2.0625
 30
0.0
 11
4.243749999999999
 21
-2.0625
 31
0.0
  0
LINE
  5
214
330
1C6
100
AcDbEntity
  8
AM_4
100
AcDbLine
 10
6.275
 20
-1.875
 30
0.0
 11
6.275
 21
1.874999999999998
 31
0.0
  0
LINE
  5
215
330
1C6
100
AcDbEntity
  8
AM_4
100
AcDbLine
 10
6.0875
 20
2.0625
 30
0.0
 11
4.243749999999999
 21
2.0625
 31
0.0
  0
LINE
  5
216
330
1C6
100
AcDbEntity
  8
AM_4
100
AcDbLine
 10
5.312499999999998
 20
1.4375
 30
0.0
 11
4.6875
 21
1.4375
 31
0.0
  0
ARC
  5
217
330
1C6
100
AcDbEntity
  8
AM_4
100
AcDbCircle
 10
5.312499999999998
 20
0.9999999999999999
 30
0.0
 40
0.4375
100
AcDbArc
 50
270.0
 51
90.0
  0
LINE
  5
218
330
1C6
100
AcDbEntity
  8
AM_4
100
AcDbLine
 10
4.6875
 20
0.5625
 30
0.0
 11
5.3125
 21
0.5624999999999999
 31
0.0
  0
ARC
  5
219
330
1C6
100
AcDbEntity
  8
AM_4
100
AcDbCircle
 10
4.6875
 20
1.0
 30
0.0
 40
0.4375
100
AcDbArc
 50
90.0
 51
270.0
  0
LINE
  5
21A
330
1C6
100
AcDbEntity
  8
AM_4
100
AcDbLine
 10
-4.0375
 20
1.85625
 30
0.0
 11
-4.243749999999999
 21
2.0625
 31
0.0
  0
LINE
  5
21B
330
1C6
100
AcDbEntity
  8
AM_4
100
AcDbLine
 10
-4.243749999999999
 20
-2.0625
 30
0.0
 11
-4.0375
 21
-1.85625
 31
0.0
  0
LINE
  5
21C
330
1C6
100
AcDbEntity
  8
AM_4
100
AcDbLine
 10
-4.6875
 20
-0.5625000000000001
 30
0.0
 11
-5.3125
 21
-0.5625000000000001
 31
0.0
  0
ARC
  5
21D
330
1C6
100
AcDbEntity
  8
AM_4
100
AcDbCircle
 10
-4.6875
 20
-1.0
 30
0.0
 40
0.4375
100
AcDbArc
 50
270.0
 51
90.0
  0
LINE
  5
21E
330
1C6
100
AcDbEntity
  8
AM_4
100
AcDbLine
 10
-5.3125
 20
-1.4375
 30
0.0
 11
-4.6875
 21
-1.4375
 31
0.0
  0
ARC
  5
21F
330
1C6
100
AcDbEntity
  8
AM_4
100
AcDbCircle
 10
-5.3125
 20
-1.0
 30
0.0
 40
0.4374999999999999
100
AcDbArc
 50
90.0
 51
270.0
  0
LINE
  5
220
330
1C6
100
AcDbEntity
  8
AM_4
100
AcDbLine
 10
-4.6875
 20
1.4375
 30
0.0
 11
-5.3125
 21
1.4375
 31
0.0
  0
ARC
  5
221
330
1C6
100
AcDbEntity
  8
AM_4
100
AcDbCircle
 10
-4.6875
 20
1.0
 30
0.0
 40
0.4375000000000001
100
AcDbArc
 50
270.0
 51
90.0
  0
LINE
  5
222
330
1C6
100
AcDbEntity
  8
AM_4
100
AcDbLine
 10
-5.3125
 20
0.5625
 30
0.0
 11
-4.6875
 21
0.5624999999999999
 31
0.0
  0
ARC
  5
223
330
1C6
100
AcDbEntity
  8
AM_4
100
AcDbCircle
 10
-5.3125
 20
1.0
 30
0.0
 40
0.4375
100
AcDbArc
 50
90.0
 51
270.0
  0
LINE
  5
224
330
1C6
100
AcDbEntity
  8
AM_4
100
AcDbLine
 10
-4.243749999999999
 20
2.0625
 30
0.0
 11
-6.0875
 21
2.0625
 31
0.0
  0
LINE
  5
225
330
1C6
100
AcDbEntity
  8
AM_4
100
AcDbLine
 10
-6.275
 20
-1.875
 30
0.0
 11
-6.275
 21
1.874999999999999
 31
0.0
  0
LINE
  5
226
330
1C6
100
AcDbEntity
  8
AM_4
100
AcDbLine
 10
-4.243749999999999
 20
-2.0625
 30
0.0
 11
-6.0875
 21
-2.0625
 31
0.0
  0
LINE
  5
227
330
1C6
100
AcDbEntity
  8
AM_4
100
AcDbLine
 10
-3.879999999999999
 20
-1.2375
 30
0.0
 11
-3.879999999999999
 21
1.2375
 31
0.0
  0
LINE
  5
228
330
1C6
100
AcDbEntity
  8
AM_4
100
AcDbLine
 10
3.88
 20
-1.2375
 30
0.0
 11
3.88
 21
1.2375
 31
0.0
  0
LINE
  5
229
330
1C6
100
AcDbEntity
  8
AM_4
100
AcDbLine
 10
-4.235348373605965
 20
-2.054098373605966
 30
0.0
 11
-4.235348373605965
 21
-1.2375
 31
0.0
  0
LINE
  5
22A
330
1C6
100
AcDbEntity
  8
AM_4
100
AcDbLine
 10
-4.235348373605965
 20
1.2375
 30
0.0
 11
-4.235348373605965
 21
2.054098373605966
 31
0.0
  0
LINE
  5
22B
330
1C6
100
AcDbEntity
  8
AM_4
100
AcDbLine
 10
4.235348373605968
 20
1.2375
 30
0.0
 11
4.235348373605968
 21
2.054098373605968
 31
0.0
  0
LINE
  5
22C
330
1C6
100
AcDbEntity
  8
AM_4
100
AcDbLine
 10
4.235348373605968
 20
-2.054098373605968
 30
0.0
 11
4.235348373605968
 21
-1.2375
 31
0.0
  0
LINE
  5
22D
330
1C6
100
AcDbEntity
  8
AM_4
100
AcDbLine
 10
-4.012196143687854
 20
1.2375
 30
0.0
 11
-4.012196143687854
 21
1.85625
 31
0.0
  0
LINE
  5
22E
330
1C6
100
AcDbEntity
  8
AM_4
100
AcDbLine
 10
-4.012196143687854
 20
-1.85625
 30
0.0
 11
-4.012196143687854
 21
-1.2375
 31
0.0
  0
LINE
  5
22F
330
1C6
100
AcDbEntity
  8
AM_4
100
AcDbLine
 10
4.012196143687856
 20
1.2375
 30
0.0
 11
4.012196143687856
 21
1.85625
 31
0.0
  0
LINE
  5
230
330
1C6
100
AcDbEntity
  8
AM_4
100
AcDbLine
 10
4.012196143687856
 20
-1.85625
 30
0.0
 11
4.012196143687856
 21
-1.2375
 31
0.0
  0
ELLIPSE
  5
231
330
1C6
100
AcDbEntity
  8
AM_4
100
AcDbEllipse
 10
-1.90625
 20
0.0000000000000001
 30
0.0
 11
3.061616997868381E-17
 21
0.4999999999999997
 31
0.0
210
0.0
220
0.0
230
1.0
 40
0.8660254037844375
 41
3.141592653589793
 42
6.283185307179586
  0
ELLIPSE
  5
232
330
1C6
100
AcDbEntity
  8
AM_4
100
AcDbEllipse
 10
-1.95625
 20
0.0000000000000002
 30
0.0
 11
-7.347880794884114E-17
 21
-0.3999999999999997
 31
0.0
210
0.0
220
0.0
230
1.0
 40
0.8660254037844378
 41
0.0
 42
6.283185307179586
  0
LWPOLYLINE
  5
233
330
1C6
100
AcDbEntity
  8
AM_4
100
AcDbPolyline
 90
       21
 70
     0
 43
0.0
 10
-2.352660161513775
 20
0.0000000000000002
 10
-2.352156070818991
 20
-0.0237939791735847
 10
-2.348818616797975
 20
-0.0655604792843401
 10
-2.342371216316786
 20
-0.1068993515235715
 10
-2.332852066841218
 20
-0.1475123946255396
 10
-2.320319925938602
 20
-0.1871127421689094
 10
-2.304854855505246
 20
-0.2254180622663018
 10
-2.286558678326321
 20
-0.262152358984131
 10
-2.265555386548472
 20
-0.2970481280778727
 10
-2.241991342545796
 20
-0.3298489144062431
 10
-2.216035072556239
 20
-0.3603122596400428
 10
-2.187876444346217
 20
-0.3882129337943923
 10
-2.157725061191494
 20
-0.4133462341447071
 10
-2.125807805095511
 20
-0.4355310409128293
 10
-2.092365610425934
 20
-0.4546122793585738
 10
-2.057649708636522
 20
-0.4704624822069193
 10
-2.021917705640635
 20
-0.482982277155882
 10
-1.985429894415744
 20
-0.4920998101266161
 10
-1.948446153666108
 20
-0.4977693024135065
 10
-1.911223658844345
 20
-0.4999690774259795
 10
-1.905613950470362
 20
-0.4999994943009847
  0
LWPOLYLINE
  5
234
330
1C6
100
AcDbEntity
  8
AM_4
100
AcDbPolyline
 90
       21
 70
     0
 43
0.0
 10
-1.907765977072444
 20
0.4999971272585133
 10
-1.918585928887179
 20
0.4998097443105562
 10
-1.955702641004305
 20
0.4969334960498882
 10
-1.992434187665092
 20
0.4906261450445635
 10
-2.028538518644185
 20
0.4809381141930221
 10
-2.063780676947246
 20
0.4679371938567649
 10
-2.097930467115009
 20
0.4517087118542944
 10
-2.130762321617007
 20
0.4323562775333889
 10
-2.162055766910725
 20
0.410002875963478
 10
-2.191596604171656
 20
0.3847919540035917
 10
-2.219178767544033
 20
0.3568881358463751
 10
-2.244606678404174
 20
0.3264772817666696
 10
-2.267697815337485
 20
0.2937657432925825
 10
-2.288285192629282
 20
0.2589788319512655
 10
-2.306219487669217
 20
0.2223586601227626
 10
-2.321370657452464
 20
0.1841615955500059
 10
-2.333629000225247
 20
0.144655584320927
 10
-2.342905716712258
 20
0.104117553837619
 10
-2.349133087173545
 20
0.0628310341911882
 10
-2.352264403562163
 20
0.0210840600254674
 10
-2.352660161513775
 20
0.0000000000000002
  0
LINE
  5
235
330
1C6
100
AcDbEntity
  8
AM_4
100
AcDbLine
 10
3.781190562501341
 20
-1.85625
 30
0.0
 11
3.781190562501341
 21
-1.2375
 31
0.0
  0
LINE
  5
236
330
1C6
100
AcDbEntity
  8
AM_4
100
AcDbLine
 10
4.235348373605968
 20
-1.2375
 30
0.0
 11
3.7675
 21
-1.2375
 31
0.0
  0
LINE
  5
237
330
1C6
100
AcDbEntity
  8
AM_4
100
AcDbLine
 10
3.7675
 20
1.2375
 30
0.0
 11
3.7675
 21
-1.2375
 31
0.0
  0
LINE
  5
238
330
1C6
100
AcDbEntity
  8
AM_4
100
AcDbLine
 10
4.235348373605968
 20
1.2375
 30
0.0
 11
3.7675
 21
1.2375
 31
0.0
  0
LINE
  5
239
330
1C6
100
AcDbEntity
  8
AM_4
100
AcDbLine
 10
3.781190562501341
 20
1.2375
 30
0.0
 11
3.781190562501341
 21
1.85625
 31
0.0
  0
LINE
  5
23A
330
1C6
100
AcDbEntity
  8
AM_4
100
AcDbLine
 10
-3.767500000000001
 20
-1.2375
 30
0.0
 11
-3.767500000000001
 21
1.2375
 31
0.0
  0
LINE
  5
23B
330
1C6
100
AcDbEntity
  8
AM_4
100
AcDbLine
 10
-3.767500000000001
 20
-1.2375
 30
0.0
 11
-4.235348373605965
 21
-1.2375
 31
0.0
  0
LINE
  5
23C
330
1C6
100
AcDbEntity
  8
AM_4
100
AcDbLine
 10
-3.781190562501342
 20
-1.85625
 30
0.0
 11
-3.781190562501342
 21
-1.2375
 31
0.0
  0
LINE
  5
23D
330
1C6
100
AcDbEntity
  8
AM_4
100
AcDbLine
 10
-3.781190562501342
 20
1.2375
 30
0.0
 11
-3.781190562501342
 21
1.85625
 31
0.0
  0
LINE
  5
23E
330
1C6
100
AcDbEntity
  8
AM_4
100
AcDbLine
 10
-3.767500000000001
 20
1.2375
 30
0.0
 11
-4.235348373605965
 21
1.2375
 31
0.0
  0
LWPOLYLINE
  5
23F
330
1C6
100
AcDbEntity
  8
AM_4
100
AcDbPolyline
 90
       21
 70
     0
 43
0.0
 10
-1.906250000000012
 20
-0.4999999999999996
 10
-1.857692814877259
 20
-0.4968729020862838
 10
-1.785685074599718
 20
-0.4805927012368221
 10
-1.716263126481441
 20
-0.4510098661334175
 10
-1.651369873456813
 20
-0.4086543950721964
 10
-1.593132540540365
 20
-0.3549540421223668
 10
-1.543140001933047
 20
-0.2907366714471851
 10
-1.503365951458541
 20
-0.2182851830046734
 10
-1.475302691991433
 20
-0.139485839705154
 10
-1.459777335958399
 20
-0.0566883511391321
 10
-1.457510515297729
 20
0.027135177451516
 10
-1.46822151122398
 20
0.1101890370269606
 10
-1.491610451705551
 20
0.1897871380250293
 10
-1.526704019136826
 20
0.2640832347282153
 10
-1.572778341909484
 20
0.3313047038183611
 10
-1.628012708772546
 20
0.3892586787004761
 10
-1.691180092471088
 20
0.4364590130010421
 10
-1.759883132324328
 20
0.471322057956482
 10
-1.831841700185015
 20
0.4926071573591714
 10
-1.905056661649221
 20
0.4999981016506134
 10
-1.906250000000004
 20
0.5000000000000001
  0
LINE
  5
240
330
1C6
100
AcDbEntity
  8
AM_4
100
AcDbLine
 10
-1.049866666666667
 20
-1.85625
 30
0.0
 11
-1.049866666666667
 21
1.85625
 31
0.0
  0
LINE
  5
241
330
1C6
100
AcDbEntity
  8
AM_4
100
AcDbLine
 10
4.0375
 20
1.85625
 30
0.0
 11
-4.0375
 21
1.85625
 31
0.0
  0
LINE
  5
242
330
1C6
100
AcDbEntity
  8
AM_4
100
AcDbLine
 10
1.049866666666667
 20
-1.85625
 30
0.0
 11
1.049866666666667
 21
1.85625
 31
0.0
  0
LINE
  5
243
330
1C6
100
AcDbEntity
  8
AM_4
100
AcDbLine
 10
-4.0375
 20
-1.85625
 30
0.0
 11
4.0375
 21
-1.85625
 31
0.0
  0
LINE
  5
244
330
1C6
100
AcDbEntity
  8
AM_4
100
AcDbLine
 10
0.9373666666666665
 20
-1.85625
 30
0.0
 11
0.9373666666666665
 21
1.85625
 31
0.0
  0
LINE
  5
245
330
1C6
100
AcDbEntity
  8
AM_4
100
AcDbLine
 10
-0.9373666666666665
 20
-1.85625
 30
0.0
 11
-0.9373666666666665
 21
1.85625
 31
0.0
  0
ENDBLK
  5
1C9
330
1C6
100
AcDbEntity
  8
0
100
AcDbBlockEnd
  0
ENDSEC
  0
SECTION
  2
ENTITIES
  0
INSERT
  5
6F
330
1F
100
AcDbEntity
  8
0
100
AcDbBlockReference
  2
1_069564_4
 10
0.0
 20
0.0
 30
0.0
  0
POINT
  5
247
330
1F
100
AcDbEntity
  8
ConnectionPoints
100
AcDbPoint
 10
0.0
 20
-2.487208333333333
 30
-2.152777777777778
  0
POINT
  5
248
330
1F
100
AcDbEntity
  8
ConnectionPoints
100
AcDbPoint
 10
0.0
 20
-2.487208333333333
 30
2.152777777777778
  0
POINT
  5
249
330
1F
100
AcDbEntity
  8
ConnectionPoints
100
AcDbPoint
 10
0.0
 20
-2.417208333333333
 30
0.0000000000000002
  0
POINT
  5
24A
330
1F
100
AcDbEntity
  8
ConnectionPoints
100
AcDbPoint
 10
0.0
 20
-2.734375
 30
0.0000000000000002
  0
POINT
  5
24B
330
1F
100
AcDbEntity
  8
ConnectionPoints
100
AcDbPoint
 10
0.0
 20
-2.616208333333333
 30
0.0000000000000002
  0
POINT
  5
24C
330
1F
100
AcDbEntity
  8
ConnectionPoints
100
AcDbPoint
 10
0.0
 20
-2.417208333333333
 30
2.152777777777778
  0
POINT
  5
24D
330
1F
100
AcDbEntity
  8
ConnectionPoints
100
AcDbPoint
 10
0.0
 20
-2.602375
 30
2.152777777777778
  0
POINT
  5
24E
330
1F
100
AcDbEntity
  8
ConnectionPoints
100
AcDbPoint
 10
0.0
 20
-2.417208333333333
 30
-2.152777777777778
  0
POINT
  5
24F
330
1F
100
AcDbEntity
  8
ConnectionPoints
100
AcDbPoint
 10
0.0
 20
-2.602375
 30
-2.152777777777778
  0
POINT
  5
250
330
1F
100
AcDbEntity
  8
ConnectionPoints
100
AcDbPoint
 10
0.0
 20
-2.417208333333333
 30
0.0000000000000001
  0
POINT
  5
251
330
1F
100
AcDbEntity
  8
ConnectionPoints
100
AcDbPoint
 10
-1.95625
 20
0.0000000000000002
 30
3.388324392306616
  0
POINT
  5
252
330
1F
100
AcDbEntity
  8
ConnectionPoints
100
AcDbPoint
 10
0.0
 20
-2.484375
 30
0.0000000000000002
  0
POINT
  5
253
330
1F
100
AcDbEntity
  8
ConnectionPoints
100
AcDbPoint
 10
0.0
 20
-2.734375
 30
0.0000000000000002
  0
ENDSEC
  0
SECTION
  2
OBJECTS
  0
DICTIONARY
  5
C
330
0
100
AcDbDictionary
281
     1
  3
ACAD_DETAILVIEWSTYLE
350
25B
  3
ACAD_GROUP
350
D
  3
ACAD_LAYOUT
350
1A
  3
ACAD_MATERIAL
350
43
  3
ACAD_MLEADERSTYLE
350
6B
  3
ACAD_MLINESTYLE
350
17
  3
ACAD_PLOTSETTINGS
350
19
  3
ACAD_PLOTSTYLENAME
350
E
  3
ACAD_SCALELIST
350
47
  3
ACAD_SECTIONVIEWSTYLE
350
25C
  3
ACAD_TABLESTYLE
350
69
  3
ACAD_VISUALSTYLE
350
2A
  3
ACDB_RECOMPOSE_DATA
350
258
  3
AcDbVariableDictionary
350
254
  0
SUN
  5
6D
330
29
100
AcDbSun
 90
        1
290
     0
 63
     7
421
 16777215
 40
1.0
291
     1
 91
  2455826
 92
 54000000
292
     0
 70
     2
 71
   256
280
     1
  0
DICTIONARY
  5
25B
102
{ACAD_REACTORS
330
C
102
}
330
C
100
AcDbDictionary
281
     1
  0
DICTIONARY
  5
D
102
{ACAD_REACTORS
330
C
102
}
330
C
100
AcDbDictionary
281
     1
  0
DICTIONARY
  5
1A
102
{ACAD_REACTORS
330
C
102
}
330
C
100
AcDbDictionary
281
     1
  3
Layout1
350
1E
  3
Layout2
350
26
  3
Model
350
22
  0
DICTIONARY
  5
43
102
{ACAD_REACTORS
330
C
102
}
330
C
100
AcDbDictionary
281
     1
  3
ByBlock
350
45
  3
ByLayer
350
44
  3
Global
350
46
  0
DICTIONARY
  5
6B
102
{ACAD_REACTORS
330
C
102
}
330
C
100
AcDbDictionary
281
     1
  3
Standard
350
6C
  0
DICTIONARY
  5
17
102
{ACAD_REACTORS
330
C
102
}
330
C
100
AcDbDictionary
281
     1
  3
Standard
350
18
  0
DICTIONARY
  5
19
102
{ACAD_REACTORS
330
C
102
}
330
C
100
AcDbDictionary
281
     1
  0
ACDBDICTIONARYWDFLT
  5
E
102
{ACAD_REACTORS
330
C
102
}
330
C
100
AcDbDictionary
281
     1
  3
Normal
350
F
100
AcDbDictionaryWithDefault
340
F
  0
DICTIONARY
  5
47
102
{ACAD_REACTORS
330
C
102
}
330
C
100
AcDbDictionary
281
     1
  3
A0
350
48
  3
A1
350
49
  3
A2
350
4A
  3
A3
350
4B
  3
A4
350
4C
  3
A5
350
4D
  3
A6
350
4E
  3
A7
350
4F
  3
A8
350
50
  3
A9
350
51
  3
B0
350
52
  3
B1
350
53
  3
B2
350
54
  3
B3
350
55
  3
B4
350
56
  3
B5
350
57
  3
B6
350
58
  3
B7
350
59
  3
B8
350
5A
  3
B9
350
5B
  3
C0
350
5C
  3
C1
350
5D
  3
C2
350
5E
  3
C3
350
5F
  3
C4
350
60
  3
C5
350
61
  3
C6
350
62
  3
C7
350
63
  3
C8
350
64
  3
C9
350
65
  3
D0
350
66
  3
D1
350
67
  3
D2
350
68
  0
DICTIONARY
  5
25C
102
{ACAD_REACTORS
330
C
102
}
330
C
100
AcDbDictionary
281
     1
  0
DICTIONARY
  5
69
102
{ACAD_REACTORS
330
C
102
}
330
C
100
AcDbDictionary
281
     1
  3
Standard
350
6A
  0
DICTIONARY
  5
2A
102
{ACAD_REACTORS
330
C
102
}
330
C
100
AcDbDictionary
281
     1
  3
2dWireframe
350
2F
  3
Basic
350
32
  3
Brighten
350
36
  3
ColorChange
350
3A
  3
Conceptual
350
34
  3
Dim
350
35
  3
EdgeColorOff
350
3D
  3
Facepattern
350
39
  3
Flat
350
2B
  3
FlatWithEdges
350
2C
  3
Gouraud
350
2D
  3
GouraudWithEdges
350
2E
  3
Hidden
350
31
  3
JitterOff
350
3B
  3
Linepattern
350
38
  3
OverhangOff
350
3C
  3
Realistic
350
33
  3
Shaded
350
42
  3
Shaded with edges
350
41
  3
Shades of Gray
350
3E
  3
Sketchy
350
3F
  3
Thicken
350
37
  3
Wireframe
350
30
  3
X-Ray
350
40
  0
XRECORD
  5
258
102
{ACAD_REACTORS
330
C
102
}
330
C
100
AcDbXrecord
280
     1
 90
        1
330
6A
  0
DICTIONARY
  5
254
102
{ACAD_REACTORS
330
C
102
}
330
C
100
AcDbDictionary
281
     1
  3
CANNOSCALE
350
255
  3
CMLEADERSTYLE
350
25A
  3
CTABLESTYLE
350
259
  0
LAYOUT
  5
1E
102
{ACAD_REACTORS
330
1A
102
}
330
1A
100
AcDbPlotSettings
  1

  2
none_device
  4

  6

 40
0.0
 41
0.0
 42
0.0
 43
0.0
 44
0.0
 45
0.0
 46
0.0
 47
0.0
 48
0.0
 49
0.0
140
0.0
141
0.0
142
1.0
143
1.0
 70
   688
 72
     0
 73
     0
 74
     5
  7

 75
    16
 76
     0
 77
     2
 78
   300
147
1.0
148
0.0
149
0.0
100
AcDbLayout
  1
Layout1
 70
     1
 71
     1
 10
0.0
 20
0.0
 11
12.0
 21
9.0
 12
0.0
 22
0.0
 32
0.0
 14
1.000000000000000E+20
 24
1.000000000000000E+20
 34
1.000000000000000E+20
 15
-1.000000000000000E+20
 25
-1.000000000000000E+20
 35
-1.000000000000000E+20
146
0.0
 13
0.0
 23
0.0
 33
0.0
 16
1.0
 26
0.0
 36
0.0
 17
0.0
 27
1.0
 37
0.0
 76
     0
330
1B
  0
LAYOUT
  5
26
102
{ACAD_REACTORS
330
1A
102
}
330
1A
100
AcDbPlotSettings
  1

  2
none_device
  4

  6

 40
0.0
 41
0.0
 42
0.0
 43
0.0
 44
0.0
 45
0.0
 46
0.0
 47
0.0
 48
0.0
 49
0.0
140
0.0
141
0.0
142
1.0
143
1.0
 70
   688
 72
     0
 73
     0
 74
     5
  7

 75
    16
 76
     0
 77
     2
 78
   300
147
1.0
148
0.0
149
0.0
100
AcDbLayout
  1
Layout2
 70
     1
 71
     2
 10
0.0
 20
0.0
 11
0.0
 21
0.0
 12
0.0
 22
0.0
 32
0.0
 14
0.0
 24
0.0
 34
0.0
 15
0.0
 25
0.0
 35
0.0
146
0.0
 13
0.0
 23
0.0
 33
0.0
 16
1.0
 26
0.0
 36
0.0
 17
0.0
 27
1.0
 37
0.0
 76
     0
330
23
  0
LAYOUT
  5
22
102
{ACAD_REACTORS
330
1A
102
}
330
1A
100
AcDbPlotSettings
  1

  2
none_device
  4
Letter_(8.50_x_11.00_Inches)
  6

 40
6.35
 41
6.35
 42
6.35000508
 43
6.35000508
 44
215.9
 45
279.4
 46
0.0
 47
0.0
 48
0.0
 49
0.0
140
0.0
141
0.0
142
1.0
143
1.0
 70
  1712
 72
     0
 73
     0
 74
     0
  7

 75
     0
 76
     0
 77
     2
 78
   300
147
1.0
148
0.0
149
0.0
100
AcDbLayout
  1
Model
 70
     1
 71
     0
 10
0.0
 20
0.0
 11
12.0
 21
9.0
 12
0.0
 22
0.0
 32
0.0
 14
1.000000000000000E+20
 24
1.000000000000000E+20
 34
1.000000000000000E+20
 15
-1.000000000000000E+20
 25
-1.000000000000000E+20
 35
-1.000000000000000E+20
146
0.0
 13
0.0
 23
0.0
 33
0.0
 16
1.0
 26
0.0
 36
0.0
 17
0.0
 27
1.0
 37
0.0
 76
     0
330
1F
331
29
  0
MATERIAL
  5
45
102
{ACAD_REACTORS
330
43
102
}
330
43
100
AcDbMaterial
  1
ByBlock
 72
     1
 94
      127
  0
MATERIAL
  5
44
102
{ACAD_REACTORS
330
43
102
}
330
43
100
AcDbMaterial
  1
ByLayer
 72
     1
 94
      127
  0
MATERIAL
  5
46
102
{ACAD_REACTORS
330
43
102
}
330
43
100
AcDbMaterial
  1
Global
 72
     1
 94
      127
  0
MLEADERSTYLE
  5
6C
102
{ACAD_REACTORS
330
6B
102
}
330
6B
100
AcDbMLeaderStyle
179
     2
170
     2
171
     1
172
     0
 90
        2
 40
0.0
 41
0.0
173
     1
 91
-1056964608
340
14
 92
       -2
290
     1
 42
0.09
291
     1
 43
0.36
  3
Standard
341
0
 44
0.18
300

342
11
174
     1
178
     6
175
     1
176
     0
 93
-1056964608
 45
0.18
292
     0
297
     0
 46
0.18
343
0
 94
-1056964608
 47
1.0
 49
1.0
140
1.0
293
     1
141
0.0
294
     1
177
     0
142
1.0
295
     0
296
     0
143
0.125
271
     0
272
     9
273
     9
298
     0
  0
MLINESTYLE
  5
18
102
{ACAD_REACTORS
330
17
102
}
330
17
100
AcDbMlineStyle
  2
Standard
 70
     0
  3

 62
   256
 51
90.0
 52
90.0
 71
     2
 49
0.5
 62
   256
  6
BYLAYER
 49
-0.5
 62
   256
  6
BYLAYER
  0
ACDBPLACEHOLDER
  5
F
102
{ACAD_REACTORS
330
E
102
}
330
E
  0
SCALE
  5
48
102
{ACAD_REACTORS
330
47
102
}
330
47
100
AcDbScale
 70
     0
300
1:1
140
1.0
141
1.0
290
     1
  0
SCALE
  5
49
102
{ACAD_REACTORS
330
47
102
}
330
47
100
AcDbScale
 70
     0
300
1:2
140
1.0
141
2.0
290
     0
  0
SCALE
  5
4A
102
{ACAD_REACTORS
330
47
102
}
330
47
100
AcDbScale
 70
     0
300
1:4
140
1.0
141
4.0
290
     0
  0
SCALE
  5
4B
102
{ACAD_REACTORS
330
47
102
}
330
47
100
AcDbScale
 70
     0
300
1:5
140
1.0
141
5.0
290
     0
  0
SCALE
  5
4C
102
{ACAD_REACTORS
330
47
102
}
330
47
100
AcDbScale
 70
     0
300
1:8
140
1.0
141
8.0
290
     0
  0
SCALE
  5
4D
102
{ACAD_REACTORS
330
47
102
}
330
47
100
AcDbScale
 70
     0
300
1:10
140
1.0
141
10.0
290
     0
  0
SCALE
  5
4E
102
{ACAD_REACTORS
330
47
102
}
330
47
100
AcDbScale
 70
     0
300
1:16
140
1.0
141
16.0
290
     0
  0
SCALE
  5
4F
102
{ACAD_REACTORS
330
47
102
}
330
47
100
AcDbScale
 70
     0
300
1:20
140
1.0
141
20.0
290
     0
  0
SCALE
  5
50
102
{ACAD_REACTORS
330
47
102
}
330
47
100
AcDbScale
 70
     0
300
1:30
140
1.0
141
30.0
290
     0
  0
SCALE
  5
51
102
{ACAD_REACTORS
330
47
102
}
330
47
100
AcDbScale
 70
     0
300
1:40
140
1.0
141
40.0
290
     0
  0
SCALE
  5
52
102
{ACAD_REACTORS
330
47
102
}
330
47
100
AcDbScale
 70
     0
300
1:50
140
1.0
141
50.0
290
     0
  0
SCALE
  5
53
102
{ACAD_REACTORS
330
47
102
}
330
47
100
AcDbScale
 70
     0
300
1:100
140
1.0
141
100.0
290
     0
  0
SCALE
  5
54
102
{ACAD_REACTORS
330
47
102
}
330
47
100
AcDbScale
 70
     0
300
2:1
140
2.0
141
1.0
290
     0
  0
SCALE
  5
55
102
{ACAD_REACTORS
330
47
102
}
330
47
100
AcDbScale
 70
     0
300
4:1
140
4.0
141
1.0
290
     0
  0
SCALE
  5
56
102
{ACAD_REACTORS
330
47
102
}
330
47
100
AcDbScale
 70
     0
300
8:1
140
8.0
141
1.0
290
     0
  0
SCALE
  5
57
102
{ACAD_REACTORS
330
47
102
}
330
47
100
AcDbScale
 70
     0
300
10:1
140
10.0
141
1.0
290
     0
  0
SCALE
  5
58
102
{ACAD_REACTORS
330
47
102
}
330
47
100
AcDbScale
 70
     0
300
100:1
140
100.0
141
1.0
290
     0
  0
SCALE
  5
59
102
{ACAD_REACTORS
330
47
102
}
330
47
100
AcDbScale
 70
     0
300
1/128" = 1'-0"
140
0.0078125
141
12.0
290
     0
  0
SCALE
  5
5A
102
{ACAD_REACTORS
330
47
102
}
330
47
100
AcDbScale
 70
     0
300
1/64" = 1'-0"
140
0.015625
141
12.0
290
     0
  0
SCALE
  5
5B
102
{ACAD_REACTORS
330
47
102
}
330
47
100
AcDbScale
 70
     0
300
1/32" = 1'-0"
140
0.03125
141
12.0
290
     0
  0
SCALE
  5
5C
102
{ACAD_REACTORS
330
47
102
}
330
47
100
AcDbScale
 70
     0
300
1/16" = 1'-0"
140
0.0625
141
12.0
290
     0
  0
SCALE
  5
5D
102
{ACAD_REACTORS
330
47
102
}
330
47
100
AcDbScale
 70
     0
300
3/32" = 1'-0"
140
0.09375
141
12.0
290
     0
  0
SCALE
  5
5E
102
{ACAD_REACTORS
330
47
102
}
330
47
100
AcDbScale
 70
     0
300
1/8" = 1'-0"
140
0.125
141
12.0
290
     0
  0
SCALE
  5
5F
102
{ACAD_REACTORS
330
47
102
}
330
47
100
AcDbScale
 70
     0
300
3/16" = 1'-0"
140
0.1875
141
12.0
290
     0
  0
SCALE
  5
60
102
{ACAD_REACTORS
330
47
102
}
330
47
100
AcDbScale
 70
     0
300
1/4" = 1'-0"
140
0.25
141
12.0
290
     0
  0
SCALE
  5
61
102
{ACAD_REACTORS
330
47
102
}
330
47
100
AcDbScale
 70
     0
300
3/8" = 1'-0"
140
0.375
141
12.0
290
     0
  0
SCALE
  5
62
102
{ACAD_REACTORS
330
47
102
}
330
47
100
AcDbScale
 70
     0
300
1/2" = 1'-0"
140
0.5
141
12.0
290
     0
  0
SCALE
  5
63
102
{ACAD_REACTORS
330
47
102
}
330
47
100
AcDbScale
 70
     0
300
3/4" = 1'-0"
140
0.75
141
12.0
290
     0
  0
SCALE
  5
64
102
{ACAD_REACTORS
330
47
102
}
330
47
100
AcDbScale
 70
     0
300
1" = 1'-0"
140
1.0
141
12.0
290
     0
  0
SCALE
  5
65
102
{ACAD_REACTORS
330
47
102
}
330
47
100
AcDbScale
 70
     0
300
1-1/2" = 1'-0"
140
1.5
141
12.0
290
     0
  0
SCALE
  5
66
102
{ACAD_REACTORS
330
47
102
}
330
47
100
AcDbScale
 70
     0
300
3" = 1'-0"
140
3.0
141
12.0
290
     0
  0
SCALE
  5
67
102
{ACAD_REACTORS
330
47
102
}
330
47
100
AcDbScale
 70
     0
300
6" = 1'-0"
140
6.0
141
12.0
290
     0
  0
SCALE
  5
68
102
{ACAD_REACTORS
330
47
102
}
330
47
100
AcDbScale
 70
     0
300
1'-0" = 1'-0"
140
12.0
141
12.0
290
     0
  0
TABLESTYLE
  5
6A
102
{ACAD_REACTORS
330
69
102
}
102
{ACAD_XDICTIONARY
360
256
102
}
330
69
100
AcDbTableStyle
  3
Standard
 70
     0
 71
     0
 40
0.06
 41
0.06
280
     0
281
     0
  7
Standard
140
0.18
170
     2
 62
     0
 63
   257
283
     0
 90
        4
 91
        0
  1

274
    -2
284
     1
 64
     0
275
    -2
285
     1
 65
     0
276
    -2
286
     1
 66
     0
277
    -2
287
     1
 67
     0
278
    -2
288
     1
 68
     0
279
    -2
289
     1
 69
     0
  7
Standard
140
0.25
170
     5
 62
     0
 63
   257
283
     0
 90
        4
 91
        0
  1

274
    -2
284
     1
 64
     0
275
    -2
285
     1
 65
     0
276
    -2
286
     1
 66
     0
277
    -2
287
     1
 67
     0
278
    -2
288
     1
 68
     0
279
    -2
289
     1
 69
     0
  7
Standard
140
0.18
170
     5
 62
     0
 63
   257
283
     0
 90
        4
 91
        0
  1

274
    -2
284
     1
 64
     0
275
    -2
285
     1
 65
     0
276
    -2
286
     1
 66
     0
277
    -2
287
     1
 67
     0
278
    -2
288
     1
 68
     0
279
    -2
289
     1
 69
     0
  0
VISUALSTYLE
  5
2F
102
{ACAD_REACTORS
330
2A
102
}
330
2A
100
AcDbVisualStyle
  2
2dWireframe
 70
     4
177
     3
291
     0
 70
    58
 90
        0
176
     1
 90
        2
176
     1
 90
        0
176
     1
 90
        0
176
     1
 40
0.6
176
     1
 40
30.0
176
     1
 62
     7
420
 16777215
176
     1
 90
        1
176
     1
 90
        4
176
     1
 62
     7
176
     1
 62
   257
176
     1
 90
        1
176
     1
 90
        1
176
     1
 40
1.0
176
     1
 90
        0
176
     1
 62
   257
176
     1
 40
1.0
176
     1
 90
        1
176
     1
 90
        6
176
     1
 90
        2
176
     1
 62
     7
176
     1
 90
        5
176
     1
 90
        0
176
     1
 90
        0
176
     1
290
     0
176
     1
 90
        1
176
     1
 40
0.0
176
     1
 90
        0
176
     1
290
     1
176
     1
290
     1
176
     1
290
     0
176
     1
290
     0
176
     1
290
     0
176
     1
290
     0
176
     1
290
     0
176
     1
290
     0
176
     1
290
     0
176
     1
 90
       50
176
     1
 40
0.0
176
     1
 40
1.0
176
     1
 90
        0
176
     1
 62
    18
420
        0
176
     1
 90
       50
176
     1
 90
        3
176
     1
 62
     5
420
      255
176
     1
290
     0
176
     1
 90
       50
176
     1
 90
       50
176
     1
 90
       50
176
     1
290
     0
176
     1
 90
       50
176
     1
 62
   256
176
     0
 40
1.0
176
     0
 90
        2
176
     1
  1
strokes_ogs.tif
176
     1
290
     0
176
     1
 40
1.0
176
     1
 40
1.0
176
     1
  0
VISUALSTYLE
  5
32
102
{ACAD_REACTORS
330
2A
102
}
330
2A
100
AcDbVisualStyle
  2
Basic
 70
     7
177
     3
291
     1
 70
    58
 90
        1
176
     1
 90
        0
176
     1
 90
        1
176
     1
 90
        0
176
     1
 40
0.6
176
     1
 40
30.0
176
     1
 62
     7
420
 16777215
176
     1
 90
        0
176
     1
 90
        4
176
     1
 62
     7
176
     1
 62
   257
176
     1
 90
        1
176
     1
 90
        1
176
     1
 40
1.0
176
     1
 90
        8
176
     1
 62
     7
176
     1
 40
1.0
176
     1
 90
        1
176
     1
 90
        6
176
     1
 90
        2
176
     1
 62
     7
176
     1
 90
        5
176
     1
 90
        0
176
     1
 90
        0
176
     1
290
     0
176
     1
 90
        1
176
     1
 40
0.0
176
     1
 90
        0
176
     1
290
     0
176
     1
290
     1
176
     1
290
     1
176
     1
290
     0
176
     1
290
     0
176
     1
290
     0
176
     1
290
     0
176
     1
290
     0
176
     1
290
     0
176
     1
 90
       50
176
     1
 40
0.0
176
     1
 40
1.0
176
     1
 90
        0
176
     1
 62
    18
420
        0
176
     1
 90
       50
176
     1
 90
        3
176
     1
 62
     5
420
      255
176
     1
290
     0
176
     1
 90
       50
176
     1
 90
       50
176
     1
 90
       50
176
     1
290
     0
176
     1
 90
       50
176
     1
 62
   256
176
     0
 40
1.0
176
     0
 90
        2
176
     1
  1
strokes_ogs.tif
176
     1
290
     0
176
     1
 40
1.0
176
     1
 40
1.0
176
     1
  0
VISUALSTYLE
  5
36
102
{ACAD_REACTORS
330
2A
102
}
330
2A
100
AcDbVisualStyle
  2
Brighten
 70
    12
177
     3
291
     1
 70
    58
 90
        2
176
     1
 90
        2
176
     1
 90
        0
176
     1
 90
        0
176
     1
 40
0.6
176
     1
 40
30.0
176
     1
 62
     7
420
 16777215
176
     1
 90
        1
176
     1
 90
        4
176
     1
 62
     7
176
     1
 62
   257
176
     1
 90
        1
176
     1
 90
        1
176
     1
 40
1.0
176
     1
 90
        8
176
     1
 62
     7
176
     1
 40
1.0
176
     1
 90
        1
176
     1
 90
        6
176
     1
 90
        2
176
     1
 62
     7
176
     1
 90
        5
176
     1
 90
        0
176
     1
 90
        0
176
     1
290
     0
176
     1
 90
        1
176
     1
 40
50.0
176
     1
 90
        0
176
     1
290
     0
176
     1
290
     1
176
     1
290
     1
176
     1
290
     0
176
     1
290
     0
176
     1
290
     0
176
     1
290
     0
176
     1
290
     0
176
     1
290
     0
176
     1
 90
       50
176
     1
 40
0.0
176
     1
 40
1.0
176
     1
 90
        0
176
     1
 62
    18
420
        0
176
     1
 90
       50
176
     1
 90
        3
176
     1
 62
     5
420
      255
176
     1
290
     0
176
     1
 90
       50
176
     1
 90
       50
176
     1
 90
       50
176
     1
290
     0
176
     1
 90
       50
176
     1
 62
   256
176
     0
 40
1.0
176
     0
 90
        2
176
     1
  1
strokes_ogs.tif
176
     1
290
     0
176
     1
 40
1.0
176
     1
 40
1.0
176
     1
  0
VISUALSTYLE
  5
3A
102
{ACAD_REACTORS
330
2A
102
}
330
2A
100
AcDbVisualStyle
  2
ColorChange
 70
    16
177
     3
291
     1
 70
    58
 90
        2
176
     1
 90
        2
176
     1
 90
        3
176
     1
 90
        0
176
     1
 40
0.6
176
     1
 40
30.0
176
     1
 62
     8
420
  8421504
176
     1
 90
        1
176
     1
 90
        4
176
     1
 62
     7
176
     1
 62
   257
176
     1
 90
        1
176
     1
 90
        1
176
     1
 40
1.0
176
     1
 90
        8
176
     1
 62
     8
420
  8421504
176
     1
 40
1.0
176
     1
 90
        1
176
     1
 90
        6
176
     1
 90
        2
176
     1
 62
     7
176
     1
 90
        5
176
     1
 90
        0
176
     1
 90
        0
176
     1
290
     0
176
     1
 90
        1
176
     1
 40
0.0
176
     1
 90
        0
176
     1
290
     0
176
     1
290
     1
176
     1
290
     1
176
     1
290
     0
176
     1
290
     0
176
     1
290
     0
176
     1
290
     0
176
     1
290
     0
176
     1
290
     0
176
     1
 90
       50
176
     1
 40
0.0
176
     1
 40
1.0
176
     1
 90
        0
176
     1
 62
    18
420
        0
176
     1
 90
       50
176
     1
 90
        3
176
     1
 62
     5
420
      255
176
     1
290
     0
176
     1
 90
       50
176
     1
 90
       50
176
     1
 90
       50
176
     1
290
     0
176
     1
 90
       50
176
     1
 62
   256
176
     0
 40
1.0
176
     0
 90
        2
176
     1
  1
strokes_ogs.tif
176
     1
290
     0
176
     1
 40
1.0
176
     1
 40
1.0
176
     1
  0
VISUALSTYLE
  5
34
102
{ACAD_REACTORS
330
2A
102
}
330
2A
100
AcDbVisualStyle
  2
Conceptual
 70
     9
177
     3
291
     0
 70
    58
 90
        3
176
     1
 90
        2
176
     1
 90
        0
176
     1
 90
        0
176
     1
 40
0.6
176
     1
 40
30.0
176
     1
 62
     7
420
 16777215
176
     1
 90
        2
176
     1
 90
        2
176
     1
 62
     7
176
     1
 62
   257
176
     1
 90
        1
176
     1
 90
        1
176
     1
 40
179.0
176
     1
 90
        8
176
     1
 62
     7
176
     1
 40
1.0
176
     1
 90
        1
176
     1
 90
        6
176
     1
 90
        2
176
     1
 62
     7
176
     1
 90
        3
176
     1
 90
        0
176
     1
 90
        0
176
     1
290
     0
176
     1
 90
        1
176
     1
 40
0.0
176
     1
 90
        0
176
     1
290
     0
176
     1
290
     1
176
     1
290
     1
176
     1
290
     0
176
     1
290
     0
176
     1
290
     0
176
     1
290
     0
176
     1
290
     0
176
     1
290
     0
176
     1
 90
       50
176
     1
 40
0.0
176
     1
 40
1.0
176
     1
 90
        0
176
     1
 62
    18
420
        0
176
     1
 90
       50
176
     1
 90
        3
176
     1
 62
     5
420
      255
176
     1
290
     0
176
     1
 90
       50
176
     1
 90
       50
176
     1
 90
       50
176
     1
290
     0
176
     1
 90
       50
176
     1
 62
   256
176
     0
 40
1.0
176
     0
 90
        2
176
     1
  1
strokes_ogs.tif
176
     1
290
     0
176
     1
 40
1.0
176
     1
 40
1.0
176
     1
  0
VISUALSTYLE
  5
35
102
{ACAD_REACTORS
330
2A
102
}
330
2A
100
AcDbVisualStyle
  2
Dim
 70
    11
177
     3
291
     1
 70
    58
 90
        2
176
     1
 90
        2
176
     1
 90
        0
176
     1
 90
        0
176
     1
 40
0.6
176
     1
 40
30.0
176
     1
 62
     7
420
 16777215
176
     1
 90
        1
176
     1
 90
        4
176
     1
 62
     7
176
     1
 62
   257
176
     1
 90
        1
176
     1
 90
        1
176
     1
 40
1.0
176
     1
 90
        8
176
     1
 62
     7
176
     1
 40
1.0
176
     1
 90
        1
176
     1
 90
        6
176
     1
 90
        2
176
     1
 62
     7
176
     1
 90
        5
176
     1
 90
        0
176
     1
 90
        0
176
     1
290
     0
176
     1
 90
        1
176
     1
 40
-50.0
176
     1
 90
        0
176
     1
290
     0
176
     1
290
     1
176
     1
290
     1
176
     1
290
     0
176
     1
290
     0
176
     1
290
     0
176
     1
290
     0
176
     1
290
     0
176
     1
290
     0
176
     1
 90
       50
176
     1
 40
0.0
176
     1
 40
1.0
176
     1
 90
        0
176
     1
 62
    18
420
        0
176
     1
 90
       50
176
     1
 90
        3
176
     1
 62
     5
420
      255
176
     1
290
     0
176
     1
 90
       50
176
     1
 90
       50
176
     1
 90
       50
176
     1
290
     0
176
     1
 90
       50
176
     1
 62
   256
176
     0
 40
1.0
176
     0
 90
        2
176
     1
  1
strokes_ogs.tif
176
     1
290
     0
176
     1
 40
1.0
176
     1
 40
1.0
176
     1
  0
VISUALSTYLE
  5
3D
102
{ACAD_REACTORS
330
2A
102
}
330
2A
100
AcDbVisualStyle
  2
EdgeColorOff
 70
    22
177
     3
291
     1
 70
    58
 90
        2
176
     0
 90
        2
176
     0
 90
        0
176
     0
 90
        0
176
     0
 40
0.6
176
     0
 40
30.0
176
     0
 62
     7
420
 16777215
176
     0
 90
        1
176
     0
 90
        4
176
     0
 62
     7
176
     0
 62
   257
176
     0
 90
        1
176
     0
 90
        1
176
     0
 40
1.0
176
     0
 90
        8
176
     2
 62
     7
176
     0
 40
1.0
176
     0
 90
        1
176
     0
 90
        6
176
     0
 90
        2
176
     0
 62
     7
176
     0
 90
        5
176
     0
 90
        0
176
     0
 90
        0
176
     0
290
     0
176
     0
 90
        1
176
     0
 40
0.0
176
     0
 90
        0
176
     0
290
     0
176
     0
290
     1
176
     0
290
     1
176
     0
290
     0
176
     0
290
     0
176
     0
290
     0
176
     0
290
     0
176
     0
290
     0
176
     0
290
     0
176
     0
 90
       50
176
     0
 40
0.0
176
     0
 40
1.0
176
     0
 90
        0
176
     0
 62
    18
420
        0
176
     0
 90
       50
176
     0
 90
        3
176
     0
 62
     5
420
      255
176
     0
290
     0
176
     0
 90
       50
176
     0
 90
       50
176
     0
 90
       50
176
     0
290
     0
176
     0
 90
       50
176
     0
 62
   256
176
     0
 40
1.0
176
     0
 90
        2
176
     0
  1
strokes_ogs.tif
176
     0
290
     0
176
     0
 40
1.0
176
     0
 40
1.0
176
     0
  0
VISUALSTYLE
  5
39
102
{ACAD_REACTORS
330
2A
102
}
330
2A
100
AcDbVisualStyle
  2
Facepattern
 70
    15
177
     3
291
     1
 70
    58
 90
        2
176
     1
 90
        2
176
     1
 90
        0
176
     1
 90
        0
176
     1
 40
0.6
176
     1
 40
30.0
176
     1
 62
     7
420
 16777215
176
     1
 90
        1
176
     1
 90
        4
176
     1
 62
     7
176
     1
 62
   257
176
     1
 90
        1
176
     1
 90
        1
176
     1
 40
1.0
176
     1
 90
        8
176
     1
 62
     7
176
     1
 40
1.0
176
     1
 90
        1
176
     1
 90
        6
176
     1
 90
        2
176
     1
 62
     7
176
     1
 90
        5
176
     1
 90
        0
176
     1
 90
        0
176
     1
290
     0
176
     1
 90
        1
176
     1
 40
0.0
176
     1
 90
        0
176
     1
290
     0
176
     1
290
     1
176
     1
290
     1
176
     1
290
     0
176
     1
290
     0
176
     1
290
     0
176
     1
290
     0
176
     1
290
     0
176
     1
290
     0
176
     1
 90
       50
176
     1
 40
0.0
176
     1
 40
1.0
176
     1
 90
        0
176
     1
 62
    18
420
        0
176
     1
 90
       50
176
     1
 90
        3
176
     1
 62
     5
420
      255
176
     1
290
     0
176
     1
 90
       50
176
     1
 90
       50
176
     1
 90
       50
176
     1
290
     0
176
     1
 90
       50
176
     1
 62
   256
176
     0
 40
1.0
176
     0
 90
        2
176
     1
  1
strokes_ogs.tif
176
     1
290
     0
176
     1
 40
1.0
176
     1
 40
1.0
176
     1
  0
VISUALSTYLE
  5
2B
102
{ACAD_REACTORS
330
2A
102
}
330
2A
100
AcDbVisualStyle
  2
Flat
 70
     0
177
     3
291
     1
 70
    58
 90
        2
176
     1
 90
        1
176
     1
 90
        1
176
     1
 90
        2
176
     1
 40
0.6
176
     1
 40
30.0
176
     1
 62
     7
420
 16777215
176
     1
 90
        0
176
     1
 90
        0
176
     1
 62
     7
176
     1
 62
   257
176
     1
 90
        1
176
     1
 90
        1
176
     1
 40
1.0
176
     1
 90
        8
176
     1
 62
     7
176
     1
 40
1.0
176
     1
 90
        1
176
     1
 90
        6
176
     1
 90
        2
176
     1
 62
     7
176
     1
 90
        5
176
     1
 90
        0
176
     1
 90
        0
176
     1
290
     0
176
     1
 90
       13
176
     1
 40
0.0
176
     1
 90
        0
176
     1
290
     0
176
     1
290
     1
176
     1
290
     1
176
     1
290
     0
176
     1
290
     0
176
     1
290
     0
176
     1
290
     0
176
     1
290
     0
176
     1
290
     0
176
     1
 90
       50
176
     1
 40
0.0
176
     1
 40
1.0
176
     1
 90
        0
176
     1
 62
    18
420
        0
176
     1
 90
       50
176
     1
 90
        3
176
     1
 62
     5
420
      255
176
     1
290
     0
176
     1
 90
       50
176
     1
 90
       50
176
     1
 90
       50
176
     1
290
     0
176
     1
 90
       50
176
     1
 62
   256
176
     0
 40
1.0
176
     0
 90
        2
176
     1
  1
strokes_ogs.tif
176
     1
290
     0
176
     1
 40
1.0
176
     1
 40
1.0
176
     1
  0
VISUALSTYLE
  5
2C
102
{ACAD_REACTORS
330
2A
102
}
330
2A
100
AcDbVisualStyle
  2
FlatWithEdges
 70
     1
177
     3
291
     1
 70
    58
 90
        2
176
     1
 90
        1
176
     1
 90
        1
176
     1
 90
        2
176
     1
 40
0.6
176
     1
 40
30.0
176
     1
 62
     7
420
 16777215
176
     1
 90
        1
176
     1
 90
        0
176
     1
 62
     7
176
     1
 62
   257
176
     1
 90
        1
176
     1
 90
        1
176
     1
 40
1.0
176
     1
 90
        0
176
     1
 62
   257
176
     1
 40
1.0
176
     1
 90
        1
176
     1
 90
        6
176
     1
 90
        2
176
     1
 62
     7
176
     1
 90
        5
176
     1
 90
        0
176
     1
 90
        0
176
     1
290
     0
176
     1
 90
       13
176
     1
 40
0.0
176
     1
 90
        0
176
     1
290
     0
176
     1
290
     1
176
     1
290
     1
176
     1
290
     0
176
     1
290
     0
176
     1
290
     0
176
     1
290
     0
176
     1
290
     0
176
     1
290
     0
176
     1
 90
       50
176
     1
 40
0.0
176
     1
 40
1.0
176
     1
 90
        0
176
     1
 62
    18
420
        0
176
     1
 90
       50
176
     1
 90
        3
176
     1
 62
     5
420
      255
176
     1
290
     0
176
     1
 90
       50
176
     1
 90
       50
176
     1
 90
       50
176
     1
290
     0
176
     1
 90
       50
176
     1
 62
   256
176
     0
 40
1.0
176
     0
 90
        2
176
     1
  1
strokes_ogs.tif
176
     1
290
     0
176
     1
 40
1.0
176
     1
 40
1.0
176
     1
  0
VISUALSTYLE
  5
2D
102
{ACAD_REACTORS
330
2A
102
}
330
2A
100
AcDbVisualStyle
  2
Gouraud
 70
     2
177
     3
291
     1
 70
    58
 90
        2
176
     1
 90
        2
176
     1
 90
        1
176
     1
 90
        2
176
     1
 40
0.6
176
     1
 40
30.0
176
     1
 62
     7
420
 16777215
176
     1
 90
        0
176
     1
 90
        0
176
     1
 62
     7
176
     1
 62
   257
176
     1
 90
        1
176
     1
 90
        1
176
     1
 40
1.0
176
     1
 90
        0
176
     1
 62
     7
176
     1
 40
1.0
176
     1
 90
        1
176
     1
 90
        6
176
     1
 90
        2
176
     1
 62
     7
176
     1
 90
        5
176
     1
 90
        0
176
     1
 90
        0
176
     1
290
     0
176
     1
 90
       13
176
     1
 40
0.0
176
     1
 90
        0
176
     1
290
     0
176
     1
290
     1
176
     1
290
     1
176
     1
290
     0
176
     1
290
     0
176
     1
290
     0
176
     1
290
     0
176
     1
290
     0
176
     1
290
     0
176
     1
 90
       50
176
     1
 40
0.0
176
     1
 40
1.0
176
     1
 90
        0
176
     1
 62
    18
420
        0
176
     1
 90
       50
176
     1
 90
        3
176
     1
 62
     5
420
      255
176
     1
290
     0
176
     1
 90
       50
176
     1
 90
       50
176
     1
 90
       50
176
     1
290
     0
176
     1
 90
       50
176
     1
 62
   256
176
     0
 40
1.0
176
     0
 90
        2
176
     1
  1
strokes_ogs.tif
176
     1
290
     0
176
     1
 40
1.0
176
     1
 40
1.0
176
     1
  0
VISUALSTYLE
  5
2E
102
{ACAD_REACTORS
330
2A
102
}
330
2A
100
AcDbVisualStyle
  2
GouraudWithEdges
 70
     3
177
     3
291
     1
 70
    58
 90
        2
176
     1
 90
        2
176
     1
 90
        1
176
     1
 90
        2
176
     1
 40
0.6
176
     1
 40
30.0
176
     1
 62
     7
420
 16777215
176
     1
 90
        1
176
     1
 90
        0
176
     1
 62
     7
176
     1
 62
   257
176
     1
 90
        1
176
     1
 90
        1
176
     1
 40
1.0
176
     1
 90
        0
176
     1
 62
   257
176
     1
 40
1.0
176
     1
 90
        1
176
     1
 90
        6
176
     1
 90
        2
176
     1
 62
     7
176
     1
 90
        5
176
     1
 90
        0
176
     1
 90
        0
176
     1
290
     0
176
     1
 90
       13
176
     1
 40
0.0
176
     1
 90
        0
176
     1
290
     0
176
     1
290
     1
176
     1
290
     1
176
     1
290
     0
176
     1
290
     0
176
     1
290
     0
176
     1
290
     0
176
     1
290
     0
176
     1
290
     0
176
     1
 90
       50
176
     1
 40
0.0
176
     1
 40
1.0
176
     1
 90
        0
176
     1
 62
    18
420
        0
176
     1
 90
       50
176
     1
 90
        3
176
     1
 62
     5
420
      255
176
     1
290
     0
176
     1
 90
       50
176
     1
 90
       50
176
     1
 90
       50
176
     1
290
     0
176
     1
 90
       50
176
     1
 62
   256
176
     0
 40
1.0
176
     0
 90
        2
176
     1
  1
strokes_ogs.tif
176
     1
290
     0
176
     1
 40
1.0
176
     1
 40
1.0
176
     1
  0
VISUALSTYLE
  5
31
102
{ACAD_REACTORS
330
2A
102
}
330
2A
100
AcDbVisualStyle
  2
Hidden
 70
     6
177
     3
291
     0
 70
    58
 90
        1
176
     1
 90
        2
176
     1
 90
        2
176
     1
 90
        0
176
     1
 40
0.6
176
     1
 40
30.0
176
     1
 62
     7
420
 16777215
176
     1
 90
        2
176
     1
 90
        2
176
     1
 62
     7
176
     1
 62
   257
176
     1
 90
        2
176
     1
 90
        1
176
     1
 40
40.0
176
     1
 90
        0
176
     1
 62
   257
176
     1
 40
1.0
176
     1
 90
        1
176
     1
 90
        6
176
     1
 90
        2
176
     1
 62
     7
176
     1
 90
        3
176
     1
 90
        0
176
     1
 90
        0
176
     1
290
     0
176
     1
 90
        1
176
     1
 40
0.0
176
     1
 90
        0
176
     1
290
     0
176
     1
290
     1
176
     1
290
     1
176
     1
290
     0
176
     1
290
     0
176
     1
290
     0
176
     1
290
     0
176
     1
290
     0
176
     1
290
     0
176
     1
 90
       50
176
     1
 40
0.0
176
     1
 40
1.0
176
     1
 90
        0
176
     1
 62
    18
420
        0
176
     1
 90
       50
176
     1
 90
        3
176
     1
 62
     5
420
      255
176
     1
290
     0
176
     1
 90
       50
176
     1
 90
       50
176
     1
 90
       50
176
     1
290
     0
176
     1
 90
       50
176
     1
 62
   256
176
     0
 40
1.0
176
     0
 90
        2
176
     1
  1
strokes_ogs.tif
176
     1
290
     0
176
     1
 40
1.0
176
     1
 40
1.0
176
     1
  0
VISUALSTYLE
  5
3B
102
{ACAD_REACTORS
330
2A
102
}
330
2A
100
AcDbVisualStyle
  2
JitterOff
 70
    20
177
     3
291
     1
 70
    58
 90
        2
176
     0
 90
        2
176
     0
 90
        0
176
     0
 90
        0
176
     0
 40
0.6
176
     0
 40
30.0
176
     0
 62
     7
420
 16777215
176
     0
 90
        1
176
     0
 90
        4
176
     0
 62
     7
176
     0
 62
   257
176
     0
 90
        1
176
     0
 90
        1
176
     0
 40
1.0
176
     0
 90
       10
176
     2
 62
     7
176
     0
 40
1.0
176
     0
 90
        1
176
     0
 90
        6
176
     0
 90
        2
176
     0
 62
     7
176
     0
 90
        5
176
     0
 90
        0
176
     0
 90
        0
176
     0
290
     0
176
     0
 90
        1
176
     0
 40
0.0
176
     0
 90
        0
176
     0
290
     0
176
     0
290
     1
176
     0
290
     1
176
     0
290
     0
176
     0
290
     0
176
     0
290
     0
176
     0
290
     0
176
     0
290
     0
176
     0
290
     0
176
     0
 90
       50
176
     0
 40
0.0
176
     0
 40
1.0
176
     0
 90
        0
176
     0
 62
    18
420
        0
176
     0
 90
       50
176
     0
 90
        3
176
     0
 62
     5
420
      255
176
     0
290
     0
176
     0
 90
       50
176
     0
 90
       50
176
     0
 90
       50
176
     0
290
     0
176
     0
 90
       50
176
     0
 62
   256
176
     0
 40
1.0
176
     0
 90
        2
176
     0
  1
strokes_ogs.tif
176
     0
290
     0
176
     0
 40
1.0
176
     0
 40
1.0
176
     0
  0
VISUALSTYLE
  5
38
102
{ACAD_REACTORS
330
2A
102
}
330
2A
100
AcDbVisualStyle
  2
Linepattern
 70
    14
177
     3
291
     1
 70
    58
 90
        2
176
     1
 90
        2
176
     1
 90
        0
176
     1
 90
        0
176
     1
 40
0.6
176
     1
 40
30.0
176
     1
 62
     7
420
 16777215
176
     1
 90
        1
176
     1
 90
        4
176
     1
 62
     7
176
     1
 62
   257
176
     1
 90
        7
176
     1
 90
        7
176
     1
 40
1.0
176
     1
 90
        8
176
     1
 62
     7
176
     1
 40
1.0
176
     1
 90
        1
176
     1
 90
        6
176
     1
 90
        2
176
     1
 62
     7
176
     1
 90
        5
176
     1
 90
        0
176
     1
 90
        0
176
     1
290
     0
176
     1
 90
        1
176
     1
 40
0.0
176
     1
 90
        0
176
     1
290
     0
176
     1
290
     1
176
     1
290
     1
176
     1
290
     0
176
     1
290
     0
176
     1
290
     0
176
     1
290
     0
176
     1
290
     0
176
     1
290
     0
176
     1
 90
       50
176
     1
 40
0.0
176
     1
 40
1.0
176
     1
 90
        0
176
     1
 62
    18
420
        0
176
     1
 90
       50
176
     1
 90
        3
176
     1
 62
     5
420
      255
176
     1
290
     0
176
     1
 90
       50
176
     1
 90
       50
176
     1
 90
       50
176
     1
290
     0
176
     1
 90
       50
176
     1
 62
   256
176
     0
 40
1.0
176
     0
 90
        2
176
     1
  1
strokes_ogs.tif
176
     1
290
     0
176
     1
 40
1.0
176
     1
 40
1.0
176
     1
  0
VISUALSTYLE
  5
3C
102
{ACAD_REACTORS
330
2A
102
}
330
2A
100
AcDbVisualStyle
  2
OverhangOff
 70
    21
177
     3
291
     1
 70
    58
 90
        2
176
     0
 90
        2
176
     0
 90
        0
176
     0
 90
        0
176
     0
 40
0.6
176
     0
 40
30.0
176
     0
 62
     7
420
 16777215
176
     0
 90
        1
176
     0
 90
        4
176
     0
 62
     7
176
     0
 62
   257
176
     0
 90
        1
176
     0
 90
        1
176
     0
 40
1.0
176
     0
 90
        9
176
     2
 62
     7
176
     0
 40
1.0
176
     0
 90
        1
176
     0
 90
        6
176
     0
 90
        2
176
     0
 62
     7
176
     0
 90
        5
176
     0
 90
        0
176
     0
 90
        0
176
     0
290
     0
176
     0
 90
        1
176
     0
 40
0.0
176
     0
 90
        0
176
     0
290
     0
176
     0
290
     1
176
     0
290
     1
176
     0
290
     0
176
     0
290
     0
176
     0
290
     0
176
     0
290
     0
176
     0
290
     0
176
     0
290
     0
176
     0
 90
       50
176
     0
 40
0.0
176
     0
 40
1.0
176
     0
 90
        0
176
     0
 62
    18
420
        0
176
     0
 90
       50
176
     0
 90
        3
176
     0
 62
     5
420
      255
176
     0
290
     0
176
     0
 90
       50
176
     0
 90
       50
176
     0
 90
       50
176
     0
290
     0
176
     0
 90
       50
176
     0
 62
   256
176
     0
 40
1.0
176
     0
 90
        2
176
     0
  1
strokes_ogs.tif
176
     0
290
     0
176
     0
 40
1.0
176
     0
 40
1.0
176
     0
  0
VISUALSTYLE
  5
33
102
{ACAD_REACTORS
330
2A
102
}
330
2A
100
AcDbVisualStyle
  2
Realistic
 70
     8
177
     3
291
     0
 70
    58
 90
        2
176
     1
 90
        3
176
     1
 90
        0
176
     1
 90
        2
176
     1
 40
0.6
176
     1
 40
30.0
176
     1
 62
     7
420
 16777215
176
     1
 90
        0
176
     1
 90
        0
176
     1
 62
     7
176
     1
 62
   257
176
     1
 90
        1
176
     1
 90
        1
176
     1
 40
1.0
176
     1
 90
        8
176
     1
 62
   257
176
     1
 40
1.0
176
     1
 90
        1
176
     1
 90
        6
176
     1
 90
        2
176
     1
 62
     7
176
     1
 90
        3
176
     1
 90
        0
176
     1
 90
        0
176
     1
290
     0
176
     1
 90
       13
176
     1
 40
0.0
176
     1
 90
        0
176
     1
290
     0
176
     1
290
     1
176
     1
290
     1
176
     1
290
     0
176
     1
290
     0
176
     1
290
     0
176
     1
290
     0
176
     1
290
     0
176
     1
290
     0
176
     1
 90
       50
176
     1
 40
0.0
176
     1
 40
1.0
176
     1
 90
        0
176
     1
 62
    18
420
        0
176
     1
 90
       50
176
     1
 90
        3
176
     1
 62
     5
420
      255
176
     1
290
     0
176
     1
 90
       50
176
     1
 90
       50
176
     1
 90
       50
176
     1
290
     0
176
     1
 90
       50
176
     1
 62
   256
176
     0
 40
1.0
176
     0
 90
        2
176
     1
  1
strokes_ogs.tif
176
     1
290
     0
176
     1
 40
1.0
176
     1
 40
1.0
176
     1
  0
VISUALSTYLE
  5
42
102
{ACAD_REACTORS
330
2A
102
}
330
2A
100
AcDbVisualStyle
  2
Shaded
 70
    27
177
     3
291
     0
 70
    58
 90
        2
176
     1
 90
        2
176
     1
 90
        1
176
     1
 90
        2
176
     1
 40
0.6
176
     1
 40
30.0
176
     1
 62
     7
420
 16777215
176
     1
 90
        0
176
     1
 90
        4
176
     1
 62
     7
176
     1
 62
   257
176
     1
 90
        1
176
     1
 90
        1
176
     1
 40
1.0
176
     1
 90
        8
176
     1
 62
   257
176
     1
 40
1.0
176
     1
 90
        1
176
     1
 90
        6
176
     1
 90
        2
176
     1
 62
     8
420
  7895160
176
     1
 90
        3
176
     1
 90
        0
176
     1
 90
        0
176
     1
290
     0
176
     1
 90
        5
176
     1
 40
0.0
176
     1
 90
        0
176
     1
290
     0
176
     1
290
     1
176
     1
290
     1
176
     1
290
     0
176
     1
290
     0
176
     1
290
     0
176
     1
290
     0
176
     1
290
     0
176
     1
290
     0
176
     1
 90
       50
176
     1
 40
0.0
176
     1
 40
1.0
176
     1
 90
        0
176
     1
 62
    18
420
        0
176
     1
 90
       50
176
     1
 90
        3
176
     1
 62
     5
420
      255
176
     1
290
     0
176
     1
 90
       50
176
     1
 90
       50
176
     1
 90
       50
176
     1
290
     0
176
     1
 90
       50
176
     1
 62
   256
176
     0
 40
1.0
176
     0
 90
        2
176
     1
  1
strokes_ogs.tif
176
     1
290
     0
176
     1
 40
1.0
176
     1
 40
1.0
176
     1
  0
VISUALSTYLE
  5
41
102
{ACAD_REACTORS
330
2A
102
}
330
2A
100
AcDbVisualStyle
  2
Shaded with edges
 70
    26
177
     3
291
     0
 70
    58
 90
        2
176
     1
 90
        2
176
     1
 90
        1
176
     1
 90
        2
176
     1
 40
0.6
176
     1
 40
30.0
176
     1
 62
     7
420
 16777215
176
     1
 90
        1
176
     1
 90
       10
176
     1
 62
     7
176
     1
 62
   257
176
     1
 90
        2
176
     1
 90
        1
176
     1
 40
1.0
176
     1
 90
        8
176
     1
 62
   257
176
     1
 40
1.0
176
     1
 90
        1
176
     1
 90
        6
176
     1
 90
        2
176
     1
 62
     7
176
     1
 90
        3
176
     1
 90
        0
176
     1
 90
        0
176
     1
290
     0
176
     1
 90
        5
176
     1
 40
0.0
176
     1
 90
        0
176
     1
290
     0
176
     1
290
     1
176
     1
290
     1
176
     1
290
     0
176
     1
290
     0
176
     1
290
     0
176
     1
290
     0
176
     1
290
     0
176
     1
290
     0
176
     1
 90
       50
176
     1
 40
0.0
176
     1
 40
1.0
176
     1
 90
        0
176
     1
 62
    18
420
        0
176
     1
 90
       50
176
     1
 90
        3
176
     1
 62
     5
420
      255
176
     1
290
     0
176
     1
 90
       50
176
     1
 90
       50
176
     1
 90
       50
176
     1
290
     0
176
     1
 90
       50
176
     1
 62
   256
176
     0
 40
1.0
176
     0
 90
        2
176
     1
  1
strokes_ogs.tif
176
     1
290
     0
176
     1
 40
1.0
176
     1
 40
1.0
176
     1
  0
VISUALSTYLE
  5
3E
102
{ACAD_REACTORS
330
2A
102
}
330
2A
100
AcDbVisualStyle
  2
Shades of Gray
 70
    23
177
     3
291
     0
 70
    58
 90
        2
176
     1
 90
        2
176
     1
 90
        3
176
     1
 90
        0
176
     1
 40
0.6
176
     1
 40
30.0
176
     1
 62
     7
420
 16777215
176
     1
 90
        2
176
     1
 90
        2
176
     1
 62
     7
176
     1
 62
     7
176
     1
 90
        1
176
     1
 90
        1
176
     1
 40
40.0
176
     1
 90
        8
176
     1
 62
     7
176
     1
 40
1.0
176
     1
 90
        1
176
     1
 90
        6
176
     1
 90
        2
176
     1
 62
     7
176
     1
 90
        3
176
     1
 90
        0
176
     1
 90
        0
176
     1
290
     0
176
     1
 90
        1
176
     1
 40
0.0
176
     1
 90
        0
176
     1
290
     0
176
     1
290
     1
176
     1
290
     1
176
     1
290
     0
176
     1
290
     0
176
     1
290
     0
176
     1
290
     0
176
     1
290
     0
176
     1
290
     0
176
     1
 90
       50
176
     1
 40
0.0
176
     1
 40
1.0
176
     1
 90
        0
176
     1
 62
    18
420
        0
176
     1
 90
       50
176
     1
 90
        3
176
     1
 62
     5
420
      255
176
     1
290
     0
176
     1
 90
       50
176
     1
 90
       50
176
     1
 90
       50
176
     1
290
     0
176
     1
 90
       50
176
     1
 62
   256
176
     0
 40
1.0
176
     0
 90
        2
176
     1
  1
strokes_ogs.tif
176
     1
290
     0
176
     1
 40
1.0
176
     1
 40
1.0
176
     1
  0
VISUALSTYLE
  5
3F
102
{ACAD_REACTORS
330
2A
102
}
330
2A
100
AcDbVisualStyle
  2
Sketchy
 70
    24
177
     3
291
     0
 70
    58
 90
        1
176
     1
 90
        2
176
     1
 90
        2
176
     1
 90
        0
176
     1
 40
0.6
176
     1
 40
30.0
176
     1
 62
     7
420
 16777215
176
     1
 90
        2
176
     1
 90
        2
176
     1
 62
     7
176
     1
 62
     7
176
     1
 90
        1
176
     1
 90
        1
176
     1
 40
40.0
176
     1
 90
       11
176
     1
 62
     7
176
     1
 40
1.0
176
     1
 90
        1
176
     1
 90
        6
176
     1
 90
        2
176
     1
 62
     7
176
     1
 90
        6
176
     1
 90
        0
176
     1
 90
        0
176
     1
290
     0
176
     1
 90
        1
176
     1
 40
0.0
176
     1
 90
        0
176
     1
290
     0
176
     1
290
     1
176
     1
290
     1
176
     1
290
     0
176
     1
290
     0
176
     1
290
     0
176
     1
290
     0
176
     1
290
     0
176
     1
290
     0
176
     1
 90
       50
176
     1
 40
0.0
176
     1
 40
1.0
176
     1
 90
        0
176
     1
 62
    18
420
        0
176
     1
 90
       50
176
     1
 90
        3
176
     1
 62
     5
420
      255
176
     1
290
     0
176
     1
 90
       50
176
     1
 90
       50
176
     1
 90
       50
176
     1
290
     0
176
     1
 90
       50
176
     1
 62
   256
176
     0
 40
1.0
176
     0
 90
        2
176
     1
  1
strokes_ogs.tif
176
     1
290
     0
176
     1
 40
1.0
176
     1
 40
1.0
176
     1
  0
VISUALSTYLE
  5
37
102
{ACAD_REACTORS
330
2A
102
}
330
2A
100
AcDbVisualStyle
  2
Thicken
 70
    13
177
     3
291
     1
 70
    58
 90
        2
176
     1
 90
        2
176
     1
 90
        0
176
     1
 90
        0
176
     1
 40
0.6
176
     1
 40
30.0
176
     1
 62
     7
420
 16777215
176
     1
 90
        1
176
     1
 90
        4
176
     1
 62
     7
176
     1
 62
   257
176
     1
 90
        1
176
     1
 90
        1
176
     1
 40
1.0
176
     1
 90
       12
176
     1
 62
     7
176
     1
 40
1.0
176
     1
 90
        1
176
     1
 90
        6
176
     1
 90
        2
176
     1
 62
     7
176
     1
 90
        5
176
     1
 90
        0
176
     1
 90
        0
176
     1
290
     0
176
     1
 90
        1
176
     1
 40
0.0
176
     1
 90
        0
176
     1
290
     0
176
     1
290
     1
176
     1
290
     1
176
     1
290
     0
176
     1
290
     0
176
     1
290
     0
176
     1
290
     0
176
     1
290
     0
176
     1
290
     0
176
     1
 90
       50
176
     1
 40
0.0
176
     1
 40
1.0
176
     1
 90
        0
176
     1
 62
    18
420
        0
176
     1
 90
       50
176
     1
 90
        3
176
     1
 62
     5
420
      255
176
     1
290
     0
176
     1
 90
       50
176
     1
 90
       50
176
     1
 90
       50
176
     1
290
     0
176
     1
 90
       50
176
     1
 62
   256
176
     0
 40
1.0
176
     0
 90
        2
176
     1
  1
strokes_ogs.tif
176
     1
290
     0
176
     1
 40
1.0
176
     1
 40
1.0
176
     1
  0
VISUALSTYLE
  5
30
102
{ACAD_REACTORS
330
2A
102
}
330
2A
100
AcDbVisualStyle
  2
Wireframe
 70
     5
177
     3
291
     0
 70
    58
 90
        0
176
     1
 90
        2
176
     1
 90
        0
176
     1
 90
        0
176
     1
 40
0.6
176
     1
 40
30.0
176
     1
 62
     7
420
 16777215
176
     1
 90
        1
176
     1
 90
        4
176
     1
 62
     7
176
     1
 62
   257
176
     1
 90
        1
176
     1
 90
        1
176
     1
 40
1.0
176
     1
 90
        0
176
     1
 62
   257
176
     1
 40
1.0
176
     1
 90
        1
176
     1
 90
        6
176
     1
 90
        2
176
     1
 62
     7
176
     1
 90
        3
176
     1
 90
        0
176
     1
 90
        0
176
     1
290
     0
176
     1
 90
        1
176
     1
 40
0.0
176
     1
 90
        0
176
     1
290
     0
176
     1
290
     1
176
     1
290
     1
176
     1
290
     0
176
     1
290
     0
176
     1
290
     0
176
     1
290
     0
176
     1
290
     0
176
     1
290
     0
176
     1
 90
       50
176
     1
 40
0.0
176
     1
 40
1.0
176
     1
 90
        0
176
     1
 62
    18
420
        0
176
     1
 90
       50
176
     1
 90
        3
176
     1
 62
     5
420
      255
176
     1
290
     0
176
     1
 90
       50
176
     1
 90
       50
176
     1
 90
       50
176
     1
290
     0
176
     1
 90
       50
176
     1
 62
   256
176
     0
 40
1.0
176
     0
 90
        2
176
     1
  1
strokes_ogs.tif
176
     1
290
     0
176
     1
 40
1.0
176
     1
 40
1.0
176
     1
  0
VISUALSTYLE
  5
40
102
{ACAD_REACTORS
330
2A
102
}
330
2A
100
AcDbVisualStyle
  2
X-Ray
 70
    25
177
     3
291
     0
 70
    58
 90
        2
176
     1
 90
        2
176
     1
 90
        1
176
     1
 90
        1
176
     1
 40
0.5
176
     1
 40
30.0
176
     1
 62
     7
420
 16777215
176
     1
 90
        1
176
     1
 90
        0
176
     1
 62
     7
176
     1
 62
   257
176
     1
 90
        1
176
     1
 90
        1
176
     1
 40
1.0
176
     1
 90
        8
176
     1
 62
     7
176
     1
 40
1.0
176
     1
 90
        1
176
     1
 90
        6
176
     1
 90
        2
176
     1
 62
     7
176
     1
 90
        3
176
     1
 90
        0
176
     1
 90
        0
176
     1
290
     0
176
     1
 90
       13
176
     1
 40
0.0
176
     1
 90
        0
176
     1
290
     0
176
     1
290
     1
176
     1
290
     1
176
     1
290
     0
176
     1
290
     0
176
     1
290
     0
176
     1
290
     0
176
     1
290
     0
176
     1
290
     0
176
     1
 90
       50
176
     1
 40
0.0
176
     1
 40
1.0
176
     1
 90
        0
176
     1
 62
    18
420
        0
176
     1
 90
       50
176
     1
 90
        3
176
     1
 62
     5
420
      255
176
     1
290
     0
176
     1
 90
       50
176
     1
 90
       50
176
     1
 90
       50
176
     1
290
     0
176
     1
 90
       50
176
     1
 62
   256
176
     0
 40
1.0
176
     0
 90
        2
176
     1
  1
strokes_ogs.tif
176
     1
290
     0
176
     1
 40
1.0
176
     1
 40
1.0
176
     1
  0
DICTIONARYVAR
  5
255
102
{ACAD_REACTORS
330
254
102
}
330
254
100
DictionaryVariables
280
     0
  1
1:1
  0
DICTIONARYVAR
  5
25A
102
{ACAD_REACTORS
330
254
102
}
330
254
100
DictionaryVariables
280
     0
  1
Standard
  0
DICTIONARYVAR
  5
259
102
{ACAD_REACTORS
330
254
102
}
330
254
100
DictionaryVariables
280
     0
  1
Standard
  0
DICTIONARY
  5
256
330
6A
100
AcDbDictionary
280
     1
281
     1
  3
ACAD_ROUNDTRIP_2008_TABLESTYLE_CELLSTYLEMAP
360
257
  0
CELLSTYLEMAP
  5
257
102
{ACAD_REACTORS
330
256
102
}
330
256
100
AcDbCellStyleMap
 90
        3
300
CELLSTYLE
  1
TABLEFORMAT_BEGIN
 90
        5
170
     1
 91
        0
 92
    32768
 62
   257
 93
        1
300
CONTENTFORMAT
  1
CONTENTFORMAT_BEGIN
 90
        0
 91
        0
 92
        4
 93
        0
300

 40
0.0
140
1.0
 94
        5
 62
     0
340
11
144
0.25
309
CONTENTFORMAT_END
171
     1
301
MARGIN
  1
CELLMARGIN_BEGIN
 40
0.06
 40
0.06
 40
0.06
 40
0.06
 40
0.06
 40
0.06
309
CELLMARGIN_END
 94
        6
 95
        1
302
GRIDFORMAT
  1
GRIDFORMAT_BEGIN
 90
        0
 91
        1
 62
     0
 92
       -2
340
14
 93
        0
 40
0.045
309
GRIDFORMAT_END
 95
        2
302
GRIDFORMAT
  1
GRIDFORMAT_BEGIN
 90
        0
 91
        1
 62
     0
 92
       -2
340
14
 93
        0
 40
0.045
309
GRIDFORMAT_END
 95
        4
302
GRIDFORMAT
  1
GRIDFORMAT_BEGIN
 90
        0
 91
        1
 62
     0
 92
       -2
340
14
 93
        0
 40
0.045
309
GRIDFORMAT_END
 95
        8
302
GRIDFORMAT
  1
GRIDFORMAT_BEGIN
 90
        0
 91
        1
 62
     0
 92
       -2
340
14
 93
        0
 40
0.045
309
GRIDFORMAT_END
 95
       16
302
GRIDFORMAT
  1
GRIDFORMAT_BEGIN
 90
        0
 91
        1
 62
     0
 92
       -2
340
14
 93
        0
 40
0.045
309
GRIDFORMAT_END
 95
       32
302
GRIDFORMAT
  1
GRIDFORMAT_BEGIN
 90
        0
 91
        1
 62
     0
 92
       -2
340
14
 93
        0
 40
0.045
309
GRIDFORMAT_END
309
TABLEFORMAT_END
  1
CELLSTYLE_BEGIN
 90
        1
 91
        1
300
_TITLE
309
CELLSTYLE_END
300
CELLSTYLE
  1
TABLEFORMAT_BEGIN
 90
        5
170
     1
 91
        0
 92
        0
 62
   257
 93
        1
300
CONTENTFORMAT
  1
CONTENTFORMAT_BEGIN
 90
        0
 91
        0
 92
        4
 93
        0
300

 40
0.0
140
1.0
 94
        5
 62
     0
340
11
144
0.18
309
CONTENTFORMAT_END
171
     1
301
MARGIN
  1
CELLMARGIN_BEGIN
 40
0.06
 40
0.06
 40
0.06
 40
0.06
 40
0.06
 40
0.06
309
CELLMARGIN_END
 94
        6
 95
        1
302
GRIDFORMAT
  1
GRIDFORMAT_BEGIN
 90
        0
 91
        1
 62
     0
 92
       -2
340
14
 93
        0
 40
0.045
309
GRIDFORMAT_END
 95
        2
302
GRIDFORMAT
  1
GRIDFORMAT_BEGIN
 90
        0
 91
        1
 62
     0
 92
       -2
340
14
 93
        0
 40
0.045
309
GRIDFORMAT_END
 95
        4
302
GRIDFORMAT
  1
GRIDFORMAT_BEGIN
 90
        0
 91
        1
 62
     0
 92
       -2
340
14
 93
        0
 40
0.045
309
GRIDFORMAT_END
 95
        8
302
GRIDFORMAT
  1
GRIDFORMAT_BEGIN
 90
        0
 91
        1
 62
     0
 92
       -2
340
14
 93
        0
 40
0.045
309
GRIDFORMAT_END
 95
       16
302
GRIDFORMAT
  1
GRIDFORMAT_BEGIN
 90
        0
 91
        1
 62
     0
 92
       -2
340
14
 93
        0
 40
0.045
309
GRIDFORMAT_END
 95
       32
302
GRIDFORMAT
  1
GRIDFORMAT_BEGIN
 90
        0
 91
        1
 62
     0
 92
       -2
340
14
 93
        0
 40
0.045
309
GRIDFORMAT_END
309
TABLEFORMAT_END
  1
CELLSTYLE_BEGIN
 90
        2
 91
        1
300
_HEADER
309
CELLSTYLE_END
300
CELLSTYLE
  1
TABLEFORMAT_BEGIN
 90
        5
170
     1
 91
        0
 92
        0
 62
   257
 93
        1
300
CONTENTFORMAT
  1
CONTENTFORMAT_BEGIN
 90
        0
 91
        0
 92
        4
 93
        0
300

 40
0.0
140
1.0
 94
        2
 62
     0
340
11
144
0.18
309
CONTENTFORMAT_END
171
     1
301
MARGIN
  1
CELLMARGIN_BEGIN
 40
0.06
 40
0.06
 40
0.06
 40
0.06
 40
0.06
 40
0.06
309
CELLMARGIN_END
 94
        6
 95
        1
302
GRIDFORMAT
  1
GRIDFORMAT_BEGIN
 90
        0
 91
        1
 62
     0
 92
       -2
340
14
 93
        0
 40
0.045
309
GRIDFORMAT_END
 95
        2
302
GRIDFORMAT
  1
GRIDFORMAT_BEGIN
 90
        0
 91
        1
 62
     0
 92
       -2
340
14
 93
        0
 40
0.045
309
GRIDFORMAT_END
 95
        4
302
GRIDFORMAT
  1
GRIDFORMAT_BEGIN
 90
        0
 91
        1
 62
     0
 92
       -2
340
14
 93
        0
 40
0.045
309
GRIDFORMAT_END
 95
        8
302
GRIDFORMAT
  1
GRIDFORMAT_BEGIN
 90
        0
 91
        1
 62
     0
 92
       -2
340
14
 93
        0
 40
0.045
309
GRIDFORMAT_END
 95
       16
302
GRIDFORMAT
  1
GRIDFORMAT_BEGIN
 90
        0
 91
        1
 62
     0
 92
       -2
340
14
 93
        0
 40
0.045
309
GRIDFORMAT_END
 95
       32
302
GRIDFORMAT
  1
GRIDFORMAT_BEGIN
 90
        0
 91
        1
 62
     0
 92
       -2
340
14
 93
        0
 40
0.045
309
GRIDFORMAT_END
309
TABLEFORMAT_END
  1
CELLSTYLE_BEGIN
 90
        3
 91
        2
300
_DATA
309
CELLSTYLE_END
  0
ENDSEC
  0
EOF