0
SECTION
  2
HEADER
  9
$ACADVER
  1
AC1027
  9
$ACADMAINTVER
 70
     8
  9
$DWGCODEPAGE
  3
ANSI_1252
  9
$REQUIREDVERSIONS
160
                 0
  9
$COMMENTS
  1
File was created by Cadenas
  9
$CUSTOMPROPERTYTAG
  1
NN
  9
$CUSTOMPROPERTY
  1
Imperial -IP Pillow Block 2-1/8 thru 3-1/2  4-Bolt Inch Bore (Labyrinth Seal)
  9
$CUSTOMPROPERTYTAG
  1
NT
  9
$CUSTOMPROPERTY
  1
Imperial 4 Bolt Piliow Block Bearings
  9
$CUSTOMPROPERTYTAG
  1
NB
  9
$CUSTOMPROPERTY
  1
069564
  9
$CUSTOMPROPERTYTAG
  1
NBSYN
  9
$CUSTOMPROPERTY
  1
$PN.
  9
$CUSTOMPROPERTYTAG
  1
LINA
  9
$CUSTOMPROPERTY
  1
069564
  9
$CUSTOMPROPERTYTAG
  1
SS
  9
$CUSTOMPROPERTY
  1
3-1/4
  9
$CUSTOMPROPERTYTAG
  1
PN
  9
$CUSTOMPROPERTY
  1
069564
  9
$CUSTOMPROPERTYTAG
  1
DESCRIPTION
  9
$CUSTOMPROPERTY
  1
P4B-IP-304L
  9
$CUSTOMPROPERTYTAG
  1
EF
  9
$CUSTOMPROPERTY
  1
Non-Expansion Type
  9
$CUSTOMPROPERTYTAG
  1
ST
  9
$CUSTOMPROPERTY
  1
Labyrinth  Seal
  9
$CUSTOMPROPERTYTAG
  1
A
  9
$CUSTOMPROPERTY
  1
4-11/64
  9
$CUSTOMPROPERTYTAG
  1
B
  9
$CUSTOMPROPERTY
  1
13
  9
$CUSTOMPROPERTYTAG
  1
C
  9
$CUSTOMPROPERTY
  1
4-1/8
  9
$CUSTOMPROPERTYTAG
  1
DMIN
  9
$CUSTOMPROPERTY
  1
9-3/8
  9
$CUSTOMPROPERTYTAG
  1
DMAX
  9
$CUSTOMPROPERTY
  1
10-5/8
  9
$CUSTOMPROPERTYTAG
  1
E
  9
$CUSTOMPROPERTY
  1
2
  9
$CUSTOMPROPERTYTAG
  1
F
  9
$CUSTOMPROPERTY
  1
3/4
  9
$CUSTOMPROPERTYTAG
  1
G
  9
$CUSTOMPROPERTY
  1
1-1/2
  9
$CUSTOMPROPERTYTAG
  1
H
  9
$CUSTOMPROPERTY
  1
2-1/4
  9
$CUSTOMPROPERTYTAG
  1
J
  9
$CUSTOMPROPERTY
  1
7-9/16
  9
$CUSTOMPROPERTYTAG
  1
L
  9
$CUSTOMPROPERTY
  1
5
  9
$CUSTOMPROPERTYTAG
  1
M
  9
$CUSTOMPROPERTY
  1
3-3/4
  9
$CUSTOMPROPERTYTAG
  1
R
  9
$CUSTOMPROPERTY
  1
1-7/16
  9
$CUSTOMPROPERTYTAG
  1
S
  9
$CUSTOMPROPERTY
  1
2-47/64
  9
$CUSTOMPROPERTYTAG
  1
X
  9
$CUSTOMPROPERTY
  1
1/4
  9
$CUSTOMPROPERTYTAG
  1
Y
  9
$CUSTOMPROPERTY
  1
0.025
  9
$CUSTOMPROPERTYTAG
  1
Z
  9
$CUSTOMPROPERTY
  1
4-3/64
  9
$CUSTOMPROPERTYTAG
  1
COMPANY
  9
$CUSTOMPROPERTY
  1
baldor
  9
$INSBASE
 10
0.0
 20
0.0
 30
0.0
  9
$EXTMIN
 10
1.000000000000000E+20
 20
1.000000000000000E+20
 30
1.000000000000000E+20
  9
$EXTMAX
 10
-1.000000000000000E+20
 20
-1.000000000000000E+20
 30
-1.000000000000000E+20
  9
$LIMMIN
 10
0.0
 20
0.0
  9
$LIMMAX
 10
12.0
 20
9.0
  9
$ORTHOMODE
 70
     0
  9
$REGENMODE
 70
     1
  9
$FILLMODE
 70
     1
  9
$QTEXTMODE
 70
     0
  9
$MIRRTEXT
 70
     1
  9
$LTSCALE
 40
1.0
  9
$ATTMODE
 70
     1
  9
$TEXTSIZE
 40
0.2
  9
$TRACEWID
 40
0.05
  9
$TEXTSTYLE
  7
Standard
  9
$CLAYER
  8
0
  9
$CELTYPE
  6
ByLayer
  9
$CECOLOR
 62
   256
  9
$CELTSCALE
 40
1.0
  9
$DISPSILH
 70
     0
  9
$DIMSCALE
 40
1.0
  9
$DIMASZ
 40
0.18
  9
$DIMEXO
 40
0.0625
  9
$DIMDLI
 40
0.38
  9
$DIMRND
 40
0.0
  9
$DIMDLE
 40
0.0
  9
$DIMEXE
 40
0.18
  9
$DIMTP
 40
0.0
  9
$DIMTM
 40
0.0
  9
$DIMTXT
 40
0.18
  9
$DIMCEN
 40
0.09
  9
$DIMTSZ
 40
0.0
  9
$DIMTOL
 70
     0
  9
$DIMLIM
 70
     0
  9
$DIMTIH
 70
     1
  9
$DIMTOH
 70
     1
  9
$DIMSE1
 70
     0
  9
$DIMSE2
 70
     0
  9
$DIMTAD
 70
     0
  9
$DIMZIN
 70
     0
  9
$DIMBLK
  1

  9
$DIMASO
 70
     1
  9
$DIMSHO
 70
     1
  9
$DIMPOST
  1

  9
$DIMAPOST
  1

  9
$DIMALT
 70
     0
  9
$DIMALTD
 70
     2
  9
$DIMALTF
 40
25.4
  9
$DIMLFAC
 40
1.0
  9
$DIMTOFL
 70
     0
  9
$DIMTVP
 40
0.0
  9
$DIMTIX
 70
     0
  9
$DIMSOXD
 70
     0
  9
$DIMSAH
 70
     0
  9
$DIMBLK1
  1

  9
$DIMBLK2
  1

  9
$DIMSTYLE
  2
Standard
  9
$DIMCLRD
 70
     0
  9
$DIMCLRE
 70
     0
  9
$DIMCLRT
 70
     0
  9
$DIMTFAC
 40
1.0
  9
$DIMGAP
 40
0.09
  9
$DIMJUST
 70
     0
  9
$DIMSD1
 70
     0
  9
$DIMSD2
 70
     0
  9
$DIMTOLJ
 70
     1
  9
$DIMTZIN
 70
     0
  9
$DIMALTZ
 70
     0
  9
$DIMALTTZ
 70
     0
  9
$DIMUPT
 70
     0
  9
$DIMDEC
 70
     4
  9
$DIMTDEC
 70
     4
  9
$DIMALTU
 70
     2
  9
$DIMALTTD
 70
     2
  9
$DIMTXSTY
  7
Standard
  9
$DIMAUNIT
 70
     0
  9
$DIMADEC
 70
     0
  9
$DIMALTRND
 40
0.0
  9
$DIMAZIN
 70
     0
  9
$DIMDSEP
 70
    46
  9
$DIMATFIT
 70
     3
  9
$DIMFRAC
 70
     0
  9
$DIMLDRBLK
  1

  9
$DIMLUNIT
 70
     2
  9
$DIMLWD
 70
    -2
  9
$DIMLWE
 70
    -2
  9
$DIMTMOVE
 70
     0
  9
$DIMFXL
 40
1.0
  9
$DIMFXLON
 70
     0
  9
$DIMJOGANG
 40
0.7853981633974483
  9
$DIMTFILL
 70
     0
  9
$DIMTFILLCLR
 70
     0
  9
$DIMARCSYM
 70
     0
  9
$DIMLTYPE
  6

  9
$DIMLTEX1
  6

  9
$DIMLTEX2
  6

  9
$DIMTXTDIRECTION
 70
     0
  9
$LUNITS
 70
     2
  9
$LUPREC
 70
     4
  9
$SKETCHINC
 40
0.1
  9
$FILLETRAD
 40
0.5
  9
$AUNITS
 70
     0
  9
$AUPREC
 70
     0
  9
$MENU
  1
.
  9
$ELEVATION
 40
0.0
  9
$PELEVATION
 40
0.0
  9
$THICKNESS
 40
0.0
  9
$LIMCHECK
 70
     0
  9
$CHAMFERA
 40
0.0
  9
$CHAMFERB
 40
0.0
  9
$CHAMFERC
 40
0.0
  9
$CHAMFERD
 40
0.0
  9
$SKPOLY
 70
     0
  9
$TDCREATE
 40
2458168.98771787
  9
$TDUCREATE
 40
2458168.946051204
  9
$TDUPDATE
 40
2458168.987718055
  9
$TDUUPDATE
 40
2458168.946051389
  9
$TDINDWG
 40
0.0000000116
  9
$TDUSRTIMER
 40
0.0000000116
  9
$USRTIMER
 70
     1
  9
$ANGBASE
 50
0.0
  9
$ANGDIR
 70
     0
  9
$PDMODE
 70
     0
  9
$PDSIZE
 40
0.0
  9
$PLINEWID
 40
0.0
  9
$SPLFRAME
 70
     0
  9
$SPLINETYPE
 70
     6
  9
$SPLINESEGS
 70
     8
  9
$HANDSEED
  5
258
  9
$SURFTAB1
 70
     6
  9
$SURFTAB2
 70
     6
  9
$SURFTYPE
 70
     6
  9
$SURFU
 70
     6
  9
$SURFV
 70
     6
  9
$UCSBASE
  2

  9
$UCSNAME
  2

  9
$UCSORG
 10
0.0
 20
0.0
 30
0.0
  9
$UCSXDIR
 10
1.0
 20
0.0
 30
0.0
  9
$UCSYDIR
 10
0.0
 20
1.0
 30
0.0
  9
$UCSORTHOREF
  2

  9
$UCSORTHOVIEW
 70
     0
  9
$UCSORGTOP
 10
0.0
 20
0.0
 30
0.0
  9
$UCSORGBOTTOM
 10
0.0
 20
0.0
 30
0.0
  9
$UCSORGLEFT
 10
0.0
 20
0.0
 30
0.0
  9
$UCSORGRIGHT
 10
0.0
 20
0.0
 30
0.0
  9
$UCSORGFRONT
 10
0.0
 20
0.0
 30
0.0
  9
$UCSORGBACK
 10
0.0
 20
0.0
 30
0.0
  9
$PUCSBASE
  2

  9
$PUCSNAME
  2

  9
$PUCSORG
 10
0.0
 20
0.0
 30
0.0
  9
$PUCSXDIR
 10
1.0
 20
0.0
 30
0.0
  9
$PUCSYDIR
 10
0.0
 20
1.0
 30
0.0
  9
$PUCSORTHOREF
  2

  9
$PUCSORTHOVIEW
 70
     0
  9
$PUCSORGTOP
 10
0.0
 20
0.0
 30
0.0
  9
$PUCSORGBOTTOM
 10
0.0
 20
0.0
 30
0.0
  9
$PUCSORGLEFT
 10
0.0
 20
0.0
 30
0.0
  9
$PUCSORGRIGHT
 10
0.0
 20
0.0
 30
0.0
  9
$PUCSORGFRONT
 10
0.0
 20
0.0
 30
0.0
  9
$PUCSORGBACK
 10
0.0
 20
0.0
 30
0.0
  9
$USERI1
 70
     0
  9
$USERI2
 70
     0
  9
$USERI3
 70
     0
  9
$USERI4
 70
     0
  9
$USERI5
 70
     0
  9
$USERR1
 40
0.0
  9
$USERR2
 40
0.0
  9
$USERR3
 40
0.0
  9
$USERR4
 40
0.0
  9
$USERR5
 40
0.0
  9
$WORLDVIEW
 70
     1
  9
$SHADEDGE
 70
     3
  9
$SHADEDIF
 70
    70
  9
$TILEMODE
 70
     1
  9
$MAXACTVP
 70
    64
  9
$PINSBASE
 10
0.0
 20
0.0
 30
0.0
  9
$PLIMCHECK
 70
     0
  9
$PEXTMIN
 10
1.000000000000000E+20
 20
1.000000000000000E+20
 30
1.000000000000000E+20
  9
$PEXTMAX
 10
-1.000000000000000E+20
 20
-1.000000000000000E+20
 30
-1.000000000000000E+20
  9
$PLIMMIN
 10
0.0
 20
0.0
  9
$PLIMMAX
 10
12.0
 20
9.0
  9
$UNITMODE
 70
     0
  9
$VISRETAIN
 70
     1
  9
$PLINEGEN
 70
     0
  9
$PSLTSCALE
 70
     1
  9
$TREEDEPTH
 70
  3020
  9
$CMLSTYLE
  2
Standard
  9
$CMLJUST
 70
     0
  9
$CMLSCALE
 40
1.0
  9
$PROXYGRAPHICS
 70
     1
  9
$MEASUREMENT
 70
     0
  9
$CELWEIGHT
370
    -1
  9
$ENDCAPS
280
     0
  9
$JOINSTYLE
280
     0
  9
$LWDISPLAY
290
     0
  9
$INSUNITS
 70
     1
  9
$HYPERLINKBASE
  1

  9
$STYLESHEET
  1

  9
$XEDIT
290
     1
  9
$CEPSNTYPE
380
     0
  9
$PSTYLEMODE
290
     1
  9
$FINGERPRINTGUID
  2
{2EFCA71B-5356-4DD5-828C-02559429C3E9}
  9
$VERSIONGUID
  2
{FAEB1C32-E019-11D5-929B-00C0DF256EC4}
  9
$EXTNAMES
290
     1
  9
$PSVPSCALE
 40
0.0
  9
$OLESTARTUP
290
     0
  9
$SORTENTS
280
   127
  9
$INDEXCTL
280
     0
  9
$HIDETEXT
280
     1
  9
$XCLIPFRAME
280
     2
  9
$HALOGAP
280
     0
  9
$OBSCOLOR
 70
   257
  9
$OBSLTYPE
280
     0
  9
$INTERSECTIONDISPLAY
280
     0
  9
$INTERSECTIONCOLOR
 70
   257
  9
$DIMASSOC
280
     2
  9
$PROJECTNAME
  1

  9
$CAMERADISPLAY
290
     0
  9
$LENSLENGTH
 40
50.0
  9
$CAMERAHEIGHT
 40
0.0
  9
$STEPSPERSEC
 40
2.0
  9
$STEPSIZE
 40
6.0
  9
$3DDWFPREC
 40
2.0
  9
$PSOLWIDTH
 40
0.25
  9
$PSOLHEIGHT
 40
4.0
  9
$LOFTANG1
 40
1.570796326794897
  9
$LOFTANG2
 40
1.570796326794897
  9
$LOFTMAG1
 40
0.0
  9
$LOFTMAG2
 40
0.0
  9
$LOFTPARAM
 70
     7
  9
$LOFTNORMALS
280
     1
  9
$LATITUDE
 40
37.795
  9
$LONGITUDE
 40
-122.394
  9
$NORTHDIRECTION
 40
0.0
  9
$TIMEZONE
 70
 -8000
  9
$LIGHTGLYPHDISPLAY
280
     1
  9
$TILEMODELIGHTSYNCH
280
     1
  9
$CMATERIAL
347
44
  9
$SOLIDHIST
280
     0
  9
$SHOWHIST
280
     1
  9
$DWFFRAME
280
     2
  9
$DGNFRAME
280
     2
  9
$REALWORLDSCALE
290
     1
  9
$INTERFERECOLOR
 62
   256
  9
$CSHADOW
280
     0
  9
$SHADOWPLANELOCATION
 40
0.0
  0
ENDSEC
  0
SECTION
  2
CLASSES
  0
CLASS
  1
ACDBDICTIONARYWDFLT
  2
AcDbDictionaryWithDefault
  3
ObjectDBX Classes
 90
        0
 91
        4
280
     0
281
     0
  0
CLASS
  1
VISUALSTYLE
  2
AcDbVisualStyle
  3
ObjectDBX Classes
 90
     4095
 91
        4
280
     0
281
     0
  0
CLASS
  1
MATERIAL
  2
AcDbMaterial
  3
ObjectDBX Classes
 90
     1153
 91
        4
280
     0
281
     0
  0
CLASS
  1
SCALE
  2
AcDbScale
  3
ObjectDBX Classes
 90
     1153
 91
        4
280
     0
281
     0
  0
CLASS
  1
TABLESTYLE
  2
AcDbTableStyle
  3
ObjectDBX Classes
 90
     4095
 91
        4
280
     0
281
     0
  0
CLASS
  1
MLEADERSTYLE
  2
AcDbMLeaderStyle
  3
ACDB_MLEADERSTYLE_CLASS
 90
     4095
 91
        4
280
     0
281
     0
  0
CLASS
  1
SUN
  2
AcDbSun
  3
SCENEOE
 90
     1153
 91
        4
280
     0
281
     0
  0
CLASS
  1
DICTIONARYVAR
  2
AcDbDictionaryVar
  3
ObjectDBX Classes
 90
        0
 91
        4
280
     0
281
     0
  0
CLASS
  1
CELLSTYLEMAP
  2
AcDbCellStyleMap
  3
ObjectDBX Classes
 90
     1152
 91
        4
280
     0
281
     0
  0
ENDSEC
  0
SECTION
  2
TABLES
  0
TABLE
  2
VPORT
  5
8
330
0
100
AcDbSymbolTable
 70
     1
  0
VPORT
  5
29
330
8
100
AcDbSymbolTableRecord
100
AcDbViewportTableRecord
  2
*Active
 70
     0
 10
0.0
 20
0.0
 11
1.0
 21
1.0
 12
-0.3377343750000001
 22
0.03125
 13
0.0
 23
0.0
 14
0.5
 24
0.5
 15
0.5
 25
0.5
 16
0.0
 26
0.0
 36
1.0
 17
0.0
 27
0.0
 37
0.0
 40
7.71375
 41
0.689318181818182
 42
50.0
 43
0.0
 44
0.0
 50
0.0
 51
0.0
 71
     0
 72
   100
 73
     1
 74
     3
 75
     0
 76
     0
 77
     0
 78
     0
281
     0
 65
     1
110
0.0
120
0.0
130
0.0
111
1.0
121
0.0
131
0.0
112
0.0
122
1.0
132
0.0
 79
     0
146
0.0
348
2F
 60
     3
 61
     5
292
     1
282
     1
141
0.0
142
0.0
 63
   250
361
6D
  0
ENDTAB
  0
TABLE
  2
LTYPE
  5
5
330
0
100
AcDbSymbolTable
 70
     3
  0
LTYPE
  5
14
330
5
100
AcDbSymbolTableRecord
100
AcDbLinetypeTableRecord
  2
ByBlock
 70
     0
  3

 72
    65
 73
     0
 40
0.0
  0
LTYPE
  5
15
330
5
100
AcDbSymbolTableRecord
100
AcDbLinetypeTableRecord
  2
ByLayer
 70
     0
  3

 72
    65
 73
     0
 40
0.0
  0
LTYPE
  5
16
330
5
100
AcDbSymbolTableRecord
100
AcDbLinetypeTableRecord
  2
Continuous
 70
     0
  3
Solid line
 72
    65
 73
     0
 40
0.0
  0
LTYPE
  5
9B
330
5
100
AcDbSymbolTableRecord
100
AcDbLinetypeTableRecord
  2
Dashed
 70
     0
  3

 72
    65
 73
     2
 40
2.0
 49
1.0
 74
     0
 49
-1.0
 74
     0
  0
LTYPE
  5
1D9
330
5
100
AcDbSymbolTableRecord
100
AcDbLinetypeTableRecord
  2
Center
 70
     0
  3

 72
    65
 73
     4
 40
1.5
 49
0.45
 74
     0
 49
-0.5
 74
     0
 49
0.05
 74
     0
 49
-0.5
 74
     0
  0
ENDTAB
  0
TABLE
  2
LAYER
  5
2
330
0
100
AcDbSymbolTable
 70
     7
  0
LAYER
  5
10
330
2
100
AcDbSymbolTableRecord
100
AcDbLayerTableRecord
  2
0
 70
     0
 62
     7
  6
Continuous
370
    -3
390
F
347
46
348
0
  0
LAYER
  5
72
330
2
100
AcDbSymbolTableRecord
100
AcDbLayerTableRecord
  2
AM_6
 70
     0
 62
    -2
  6
Continuous
370
    35
390
F
347
46
348
0
  0
LAYER
  5
9C
330
2
100
AcDbSymbolTableRecord
100
AcDbLayerTableRecord
  2
AM_9
 70
     0
 62
     6
  6
Dashed
370
    25
390
F
347
46
348
0
  0
LAYER
  5
102
330
2
100
AcDbSymbolTableRecord
100
AcDbLayerTableRecord
  2
AM_5
 70
     0
 62
     3
  6
Continuous
370
    25
390
F
347
46
348
0
  0
LAYER
  5
106
330
2
100
AcDbSymbolTableRecord
100
AcDbLayerTableRecord
  2
AM_4
 70
     0
 62
     7
  6
Continuous
370
    50
390
F
347
46
348
0
  0
LAYER
  5
1DA
330
2
100
AcDbSymbolTableRecord
100
AcDbLayerTableRecord
  2
AM_7
 70
     0
 62
     7
  6
Center
370
    25
390
F
347
46
348
0
  0
LAYER
  5
241
330
2
100
AcDbSymbolTableRecord
100
AcDbLayerTableRecord
  2
ConnectionPoints
 70
     0
 62
     7
  6
Continuous
370
    50
390
F
347
46
348
0
  0
ENDTAB
  0
TABLE
  2
STYLE
  5
3
330
0
100
AcDbSymbolTable
 70
     1
  0
STYLE
  5
11
330
3
100
AcDbSymbolTableRecord
100
AcDbTextStyleTableRecord
  2
Standard
 70
     0
 40
0.0
 41
1.0
 50
0.0
 71
     0
 42
0.2
  3
txt
  4

  0
ENDTAB
  0
TABLE
  2
VIEW
  5
6
330
0
100
AcDbSymbolTable
 70
     0
  0
ENDTAB
  0
TABLE
  2
UCS
  5
7
330
0
100
AcDbSymbolTable
 70
     0
  0
ENDTAB
  0
TABLE
  2
APPID
  5
9
330
0
100
AcDbSymbolTable
 70
     1
  0
APPID
  5
12
330
9
100
AcDbSymbolTableRecord
100
AcDbRegAppTableRecord
  2
ACAD
 70
     0
  0
ENDTAB
  0
TABLE
  2
DIMSTYLE
  5
A
330
0
100
AcDbSymbolTable
 70
     1
100
AcDbDimStyleTable
  0
DIMSTYLE
105
27
330
A
100
AcDbSymbolTableRecord
100
AcDbDimStyleTableRecord
  2
Standard
 70
     0
178
     0
340
11
  0
ENDTAB
  0
TABLE
  2
BLOCK_RECORD
  5
1
330
0
100
AcDbSymbolTable
 70
     8
  0
BLOCK_RECORD
  5
1F
330
1
100
AcDbSymbolTableRecord
100
AcDbBlockTableRecord
  2
*Model_Space
340
22
 70
     0
280
     1
281
     0
  0
BLOCK_RECORD
  5
1B
330
1
100
AcDbSymbolTableRecord
100
AcDbBlockTableRecord
  2
*Paper_Space
340
1E
 70
     0
280
     1
281
     0
  0
BLOCK_RECORD
  5
23
330
1
100
AcDbSymbolTableRecord
100
AcDbBlockTableRecord
  2
*Paper_Space0
340
26
 70
     0
280
     1
281
     0
  0
BLOCK_RECORD
  5
6E
330
1
100
AcDbSymbolTableRecord
100
AcDbBlockTableRecord
  2
1_069564_2
340
0
102
{BLKREFS
331
6F
102
}
 70
     0
280
     1
281
     0
  0
BLOCK_RECORD
  5
8F
330
1
100
AcDbSymbolTableRecord
100
AcDbBlockTableRecord
  2
2_405015E_Inch_0_in_069564_2
340
0
102
{BLKREFS
331
90
102
}
 70
     0
280
     1
281
     0
  0
BLOCK_RECORD
  5
E7
330
1
100
AcDbSymbolTableRecord
100
AcDbBlockTableRecord
  2
3_ASME_B18_3_1_4_1_0_in_069564_2
340
0
102
{BLKREFS
331
E8
102
}
 70
     0
280
     1
281
     0
  0
BLOCK_RECORD
  5
10D
330
1
100
AcDbSymbolTableRecord
100
AcDbBlockTableRecord
  2
4_ASME_B18_3_1_4_2_0_in_069564_2
340
0
102
{BLKREFS
331
10E
102
}
 70
     0
280
     1
281
     0
  0
BLOCK_RECORD
  5
131
330
1
100
AcDbSymbolTableRecord
100
AcDbBlockTableRecord
  2
5_070902LW_0_in_069564_2
340
0
102
{BLKREFS
331
132
102
}
 70
     0
280
     1
281
     0
  0
BLOCK_RECORD
  5
167
330
1
100
AcDbSymbolTableRecord
100
AcDbBlockTableRecord
  2
6_070934I_0_in_069564_2
340
0
102
{BLKREFS
331
168
102
}
 70
     0
280
     1
281
     0
  0
BLOCK_RECORD
  5
1F2
330
1
100
AcDbSymbolTableRecord
100
AcDbBlockTableRecord
  2
7_069564H_0_in_069564_2
340
0
102
{BLKREFS
331
1F3
102
}
 70
     0
280
     1
281
     0
  0
ENDTAB
  0
ENDSEC
  0
SECTION
  2
BLOCKS
  0
BLOCK
  5
20
330
1F
100
AcDbEntity
  8
0
100
AcDbBlockBegin
  2
*Model_Space
 70
     0
 10
0.0
 20
0.0
 30
0.0
  3
*Model_Space
  1

  0
ENDBLK
  5
21
330
1F
100
AcDbEntity
  8
0
100
AcDbBlockEnd
  0
BLOCK
  5
1C
330
1B
100
AcDbEntity
 67
     1
  8
0
100
AcDbBlockBegin
  2
*Paper_Space
 70
     0
 10
0.0
 20
0.0
 30
0.0
  3
*Paper_Space
  1

  0
ENDBLK
  5
1D
330
1B
100
AcDbEntity
 67
     1
  8
0
100
AcDbBlockEnd
  0
BLOCK
  5
24
330
23
100
AcDbEntity
  8
0
100
AcDbBlockBegin
  2
*Paper_Space0
 70
     0
 10
0.0
 20
0.0
 30
0.0
  3
*Paper_Space0
  1

  0
ENDBLK
  5
25
330
23
100
AcDbEntity
  8
0
100
AcDbBlockEnd
  0
BLOCK
  5
70
330
6E
100
AcDbEntity
  8
0
100
AcDbBlockBegin
  2
1_069564_2
 70
     2
 10
0.0
 20
0.0
 30
0.0
  3
1_069564_2
  1

  0
ATTDEF
  5
73
330
6E
100
AcDbEntity
  8
AM_6
100
AcDbText
 10
7.26875
 20
3.8125
 30
0.0
 40
0.5
  1
Imperial -IP Pillow Block 2-1/8 thru 3-1/2  4-Bolt Inch Bore (Labyrinth Seal)
100
AcDbAttributeDefinition
  3

  2
NN
 70
     8
280
     0
  0
ATTDEF
  5
74
330
6E
100
AcDbEntity
  8
AM_6
100
AcDbText
 10
7.26875
 20
3.3125
 30
0.0
 40
0.5
  1
Imperial 4 Bolt Piliow Block Bearings
100
AcDbAttributeDefinition
  3

  2
NT
 70
     8
280
     0
  0
ATTDEF
  5
75
330
6E
100
AcDbEntity
  8
AM_6
100
AcDbText
 10
7.26875
 20
2.8125
 30
0.0
 40
0.5
  1
069564
100
AcDbAttributeDefinition
  3

  2
NB
 70
     8
280
     0
  0
ATTDEF
  5
76
330
6E
100
AcDbEntity
  8
AM_6
100
AcDbText
 10
7.26875
 20
2.3125
 30
0.0
 40
0.5
  1
$PN.
100
AcDbAttributeDefinition
  3

  2
NBSYN
 70
     8
280
     0
  0
ATTDEF
  5
77
330
6E
100
AcDbEntity
  8
AM_6
100
AcDbText
 10
7.26875
 20
1.8125
 30
0.0
 40
0.5
  1
069564
100
AcDbAttributeDefinition
  3

  2
LINA
 70
     8
280
     0
  0
ATTDEF
  5
78
330
6E
100
AcDbEntity
  8
AM_6
100
AcDbText
 10
7.26875
 20
1.3125
 30
0.0
 40
0.5
  1
3-1/4
100
AcDbAttributeDefinition
  3

  2
SS
 70
     8
280
     0
  0
ATTDEF
  5
79
330
6E
100
AcDbEntity
  8
AM_6
100
AcDbText
 10
7.26875
 20
0.8125
 30
0.0
 40
0.5
  1
069564
100
AcDbAttributeDefinition
  3

  2
PN
 70
     8
280
     0
  0
ATTDEF
  5
7A
330
6E
100
AcDbEntity
  8
AM_6
100
AcDbText
 10
7.26875
 20
0.3125
 30
0.0
 40
0.5
  1
P4B-IP-304L
100
AcDbAttributeDefinition
  3

  2
DESCRIPTION
 70
     8
280
     0
  0
ATTDEF
  5
7B
330
6E
100
AcDbEntity
  8
AM_6
100
AcDbText
 10
7.26875
 20
-0.1875
 30
0.0
 40
0.5
  1
Non-Expansion Type
100
AcDbAttributeDefinition
  3

  2
EF
 70
     8
280
     0
  0
ATTDEF
  5
7C
330
6E
100
AcDbEntity
  8
AM_6
100
AcDbText
 10
7.26875
 20
-0.6875
 30
0.0
 40
0.5
  1
Labyrinth  Seal
100
AcDbAttributeDefinition
  3

  2
ST
 70
     8
280
     0
  0
ATTDEF
  5
7D
330
6E
100
AcDbEntity
  8
AM_6
100
AcDbText
 10
7.26875
 20
-1.1875
 30
0.0
 40
0.5
  1
4-11/64
100
AcDbAttributeDefinition
  3

  2
A
 70
     8
280
     0
  0
ATTDEF
  5
7E
330
6E
100
AcDbEntity
  8
AM_6
100
AcDbText
 10
7.26875
 20
-1.6875
 30
0.0
 40
0.5
  1
13
100
AcDbAttributeDefinition
  3

  2
B
 70
     8
280
     0
  0
ATTDEF
  5
7F
330
6E
100
AcDbEntity
  8
AM_6
100
AcDbText
 10
7.26875
 20
-2.1875
 30
0.0
 40
0.5
  1
4-1/8
100
AcDbAttributeDefinition
  3

  2
C
 70
     8
280
     0
  0
ATTDEF
  5
80
330
6E
100
AcDbEntity
  8
AM_6
100
AcDbText
 10
7.26875
 20
-2.6875
 30
0.0
 40
0.5
  1
9-3/8
100
AcDbAttributeDefinition
  3

  2
DMIN
 70
     8
280
     0
  0
ATTDEF
  5
81
330
6E
100
AcDbEntity
  8
AM_6
100
AcDbText
 10
7.26875
 20
-3.1875
 30
0.0
 40
0.5
  1
10-5/8
100
AcDbAttributeDefinition
  3

  2
DMAX
 70
     8
280
     0
  0
ATTDEF
  5
82
330
6E
100
AcDbEntity
  8
AM_6
100
AcDbText
 10
7.26875
 20
-3.6875
 30
0.0
 40
0.5
  1
2
100
AcDbAttributeDefinition
  3

  2
E
 70
     8
280
     0
  0
ATTDEF
  5
83
330
6E
100
AcDbEntity
  8
AM_6
100
AcDbText
 10
7.26875
 20
-4.1875
 30
0.0
 40
0.5
  1
3/4
100
AcDbAttributeDefinition
  3

  2
F
 70
     8
280
     0
  0
ATTDEF
  5
84
330
6E
100
AcDbEntity
  8
AM_6
100
AcDbText
 10
7.26875
 20
-4.6875
 30
0.0
 40
0.5
  1
1-1/2
100
AcDbAttributeDefinition
  3

  2
G
 70
     8
280
     0
  0
ATTDEF
  5
85
330
6E
100
AcDbEntity
  8
AM_6
100
AcDbText
 10
7.26875
 20
-5.1875
 30
0.0
 40
0.5
  1
2-1/4
100
AcDbAttributeDefinition
  3

  2
H
 70
     8
280
     0
  0
ATTDEF
  5
86
330
6E
100
AcDbEntity
  8
AM_6
100
AcDbText
 10
7.26875
 20
-5.6875
 30
0.0
 40
0.5
  1
7-9/16
100
AcDbAttributeDefinition
  3

  2
J
 70
     8
280
     0
  0
ATTDEF
  5
87
330
6E
100
AcDbEntity
  8
AM_6
100
AcDbText
 10
7.26875
 20
-6.1875
 30
0.0
 40
0.5
  1
5
100
AcDbAttributeDefinition
  3

  2
L
 70
     8
280
     0
  0
ATTDEF
  5
88
330
6E
100
AcDbEntity
  8
AM_6
100
AcDbText
 10
7.26875
 20
-6.6875
 30
0.0
 40
0.5
  1
3-3/4
100
AcDbAttributeDefinition
  3

  2
M
 70
     8
280
     0
  0
ATTDEF
  5
89
330
6E
100
AcDbEntity
  8
AM_6
100
AcDbText
 10
7.26875
 20
-7.1875
 30
0.0
 40
0.5
  1
1-7/16
100
AcDbAttributeDefinition
  3

  2
R
 70
     8
280
     0
  0
ATTDEF
  5
8A
330
6E
100
AcDbEntity
  8
AM_6
100
AcDbText
 10
7.26875
 20
-7.6875
 30
0.0
 40
0.5
  1
2-47/64
100
AcDbAttributeDefinition
  3

  2
S
 70
     8
280
     0
  0
ATTDEF
  5
8B
330
6E
100
AcDbEntity
  8
AM_6
100
AcDbText
 10
7.26875
 20
-8.1875
 30
0.0
 40
0.5
  1
1/4
100
AcDbAttributeDefinition
  3

  2
X
 70
     8
280
     0
  0
ATTDEF
  5
8C
330
6E
100
AcDbEntity
  8
AM_6
100
AcDbText
 10
7.26875
 20
-8.6875
 30
0.0
 40
0.5
  1
0.025
100
AcDbAttributeDefinition
  3

  2
Y
 70
     8
280
     0
  0
ATTDEF
  5
8D
330
6E
100
AcDbEntity
  8
AM_6
100
AcDbText
 10
7.26875
 20
-9.1875
 30
0.0
 40
0.5
  1
4-3/64
100
AcDbAttributeDefinition
  3

  2
Z
 70
     8
280
     0
  0
ATTDEF
  5
8E
330
6E
100
AcDbEntity
  8
AM_6
100
AcDbText
 10
7.26875
 20
-9.6875
 30
0.0
 40
0.5
  1
baldor
100
AcDbAttributeDefinition
  3

  2
COMPANY
 70
     8
280
     0
  0
INSERT
  5
90
330
6E
100
AcDbEntity
  8
0
100
AcDbBlockReference
  2
2_405015E_Inch_0_in_069564_2
 10
0.0
 20
0.0
 30
0.0
  0
INSERT
  5
E8
330
6E
100
AcDbEntity
  8
0
100
AcDbBlockReference
  2
3_ASME_B18_3_1_4_1_0_in_069564_2
 10
0.0
 20
0.0
 30
0.0
  0
INSERT
  5
10E
330
6E
100
AcDbEntity
  8
0
100
AcDbBlockReference
  2
4_ASME_B18_3_1_4_2_0_in_069564_2
 10
0.0
 20
0.0
 30
0.0
  0
INSERT
  5
132
330
6E
100
AcDbEntity
  8
0
100
AcDbBlockReference
  2
5_070902LW_0_in_069564_2
 10
0.0
 20
0.0
 30
0.0
  0
INSERT
  5
168
330
6E
100
AcDbEntity
  8
0
100
AcDbBlockReference
  2
6_070934I_0_in_069564_2
 10
0.0
 20
0.0
 30
0.0
  0
INSERT
  5
1F3
330
6E
100
AcDbEntity
  8
0
100
AcDbBlockReference
  2
7_069564H_0_in_069564_2
 10
0.0
 20
0.0
 30
0.0
  0
ENDBLK
  5
71
330
6E
100
AcDbEntity
  8
0
100
AcDbBlockEnd
  0
BLOCK
  5
91
330
8F
100
AcDbEntity
  8
0
100
AcDbBlockBegin
  2
2_405015E_Inch_0_in_069564_2
 70
     2
 10
0.0
 20
0.0
 30
0.0
  3
2_405015E_Inch_0_in_069564_2
  1

  0
ATTDEF
  5
93
330
8F
100
AcDbEntity
  8
AM_6
100
AcDbText
 10
5.252590742770461
 20
3.764422869692369
 30
0.0
 40
0.5
  1
405015E -Inch
100
AcDbAttributeDefinition
  3

  2
NN
 70
     8
280
     0
  0
ATTDEF
  5
94
330
8F
100
AcDbEntity
  8
AM_6
100
AcDbText
 10
5.252590742770461
 20
3.264422869692369
 30
0.0
 40
0.5
  1
Grease Fitting
100
AcDbAttributeDefinition
  3

  2
NT
 70
     8
280
     0
  0
ATTDEF
  5
95
330
8F
100
AcDbEntity
  8
AM_6
100
AcDbText
 10
5.252590742770461
 20
2.764422869692369
 30
0.0
 40
0.5
  1
405015E-Inch
100
AcDbAttributeDefinition
  3

  2
NB
 70
     8
280
     0
  0
ATTDEF
  5
96
330
8F
100
AcDbEntity
  8
AM_6
100
AcDbText
 10
5.252590742770461
 20
2.264422869692369
 30
0.0
 40
0.5
  1
$MN.-Inch
100
AcDbAttributeDefinition
  3

  2
NBSYN
 70
     8
280
     0
  0
ATTDEF
  5
97
330
8F
100
AcDbEntity
  8
AM_6
100
AcDbText
 10
5.252590742770461
 20
1.764422869692369
 30
0.0
 40
0.5
  1
405015E
100
AcDbAttributeDefinition
  3

  2
LINA
 70
     8
280
     0
  0
ATTDEF
  5
98
330
8F
100
AcDbEntity
  8
AM_6
100
AcDbText
 10
5.252590742770461
 20
1.264422869692369
 30
0.0
 40
0.5
  1
405015E
100
AcDbAttributeDefinition
  3

  2
MN
 70
     8
280
     0
  0
ATTDEF
  5
99
330
8F
100
AcDbEntity
  8
AM_6
100
AcDbText
 10
5.252590742770461
 20
0.7644228696923685
 30
0.0
 40
0.5
  1
1/8 x 27PTF
100
AcDbAttributeDefinition
  3

  2
T
 70
     8
280
     0
  0
ATTDEF
  5
9A
330
8F
100
AcDbEntity
  8
AM_6
100
AcDbText
 10
5.252590742770461
 20
0.2644228696923685
 30
0.0
 40
0.5
  1
baldor
100
AcDbAttributeDefinition
  3

  2
COMPANY
 70
     8
280
     0
  0
LINE
  5
9D
330
8F
100
AcDbEntity
  8
AM_9
100
AcDbLine
 10
0.1262953713852305
 20
3.357699160996443
 30
0.0
 11
0.1262953713852305
 21
3.286802163995232
 31
0.0
  0
LINE
  5
9E
330
8F
100
AcDbEntity
  8
AM_9
100
AcDbLine
 10
-0.1262953713852308
 20
3.357699160996443
 30
0.0
 11
-0.1262953713852308
 21
3.286802163995232
 31
0.0
  0
LWPOLYLINE
  5
9F
330
8F
100
AcDbEntity
  8
AM_9
100
AcDbPolyline
 90
        4
 70
     0
 43
0.0
 10
-0.0000000000000001
 20
3.36555193268506
 10
-0.048399816055899
 20
3.364324289092612
 10
-0.0967996321117979
 20
3.360804024170581
 10
-0.1262953713852308
 20
3.357699160996443
  0
LWPOLYLINE
  5
A0
330
8F
100
AcDbEntity
  8
AM_9
100
AcDbPolyline
 90
        3
 70
     0
 43
0.0
 10
0.1262953713852305
 20
3.357699160996443
 10
0.0634316146914366
 20
3.363460892740617
 10
-0.0000000000000001
 20
3.36555193268506
  0
ELLIPSE
  5
A1
330
8F
100
AcDbEntity
  8
AM_9
100
AcDbEllipse
 10
0.0000000000000013
 20
3.47492693268506
 30
0.0
 11
0.2187499999999976
 21
3.259629011154140E-9
 31
0.0
210
0.0
220
0.0
230
1.0
 40
0.5000000000000054
 41
4.71238898038469
 42
5.759586507366898
  0
LWPOLYLINE
  5
A2
330
8F
100
AcDbEntity
  8
AM_9
100
AcDbPolyline
 90
        3
 70
     0
 43
0.0
 10
0.1894430570778458
 20
3.42023943268506
 10
0.1578692142315382
 20
3.390822954124291
 10
0.1262953713852305
 20
3.357699160996443
  0
ELLIPSE
  5
A3
330
8F
100
AcDbEntity
  8
AM_9
100
AcDbEllipse
 10
-0.0000000000000015
 20
3.47492693268506
 30
0.0
 11
0.2187499999999979
 21
0.0
 31
0.0
210
0.0
220
0.0
230
1.0
 40
0.5000000000000048
 41
3.665191429188095
 42
4.71238898038469
  0
LWPOLYLINE
  5
A4
330
8F
100
AcDbEntity
  8
AM_9
100
AcDbPolyline
 90
        3
 70
     0
 43
0.0
 10
-0.1262953713852308
 20
3.357699160996443
 10
-0.1577272497321277
 20
3.390681697877693
 10
-0.1894430570778461
 20
3.42023943268506
  0
LWPOLYLINE
  5
A5
330
8F
100
AcDbEntity
  8
AM_9
100
AcDbPolyline
 90
        3
 70
     0
 43
0.0
 10
0.1262953713852305
 20
3.286802163995232
 10
0.1577272497321275
 20
3.308261237388133
 10
0.1894430570778458
 20
3.333636892306616
  0
LWPOLYLINE
  5
A6
330
8F
100
AcDbEntity
  8
AM_9
100
AcDbPolyline
 90
        3
 70
     0
 43
0.0
 10
-0.0000000000000001
 20
3.278949392306616
 10
0.0631476856926152
 20
3.281022120867386
 10
0.1262953713852305
 20
3.286802163995232
  0
LWPOLYLINE
  5
A7
330
8F
100
AcDbEntity
  8
AM_9
100
AcDbPolyline
 90
        3
 70
     0
 43
0.0
 10
-0.1894430570778461
 20
3.333636892306616
 10
-0.1578692142315384
 20
3.308365870867386
 10
-0.1262953713852308
 20
3.286802163995232
  0
LWPOLYLINE
  5
A8
330
8F
100
AcDbEntity
  8
AM_9
100
AcDbPolyline
 90
        4
 70
     0
 43
0.0
 10
-0.1262953713852308
 20
3.286802163995232
 10
-0.0967996321117979
 20
3.283697300821094
 10
-0.0485424412477545
 20
3.28018419578655
 10
-0.0000000000000001
 20
3.278949392306616
  0
LINE
  5
A9
330
8F
100
AcDbEntity
  8
AM_9
100
AcDbLine
 10
-0.0998453562378799
 20
3.725059481166979
 30
0.0
 11
-0.131275793898522
 21
3.659547250314603
 31
0.0
  0
LINE
  5
AA
330
8F
100
AcDbEntity
  8
AM_9
100
AcDbLine
 10
0.1312757938985218
 20
3.659547250314603
 30
0.0
 11
0.0998453562378796
 21
3.725059481166979
 31
0.0
  0
ELLIPSE
  5
AB
330
8F
100
AcDbEntity
  8
AM_9
100
AcDbEllipse
 10
-0.0000000000000012
 20
3.643801886423013
 30
0.0
 11
0.135000000000001
 21
0.0
 31
0.0
210
0.0
220
0.0
230
1.0
 40
0.4999999999999955
 41
5.990342535451194
 42
6.518618911721332
  0
LINE
  5
AC
330
8F
100
AcDbEntity
  8
AM_9
100
AcDbLine
 10
0.1049999999999999
 20
3.566479245669316
 30
0.0
 11
0.1049999999999999
 21
3.591840362195959
 31
0.0
  0
LINE
  5
AD
330
8F
100
AcDbEntity
  8
AM_9
100
AcDbLine
 10
-0.1050000000000001
 20
3.591840362195959
 30
0.0
 11
-0.1050000000000001
 21
3.566479245669316
 31
0.0
  0
ELLIPSE
  5
AE
330
8F
100
AcDbEntity
  8
AM_9
100
AcDbEllipse
 10
0.0
 20
3.591840362195959
 30
0.0
 11
0.1049999999999999
 21
1.564621925354003E-9
 31
0.0
210
0.0
220
0.0
230
1.0
 40
0.5000000000000108
 41
0.0000017195196831
 42
3.141592627780224
  0
ELLIPSE
  5
AF
330
8F
100
AcDbEntity
  8
AM_9
100
AcDbEllipse
 10
-0.0000000000000021
 20
3.565859600082419
 30
0.0
 11
0.104999999999998
 21
0.0
 31
0.0
210
0.0
220
0.0
230
1.0
 40
0.5000000000000031
 41
2.891559760490849
 42
3.141592653589793
  0
ELLIPSE
  5
B0
330
8F
100
AcDbEntity
  8
AM_9
100
AcDbEllipse
 10
-0.0000000000000071
 20
3.591840362195958
 30
0.0
 11
0.1050000000000071
 21
0.0
 31
0.0
210
0.0
220
0.0
230
1.0
 40
0.5000000000000022
 41
3.434435425318364
 42
6.283185307179586
  0
LINE
  5
B1
330
8F
100
AcDbEntity
  8
AM_9
100
AcDbLine
 10
0.1005298463144154
 20
3.576684917629732
 30
0.0
 11
0.1292526595471055
 21
3.624316314837876
 31
0.0
  0
LINE
  5
B2
330
8F
100
AcDbEntity
  8
AM_9
100
AcDbLine
 10
-0.1292526595471058
 20
3.624316314837876
 30
0.0
 11
-0.1005298463144156
 21
3.576684917629732
 31
0.0
  0
ELLIPSE
  5
B3
330
8F
100
AcDbEntity
  8
AM_9
100
AcDbEllipse
 10
-0.0000000000000001
 20
3.643801886423025
 30
0.0
 11
0.1349999999999999
 21
0.0
 31
0.0
210
0.0
220
0.0
230
1.0
 40
0.5000000000000094
 41
0.235433604541555
 42
5.990342535451017
  0
ELLIPSE
  5
B4
330
8F
100
AcDbEntity
  8
AM_9
100
AcDbEllipse
 10
0.0000000000000088
 20
3.591840362195958
 30
0.0
 11
0.1050000000000089
 21
0.0
 31
0.0
210
0.0
220
0.0
230
1.0
 40
0.5000000000000018
 41
3.141592653589793
 42
3.434435425318322
  0
LWPOLYLINE
  5
B5
330
8F
100
AcDbEntity
  8
AM_9
100
AcDbPolyline
 90
        3
 70
     0
 43
0.0
 10
-0.1894430570778461
 20
3.42023943268506
 10
-0.2210168999241537
 20
3.445510454124291
 10
-0.2525907427704613
 20
3.467074160996444
  0
LWPOLYLINE
  5
B6
330
8F
100
AcDbEntity
  8
AM_9
100
AcDbPolyline
 90
        3
 70
     0
 43
0.0
 10
0.2525907427704611
 20
3.467074160996444
 10
0.2211588644235642
 20
3.445615087603543
 10
0.1894430570778458
 20
3.42023943268506
  0
ELLIPSE
  5
B7
330
8F
100
AcDbEntity
  8
AM_9
100
AcDbEllipse
 10
-0.0000000000000001
 20
3.565859600082426
 30
0.0
 11
0.1049999999999998
 21
1.564621925354002E-9
 31
0.0
210
0.0
220
0.0
230
1.0
 40
0.4999999999999984
 41
3.141592627780224
 42
6.28318702669927
  0
LINE
  5
B8
330
8F
100
AcDbEntity
  8
AM_9
100
AcDbLine
 10
-0.1017349497468792
 20
3.578849981139193
 30
0.0
 11
-0.1151252948555659
 21
3.552633158076562
 31
0.0
  0
LINE
  5
B9
330
8F
100
AcDbEntity
  8
AM_9
100
AcDbLine
 10
0.1151252948555656
 20
3.552633158076562
 30
0.0
 11
0.1017349497468789
 21
3.578849981139193
 31
0.0
  0
ELLIPSE
  5
BA
330
8F
100
AcDbEntity
  8
AM_9
100
AcDbEllipse
 10
0.0000000000000009
 20
3.565859600082422
 30
0.0
 11
0.1049999999999991
 21
0.0
 31
0.0
210
0.0
220
0.0
230
1.0
 40
0.5000000000000233
 41
0.0
 42
2.483233623785167
  0
ELLIPSE
  5
BB
330
8F
100
AcDbEntity
  8
AM_9
100
AcDbEllipse
 10
0.0000000000000051
 20
3.565859600082438
 30
0.0
 11
0.1050000000000057
 21
0.0
 31
0.0
210
0.0
220
0.0
230
1.0
 40
0.4999999999999494
 41
2.483233623785351
 42
2.891559760491194
  0
ELLIPSE
  5
BC
330
8F
100
AcDbEntity
  8
AM_9
100
AcDbEllipse
 10
0.0000000000000091
 20
3.537932984211353
 30
0.0
 11
0.1188200907349078
 21
0.0
 31
0.0
210
0.0
220
0.0
230
1.0
 40
0.5000000000000345
 41
2.535447513394646
 42
2.891559760490866
  0
ELLIPSE
  5
BD
330
8F
100
AcDbEntity
  8
AM_9
100
AcDbEllipse
 10
0.0000000000000038
 20
3.537932984211352
 30
0.0
 11
0.1188200907348936
 21
0.0
 31
0.0
210
0.0
220
0.0
230
1.0
 40
0.500000000000023
 41
2.891559760490842
 42
6.889330447374813
  0
ELLIPSE
  5
BE
330
8F
100
AcDbEntity
  8
AM_9
100
AcDbEllipse
 10
-0.0000000000000003
 20
3.474926932685058
 30
0.0
 11
0.2187499999999998
 21
0.0
 31
0.0
210
0.0
220
0.0
230
1.0
 40
0.5000000000000026
 41
2.617993877991482
 42
3.665191429188079
  0
ELLIPSE
  5
BF
330
8F
100
AcDbEntity
  8
AM_9
100
AcDbEllipse
 10
0.0
 20
3.474926932685058
 30
0.0
 11
0.2187499999999999
 21
0.0
 31
0.0
210
0.0
220
0.0
230
1.0
 40
0.5000000000000023
 41
5.7595865315813
 42
7.853981633974483
  0
LINE
  5
C0
330
8F
100
AcDbEntity
  8
AM_9
100
AcDbLine
 10
-0.0976523208201059
 20
3.571779099943809
 30
0.0
 11
-0.1417971541629019
 21
3.539937592175102
 31
0.0
  0
LINE
  5
C1
330
8F
100
AcDbEntity
  8
AM_9
100
AcDbLine
 10
0.1417971541629016
 20
3.539937592175102
 30
0.0
 11
0.0976523208201056
 21
3.571779099943809
 31
0.0
  0
ELLIPSE
  5
C2
330
8F
100
AcDbEntity
  8
AM_9
100
AcDbEllipse
 10
-0.0000000000000001
 20
3.537932984211362
 30
0.0
 11
0.118820090734898
 21
0.0
 31
0.0
210
0.0
220
0.0
230
1.0
 40
0.5000000000000043
 41
0.6061451401950908
 42
2.535447513394702
  0
LWPOLYLINE
  5
C3
330
8F
100
AcDbEntity
  8
AM_9
100
AcDbPolyline
 90
        3
 70
     0
 43
0.0
 10
-0.2525907427704613
 20
3.396177163995232
 10
-0.2211588644235644
 20
3.363194627113983
 10
-0.1894430570778461
 20
3.333636892306616
  0
LWPOLYLINE
  5
C4
330
8F
100
AcDbEntity
  8
AM_9
100
AcDbPolyline
 90
        3
 70
     0
 43
0.0
 10
0.1894430570778458
 20
3.333636892306616
 10
0.2210168999241534
 20
3.363053370867386
 10
0.2525907427704611
 20
3.396177163995232
  0
ELLIPSE
  5
C5
330
8F
100
AcDbEntity
  8
AM_9
100
AcDbEllipse
 10
-0.0000000000000001
 20
3.47492693268506
 30
0.0
 11
-0.21375
 21
3.185123231361761E-9
 31
0.0
210
0.0
220
0.0
230
1.0
 40
0.5000000000000003
 41
0.0
 42
6.283185307179586
  0
ELLIPSE
  5
C6
330
8F
100
AcDbEntity
  8
AM_9
100
AcDbEllipse
 10
0.0
 20
3.47492693268506
 30
0.0
 11
0.2187500000000004
 21
0.0
 31
0.0
210
0.0
220
0.0
230
1.0
 40
0.499999999999997
 41
1.570796326794897
 42
2.617993877991488
  0
LINE
  5
C7
330
8F
100
AcDbEntity
  8
AM_9
100
AcDbLine
 10
0.2525907427704611
 20
3.467074160996444
 30
0.0
 11
0.2525907427704611
 21
3.396177163995232
 31
0.0
  0
LWPOLYLINE
  5
C8
330
8F
100
AcDbEntity
  8
AM_9
100
AcDbPolyline
 90
        3
 70
     0
 43
0.0
 10
0.1894430570778458
 20
3.52961443268506
 10
0.2210168999241534
 20
3.50019795412429
 10
0.2525907427704611
 20
3.467074160996444
  0
LWPOLYLINE
  5
C9
330
8F
100
AcDbEntity
  8
AM_9
100
AcDbPolyline
 90
        3
 70
     0
 43
0.0
 10
0.1262953713852305
 20
3.576449160996444
 10
0.1577272497321274
 20
3.554990087603543
 10
0.1894430570778458
 20
3.52961443268506
  0
LWPOLYLINE
  5
CA
330
8F
100
AcDbEntity
  8
AM_9
100
AcDbPolyline
 90
        3
 70
     0
 43
0.0
 10
0.2525907427704611
 20
3.396177163995232
 10
0.2211588644235641
 20
3.417636237388133
 10
0.1894430570778458
 20
3.443011892306616
  0
LINE
  5
CB
330
8F
100
AcDbEntity
  8
AM_9
100
AcDbLine
 10
0.1262953713852305
 20
3.576449160996444
 30
0.0
 11
0.1262953713852305
 21
3.505552163995232
 31
0.0
  0
LWPOLYLINE
  5
CC
330
8F
100
AcDbEntity
  8
AM_9
100
AcDbPolyline
 90
        3
 70
     0
 43
0.0
 10
-0.0000000000000001
 20
3.58430193268506
 10
0.0631476856926152
 20
3.58222920412429
 10
0.1262953713852305
 20
3.576449160996444
  0
LWPOLYLINE
  5
CD
330
8F
100
AcDbEntity
  8
AM_9
100
AcDbPolyline
 90
        4
 70
     0
 43
0.0
 10
-0.1262953713852308
 20
3.576449160996444
 10
-0.0967996321117979
 20
3.579554024170581
 10
-0.0485424412477545
 20
3.583067129205127
 10
-0.0000000000000001
 20
3.58430193268506
  0
LWPOLYLINE
  5
CE
330
8F
100
AcDbEntity
  8
AM_9
100
AcDbPolyline
 90
        4
 70
     0
 43
0.0
 10
-0.0000000000000001
 20
3.497699392306616
 10
-0.048399816055899
 20
3.498927035899064
 10
-0.0967996321117979
 20
3.502447300821095
 10
-0.1262953713852308
 20
3.505552163995232
  0
ELLIPSE
  5
CF
330
8F
100
AcDbEntity
  8
AM_9
100
AcDbEllipse
 10
0.0000000000000002
 20
3.388324392306617
 30
0.0
 11
0.2187499999999999
 21
0.0
 31
0.0
210
0.0
220
0.0
230
1.0
 40
0.4999999999999983
 41
1.570796326794897
 42
3.665191429188098
  0
ELLIPSE
  5
D0
330
8F
100
AcDbEntity
  8
AM_9
100
AcDbEllipse
 10
-0.0000000000000001
 20
3.388324392306616
 30
0.0
 11
0.2187500000000002
 21
3.259629011154179E-9
 31
0.0
210
0.0
220
0.0
230
1.0
 40
0.4999999999999994
 41
3.665191404973703
 42
4.71238898038469
  0
ELLIPSE
  5
D1
330
8F
100
AcDbEntity
  8
AM_9
100
AcDbEllipse
 10
0.0
 20
3.388324392306616
 30
0.0
 11
0.2187500000000002
 21
0.0
 31
0.0
210
0.0
220
0.0
230
1.0
 40
0.4999999999999996
 41
4.71238898038469
 42
5.759586531581291
  0
ELLIPSE
  5
D2
330
8F
100
AcDbEntity
  8
AM_9
100
AcDbEllipse
 10
0.000000000000001
 20
3.388324392306618
 30
0.0
 11
0.2187499999999988
 21
0.0
 31
0.0
210
0.0
220
0.0
230
1.0
 40
0.4999999999999986
 41
5.759586531581268
 42
7.853981633974483
  0
LWPOLYLINE
  5
D3
330
8F
100
AcDbEntity
  8
AM_9
100
AcDbPolyline
 90
        3
 70
     0
 43
0.0
 10
0.1894430570778458
 20
3.443011892306616
 10
0.1578692142315382
 20
3.472428370867386
 10
0.1262953713852305
 20
3.505552163995232
  0
LWPOLYLINE
  5
D4
330
8F
100
AcDbEntity
  8
AM_9
100
AcDbPolyline
 90
        3
 70
     0
 43
0.0
 10
0.1262953713852305
 20
3.505552163995232
 10
0.0634316146914366
 20
3.499790432251058
 10
-0.0000000000000001
 20
3.497699392306616
  0
LINE
  5
D5
330
8F
100
AcDbEntity
  8
AM_9
100
AcDbLine
 10
-0.1262953713852308
 20
3.576449160996444
 30
0.0
 11
-0.1262953713852308
 21
3.505552163995232
 31
0.0
  0
LWPOLYLINE
  5
D6
330
8F
100
AcDbEntity
  8
AM_9
100
AcDbPolyline
 90
        3
 70
     0
 43
0.0
 10
-0.1894430570778461
 20
3.52961443268506
 10
-0.1578692142315385
 20
3.554885454124291
 10
-0.1262953713852308
 20
3.576449160996444
  0
LWPOLYLINE
  5
D7
330
8F
100
AcDbEntity
  8
AM_9
100
AcDbPolyline
 90
        3
 70
     0
 43
0.0
 10
-0.2525907427704613
 20
3.467074160996444
 10
-0.2211588644235644
 20
3.500056697877692
 10
-0.1894430570778461
 20
3.52961443268506
  0
LINE
  5
D8
330
8F
100
AcDbEntity
  8
AM_9
100
AcDbLine
 10
-0.2525907427704613
 20
3.467074160996444
 30
0.0
 11
-0.2525907427704613
 21
3.396177163995232
 31
0.0
  0
LWPOLYLINE
  5
D9
330
8F
100
AcDbEntity
  8
AM_9
100
AcDbPolyline
 90
        3
 70
     0
 43
0.0
 10
-0.1894430570778461
 20
3.443011892306616
 10
-0.2210168999241537
 20
3.417740870867386
 10
-0.2525907427704613
 20
3.396177163995232
  0
LWPOLYLINE
  5
DA
330
8F
100
AcDbEntity
  8
AM_9
100
AcDbPolyline
 90
        3
 70
     0
 43
0.0
 10
-0.1262953713852308
 20
3.505552163995232
 10
-0.1577272497321277
 20
3.472569627113984
 10
-0.1894430570778461
 20
3.443011892306616
  0
LINE
  5
DB
330
8F
100
AcDbEntity
  8
AM_9
100
AcDbLine
 10
0.1985852938306407
 20
3.188831731620172
 30
0.0
 11
0.2057184028850726
 21
3.386468191528987
 31
0.0
  0
LINE
  5
DC
330
8F
100
AcDbEntity
  8
AM_9
100
AcDbLine
 10
-0.2057184028850729
 20
3.386468191528987
 30
0.0
 11
-0.1985852938306409
 21
3.188831731620172
 31
0.0
  0
ELLIPSE
  5
DD
330
8F
100
AcDbEntity
  8
AM_9
100
AcDbEllipse
 10
-0.0000000000000002
 20
3.190623570228992
 30
0.0
 11
0.1986176267812155
 21
0.0
 31
0.0
210
0.0
220
0.0
230
1.0
 40
0.500000000000001
 41
3.757072362260189
 42
6.26514123047512
  0
ELLIPSE
  5
DE
330
8F
100
AcDbEntity
  8
AM_9
100
AcDbEllipse
 10
-0.0000000000000002
 20
3.190623570228992
 30
0.0
 11
0.1986176267812153
 21
0.0
 31
0.0
210
0.0
220
0.0
230
1.0
 40
0.4999999999999702
 41
0.0
 42
3.159636730294248
  0
ELLIPSE
  5
DF
330
8F
100
AcDbEntity
  8
AM_9
100
AcDbEllipse
 10
-0.0000000000000339
 20
3.190623570227394
 30
0.0
 11
0.1986176267812491
 21
2.959633272606867E-9
 31
0.0
210
0.0
220
0.0
230
1.0
 40
0.499999999999925
 41
6.265141200696168
 42
6.283187026699269
  0
LINE
  5
E0
330
8F
100
AcDbEntity
  8
AM_9
100
AcDbLine
 10
0.1321931418159852
 20
3.112090326801521
 30
0.0
 11
0.1621706131788414
 21
3.133287600085022
 31
0.0
  0
LINE
  5
E1
330
8F
100
AcDbEntity
  8
AM_9
100
AcDbLine
 10
-0.1621706131788417
 20
3.133287600085022
 30
0.0
 11
-0.1321931418159854
 21
3.112090326801521
 31
0.0
  0
ELLIPSE
  5
E2
330
8F
100
AcDbEntity
  8
AM_9
100
AcDbEllipse
 10
0.0000000000000016
 20
3.190623570228993
 30
0.0
 11
0.1986176267812171
 21
0.0
 31
0.0
210
0.0
220
0.0
230
1.0
 40
0.5000000000000013
 41
3.15963673029426
 42
3.757072362260186
  0
ELLIPSE
  5
E3
330
8F
100
AcDbEntity
  8
AM_9
100
AcDbEllipse
 10
0.0000000000000047
 20
3.71308391872578
 30
0.0
 11
0.1026779019331827
 21
1.530019967752437E-9
 31
0.0
210
0.0
220
0.0
230
1.0
 40
0.4999999999999764
 41
0.0
 42
6.283185307179586
  0
ELLIPSE
  5
E4
330
8F
100
AcDbEntity
  8
AM_9
100
AcDbEllipse
 10
-0.0000000000000017
 20
3.490790957973029
 30
0.0
 11
0.1725340532830169
 21
0.0
 31
0.0
210
0.0
220
0.0
230
1.0
 40
0.500000000000005
 41
0.0
 42
6.283185307179586
  0
ELLIPSE
  5
E5
330
8F
100
AcDbEntity
  8
AM_9
100
AcDbEllipse
 10
-0.0000000000002506
 20
3.388324392309179
 30
0.0
 11
0.20575189722332
 21
0.0
 31
0.0
210
0.0
220
0.0
230
1.0
 40
0.5000000000000364
 41
0.0
 42
6.283185307179586
  0
ELLIPSE
  5
E6
330
8F
100
AcDbEntity
  8
AM_9
100
AcDbEllipse
 10
0.0000000000000031
 20
3.158827660303742
 30
0.0
 11
0.1619028724722658
 21
2.412540800456193E-9
 31
0.0
210
0.0
220
0.0
230
1.0
 40
0.5000000000000074
 41
0.0
 42
6.283185307179586
  0
ENDBLK
  5
92
330
8F
100
AcDbEntity
  8
0
100
AcDbBlockEnd
  0
BLOCK
  5
E9
330
E7
100
AcDbEntity
  8
0
100
AcDbBlockBegin
  2
3_ASME_B18_3_1_4_1_0_in_069564_2
 70
     2
 10
0.0
 20
0.0
 30
0.0
  3
3_ASME_B18_3_1_4_1_0_in_069564_2
  1

  0
ATTDEF
  5
EB
330
E7
100
AcDbEntity
  8
AM_6
100
AcDbText
 10
3.312791666666667
 20
-1.934277777777778
 30
0.0
 40
0.5
  1
ANSI/ASME B18.3-1998
100
AcDbAttributeDefinition
  3

  2
NN
 70
     8
280
     0
  0
ATTDEF
  5
EC
330
E7
100
AcDbEntity
  8
AM_6
100
AcDbText
 10
3.312791666666667
 20
-2.434277777777778
 30
0.0
 40
0.5
  1
Socket Button Head Cap Screws
100
AcDbAttributeDefinition
  3

  2
NT
 70
     8
280
     0
  0
ATTDEF
  5
ED
330
E7
100
AcDbEntity
  8
AM_6
100
AcDbText
 10
3.312791666666667
 20
-2.934277777777778
 30
0.0
 40
0.5
  1
ASME B18.3-1/4
100
AcDbAttributeDefinition
  3

  2
NB
 70
     8
280
     0
  0
ATTDEF
  5
EE
330
E7
100
AcDbEntity
  8
AM_6
100
AcDbText
 10
3.312791666666667
 20
-3.434277777777778
 30
0.0
 40
0.5
  1
ASME B18.3-$NS.
100
AcDbAttributeDefinition
  3

  2
NBSYN
 70
     8
280
     0
  0
ATTDEF
  5
EF
330
E7
100
AcDbEntity
  8
AM_6
100
AcDbText
 10
3.312791666666667
 20
-3.934277777777778
 30
0.0
 40
0.5
  1
ASME B18.3-1/4
100
AcDbAttributeDefinition
  3

  2
LINA
 70
     8
280
     0
  0
ATTDEF
  5
F0
330
E7
100
AcDbEntity
  8
AM_6
100
AcDbText
 10
3.312791666666667
 20
-4.434277777777778
 30
0.0
 40
0.5
  1
1/4
100
AcDbAttributeDefinition
  3

  2
NS
 70
     8
280
     0
  0
ATTDEF
  5
F1
330
E7
100
AcDbEntity
  8
AM_6
100
AcDbText
 10
3.312791666666667
 20
-4.934277777777778
 30
0.0
 40
0.5
  1
0.437
100
AcDbAttributeDefinition
  3

  2
A
 70
     8
280
     0
  0
ATTDEF
  5
F2
330
E7
100
AcDbEntity
  8
AM_6
100
AcDbText
 10
3.312791666666667
 20
-5.434277777777778
 30
0.0
 40
0.5
  1
0.132
100
AcDbAttributeDefinition
  3

  2
H
 70
     8
280
     0
  0
ATTDEF
  5
F3
330
E7
100
AcDbEntity
  8
AM_6
100
AcDbText
 10
3.312791666666667
 20
-5.934277777777778
 30
0.0
 40
0.5
  1
0.800
100
AcDbAttributeDefinition
  3

  2
L
 70
     8
280
     0
  0
ATTDEF
  5
F4
330
E7
100
AcDbEntity
  8
AM_6
100
AcDbText
 10
3.312791666666667
 20
-6.434277777777778
 30
0.0
 40
0.5
  1
0.031
100
AcDbAttributeDefinition
  3

  2
S
 70
     8
280
     0
  0
ATTDEF
  5
F5
330
E7
100
AcDbEntity
  8
AM_6
100
AcDbText
 10
3.312791666666667
 20
-6.934277777777778
 30
0.0
 40
0.5
  1
0.156250
100
AcDbAttributeDefinition
  3

  2
J
 70
     8
280
     0
  0
ATTDEF
  5
F6
330
E7
100
AcDbEntity
  8
AM_6
100
AcDbText
 10
3.312791666666667
 20
-7.434277777777778
 30
0.0
 40
0.5
  1
baldor
100
AcDbAttributeDefinition
  3

  2
COMPANY
 70
     8
280
     0
  0
LINE
  5
F7
330
E7
100
AcDbEntity
  8
AM_9
100
AcDbLine
 10
-2.549208333333333
 20
-2.242988757338657
 30
0.0
 11
-2.619208333333333
 21
-2.242988757338657
 31
0.0
  0
LINE
  5
F8
330
E7
100
AcDbEntity
  8
AM_9
100
AcDbLine
 10
-2.549208333333333
 20
-2.062566798216899
 30
0.0
 11
-2.619208333333333
 21
-2.062566798216899
 31
0.0
  0
LINE
  5
F9
330
E7
100
AcDbEntity
  8
AM_9
100
AcDbLine
 10
-2.549208333333333
 20
-2.107672287997338
 30
0.0
 11
-2.619208333333333
 21
-2.107672287997338
 31
0.0
  0
LINE
  5
FA
330
E7
100
AcDbEntity
  8
AM_9
100
AcDbLine
 10
-2.549208333333333
 20
-2.197883267558217
 30
0.0
 11
-2.619208333333333
 21
-2.197883267558217
 31
0.0
  0
LINE
  5
FB
330
E7
100
AcDbEntity
  8
AM_9
100
AcDbLine
 10
-2.549208333333333
 20
-2.062566798216899
 30
0.0
 11
-2.549208333333333
 21
-2.242988757338657
 31
0.0
  0
LINE
  5
FC
330
E7
100
AcDbEntity
  8
AM_9
100
AcDbLine
 10
-1.687208333333333
 20
-2.046377777777778
 30
0.0
 11
-1.687208333333333
 21
-2.259177777777778
 31
0.0
  0
LINE
  5
FD
330
E7
100
AcDbEntity
  8
AM_9
100
AcDbLine
 10
-1.687208333333333
 20
-2.046377777777778
 30
0.0
 11
-1.705808333333333
 21
-2.027777777777778
 31
0.0
  0
LINE
  5
FE
330
E7
100
AcDbEntity
  8
AM_9
100
AcDbLine
 10
-1.705808333333333
 20
-2.277777777777778
 30
0.0
 11
-1.687208333333333
 21
-2.259177777777778
 31
0.0
  0
LINE
  5
FF
330
E7
100
AcDbEntity
  8
AM_9
100
AcDbLine
 10
-1.705808333333333
 20
-2.027777777777778
 30
0.0
 11
-1.705808333333333
 21
-2.277777777777778
 31
0.0
  0
LINE
  5
100
330
E7
100
AcDbEntity
  8
AM_9
100
AcDbLine
 10
-2.487208333333333
 20
-2.277777777777778
 30
0.0
 11
-1.705808333333333
 21
-2.277777777777778
 31
0.0
  0
LINE
  5
101
330
E7
100
AcDbEntity
  8
AM_9
100
AcDbLine
 10
-1.705808333333333
 20
-2.027777777777778
 30
0.0
 11
-2.487208333333333
 21
-2.027777777777778
 31
0.0
  0
LINE
  5
103
330
E7
100
AcDbEntity
  8
AM_5
100
AcDbLine
 10
-2.407208333333333
 20
-2.259177777777778
 30
0.0
 11
-2.439424478354113
 21
-2.277777777777778
 31
0.0
  0
LINE
  5
104
330
E7
100
AcDbEntity
  8
AM_5
100
AcDbLine
 10
-2.407208333333333
 20
-2.027777798618493
 30
0.0
 11
-2.407208333333333
 21
-2.277777874927937
 31
0.0
  0
LINE
  5
105
330
E7
100
AcDbEntity
  8
AM_5
100
AcDbLine
 10
-2.407208333333333
 20
-2.046377777777778
 30
0.0
 11
-2.439424478354114
 21
-2.027777777777778
 31
0.0
  0
LINE
  5
107
330
E7
100
AcDbEntity
  8
AM_4
100
AcDbLine
 10
-2.518208333333332
 20
-2.371277777777777
 30
0.0
 11
-2.487208333333333
 21
-2.371277777777777
 31
0.0
  0
LINE
  5
108
330
E7
100
AcDbEntity
  8
AM_4
100
AcDbLine
 10
-2.487208333333333
 20
-1.934277777777778
 30
0.0
 11
-2.518208333333332
 21
-1.934277777777778
 31
0.0
  0
LINE
  5
109
330
E7
100
AcDbEntity
  8
AM_4
100
AcDbLine
 10
-2.619208333333333
 20
-2.035277777777778
 30
0.0
 11
-2.619208333333333
 21
-2.270277777777778
 31
0.0
  0
LINE
  5
10A
330
E7
100
AcDbEntity
  8
AM_4
100
AcDbLine
 10
-2.518208333333332
 20
-1.934277777777778
 30
0.0
 11
-2.518208333333332
 21
-2.371277777777778
 31
0.0
  0
ARC
  5
10B
330
E7
100
AcDbEntity
  8
AM_4
100
AcDbCircle
 10
-2.518208333333332
 20
-2.270277777777777
 30
0.0
 40
0.1010000000000004
100
AcDbArc
 50
180.0
 51
270.0
  0
ARC
  5
10C
330
E7
100
AcDbEntity
  8
AM_4
100
AcDbCircle
 10
-2.518208333333332
 20
-2.035277777777778
 30
0.0
 40
0.101
100
AcDbArc
 50
90.0
 51
180.0
  0
ENDBLK
  5
EA
330
E7
100
AcDbEntity
  8
0
100
AcDbBlockEnd
  0
BLOCK
  5
10F
330
10D
100
AcDbEntity
  8
0
100
AcDbBlockBegin
  2
4_ASME_B18_3_1_4_2_0_in_069564_2
 70
     2
 10
0.0
 20
0.0
 30
0.0
  3
4_ASME_B18_3_1_4_2_0_in_069564_2
  1

  0
ATTDEF
  5
111
330
10D
100
AcDbEntity
  8
AM_6
100
AcDbText
 10
3.312791666666667
 20
2.371277777777778
 30
0.0
 40
0.5
  1
ANSI/ASME B18.3-1998
100
AcDbAttributeDefinition
  3

  2
NN
 70
     8
280
     0
  0
ATTDEF
  5
112
330
10D
100
AcDbEntity
  8
AM_6
100
AcDbText
 10
3.312791666666667
 20
1.871277777777778
 30
0.0
 40
0.5
  1
Socket Button Head Cap Screws
100
AcDbAttributeDefinition
  3

  2
NT
 70
     8
280
     0
  0
ATTDEF
  5
113
330
10D
100
AcDbEntity
  8
AM_6
100
AcDbText
 10
3.312791666666667
 20
1.371277777777778
 30
0.0
 40
0.5
  1
ASME B18.3-1/4
100
AcDbAttributeDefinition
  3

  2
NB
 70
     8
280
     0
  0
ATTDEF
  5
114
330
10D
100
AcDbEntity
  8
AM_6
100
AcDbText
 10
3.312791666666667
 20
0.8712777777777778
 30
0.0
 40
0.5
  1
ASME B18.3-$NS.
100
AcDbAttributeDefinition
  3

  2
NBSYN
 70
     8
280
     0
  0
ATTDEF
  5
115
330
10D
100
AcDbEntity
  8
AM_6
100
AcDbText
 10
3.312791666666667
 20
0.3712777777777778
 30
0.0
 40
0.5
  1
ASME B18.3-1/4
100
AcDbAttributeDefinition
  3

  2
LINA
 70
     8
280
     0
  0
ATTDEF
  5
116
330
10D
100
AcDbEntity
  8
AM_6
100
AcDbText
 10
3.312791666666667
 20
-0.1287222222222222
 30
0.0
 40
0.5
  1
1/4
100
AcDbAttributeDefinition
  3

  2
NS
 70
     8
280
     0
  0
ATTDEF
  5
117
330
10D
100
AcDbEntity
  8
AM_6
100
AcDbText
 10
3.312791666666667
 20
-0.6287222222222222
 30
0.0
 40
0.5
  1
0.437
100
AcDbAttributeDefinition
  3

  2
A
 70
     8
280
     0
  0
ATTDEF
  5
118
330
10D
100
AcDbEntity
  8
AM_6
100
AcDbText
 10
3.312791666666667
 20
-1.128722222222222
 30
0.0
 40
0.5
  1
0.132
100
AcDbAttributeDefinition
  3

  2
H
 70
     8
280
     0
  0
ATTDEF
  5
119
330
10D
100
AcDbEntity
  8
AM_6
100
AcDbText
 10
3.312791666666667
 20
-1.628722222222222
 30
0.0
 40
0.5
  1
0.800
100
AcDbAttributeDefinition
  3

  2
L
 70
     8
280
     0
  0
ATTDEF
  5
11A
330
10D
100
AcDbEntity
  8
AM_6
100
AcDbText
 10
3.312791666666667
 20
-2.128722222222222
 30
0.0
 40
0.5
  1
0.031
100
AcDbAttributeDefinition
  3

  2
S
 70
     8
280
     0
  0
ATTDEF
  5
11B
330
10D
100
AcDbEntity
  8
AM_6
100
AcDbText
 10
3.312791666666667
 20
-2.628722222222222
 30
0.0
 40
0.5
  1
0.156250
100
AcDbAttributeDefinition
  3

  2
J
 70
     8
280
     0
  0
ATTDEF
  5
11C
330
10D
100
AcDbEntity
  8
AM_6
100
AcDbText
 10
3.312791666666667
 20
-3.128722222222222
 30
0.0
 40
0.5
  1
baldor
100
AcDbAttributeDefinition
  3

  2
COMPANY
 70
     8
280
     0
  0
LINE
  5
11D
330
10D
100
AcDbEntity
  8
AM_9
100
AcDbLine
 10
-2.549208333333333
 20
2.062566798216899
 30
0.0
 11
-2.619208333333333
 21
2.062566798216899
 31
0.0
  0
LINE
  5
11E
330
10D
100
AcDbEntity
  8
AM_9
100
AcDbLine
 10
-2.549208333333333
 20
2.242988757338657
 30
0.0
 11
-2.619208333333333
 21
2.242988757338657
 31
0.0
  0
LINE
  5
11F
330
10D
100
AcDbEntity
  8
AM_9
100
AcDbLine
 10
-2.549208333333333
 20
2.197883267558217
 30
0.0
 11
-2.619208333333333
 21
2.197883267558217
 31
0.0
  0
LINE
  5
120
330
10D
100
AcDbEntity
  8
AM_9
100
AcDbLine
 10
-2.549208333333333
 20
2.107672287997338
 30
0.0
 11
-2.619208333333333
 21
2.107672287997338
 31
0.0
  0
LINE
  5
121
330
10D
100
AcDbEntity
  8
AM_9
100
AcDbLine
 10
-2.549208333333333
 20
2.242988757338657
 30
0.0
 11
-2.549208333333333
 21
2.062566798216899
 31
0.0
  0
LINE
  5
122
330
10D
100
AcDbEntity
  8
AM_9
100
AcDbLine
 10
-1.687208333333333
 20
2.259177777777778
 30
0.0
 11
-1.687208333333333
 21
2.046377777777778
 31
0.0
  0
LINE
  5
123
330
10D
100
AcDbEntity
  8
AM_9
100
AcDbLine
 10
-1.687208333333333
 20
2.259177777777778
 30
0.0
 11
-1.705808333333333
 21
2.277777777777778
 31
0.0
  0
LINE
  5
124
330
10D
100
AcDbEntity
  8
AM_9
100
AcDbLine
 10
-1.705808333333333
 20
2.027777777777778
 30
0.0
 11
-1.687208333333333
 21
2.046377777777778
 31
0.0
  0
LINE
  5
125
330
10D
100
AcDbEntity
  8
AM_9
100
AcDbLine
 10
-1.705808333333333
 20
2.277777777777778
 30
0.0
 11
-1.705808333333333
 21
2.027777777777778
 31
0.0
  0
LINE
  5
126
330
10D
100
AcDbEntity
  8
AM_9
100
AcDbLine
 10
-2.487208333333333
 20
2.027777777777778
 30
0.0
 11
-1.705808333333333
 21
2.027777777777778
 31
0.0
  0
LINE
  5
127
330
10D
100
AcDbEntity
  8
AM_9
100
AcDbLine
 10
-1.705808333333333
 20
2.277777777777778
 30
0.0
 11
-2.487208333333333
 21
2.277777777777778
 31
0.0
  0
LINE
  5
128
330
10D
100
AcDbEntity
  8
AM_5
100
AcDbLine
 10
-2.407208333333333
 20
2.046377777777778
 30
0.0
 11
-2.439424478354113
 21
2.027777777777778
 31
0.0
  0
LINE
  5
129
330
10D
100
AcDbEntity
  8
AM_5
100
AcDbLine
 10
-2.407208333333333
 20
2.277777874927936
 30
0.0
 11
-2.407208333333333
 21
2.027777798618517
 31
0.0
  0
LINE
  5
12A
330
10D
100
AcDbEntity
  8
AM_5
100
AcDbLine
 10
-2.407208333333333
 20
2.259177777777778
 30
0.0
 11
-2.439424478354114
 21
2.277777777777778
 31
0.0
  0
LINE
  5
12B
330
10D
100
AcDbEntity
  8
AM_4
100
AcDbLine
 10
-2.518208333333332
 20
1.934277777777778
 30
0.0
 11
-2.487208333333333
 21
1.934277777777778
 31
0.0
  0
LINE
  5
12C
330
10D
100
AcDbEntity
  8
AM_4
100
AcDbLine
 10
-2.487208333333333
 20
2.371277777777777
 30
0.0
 11
-2.518208333333332
 21
2.371277777777777
 31
0.0
  0
LINE
  5
12D
330
10D
100
AcDbEntity
  8
AM_4
100
AcDbLine
 10
-2.619208333333333
 20
2.270277777777778
 30
0.0
 11
-2.619208333333333
 21
2.035277777777778
 31
0.0
  0
LINE
  5
12E
330
10D
100
AcDbEntity
  8
AM_4
100
AcDbLine
 10
-2.518208333333332
 20
2.371277777777778
 30
0.0
 11
-2.518208333333332
 21
1.934277777777778
 31
0.0
  0
ARC
  5
12F
330
10D
100
AcDbEntity
  8
AM_4
100
AcDbCircle
 10
-2.518208333333332
 20
2.035277777777778
 30
0.0
 40
0.1010000000000004
100
AcDbArc
 50
180.0
 51
270.0
  0
ARC
  5
130
330
10D
100
AcDbEntity
  8
AM_4
100
AcDbCircle
 10
-2.518208333333332
 20
2.270277777777778
 30
0.0
 40
0.101
100
AcDbArc
 50
90.0
 51
180.0
  0
ENDBLK
  5
110
330
10D
100
AcDbEntity
  8
0
100
AcDbBlockEnd
  0
BLOCK
  5
133
330
131
100
AcDbEntity
  8
0
100
AcDbBlockBegin
  2
5_070902LW_0_in_069564_2
 70
     2
 10
0.0
 20
0.0
 30
0.0
  3
5_070902LW_0_in_069564_2
  1

  0
ATTDEF
  5
135
330
131
100
AcDbEntity
  8
AM_6
100
AcDbText
 10
2.952791666666667
 20
2.5
 30
0.0
 40
0.5
  1
Imperial Insert Lockwasher -Inch
100
AcDbAttributeDefinition
  3

  2
NN
 70
     8
280
     0
  0
ATTDEF
  5
136
330
131
100
AcDbEntity
  8
AM_6
100
AcDbText
 10
2.952791666666667
 20
2.0
 30
0.0
 40
0.5
  1
Imperial Bearings
100
AcDbAttributeDefinition
  3

  2
NT
 70
     8
280
     0
  0
ATTDEF
  5
137
330
131
100
AcDbEntity
  8
AM_6
100
AcDbText
 10
2.952791666666667
 20
1.5
 30
0.0
 40
0.5
  1
070902LW
100
AcDbAttributeDefinition
  3

  2
NB
 70
     8
280
     0
  0
ATTDEF
  5
138
330
131
100
AcDbEntity
  8
AM_6
100
AcDbText
 10
2.952791666666667
 20
1.0
 30
0.0
 40
0.5
  1
$PN.LW
100
AcDbAttributeDefinition
  3

  2
NBSYN
 70
     8
280
     0
  0
ATTDEF
  5
139
330
131
100
AcDbEntity
  8
AM_6
100
AcDbText
 10
2.952791666666667
 20
0.5
 30
0.0
 40
0.5
  1
070902
100
AcDbAttributeDefinition
  3

  2
LINA
 70
     8
280
     0
  0
ATTDEF
  5
13A
330
131
100
AcDbEntity
  8
AM_6
100
AcDbText
 10
2.952791666666667
 20
0.0
 30
0.0
 40
0.5
  1
3-1/4
100
AcDbAttributeDefinition
  3

  2
SS
 70
     8
280
     0
  0
ATTDEF
  5
13B
330
131
100
AcDbEntity
  8
AM_6
100
AcDbText
 10
2.952791666666667
 20
-0.5
 30
0.0
 40
0.5
  1
3.250000
100
AcDbAttributeDefinition
  3

  2
SS1
 70
     8
280
     0
  0
ATTDEF
  5
13C
330
131
100
AcDbEntity
  8
AM_6
100
AcDbText
 10
2.952791666666667
 20
-1.0
 30
0.0
 40
0.5
  1
070902
100
AcDbAttributeDefinition
  3

  2
PN
 70
     8
280
     0
  0
ATTDEF
  5
13D
330
131
100
AcDbEntity
  8
AM_6
100
AcDbText
 10
2.952791666666667
 20
-1.5
 30
0.0
 40
0.5
  1
INS-IP-304R
100
AcDbAttributeDefinition
  3

  2
DESCRIPTION
 70
     8
280
     0
  0
ATTDEF
  5
13E
330
131
100
AcDbEntity
  8
AM_6
100
AcDbText
 10
2.952791666666667
 20
-2.0
 30
0.0
 40
0.5
  1
6.2992
100
AcDbAttributeDefinition
  3

  2
A
 70
     8
280
     0
  0
ATTDEF
  5
13F
330
131
100
AcDbEntity
  8
AM_6
100
AcDbText
 10
2.952791666666667
 20
-2.5
 30
0.0
 40
0.5
  1
1-5/8
100
AcDbAttributeDefinition
  3

  2
B
 70
     8
280
     0
  0
ATTDEF
  5
140
330
131
100
AcDbEntity
  8
AM_6
100
AcDbText
 10
2.952791666666667
 20
-3.0
 30
0.0
 40
0.5
  1
4-11/64
100
AcDbAttributeDefinition
  3

  2
C
 70
     8
280
     0
  0
ATTDEF
  5
141
330
131
100
AcDbEntity
  8
AM_6
100
AcDbText
 10
2.952791666666667
 20
-3.5
 30
0.0
 40
0.5
  1
1.483
100
AcDbAttributeDefinition
  3

  2
D
 70
     8
280
     0
  0
ATTDEF
  5
142
330
131
100
AcDbEntity
  8
AM_6
100
AcDbText
 10
2.952791666666667
 20
-4.0
 30
0.0
 40
0.5
  1
5
100
AcDbAttributeDefinition
  3

  2
E
 70
     8
280
     0
  0
ATTDEF
  5
143
330
131
100
AcDbEntity
  8
AM_6
100
AcDbText
 10
2.952791666666667
 20
-4.5
 30
0.0
 40
0.5
  1
0.2500
100
AcDbAttributeDefinition
  3

  2
NDM
 70
     8
280
     0
  0
ATTDEF
  5
144
330
131
100
AcDbEntity
  8
AM_6
100
AcDbText
 10
2.952791666666667
 20
-5.0
 30
0.0
 40
0.5
  1
0.1960
100
AcDbAttributeDefinition
  3

  2
KDM
 70
     8
280
     0
  0
ATTDEF
  5
145
330
131
100
AcDbEntity
  8
AM_6
100
AcDbText
 10
2.952791666666667
 20
-5.5
 30
0.0
 40
0.5
  1
4.28
100
AcDbAttributeDefinition
  3

  2
AL
 70
     8
280
     0
  0
ATTDEF
  5
146
330
131
100
AcDbEntity
  8
AM_6
100
AcDbText
 10
2.952791666666667
 20
-6.0
 30
0.0
 40
0.5
  1
0.50
100
AcDbAttributeDefinition
  3

  2
BL
 70
     8
280
     0
  0
ATTDEF
  5
147
330
131
100
AcDbEntity
  8
AM_6
100
AcDbText
 10
2.952791666666667
 20
-6.5
 30
0.0
 40
0.5
  1
0.07
100
AcDbAttributeDefinition
  3

  2
CL
 70
     8
280
     0
  0
ATTDEF
  5
148
330
131
100
AcDbEntity
  8
AM_6
100
AcDbText
 10
2.952791666666667
 20
-7.0
 30
0.0
 40
0.5
  1
0.44
100
AcDbAttributeDefinition
  3

  2
DL
 70
     8
280
     0
  0
ATTDEF
  5
149
330
131
100
AcDbEntity
  8
AM_6
100
AcDbText
 10
2.952791666666667
 20
-7.5
 30
0.0
 40
0.5
  1
baldor
100
AcDbAttributeDefinition
  3

  2
COMPANY
 70
     8
280
     0
  0
LINE
  5
14A
330
131
100
AcDbEntity
  8
AM_9
100
AcDbLine
 10
-2.417208333333333
 20
1.571082369708865
 30
0.0
 11
-2.487208333333333
 21
1.571082369708865
 31
0.0
  0
LINE
  5
14B
330
131
100
AcDbEntity
  8
AM_9
100
AcDbLine
 10
-2.047208333333333
 20
1.528259533274281
 30
0.0
 11
-2.417208333333333
 21
1.528259533274281
 31
0.0
  0
LINE
  5
14C
330
131
100
AcDbEntity
  8
AM_9
100
AcDbLine
 10
-2.047208333333333
 20
1.449020492647344
 30
0.0
 11
-2.047208333333333
 21
1.623930391365553
 31
0.0
  0
LINE
  5
14D
330
131
100
AcDbEntity
  8
AM_9
100
AcDbLine
 10
-2.047208333333333
 20
1.449020492647344
 30
0.0
 11
-2.487208333333333
 21
1.449020492647344
 31
0.0
  0
LINE
  5
14E
330
131
100
AcDbEntity
  8
AM_9
100
AcDbLine
 10
-2.417208333333333
 20
1.623930391365554
 30
0.0
 11
-2.047208333333333
 21
1.623930391365553
 31
0.0
  0
LINE
  5
14F
330
131
100
AcDbEntity
  8
AM_9
100
AcDbLine
 10
-2.047208333333333
 20
1.544691350738617
 30
0.0
 11
-2.487208333333333
 21
1.544691350738617
 31
0.0
  0
LINE
  5
150
330
131
100
AcDbEntity
  8
AM_9
100
AcDbLine
 10
-2.417208333333333
 20
1.666753227800138
 30
0.0
 11
-2.487208333333333
 21
1.666753227800138
 31
0.0
  0
LINE
  5
151
330
131
100
AcDbEntity
  8
AM_9
100
AcDbLine
 10
-2.417208333333333
 20
2.152777777777778
 30
0.0
 11
-2.487208333333333
 21
2.152777777777778
 31
0.0
  0
LINE
  5
152
330
131
100
AcDbEntity
  8
AM_9
100
AcDbLine
 10
-2.417208333333333
 20
2.277830535136664
 30
0.0
 11
-2.487208333333333
 21
2.277830535136664
 31
0.0
  0
LINE
  5
153
330
131
100
AcDbEntity
  8
AM_9
100
AcDbLine
 10
-2.417208333333333
 20
-2.152777777777777
 30
0.0
 11
-2.487208333333333
 21
-2.152777777777777
 31
0.0
  0
LINE
  5
154
330
131
100
AcDbEntity
  8
AM_9
100
AcDbLine
 10
-2.487208333333333
 20
-2.277830535136664
 30
0.0
 11
-2.417208333333333
 21
-2.277830535136664
 31
0.0
  0
LINE
  5
155
330
131
100
AcDbEntity
  8
AM_9
100
AcDbLine
 10
-2.417208333333333
 20
1.752303998286404
 30
0.0
 11
-2.487208333333333
 21
1.752303998286404
 31
0.0
  0
LINE
  5
156
330
131
100
AcDbEntity
  8
AM_9
100
AcDbLine
 10
-2.417208333333333
 20
-1.752303998286404
 30
0.0
 11
-2.487208333333333
 21
-1.752303998286404
 31
0.0
  0
LINE
  5
157
330
131
100
AcDbEntity
  8
AM_9
100
AcDbLine
 10
-2.417208333333333
 20
-1.327454387536935
 30
0.0
 11
-2.487208333333333
 21
-1.327454387536935
 31
0.0
  0
LINE
  5
158
330
131
100
AcDbEntity
  8
AM_9
100
AcDbLine
 10
-2.417208333333333
 20
1.327454387536935
 30
0.0
 11
-2.487208333333333
 21
1.327454387536937
 31
0.0
  0
LINE
  5
159
330
131
100
AcDbEntity
  8
AM_9
100
AcDbLine
 10
-2.417208333333333
 20
1.150677692240298
 30
0.0
 11
-2.487208333333333
 21
1.150677692240298
 31
0.0
  0
LINE
  5
15A
330
131
100
AcDbEntity
  8
AM_9
100
AcDbLine
 10
-2.417208333333333
 20
-1.150677692240298
 30
0.0
 11
-2.487208333333333
 21
-1.150677692240298
 31
0.0
  0
LINE
  5
15B
330
131
100
AcDbEntity
  8
AM_9
100
AcDbLine
 10
-2.417208333333333
 20
1.610632112702692
 30
0.0
 11
-2.487208333333333
 21
1.610632112702692
 31
0.0
  0
LINE
  5
15C
330
131
100
AcDbEntity
  8
AM_9
100
AcDbLine
 10
-2.417208333333333
 20
1.433855417406055
 30
0.0
 11
-2.487208333333333
 21
1.433855417406055
 31
0.0
  0
LINE
  5
15D
330
131
100
AcDbEntity
  8
AM_9
100
AcDbLine
 10
-2.417208333333333
 20
1.647281073400108
 30
0.0
 11
-2.487208333333333
 21
1.647281073400108
 31
0.0
  0
LINE
  5
15E
330
131
100
AcDbEntity
  8
AM_9
100
AcDbLine
 10
-2.417208333333333
 20
-1.433855417406054
 30
0.0
 11
-2.487208333333333
 21
-1.433855417406054
 31
0.0
  0
LINE
  5
15F
330
131
100
AcDbEntity
  8
AM_9
100
AcDbLine
 10
-2.417208333333333
 20
-1.610632112702683
 30
0.0
 11
-2.487208333333333
 21
-1.610632112702683
 31
0.0
  0
LINE
  5
160
330
131
100
AcDbEntity
  8
AM_9
100
AcDbLine
 10
-2.487208333333333
 20
-1.647281073400107
 30
0.0
 11
-2.417208333333333
 21
-1.647281073400107
 31
0.0
  0
LINE
  5
161
330
131
100
AcDbEntity
  8
AM_9
100
AcDbLine
 10
-2.417208333333333
 20
0.1250000000000006
 30
0.0
 11
-2.487208333333333
 21
0.1250000000000006
 31
0.0
  0
LINE
  5
162
330
131
100
AcDbEntity
  8
AM_9
100
AcDbLine
 10
-2.417208333333333
 20
-0.1249999999999991
 30
0.0
 11
-2.487208333333333
 21
-0.1249999999999991
 31
0.0
  0
LINE
  5
163
330
131
100
AcDbEntity
  8
AM_4
100
AcDbLine
 10
-2.417208333333333
 20
2.5
 30
0.0
 11
-2.487208333333333
 21
2.5
 31
0.0
  0
LINE
  5
164
330
131
100
AcDbEntity
  8
AM_4
100
AcDbLine
 10
-2.487208333333333
 20
-2.5
 30
0.0
 11
-2.417208333333333
 21
-2.5
 31
0.0
  0
LINE
  5
165
330
131
100
AcDbEntity
  8
AM_4
100
AcDbLine
 10
-2.487208333333333
 20
2.5
 30
0.0
 11
-2.487208333333333
 21
-2.5
 31
0.0
  0
LINE
  5
166
330
131
100
AcDbEntity
  8
AM_4
100
AcDbLine
 10
-2.417208333333333
 20
2.5
 30
0.0
 11
-2.417208333333333
 21
-2.5
 31
0.0
  0
ENDBLK
  5
134
330
131
100
AcDbEntity
  8
0
100
AcDbBlockEnd
  0
BLOCK
  5
169
330
167
100
AcDbEntity
  8
0
100
AcDbBlockBegin
  2
6_070934I_0_in_069564_2
 70
     2
 10
0.0
 20
0.0
 30
0.0
  3
6_070934I_0_in_069564_2
  1

  0
ATTDEF
  5
16B
330
167
100
AcDbEntity
  8
AM_6
100
AcDbText
 10
6.462499999999999
 20
3.1496
 30
0.0
 40
0.5
  1
Imperial Insert -Inch
100
AcDbAttributeDefinition
  3

  2
NN
 70
     8
280
     0
  0
ATTDEF
  5
16C
330
167
100
AcDbEntity
  8
AM_6
100
AcDbText
 10
6.462499999999999
 20
2.6496
 30
0.0
 40
0.5
  1
Imperial Bearings
100
AcDbAttributeDefinition
  3

  2
NT
 70
     8
280
     0
  0
ATTDEF
  5
16D
330
167
100
AcDbEntity
  8
AM_6
100
AcDbText
 10
6.462499999999999
 20
2.1496
 30
0.0
 40
0.5
  1
070934I
100
AcDbAttributeDefinition
  3

  2
NB
 70
     8
280
     0
  0
ATTDEF
  5
16E
330
167
100
AcDbEntity
  8
AM_6
100
AcDbText
 10
6.462499999999999
 20
1.6496
 30
0.0
 40
0.5
  1
$PN.I
100
AcDbAttributeDefinition
  3

  2
NBSYN
 70
     8
280
     0
  0
ATTDEF
  5
16F
330
167
100
AcDbEntity
  8
AM_6
100
AcDbText
 10
6.462499999999999
 20
1.1496
 30
0.0
 40
0.5
  1
070934
100
AcDbAttributeDefinition
  3

  2
LINA
 70
     8
280
     0
  0
ATTDEF
  5
170
330
167
100
AcDbEntity
  8
AM_6
100
AcDbText
 10
6.462499999999999
 20
0.6495999999999995
 30
0.0
 40
0.5
  1
3-1/4
100
AcDbAttributeDefinition
  3

  2
SS
 70
     8
280
     0
  0
ATTDEF
  5
171
330
167
100
AcDbEntity
  8
AM_6
100
AcDbText
 10
6.462499999999999
 20
0.1495999999999995
 30
0.0
 40
0.5
  1
3.250000
100
AcDbAttributeDefinition
  3

  2
SS1
 70
     8
280
     0
  0
ATTDEF
  5
172
330
167
100
AcDbEntity
  8
AM_6
100
AcDbText
 10
6.462499999999999
 20
-0.3504000000000005
 30
0.0
 40
0.5
  1
070934
100
AcDbAttributeDefinition
  3

  2
PN
 70
     8
280
     0
  0
ATTDEF
  5
173
330
167
100
AcDbEntity
  8
AM_6
100
AcDbText
 10
6.462499999999999
 20
-0.8504000000000005
 30
0.0
 40
0.5
  1
INS-IP-304L
100
AcDbAttributeDefinition
  3

  2
DESCRIPTION
 70
     8
280
     0
  0
ATTDEF
  5
174
330
167
100
AcDbEntity
  8
AM_6
100
AcDbText
 10
6.462499999999999
 20
-1.3504
 30
0.0
 40
0.5
  1
Labyrinth Seal
100
AcDbAttributeDefinition
  3

  2
ST
 70
     8
280
     0
  0
ATTDEF
  5
175
330
167
100
AcDbEntity
  8
AM_6
100
AcDbText
 10
6.462499999999999
 20
-1.8504
 30
0.0
 40
0.5
  1
6.2992
100
AcDbAttributeDefinition
  3

  2
A
 70
     8
280
     0
  0
ATTDEF
  5
176
330
167
100
AcDbEntity
  8
AM_6
100
AcDbText
 10
6.462499999999999
 20
-2.3504
 30
0.0
 40
0.5
  1
1-5/8
100
AcDbAttributeDefinition
  3

  2
B
 70
     8
280
     0
  0
ATTDEF
  5
177
330
167
100
AcDbEntity
  8
AM_6
100
AcDbText
 10
6.462499999999999
 20
-2.8504
 30
0.0
 40
0.5
  1
4-11/64
100
AcDbAttributeDefinition
  3

  2
C
 70
     8
280
     0
  0
ATTDEF
  5
178
330
167
100
AcDbEntity
  8
AM_6
100
AcDbText
 10
6.462499999999999
 20
-3.3504
 30
0.0
 40
0.5
  1
1.483
100
AcDbAttributeDefinition
  3

  2
D
 70
     8
280
     0
  0
ATTDEF
  5
179
330
167
100
AcDbEntity
  8
AM_6
100
AcDbText
 10
6.462499999999999
 20
-3.8504
 30
0.0
 40
0.5
  1
5
100
AcDbAttributeDefinition
  3

  2
E
 70
     8
280
     0
  0
ATTDEF
  5
17A
330
167
100
AcDbEntity
  8
AM_6
100
AcDbText
 10
6.462499999999999
 20
-4.3504
 30
0.0
 40
0.5
  1
0.2500
100
AcDbAttributeDefinition
  3

  2
NDM
 70
     8
280
     0
  0
ATTDEF
  5
17B
330
167
100
AcDbEntity
  8
AM_6
100
AcDbText
 10
6.462499999999999
 20
-4.8504
 30
0.0
 40
0.5
  1
0.132
100
AcDbAttributeDefinition
  3

  2
H
 70
     8
280
     0
  0
ATTDEF
  5
17C
330
167
100
AcDbEntity
  8
AM_6
100
AcDbText
 10
6.462499999999999
 20
-5.3504
 30
0.0
 40
0.5
  1
0.1960
100
AcDbAttributeDefinition
  3

  2
KDM
 70
     8
280
     0
  0
ATTDEF
  5
17D
330
167
100
AcDbEntity
  8
AM_6
100
AcDbText
 10
6.462499999999999
 20
-5.8504
 30
0.0
 40
0.5
  1
4.28
100
AcDbAttributeDefinition
  3

  2
AL
 70
     8
280
     0
  0
ATTDEF
  5
17E
330
167
100
AcDbEntity
  8
AM_6
100
AcDbText
 10
6.462499999999999
 20
-6.3504
 30
0.0
 40
0.5
  1
0.50
100
AcDbAttributeDefinition
  3

  2
BL
 70
     8
280
     0
  0
ATTDEF
  5
17F
330
167
100
AcDbEntity
  8
AM_6
100
AcDbText
 10
6.462499999999999
 20
-6.8504
 30
0.0
 40
0.5
  1
0.07
100
AcDbAttributeDefinition
  3

  2
CL
 70
     8
280
     0
  0
ATTDEF
  5
180
330
167
100
AcDbEntity
  8
AM_6
100
AcDbText
 10
6.462499999999999
 20
-7.3504
 30
0.0
 40
0.5
  1
0.44
100
AcDbAttributeDefinition
  3

  2
DL
 70
     8
280
     0
  0
ATTDEF
  5
181
330
167
100
AcDbEntity
  8
AM_6
100
AcDbText
 10
6.462499999999999
 20
-7.8504
 30
0.0
 40
0.5
  1
0.8000
100
AcDbAttributeDefinition
  3

  2
LL
 70
     8
280
     0
  0
ATTDEF
  5
182
330
167
100
AcDbEntity
  8
AM_6
100
AcDbText
 10
6.462499999999999
 20
-8.3504
 30
0.0
 40
0.5
  1
0.025
100
AcDbAttributeDefinition
  3

  2
Y
 70
     8
280
     0
  0
ATTDEF
  5
183
330
167
100
AcDbEntity
  8
AM_6
100
AcDbText
 10
6.462499999999999
 20
-8.8504
 30
0.0
 40
0.5
  1
0.025000
100
AcDbAttributeDefinition
  3

  2
Y1
 70
     8
280
     0
  0
ATTDEF
  5
184
330
167
100
AcDbEntity
  8
AM_6
100
AcDbText
 10
6.462499999999999
 20
-9.3504
 30
0.0
 40
0.5
  1
4-3/64
100
AcDbAttributeDefinition
  3

  2
Z
 70
     8
280
     0
  0
ATTDEF
  5
185
330
167
100
AcDbEntity
  8
AM_6
100
AcDbText
 10
6.462499999999999
 20
-9.8504
 30
0.0
 40
0.5
  1
4.046875
100
AcDbAttributeDefinition
  3

  2
Z1
 70
     8
280
     0
  0
ATTDEF
  5
186
330
167
100
AcDbEntity
  8
AM_6
100
AcDbText
 10
6.462499999999999
 20
-10.3504
 30
0.0
 40
0.5
  1
baldor
100
AcDbAttributeDefinition
  3

  2
COMPANY
 70
     8
280
     0
  0
LINE
  5
187
330
167
100
AcDbEntity
  8
AM_9
100
AcDbLine
 10
0.767
 20
1.62811125067253
 30
0.0
 11
-2.417208333333333
 21
1.62811125067253
 31
0.0
  0
LINE
  5
188
330
167
100
AcDbEntity
  8
AM_9
100
AcDbLine
 10
0.767
 20
1.532440392581258
 30
0.0
 11
-2.417208333333333
 21
1.532440392581258
 31
0.0
  0
LINE
  5
189
330
167
100
AcDbEntity
  8
AM_9
100
AcDbLine
 10
-1.577208333333333
 20
2.152777777777778
 30
0.0
 11
-1.622883168449615
 21
2.250727777777778
 31
0.0
  0
LINE
  5
18A
330
167
100
AcDbEntity
  8
AM_9
100
AcDbLine
 10
-1.622883168449615
 20
2.054827777777778
 30
0.0
 11
-1.577208333333333
 21
2.152777777777778
 31
0.0
  0
LINE
  5
18B
330
167
100
AcDbEntity
  8
AM_9
100
AcDbLine
 10
-1.577208333333336
 20
-2.152777777777778
 30
0.0
 11
-1.622883168449614
 21
-2.054827777777778
 31
0.0
  0
LINE
  5
18C
330
167
100
AcDbEntity
  8
AM_9
100
AcDbLine
 10
-1.622883168449614
 20
-2.250727777777778
 30
0.0
 11
-1.577208333333336
 21
-2.152777777777778
 31
0.0
  0
LINE
  5
18D
330
167
100
AcDbEntity
  8
AM_9
100
AcDbLine
 10
-2.390158333333337
 20
-2.250727777777778
 30
0.0
 11
-1.622883168449614
 21
-2.250727777777778
 31
0.0
  0
LINE
  5
18E
330
167
100
AcDbEntity
  8
AM_9
100
AcDbLine
 10
-1.622883168449614
 20
-2.054827777777778
 30
0.0
 11
-2.390158333333337
 21
-2.054827777777778
 31
0.0
  0
LINE
  5
18F
330
167
100
AcDbEntity
  8
AM_9
100
AcDbLine
 10
-1.622883168449614
 20
-2.054827777777778
 30
0.0
 11
-1.622883168449614
 21
-2.250727777777778
 31
0.0
  0
LINE
  5
190
330
167
100
AcDbEntity
  8
AM_9
100
AcDbLine
 10
-1.622883168449615
 20
2.054827777777778
 30
0.0
 11
-1.622883168449615
 21
2.250727777777778
 31
0.0
  0
LINE
  5
191
330
167
100
AcDbEntity
  8
AM_9
100
AcDbLine
 10
-1.622883168449615
 20
2.250727777777778
 30
0.0
 11
-2.390158333333333
 21
2.250727777777778
 31
0.0
  0
LINE
  5
192
330
167
100
AcDbEntity
  8
AM_9
100
AcDbLine
 10
-2.390158333333333
 20
2.054827777777778
 30
0.0
 11
-1.622883168449615
 21
2.054827777777778
 31
0.0
  0
LINE
  5
193
330
167
100
AcDbEntity
  8
AM_9
100
AcDbLine
 10
-2.390158333333333
 20
2.054827777777778
 30
0.0
 11
-2.390158333333333
 21
2.250727777777778
 31
0.0
  0
LINE
  5
194
330
167
100
AcDbEntity
  8
AM_9
100
AcDbLine
 10
-2.390158333333333
 20
2.250727777777778
 30
0.0
 11
-2.417208333333333
 21
2.277777777777778
 31
0.0
  0
LINE
  5
195
330
167
100
AcDbEntity
  8
AM_9
100
AcDbLine
 10
-2.417208333333333
 20
2.027777777777778
 30
0.0
 11
-2.390158333333333
 21
2.054827777777778
 31
0.0
  0
LINE
  5
196
330
167
100
AcDbEntity
  8
AM_9
100
AcDbLine
 10
-2.390158333333337
 20
-2.054827777777778
 30
0.0
 11
-2.417208333333314
 21
-2.027777777777778
 31
0.0
  0
LINE
  5
197
330
167
100
AcDbEntity
  8
AM_9
100
AcDbLine
 10
-2.417208333333314
 20
-2.277777777777778
 30
0.0
 11
-2.390158333333337
 21
-2.250727777777778
 31
0.0
  0
LINE
  5
198
330
167
100
AcDbEntity
  8
AM_9
100
AcDbLine
 10
-2.390158333333337
 20
-2.054827777777778
 30
0.0
 11
-2.390158333333337
 21
-2.250727777777778
 31
0.0
  0
LINE
  5
199
330
167
100
AcDbEntity
  8
AM_9
100
AcDbLine
 10
0.767
 20
1.544691350738618
 30
0.0
 11
-2.734375
 21
1.544691350738617
 31
0.0
  0
LINE
  5
19A
330
167
100
AcDbEntity
  8
AM_9
100
AcDbLine
 10
-2.734375
 20
1.449020492647345
 30
0.0
 11
0.767
 21
1.449020492647345
 31
0.0
  0
LINE
  5
19B
330
167
100
AcDbEntity
  8
AM_9
100
AcDbLine
 10
0.767
 20
1.625
 30
0.0
 11
-2.734374999999999
 21
1.625
 31
0.0
  0
LINE
  5
19C
330
167
100
AcDbEntity
  8
AM_9
100
AcDbLine
 10
-2.734374999999999
 20
-1.625
 30
0.0
 11
0.767
 21
-1.625
 31
0.0
  0
LINE
  5
19D
330
167
100
AcDbEntity
  8
AM_9
100
AcDbLine
 10
-1.977208333333333
 20
-1.336431816442575
 30
0.0
 11
-2.417208333333333
 21
-1.336431816442575
 31
0.0
  0
LINE
  5
19E
330
167
100
AcDbEntity
  8
AM_9
100
AcDbLine
 10
-1.977208333333333
 20
-1.689985207035849
 30
0.0
 11
-2.0625
 21
-1.689985207035849
 31
0.0
  0
LINE
  5
19F
330
167
100
AcDbEntity
  8
AM_9
100
AcDbLine
 10
-1.977208333333333
 20
1.336431816442574
 30
0.0
 11
-2.417208333333333
 21
1.336431816442574
 31
0.0
  0
LINE
  5
1A0
330
167
100
AcDbEntity
  8
AM_9
100
AcDbLine
 10
-2.734375
 20
1.623930391365554
 30
0.0
 11
-2.417208333333333
 21
1.623930391365554
 31
0.0
  0
LINE
  5
1A1
330
167
100
AcDbEntity
  8
AM_9
100
AcDbLine
 10
-2.417208333333333
 20
1.528259533274282
 30
0.0
 11
-2.734375
 21
1.528259533274281
 31
0.0
  0
LINE
  5
1A2
330
167
100
AcDbEntity
  8
AM_9
100
AcDbLine
 10
-2.417208333333333
 20
1.710526315789474
 30
0.0
 11
-2.487208333333333
 21
1.710526315789474
 31
0.0
  0
LINE
  5
1A3
330
167
100
AcDbEntity
  8
AM_9
100
AcDbLine
 10
-2.487208333333333
 20
-1.710526315789474
 30
0.0
 11
-2.417208333333333
 21
-1.710526315789474
 31
0.0
  0
LINE
  5
1A4
330
167
100
AcDbEntity
  8
AM_9
100
AcDbLine
 10
1.4375
 20
1.710526315789474
 30
0.0
 11
0.767
 21
1.710526315789474
 31
0.0
  0
LINE
  5
1A5
330
167
100
AcDbEntity
  8
AM_9
100
AcDbLine
 10
0.767
 20
-1.710526315789474
 30
0.0
 11
1.4375
 21
-1.710526315789474
 31
0.0
  0
LINE
  5
1A6
330
167
100
AcDbEntity
  8
AM_9
100
AcDbLine
 10
-1.977208333333333
 20
1.593048406283362
 30
0.0
 11
-1.977208333333333
 21
1.336431816442574
 31
0.0
  0
LINE
  5
1A7
330
167
100
AcDbEntity
  8
AM_9
100
AcDbLine
 10
1.4375
 20
-1.5
 30
0.0
 11
1.4375
 21
2.0234375
 31
0.0
  0
LINE
  5
1A8
330
167
100
AcDbEntity
  8
AM_9
100
AcDbLine
 10
1.462499999999999
 20
2.0234375
 30
0.0
 11
1.4375
 21
2.0234375
 31
0.0
  0
LINE
  5
1A9
330
167
100
AcDbEntity
  8
AM_9
100
AcDbLine
 10
1.4375
 20
-2.0234375
 30
0.0
 11
1.462499999999999
 21
-2.0234375
 31
0.0
  0
LINE
  5
1AA
330
167
100
AcDbEntity
  8
AM_9
100
AcDbLine
 10
1.410616987179484
 20
2.248263888888889
 30
0.0
 11
1.091999999999999
 21
2.248263888888889
 31
0.0
  0
LINE
  5
1AB
330
167
100
AcDbEntity
  8
AM_9
100
AcDbLine
 10
1.091999999999999
 20
-2.248263888888889
 30
0.0
 11
1.410616987179484
 21
-2.248263888888889
 31
0.0
  0
LINE
  5
1AC
330
167
100
AcDbEntity
  8
AM_9
100
AcDbLine
 10
1.4625
 20
-2.196380876068376
 30
0.0
 11
1.4625
 21
2.196380876068376
 31
0.0
  0
ARC
  5
1AD
330
167
100
AcDbEntity
  8
AM_9
100
AcDbCircle
 10
1.410616987179486
 20
2.196380876068375
 30
0.0
 40
0.0518830128205137
100
AcDbArc
 50
0.0
 51
90.0
  0
ARC
  5
1AE
330
167
100
AcDbEntity
  8
AM_9
100
AcDbCircle
 10
1.410616987179486
 20
-2.196380876068375
 30
0.0
 40
0.0518830128205137
100
AcDbArc
 50
270.0
 51
0.0
  0
LINE
  5
1AF
330
167
100
AcDbEntity
  8
AM_9
100
AcDbLine
 10
1.410616987179484
 20
-2.248263888888889
 30
0.0
 11
1.410616987179484
 21
2.248263888888889
 31
0.0
  0
LINE
  5
1B0
330
167
100
AcDbEntity
  8
AM_9
100
AcDbLine
 10
-2.062500002241684
 20
-1.59093183121029
 30
0.0
 11
-1.977208333333333
 21
-1.593048406283363
 31
0.0
  0
LINE
  5
1B1
330
167
100
AcDbEntity
  8
AM_9
100
AcDbLine
 10
-1.977208333333333
 20
-1.336431816442575
 30
0.0
 11
-1.977208333333333
 21
-1.946601796876637
 31
0.0
  0
LINE
  5
1B2
330
167
100
AcDbEntity
  8
AM_9
100
AcDbLine
 10
-1.977208333333333
 20
-1.946601796876637
 30
0.0
 11
-2.062500002241684
 21
-1.944485221803564
 31
0.0
  0
LINE
  5
1B3
330
167
100
AcDbEntity
  8
AM_9
100
AcDbLine
 10
-2.0625
 20
-2.512386687945135
 30
0.0
 11
-0.858
 21
-2.554448754797947
 31
0.0
  0
LINE
  5
1B4
330
167
100
AcDbEntity
  8
AM_9
100
AcDbLine
 10
-0.858
 20
2.554448754797947
 30
0.0
 11
-1.85625
 21
2.519589096652808
 31
0.0
  0
LINE
  5
1B5
330
167
100
AcDbEntity
  8
AM_9
100
AcDbLine
 10
1.091999999999999
 20
-2.70422613559441
 30
0.0
 11
1.091999999999999
 21
2.70422613559441
 31
0.0
  0
ARC
  5
1B6
330
167
100
AcDbEntity
  8
AM_9
100
AcDbCircle
 10
0.9920000000000011
 20
2.70422613559441
 30
0.0
 40
0.0999999999999983
100
AcDbArc
 50
0.0
 51
60.00000000000062
  0
ARC
  5
1B7
330
167
100
AcDbEntity
  8
AM_9
100
AcDbCircle
 10
0.992000000000001
 20
-2.70422613559441
 30
0.0
 40
0.0999999999999989
100
AcDbArc
 50
299.9999999999994
 51
0.0
  0
LINE
  5
1B8
330
167
100
AcDbEntity
  8
AM_9
100
AcDbLine
 10
1.042
 20
2.790828675972853
 30
0.0
 11
0.767
 21
2.9496
 31
0.0
  0
LINE
  5
1B9
330
167
100
AcDbEntity
  8
AM_9
100
AcDbLine
 10
0.767
 20
-2.9496
 30
0.0
 11
1.042
 21
-2.790828675972853
 31
0.0
  0
LINE
  5
1BA
330
167
100
AcDbEntity
  8
AM_9
100
AcDbLine
 10
1.042
 20
-2.790828675972853
 30
0.0
 11
1.042
 21
2.790828675972853
 31
0.0
  0
LINE
  5
1BB
330
167
100
AcDbEntity
  8
AM_9
100
AcDbLine
 10
0.0014097093716568
 20
3.06835
 30
0.0
 11
-0.092409709371657
 21
3.06835
 31
0.0
  0
LINE
  5
1BC
330
167
100
AcDbEntity
  8
AM_9
100
AcDbLine
 10
-0.092409709371657
 20
-3.06835
 30
0.0
 11
0.0014097093716568
 21
-3.06835
 31
0.0
  0
LINE
  5
1BD
330
167
100
AcDbEntity
  8
AM_9
100
AcDbLine
 10
0.0014097093716568
 20
-3.06835
 30
0.0
 11
0.0483194187433138
 21
-3.1496
 31
0.0
  0
LINE
  5
1BE
330
167
100
AcDbEntity
  8
AM_9
100
AcDbLine
 10
0.0483194187433138
 20
3.1496
 30
0.0
 11
0.0014097093716568
 21
3.06835
 31
0.0
  0
LINE
  5
1BF
330
167
100
AcDbEntity
  8
AM_9
100
AcDbLine
 10
0.0014097093716568
 20
-3.06835
 30
0.0
 11
0.0014097093716568
 21
3.06835
 31
0.0
  0
LINE
  5
1C0
330
167
100
AcDbEntity
  8
AM_9
100
AcDbLine
 10
-0.139319418743314
 20
3.1496
 30
0.0
 11
-0.8080000000000005
 21
3.1496
 31
0.0
  0
LINE
  5
1C1
330
167
100
AcDbEntity
  8
AM_9
100
AcDbLine
 10
-0.8080000000000005
 20
-3.1496
 30
0.0
 11
-0.139319418743314
 21
-3.1496
 31
0.0
  0
LINE
  5
1C2
330
167
100
AcDbEntity
  8
AM_9
100
AcDbLine
 10
-0.092409709371657
 20
3.06835
 30
0.0
 11
-0.139319418743314
 21
3.1496
 31
0.0
  0
LINE
  5
1C3
330
167
100
AcDbEntity
  8
AM_9
100
AcDbLine
 10
-0.139319418743314
 20
-3.1496
 30
0.0
 11
-0.092409709371657
 21
-3.06835
 31
0.0
  0
LINE
  5
1C4
330
167
100
AcDbEntity
  8
AM_9
100
AcDbLine
 10
-0.092409709371657
 20
-3.06835
 30
0.0
 11
-0.092409709371657
 21
3.06835
 31
0.0
  0
LINE
  5
1C5
330
167
100
AcDbEntity
  8
AM_9
100
AcDbLine
 10
-0.139319418743314
 20
-3.1496
 30
0.0
 11
-0.139319418743314
 21
3.1496
 31
0.0
  0
LINE
  5
1C6
330
167
100
AcDbEntity
  8
AM_9
100
AcDbLine
 10
0.767
 20
-3.0996
 30
0.0
 11
0.767
 21
3.0996
 31
0.0
  0
ARC
  5
1C7
330
167
100
AcDbEntity
  8
AM_9
100
AcDbCircle
 10
0.717000000000001
 20
3.0996
 30
0.0
 40
0.049999999999999
100
AcDbArc
 50
0.0
 51
90.0
  0
ARC
  5
1C8
330
167
100
AcDbEntity
  8
AM_9
100
AcDbCircle
 10
0.717000000000001
 20
-3.0996
 30
0.0
 40
0.0499999999999994
100
AcDbArc
 50
270.0
 51
0.0
  0
LINE
  5
1C9
330
167
100
AcDbEntity
  8
AM_9
100
AcDbLine
 10
-0.8580000000000002
 20
-3.0996
 30
0.0
 11
-0.8580000000000002
 21
3.0996
 31
0.0
  0
ARC
  5
1CA
330
167
100
AcDbEntity
  8
AM_9
100
AcDbCircle
 10
-0.8080000000000007
 20
3.0996
 30
0.0
 40
0.0499999999999994
100
AcDbArc
 50
90.0
 51
180.0
  0
ARC
  5
1CB
330
167
100
AcDbEntity
  8
AM_9
100
AcDbCircle
 10
-0.8080000000000007
 20
-3.0996
 30
0.0
 40
0.0499999999999995
100
AcDbArc
 50
180.0
 51
270.0
  0
LINE
  5
1CC
330
167
100
AcDbEntity
  8
AM_9
100
AcDbLine
 10
-0.8080000000000005
 20
-3.1496
 30
0.0
 11
-0.8080000000000005
 21
3.1496
 31
0.0
  0
LINE
  5
1CD
330
167
100
AcDbEntity
  8
AM_9
100
AcDbLine
 10
0.7169999999999997
 20
3.1496
 30
0.0
 11
0.0483194187433138
 21
3.1496
 31
0.0
  0
LINE
  5
1CE
330
167
100
AcDbEntity
  8
AM_9
100
AcDbLine
 10
0.0483194187433138
 20
-3.1496
 30
0.0
 11
0.7169999999999997
 21
-3.1496
 31
0.0
  0
LINE
  5
1CF
330
167
100
AcDbEntity
  8
AM_9
100
AcDbLine
 10
0.7169999999999997
 20
-3.1496
 30
0.0
 11
0.7169999999999997
 21
3.1496
 31
0.0
  0
LINE
  5
1D0
330
167
100
AcDbEntity
  8
AM_9
100
AcDbLine
 10
0.0483194187433138
 20
-3.1496
 30
0.0
 11
0.0483194187433138
 21
3.1496
 31
0.0
  0
LINE
  5
1D1
330
167
100
AcDbEntity
  8
AM_5
100
AcDbLine
 10
-1.657208333333333
 20
2.250727777777778
 30
0.0
 11
-1.657208333333333
 21
2.277777777777778
 31
0.0
  0
LINE
  5
1D2
330
167
100
AcDbEntity
  8
AM_5
100
AcDbLine
 10
-1.657208333333333
 20
2.277777777777778
 30
0.0
 11
-1.641591008551754
 21
2.250727777777778
 31
0.0
  0
LINE
  5
1D3
330
167
100
AcDbEntity
  8
AM_5
100
AcDbLine
 10
-1.657208333333333
 20
2.054827777777778
 30
0.0
 11
-1.657208333333333
 21
2.027777777777778
 31
0.0
  0
LINE
  5
1D4
330
167
100
AcDbEntity
  8
AM_5
100
AcDbLine
 10
-1.657208333333333
 20
2.027777777777778
 30
0.0
 11
-1.641591008551754
 21
2.054827777777778
 31
0.0
  0
LINE
  5
1D5
330
167
100
AcDbEntity
  8
AM_5
100
AcDbLine
 10
-1.657208333333346
 20
-2.250727777777778
 30
0.0
 11
-1.657208333333346
 21
-2.277777777777778
 31
0.0
  0
LINE
  5
1D6
330
167
100
AcDbEntity
  8
AM_5
100
AcDbLine
 10
-1.657208333333346
 20
-2.277777777777778
 30
0.0
 11
-1.641591008551766
 21
-2.250727777777778
 31
0.0
  0
LINE
  5
1D7
330
167
100
AcDbEntity
  8
AM_5
100
AcDbLine
 10
-1.657208333333346
 20
-2.054827777777778
 30
0.0
 11
-1.657208333333346
 21
-2.027777777777778
 31
0.0
  0
LINE
  5
1D8
330
167
100
AcDbEntity
  8
AM_5
100
AcDbLine
 10
-1.657208333333346
 20
-2.027777777777778
 30
0.0
 11
-1.641591008551766
 21
-2.054827777777778
 31
0.0
  0
LINE
  5
1DB
330
167
100
AcDbEntity
  8
AM_7
100
AcDbLine
 10
-1.535208333333333
 20
2.152777777777778
 30
0.0
 11
-2.665808333333333
 21
2.152777777777778
 31
0.0
  0
LINE
  5
1DC
330
167
100
AcDbEntity
  8
AM_7
100
AcDbLine
 10
-1.535208333333337
 20
-2.152777777777778
 30
0.0
 11
-2.665808333333333
 21
-2.152777777777778
 31
0.0
  0
ARC
  5
1DD
330
167
100
AcDbEntity
  8
AM_4
100
AcDbCircle
 10
-2.367208333333333
 20
-2.451715561259646
 30
0.0
 40
0.0500000000000007
100
AcDbArc
 50
180.0
 51
267.999999999999
  0
ARC
  5
1DE
330
167
100
AcDbEntity
  8
AM_4
100
AcDbCircle
 10
-2.367208333333333
 20
2.451715561259646
 30
0.0
 40
0.0500000000000003
100
AcDbArc
 50
92.000000000001
 51
180.0
  0
LWPOLYLINE
  5
1DF
330
167
100
AcDbEntity
  8
AM_4
100
AcDbPolyline
 90
        6
 70
     0
 43
0.0
 10
-2.368953308168459
 20
-1.936880151435481
 10
-2.385329277847101
 20
-1.934486066876636
 10
-2.399669505113438
 20
-1.928394861241001
 10
-2.410392061431032
 20
-1.919278208205406
 10
-2.416297213756794
 20
-1.908118701042667
 10
-2.417208333333333
 20
-1.901364935040069
  0
LWPOLYLINE
  5
1E0
330
167
100
AcDbEntity
  8
AM_4
100
AcDbPolyline
 90
        6
 70
     0
 43
0.0
 10
-2.417208333333333
 20
1.901364935040069
 10
-2.41666824476616
 20
1.906574535217858
 10
-2.411408839127761
 20
1.917978192677443
 10
-2.40111070264424
 20
1.927485891094621
 10
-2.386986909572901
 20
1.934003513616657
 10
-2.368953308168459
 20
1.936880151435481
  0
LINE
  5
1E1
330
167
100
AcDbEntity
  8
AM_4
100
AcDbLine
 10
-2.0625
 20
-1.689985207035849
 30
0.0
 11
-2.417208333333333
 21
-1.689985207035849
 31
0.0
  0
LINE
  5
1E2
330
167
100
AcDbEntity
  8
AM_4
100
AcDbLine
 10
-1.977208333333333
 20
1.689985207035848
 30
0.0
 11
-2.417208333333333
 21
1.689985207035848
 31
0.0
  0
LINE
  5
1E3
330
167
100
AcDbEntity
  8
AM_4
100
AcDbLine
 10
-2.487208333333333
 20
1.710526315789474
 30
0.0
 11
-2.734375
 21
1.710526315789474
 31
0.0
  0
LINE
  5
1E4
330
167
100
AcDbEntity
  8
AM_4
100
AcDbLine
 10
-2.734375
 20
-1.710526315789474
 30
0.0
 11
-2.487208333333333
 21
-1.710526315789474
 31
0.0
  0
LINE
  5
1E5
330
167
100
AcDbEntity
  8
AM_4
100
AcDbLine
 10
-2.734375
 20
-1.710526315789474
 30
0.0
 11
-2.734375
 21
1.710526315789474
 31
0.0
  0
LWPOLYLINE
  5
1E6
330
167
100
AcDbEntity
  8
AM_4
100
AcDbPolyline
 90
        6
 70
     0
 43
0.0
 10
-2.368953308168459
 20
1.583326760842206
 10
-2.385329277847101
 20
1.58093267628336
 10
-2.399669505113438
 20
1.574841470647725
 10
-2.410392061431032
 20
1.565724817612131
 10
-2.416297213756794
 20
1.554565310449392
 10
-2.417208333333333
 20
1.547811544446794
  0
LWPOLYLINE
  5
1E7
330
167
100
AcDbEntity
  8
AM_4
100
AcDbPolyline
 90
        6
 70
     0
 43
0.0
 10
-2.417208333333333
 20
-1.547811544446795
 10
-2.41666824476616
 20
-1.553021144624584
 10
-2.411408839127762
 20
-1.564424802084168
 10
-2.401110702644241
 20
-1.573932500501347
 10
-2.386986909572903
 20
-1.580450123023383
 10
-2.368953308168459
 20
-1.583326760842207
  0
LINE
  5
1E8
330
167
100
AcDbEntity
  8
AM_4
100
AcDbLine
 10
-2.368953308168459
 20
-1.583326760842207
 30
0.0
 11
-2.368953308168459
 21
1.583326760842206
 31
0.0
  0
LINE
  5
1E9
330
167
100
AcDbEntity
  8
AM_4
100
AcDbLine
 10
-2.368953308168459
 20
-1.583326760842207
 30
0.0
 11
-2.062500002241684
 21
-1.59093183121029
 31
0.0
  0
LINE
  5
1EA
330
167
100
AcDbEntity
  8
AM_4
100
AcDbLine
 10
-2.062500002241684
 20
-1.944485221803564
 30
0.0
 11
-2.368953308168459
 21
-1.936880151435481
 31
0.0
  0
LINE
  5
1EB
330
167
100
AcDbEntity
  8
AM_4
100
AcDbLine
 10
-2.368953308168459
 20
1.936880151435481
 30
0.0
 11
-2.368953308168459
 21
2.501685102610601
 31
0.0
  0
LINE
  5
1EC
330
167
100
AcDbEntity
  8
AM_4
100
AcDbLine
 10
-2.368953308168459
 20
1.936880151435481
 30
0.0
 11
-1.977208333333333
 21
1.946601796876636
 31
0.0
  0
LINE
  5
1ED
330
167
100
AcDbEntity
  8
AM_4
100
AcDbLine
 10
-1.977208333333333
 20
1.946601796876636
 30
0.0
 11
-1.977208333333333
 21
1.593048406283362
 31
0.0
  0
LINE
  5
1EE
330
167
100
AcDbEntity
  8
AM_4
100
AcDbLine
 10
-1.977208333333333
 20
1.593048406283362
 30
0.0
 11
-2.368953308168459
 21
1.583326760842206
 31
0.0
  0
LINE
  5
1EF
330
167
100
AcDbEntity
  8
AM_4
100
AcDbLine
 10
-2.368953308168459
 20
-2.501685102610601
 30
0.0
 11
-2.0625
 21
-2.512386687945135
 31
0.0
  0
LINE
  5
1F0
330
167
100
AcDbEntity
  8
AM_4
100
AcDbLine
 10
-1.85625
 20
2.519589096652808
 30
0.0
 11
-2.368953308168459
 21
2.501685102610601
 31
0.0
  0
LINE
  5
1F1
330
167
100
AcDbEntity
  8
AM_4
100
AcDbLine
 10
-2.368953308168459
 20
-2.501685102610601
 30
0.0
 11
-2.368953308168459
 21
-1.936880151435481
 31
0.0
  0
ENDBLK
  5
16A
330
167
100
AcDbEntity
  8
0
100
AcDbBlockEnd
  0
BLOCK
  5
1F4
330
1F2
100
AcDbEntity
  8
0
100
AcDbBlockBegin
  2
7_069564H_0_in_069564_2
 70
     2
 10
0.0
 20
0.0
 30
0.0
  3
7_069564H_0_in_069564_2
  1

  0
ATTDEF
  5
1F6
330
1F2
100
AcDbEntity
  8
AM_6
100
AcDbText
 10
7.26875
 20
3.8125
 30
0.0
 40
0.5
  1
P4B-IP -(Labyrinth Seal)-Housing -Inch
100
AcDbAttributeDefinition
  3

  2
NN
 70
     8
280
     0
  0
ATTDEF
  5
1F7
330
1F2
100
AcDbEntity
  8
AM_6
100
AcDbText
 10
7.26875
 20
3.3125
 30
0.0
 40
0.5
  1
Imperial $ Bolt Piliow Block Bearings
100
AcDbAttributeDefinition
  3

  2
NT
 70
     8
280
     0
  0
ATTDEF
  5
1F8
330
1F2
100
AcDbEntity
  8
AM_6
100
AcDbText
 10
7.26875
 20
2.8125
 30
0.0
 40
0.5
  1
069564H
100
AcDbAttributeDefinition
  3

  2
NB
 70
     8
280
     0
  0
ATTDEF
  5
1F9
330
1F2
100
AcDbEntity
  8
AM_6
100
AcDbText
 10
7.26875
 20
2.3125
 30
0.0
 40
0.5
  1
$PN.H
100
AcDbAttributeDefinition
  3

  2
NBSYN
 70
     8
280
     0
  0
ATTDEF
  5
1FA
330
1F2
100
AcDbEntity
  8
AM_6
100
AcDbText
 10
7.26875
 20
1.8125
 30
0.0
 40
0.5
  1
069564
100
AcDbAttributeDefinition
  3

  2
LINA
 70
     8
280
     0
  0
ATTDEF
  5
1FB
330
1F2
100
AcDbEntity
  8
AM_6
100
AcDbText
 10
7.26875
 20
1.3125
 30
0.0
 40
0.5
  1
3-1/4
100
AcDbAttributeDefinition
  3

  2
SS
 70
     8
280
     0
  0
ATTDEF
  5
1FC
330
1F2
100
AcDbEntity
  8
AM_6
100
AcDbText
 10
7.26875
 20
0.8125
 30
0.0
 40
0.5
  1
069564
100
AcDbAttributeDefinition
  3

  2
PN
 70
     8
280
     0
  0
ATTDEF
  5
1FD
330
1F2
100
AcDbEntity
  8
AM_6
100
AcDbText
 10
7.26875
 20
0.3125
 30
0.0
 40
0.5
  1
P4B-IP-304L
100
AcDbAttributeDefinition
  3

  2
DESCRIPTION
 70
     8
280
     0
  0
ATTDEF
  5
1FE
330
1F2
100
AcDbEntity
  8
AM_6
100
AcDbText
 10
7.26875
 20
-0.1875
 30
0.0
 40
0.5
  1
Non-Expansion Type
100
AcDbAttributeDefinition
  3

  2
EF
 70
     8
280
     0
  0
ATTDEF
  5
1FF
330
1F2
100
AcDbEntity
  8
AM_6
100
AcDbText
 10
7.26875
 20
-0.6875
 30
0.0
 40
0.5
  1
Labyrinth  Seal
100
AcDbAttributeDefinition
  3

  2
ST
 70
     8
280
     0
  0
ATTDEF
  5
200
330
1F2
100
AcDbEntity
  8
AM_6
100
AcDbText
 10
7.26875
 20
-1.1875
 30
0.0
 40
0.5
  1
4-11/64
100
AcDbAttributeDefinition
  3

  2
A
 70
     8
280
     0
  0
ATTDEF
  5
201
330
1F2
100
AcDbEntity
  8
AM_6
100
AcDbText
 10
7.26875
 20
-1.6875
 30
0.0
 40
0.5
  1
13
100
AcDbAttributeDefinition
  3

  2
B
 70
     8
280
     0
  0
ATTDEF
  5
202
330
1F2
100
AcDbEntity
  8
AM_6
100
AcDbText
 10
7.26875
 20
-2.1875
 30
0.0
 40
0.5
  1
4-1/8
100
AcDbAttributeDefinition
  3

  2
C
 70
     8
280
     0
  0
ATTDEF
  5
203
330
1F2
100
AcDbEntity
  8
AM_6
100
AcDbText
 10
7.26875
 20
-2.6875
 30
0.0
 40
0.5
  1
9-3/8
100
AcDbAttributeDefinition
  3

  2
DMIN
 70
     8
280
     0
  0
ATTDEF
  5
204
330
1F2
100
AcDbEntity
  8
AM_6
100
AcDbText
 10
7.26875
 20
-3.1875
 30
0.0
 40
0.5
  1
10-5/8
100
AcDbAttributeDefinition
  3

  2
DMAX
 70
     8
280
     0
  0
ATTDEF
  5
205
330
1F2
100
AcDbEntity
  8
AM_6
100
AcDbText
 10
7.26875
 20
-3.6875
 30
0.0
 40
0.5
  1
2
100
AcDbAttributeDefinition
  3

  2
E
 70
     8
280
     0
  0
ATTDEF
  5
206
330
1F2
100
AcDbEntity
  8
AM_6
100
AcDbText
 10
7.26875
 20
-4.1875
 30
0.0
 40
0.5
  1
3/4
100
AcDbAttributeDefinition
  3

  2
F
 70
     8
280
     0
  0
ATTDEF
  5
207
330
1F2
100
AcDbEntity
  8
AM_6
100
AcDbText
 10
7.26875
 20
-4.6875
 30
0.0
 40
0.5
  1
1-1/2
100
AcDbAttributeDefinition
  3

  2
G
 70
     8
280
     0
  0
ATTDEF
  5
208
330
1F2
100
AcDbEntity
  8
AM_6
100
AcDbText
 10
7.26875
 20
-5.1875
 30
0.0
 40
0.5
  1
2-1/4
100
AcDbAttributeDefinition
  3

  2
H
 70
     8
280
     0
  0
ATTDEF
  5
209
330
1F2
100
AcDbEntity
  8
AM_6
100
AcDbText
 10
7.26875
 20
-5.6875
 30
0.0
 40
0.5
  1
7-9/16
100
AcDbAttributeDefinition
  3

  2
J
 70
     8
280
     0
  0
ATTDEF
  5
20A
330
1F2
100
AcDbEntity
  8
AM_6
100
AcDbText
 10
7.26875
 20
-6.1875
 30
0.0
 40
0.5
  1
5
100
AcDbAttributeDefinition
  3

  2
L
 70
     8
280
     0
  0
ATTDEF
  5
20B
330
1F2
100
AcDbEntity
  8
AM_6
100
AcDbText
 10
7.26875
 20
-6.6875
 30
0.0
 40
0.5
  1
3-3/4
100
AcDbAttributeDefinition
  3

  2
M
 70
     8
280
     0
  0
ATTDEF
  5
20C
330
1F2
100
AcDbEntity
  8
AM_6
100
AcDbText
 10
7.26875
 20
-7.1875
 30
0.0
 40
0.5
  1
1-7/16
100
AcDbAttributeDefinition
  3

  2
R
 70
     8
280
     0
  0
ATTDEF
  5
20D
330
1F2
100
AcDbEntity
  8
AM_6
100
AcDbText
 10
7.26875
 20
-7.6875
 30
0.0
 40
0.5
  1
2-47/64
100
AcDbAttributeDefinition
  3

  2
S
 70
     8
280
     0
  0
ATTDEF
  5
20E
330
1F2
100
AcDbEntity
  8
AM_6
100
AcDbText
 10
7.26875
 20
-8.1875
 30
0.0
 40
0.5
  1
1/4
100
AcDbAttributeDefinition
  3

  2
X
 70
     8
280
     0
  0
ATTDEF
  5
20F
330
1F2
100
AcDbEntity
  8
AM_6
100
AcDbText
 10
7.26875
 20
-8.6875
 30
0.0
 40
0.5
  1
0.025
100
AcDbAttributeDefinition
  3

  2
Y
 70
     8
280
     0
  0
ATTDEF
  5
210
330
1F2
100
AcDbEntity
  8
AM_6
100
AcDbText
 10
7.26875
 20
-9.1875
 30
0.0
 40
0.5
  1
4-3/64
100
AcDbAttributeDefinition
  3

  2
Z
 70
     8
280
     0
  0
ATTDEF
  5
211
330
1F2
100
AcDbEntity
  8
AM_6
100
AcDbText
 10
7.26875
 20
-9.6875
 30
0.0
 40
0.5
  1
baldor
100
AcDbAttributeDefinition
  3

  2
COMPANY
 70
     8
280
     0
  0
LWPOLYLINE
  5
212
330
1F2
100
AcDbEntity
  8
AM_9
100
AcDbPolyline
 90
        3
 70
     0
 43
0.0
 10
-0.4927669566343489
 20
3.2585366014993
 10
-0.4968332089765672
 20
3.273315417941693
 10
-0.4999999999999999
 20
3.301721851928166
  0
LWPOLYLINE
  5
213
330
1F2
100
AcDbEntity
  8
AM_9
100
AcDbPolyline
 90
       20
 70
     0
 43
0.0
 10
0.4999999999999997
 20
3.30172185192817
 10
0.4930644898197749
 20
3.259586390661084
 10
0.4726506138295526
 20
3.217149484803045
 10
0.4388513065105924
 20
3.175442251295773
 10
0.3929131287353352
 20
3.136231941024912
 10
0.335508872748963
 20
3.100751491408201
 10
0.2686724433986615
 20
3.07062332988164
 10
0.1938414972679416
 20
3.047094837653093
 10
0.113463391552298
 20
3.031201058545832
 10
0.0571101149422767
 20
3.025222209559996
 10
-0.0000000000000001
 20
3.023204421893016
 10
-0.0835294654619666
 20
3.027553610358213
 10
-0.1646946462584885
 20
3.040261939956784
 10
-0.241128544191903
 20
3.060886331118562
 10
-0.3108101387218855
 20
3.088423565416248
 10
-0.3720162116993196
 20
3.122024194561051
 10
-0.4227774677658419
 20
3.1601463866749
 10
-0.461630284011175
 20
3.201548365983305
 10
-0.4874160258779154
 20
3.244575157108311
 10
-0.4927669566343489
 20
3.2585366014993
  0
ELLIPSE
  5
214
330
1F2
100
AcDbEntity
  8
AM_9
100
AcDbEllipse
 10
-0.0000000000000001
 20
3.388324392306617
 30
0.0
 11
-0.3999999999999997
 21
4.898587196589410E-17
 31
0.0
210
0.0
220
0.0
230
1.0
 40
0.5000000000000008
 41
0.0
 42
6.283185307179586
  0
LINE
  5
215
330
1F2
100
AcDbEntity
  8
AM_9
100
AcDbLine
 10
-0.4999888174572328
 20
3.303836784303469
 30
0.0
 11
-0.4999999116552961
 21
3.301533868214435
 31
0.0
  0
LWPOLYLINE
  5
216
330
1F2
100
AcDbEntity
  8
AM_9
100
AcDbPolyline
 90
       39
 70
     0
 43
0.0
 10
0.499999999579218
 20
3.301734825467009
 10
0.498352316251253
 20
3.327361271813771
 10
0.4933439652655728
 20
3.353053429591061
 10
0.4851185620757532
 20
3.377987522877963
 10
0.4737643265344598
 20
3.402103510852117
 10
0.4593016659932775
 20
3.425373413519246
 10
0.4416886354556518
 20
3.447772607968595
 10
0.4208561922963336
 20
3.469241436371442
 10
0.3967784081179517
 20
3.489650723443664
 10
0.3695545910648768
 20
3.508796145884152
 10
0.3394465657469639
 20
3.526439339971877
 10
0.3068324051026968
 20
3.542374365169453
 10
0.2721686454384991
 20
3.556449889575513
 10
0.23580194120572
 20
3.568621048999562
 10
0.198019612977879
 20
3.578881752933308
 10
0.1590778598289868
 20
3.587237449055335
 10
0.1192179809121172
 20
3.593694817296798
 10
0.0786765515312269
 20
3.598258553024195
 10
0.0376902571972077
 20
3.600931381878426
 10
-0.0035027905986997
 20
3.601715035421312
 10
-0.0446637788229758
 20
3.600611087647478
 10
-0.0855448123352624
 20
3.597622144082641
 10
-0.12590465820244
 20
3.592751691022134
 10
-0.1655151064336299
 20
3.586001034214969
 10
-0.2041551589668465
 20
3.577366721867652
 10
-0.2416111551189571
 20
3.566836945051154
 10
-0.2776742535742276
 20
3.554387349390872
 10
-0.3121332360605911
 20
3.539977578497788
 10
-0.3447597487716601
 20
3.523551922656174
 10
-0.3752833868517901
 20
3.505051227671532
 10
-0.4033361119418751
 20
3.484466289448898
 10
-0.4284220912016135
 20
3.461934695933452
 10
-0.450064590914544
 20
3.437733049024085
 10
-0.4661470873911595
 20
3.415085598548463
 10
-0.4790810827995142
 20
3.391723996613029
 10
-0.4897852726394332
 20
3.365136527845304
 10
-0.4966379878846738
 20
3.338297349749092
 10
-0.4997588945867709
 20
3.31154049963328
 10
-0.4999888174572328
 20
3.303836784303469
  0
LWPOLYLINE
  5
217
330
1F2
100
AcDbEntity
  8
AM_9
100
AcDbPolyline
 90
        3
 70
     0
 43
0.0
 10
0.4997922229055339
 20
3.308904746824242
 10
0.499998101650613
 20
3.302410538668068
 10
0.4999999999999997
 20
3.30172185192817
  0
LWPOLYLINE
  5
218
330
1F2
100
AcDbEntity
  8
AM_9
100
AcDbPolyline
 90
       18
 70
     0
 43
0.0
 10
-0.4790392774063884
 20
3.371016681324975
 10
-0.4510098661334178
 20
3.404349736833769
 10
-0.4086543950721967
 20
3.436289385319066
 10
-0.3549540421223671
 20
3.46368083955081
 10
-0.2907366714471854
 20
3.486240546349503
 10
-0.2182851830046737
 20
3.503576325127676
 10
-0.1394858397051543
 20
3.515490923640382
 10
-0.0566883511391324
 20
3.521960587431694
 10
0.0271351774515157
 20
3.522906248235622
 10
0.1101890370269603
 20
3.518448783765251
 10
0.189787138025029
 20
3.508600994161014
 10
0.264083234728215
 20
3.49346977773552
 10
0.3313047038183608
 20
3.472968171473823
 10
0.3892586787004759
 20
3.447423801924428
 10
0.4364590130010417
 20
3.416870090592118
 10
0.4713220579564816
 20
3.382006447445113
 10
0.492607157359171
 20
3.343563337507447
 10
0.4997922229055339
 20
3.308904746824242
  0
LWPOLYLINE
  5
219
330
1F2
100
AcDbEntity
  8
AM_9
100
AcDbPolyline
 90
        4
 70
     0
 43
0.0
 10
-0.4999999999999999
 20
3.301721851928166
 10
-0.4968729020862842
 20
3.32928425574528
 10
-0.4805927012368224
 20
3.368441651824786
 10
-0.4790392774063884
 20
3.371016681324975
  0
LINE
  5
21A
330
1F2
100
AcDbEntity
  8
AM_9
100
AcDbLine
 10
-1.4375
 20
-3.577272005313547
 30
0.0
 11
1.4375
 21
-3.577272005313547
 31
0.0
  0
LINE
  5
21B
330
1F2
100
AcDbEntity
  8
AM_9
100
AcDbLine
 10
-1.4375
 20
-2.544642857142858
 30
0.0
 11
1.4375
 21
-2.544642857142858
 31
0.0
  0
LINE
  5
21C
330
1F2
100
AcDbEntity
  8
AM_9
100
AcDbLine
 10
-1.85625
 20
-3.1496
 30
0.0
 11
1.85625
 21
-3.1496
 31
0.0
  0
LINE
  5
21D
330
1F2
100
AcDbEntity
  8
AM_9
100
AcDbLine
 10
1.85625
 20
3.1496
 30
0.0
 11
-1.85625
 21
3.1496
 31
0.0
  0
LINE
  5
21E
330
1F2
100
AcDbEntity
  8
AM_9
100
AcDbLine
 10
1.85625
 20
-1.382149526650719
 30
0.0
 11
1.85625
 21
-3.750000000000001
 31
0.0
  0
LINE
  5
21F
330
1F2
100
AcDbEntity
  8
AM_9
100
AcDbLine
 10
-1.85625
 20
-1.38214952665072
 30
0.0
 11
-1.85625
 21
-3.750000000000001
 31
0.0
  0
LINE
  5
220
330
1F2
100
AcDbEntity
  8
AM_9
100
AcDbLine
 10
1.4375
 20
-2.4
 30
0.0
 11
-1.4375
 21
-2.4
 31
0.0
  0
LINE
  5
221
330
1F2
100
AcDbEntity
  8
AM_9
100
AcDbLine
 10
1.0
 20
-2.4
 30
0.0
 11
1.0
 21
-3.75
 31
0.0
  0
LINE
  5
222
330
1F2
100
AcDbEntity
  8
AM_9
100
AcDbLine
 10
1.4375
 20
-3.75
 30
0.0
 11
1.4375
 21
-1.5
 31
0.0
  0
LINE
  5
223
330
1F2
100
AcDbEntity
  8
AM_9
100
AcDbLine
 10
0.5625000000000003
 20
-1.5
 30
0.0
 11
0.5625000000000003
 21
-2.4
 31
0.0
  0
LINE
  5
224
330
1F2
100
AcDbEntity
  8
AM_9
100
AcDbLine
 10
-0.9999999999999996
 20
-2.4
 30
0.0
 11
-1.000000000000002
 21
-3.75
 31
0.0
  0
LINE
  5
225
330
1F2
100
AcDbEntity
  8
AM_9
100
AcDbLine
 10
-1.4375
 20
-3.75
 30
0.0
 11
-1.4375
 21
-1.5
 31
0.0
  0
LINE
  5
226
330
1F2
100
AcDbEntity
  8
AM_9
100
AcDbLine
 10
-0.5624999999999998
 20
-1.5
 30
0.0
 11
-0.5624999999999998
 21
-2.4
 31
0.0
  0
ELLIPSE
  5
227
330
1F2
100
AcDbEntity
  8
AM_9
100
AcDbEllipse
 10
-0.0000000000000002
 20
3.301721851928173
 30
0.0
 11
0.4999999999999998
 21
0.0
 31
0.0
210
0.0
220
0.0
230
1.0
 40
0.5000000000000002
 41
0.0
 42
6.283185307179586
  0
LINE
  5
228
330
1F2
100
AcDbEntity
  8
AM_7
100
AcDbLine
 10
2.26875
 20
0.0
 30
0.0
 11
-2.94421875
 21
0.0
 31
0.0
  0
LINE
  5
229
330
1F2
100
AcDbEntity
  8
AM_4
100
AcDbLine
 10
-1.85625
 20
3.8125
 30
0.0
 11
1.85625
 21
3.8125
 31
0.0
  0
LINE
  5
22A
330
1F2
100
AcDbEntity
  8
AM_4
100
AcDbLine
 10
-1.85625
 20
3.699999999999999
 30
0.0
 11
1.85625
 21
3.699999999999999
 31
0.0
  0
LINE
  5
22B
330
1F2
100
AcDbEntity
  8
AM_4
100
AcDbLine
 10
1.237500000000001
 20
0.5840376700179524
 30
0.0
 11
-1.2375
 21
0.5840376700179524
 31
0.0
  0
LINE
  5
22C
330
1F2
100
AcDbEntity
  8
AM_4
100
AcDbLine
 10
-1.85625
 20
3.665097029032412
 30
0.0
 11
1.85625
 21
3.665097029032412
 31
0.0
  0
LINE
  5
22D
330
1F2
100
AcDbEntity
  8
AM_4
100
AcDbLine
 10
-1.2375
 20
-1.3875
 30
0.0
 11
1.2375
 21
-1.3875
 31
0.0
  0
LINE
  5
22E
330
1F2
100
AcDbEntity
  8
AM_4
100
AcDbLine
 10
-1.85625
 20
0.4876004307327764
 30
0.0
 11
-1.2375
 21
0.4876004307327764
 31
0.0
  0
LINE
  5
22F
330
1F2
100
AcDbEntity
  8
AM_4
100
AcDbLine
 10
1.237500000000001
 20
0.4876004307327764
 30
0.0
 11
1.85625
 21
0.4876004307327764
 31
0.0
  0
LWPOLYLINE
  5
230
330
1F2
100
AcDbEntity
  8
AM_4
100
AcDbPolyline
 90
       14
 70
     0
 43
0.0
 10
-2.054098373605968
 20
-1.5
 10
-2.034488331487744
 20
-1.499143807070643
 10
-2.015027533630908
 20
-1.496581744427747
 10
-1.995864088457901
 20
-1.49233331091504
 10
-1.977143841357692
 20
-1.486430839676829
 10
-1.95900926471431
 20
-1.478919252083246
 10
-1.941598373605968
 20
-1.469855715851498
 10
-1.925043675426982
 20
-1.459309209965023
 10
-1.909471161426496
 20
-1.44735999970177
 10
-1.894999347838994
 20
-1.434099025766973
 10
-1.881738373904197
 20
-1.419627212179471
 10
-1.869789163640944
 20
-1.404054698178985
 10
-1.859242657754469
 20
-1.387499999999999
 10
-1.85625
 20
-1.38214952665072
  0
LINE
  5
231
330
1F2
100
AcDbEntity
  8
AM_4
100
AcDbLine
 10
-1.2375
 20
0.5840376700179524
 30
0.0
 11
-1.2375
 21
-1.5
 31
0.0
  0
LINE
  5
232
330
1F2
100
AcDbEntity
  8
AM_4
100
AcDbLine
 10
-1.85625
 20
-1.303776418862918
 30
0.0
 11
-1.2375
 21
-1.303776418862918
 31
0.0
  0
LINE
  5
233
330
1F2
100
AcDbEntity
  8
AM_4
100
AcDbLine
 10
-1.85625
 20
-1.38214952665072
 30
0.0
 11
-1.85625
 21
3.8125
 31
0.0
  0
LWPOLYLINE
  5
234
330
1F2
100
AcDbEntity
  8
AM_4
100
AcDbPolyline
 90
       14
 70
     0
 43
0.0
 10
1.85625
 20
-1.38214952665072
 10
1.866341569373931
 20
-1.398985412305531
 10
1.877862081398727
 20
-1.414877694108259
 10
1.890723858021602
 20
-1.429705422198362
 10
1.904829013356303
 20
-1.443355748611848
 10
1.920070198653809
 20
-1.455724786122417
 10
1.936331419291125
 20
-1.466718398885985
 10
1.953488917560409
 20
-1.476252918871296
 10
1.97141211453985
 20
-1.484255782624162
 10
1.989964603878112
 20
-1.490666083519162
 10
2.009005189929032
 20
-1.495435035295839
 10
2.028388962335742
 20
-1.498526343351602
 10
2.047968398885986
 20
-1.499916480965563
 10
2.054098373605968
 20
-1.5
  0
LINE
  5
235
330
1F2
100
AcDbEntity
  8
AM_4
100
AcDbLine
 10
1.237500000000001
 20
-1.303776418862918
 30
0.0
 11
1.85625
 21
-1.303776418862918
 31
0.0
  0
LINE
  5
236
330
1F2
100
AcDbEntity
  8
AM_4
100
AcDbLine
 10
1.237500000000001
 20
0.5840376700179524
 30
0.0
 11
1.237500000000001
 21
-1.5
 31
0.0
  0
LINE
  5
237
330
1F2
100
AcDbEntity
  8
AM_4
100
AcDbLine
 10
1.85625
 20
3.8125
 30
0.0
 11
1.85625
 21
-1.382149526650719
 31
0.0
  0
LINE
  5
238
330
1F2
100
AcDbEntity
  8
AM_4
100
AcDbLine
 10
2.0625
 20
-1.499999999999999
 30
0.0
 11
2.0625
 21
-3.75
 31
0.0
  0
LINE
  5
239
330
1F2
100
AcDbEntity
  8
AM_4
100
AcDbLine
 10
1.65
 20
-1.725
 30
0.0
 11
1.65
 21
-3.750000000000001
 31
0.0
  0
LINE
  5
23A
330
1F2
100
AcDbEntity
  8
AM_4
100
AcDbLine
 10
-1.65
 20
-1.725
 30
0.0
 11
1.65
 21
-1.725
 31
0.0
  0
LWPOLYLINE
  5
23B
330
1F2
100
AcDbEntity
  8
AM_4
100
AcDbPolyline
 90
       19
 70
     0
 43
0.0
 10
1.65
 20
-1.725000011614306
 10
1.650856191917104
 20
-1.705389969451887
 10
1.65341825355545
 20
-1.685929171462799
 10
1.657666686078956
 20
-1.666765726070491
 10
1.663569156350844
 20
-1.648045478665602
 10
1.671080743008336
 20
-1.629910901634478
 10
1.680144278341348
 20
-1.612500010058284
 10
1.690690783373284
 20
-1.595945311334897
 10
1.702639992832698
 20
-1.580372796717603
 10
1.715900966020472
 20
-1.565900982445581
 10
1.730372778923454
 20
-1.552640007763762
 10
1.745945292307132
 20
-1.540690796696669
 10
1.762499989941716
 20
-1.530144289955654
 10
1.779910880582206
 20
-1.521080752825172
 10
1.798045456837846
 20
-1.513569164295497
 10
1.816765703633374
 20
-1.507666692090963
 10
1.835929148587081
 20
-1.503418257589056
 10
1.855389946311666
 20
-1.500856193941611
 10
1.874999988385693
 20
-1.5
  0
LINE
  5
23C
330
1F2
100
AcDbEntity
  8
AM_4
100
AcDbLine
 10
-1.65
 20
-1.725
 30
0.0
 11
-1.65
 21
-3.750000000000001
 31
0.0
  0
LWPOLYLINE
  5
23D
330
1F2
100
AcDbEntity
  8
AM_4
100
AcDbPolyline
 90
       19
 70
     0
 43
0.0
 10
-1.875
 20
-1.5
 10
-1.855389957881777
 20
-1.500856192929357
 10
-1.83592916002494
 20
-1.503418255572253
 10
-1.816765714851933
 20
-1.507666689084959
 10
-1.798045467751724
 20
-1.51356916032317
 10
-1.779910891108342
 20
-1.521080747916754
 10
-1.7625
 20
-1.530144284148501
 10
-1.745945301821014
 20
-1.540690790034976
 10
-1.730372787820528
 20
-1.552640000298229
 10
-1.715900974233026
 20
-1.565900974233027
 10
-1.70264000029823
 20
-1.580372787820528
 10
-1.690690790034977
 20
-1.595945301821014
 10
-1.680144284148501
 20
-1.6125
 10
-1.671080747916753
 20
-1.629910891108342
 10
-1.66356916032317
 20
-1.648045467751724
 10
-1.657666689084959
 20
-1.666765714851932
 10
-1.653418255572253
 20
-1.68592916002494
 10
-1.650856192929357
 20
-1.705389957881776
 10
-1.65
 20
-1.724999999999999
  0
LINE
  5
23E
330
1F2
100
AcDbEntity
  8
AM_4
100
AcDbLine
 10
-2.0625
 20
-1.5
 30
0.0
 11
2.0625
 21
-1.499999999999999
 31
0.0
  0
LINE
  5
23F
330
1F2
100
AcDbEntity
  8
AM_4
100
AcDbLine
 10
-2.0625
 20
-1.5
 30
0.0
 11
-2.0625
 21
-3.750000000000001
 31
0.0
  0
LINE
  5
240
330
1F2
100
AcDbEntity
  8
AM_4
100
AcDbLine
 10
2.0625
 20
-3.75
 30
0.0
 11
-2.0625
 21
-3.750000000000001
 31
0.0
  0
ENDBLK
  5
1F5
330
1F2
100
AcDbEntity
  8
0
100
AcDbBlockEnd
  0
ENDSEC
  0
SECTION
  2
ENTITIES
  0
INSERT
  5
6F
330
1F
100
AcDbEntity
  8
0
100
AcDbBlockReference
  2
1_069564_2
 10
0.0
 20
0.0
 30
0.0
  0
POINT
  5
242
330
1F
100
AcDbEntity
  8
ConnectionPoints
100
AcDbPoint
 10
-2.487208333333333
 20
-2.152777777777778
 30
0.0000000000000002
  0
POINT
  5
243
330
1F
100
AcDbEntity
  8
ConnectionPoints
100
AcDbPoint
 10
-2.487208333333333
 20
2.152777777777778
 30
0.0000000000000002
  0
POINT
  5
244
330
1F
100
AcDbEntity
  8
ConnectionPoints
100
AcDbPoint
 10
-2.417208333333333
 20
0.0
 30
0.0000000000000001
  0
POINT
  5
245
330
1F
100
AcDbEntity
  8
ConnectionPoints
100
AcDbPoint
 10
-2.734375
 20
0.0
 30
0.0000000000000002
  0
POINT
  5
246
330
1F
100
AcDbEntity
  8
ConnectionPoints
100
AcDbPoint
 10
-2.616208333333333
 20
0.0
 30
0.0000000000000002
  0
POINT
  5
247
330
1F
100
AcDbEntity
  8
ConnectionPoints
100
AcDbPoint
 10
-2.417208333333333
 20
2.152777777777778
 30
0.0000000000000001
  0
POINT
  5
248
330
1F
100
AcDbEntity
  8
ConnectionPoints
100
AcDbPoint
 10
-2.602375
 20
2.152777777777778
 30
0.0000000000000002
  0
POINT
  5
249
330
1F
100
AcDbEntity
  8
ConnectionPoints
100
AcDbPoint
 10
-2.417208333333333
 20
-2.152777777777778
 30
0.0000000000000001
  0
POINT
  5
24A
330
1F
100
AcDbEntity
  8
ConnectionPoints
100
AcDbPoint
 10
-2.602375
 20
-2.152777777777778
 30
0.0000000000000002
  0
POINT
  5
24B
330
1F
100
AcDbEntity
  8
ConnectionPoints
100
AcDbPoint
 10
-2.417208333333333
 20
0.0
 30
0.0000000000000001
  0
POINT
  5
24C
330
1F
100
AcDbEntity
  8
ConnectionPoints
100
AcDbPoint
 10
-0.0000000000000001
 20
3.388324392306616
 30
-1.95625
  0
POINT
  5
24D
330
1F
100
AcDbEntity
  8
ConnectionPoints
100
AcDbPoint
 10
-2.484375
 20
0.0
 30
0.0000000000000002
  0
POINT
  5
24E
330
1F
100
AcDbEntity
  8
ConnectionPoints
100
AcDbPoint
 10
-2.734375
 20
0.0
 30
0.0000000000000002
  0
ENDSEC
  0
SECTION
  2
OBJECTS
  0
DICTIONARY
  5
C
330
0
100
AcDbDictionary
281
     1
  3
ACAD_DETAILVIEWSTYLE
350
256
  3
ACAD_GROUP
350
D
  3
ACAD_LAYOUT
350
1A
  3
ACAD_MATERIAL
350
43
  3
ACAD_MLEADERSTYLE
350
6B
  3
ACAD_MLINESTYLE
350
17
  3
ACAD_PLOTSETTINGS
350
19
  3
ACAD_PLOTSTYLENAME
350
E
  3
ACAD_SCALELIST
350
47
  3
ACAD_SECTIONVIEWSTYLE
350
257
  3
ACAD_TABLESTYLE
350
69
  3
ACAD_VISUALSTYLE
350
2A
  3
ACDB_RECOMPOSE_DATA
350
253
  3
AcDbVariableDictionary
350
24F
  0
SUN
  5
6D
330
29
100
AcDbSun
 90
        1
290
     0
 63
     7
421
 16777215
 40
1.0
291
     1
 91
  2455826
 92
 54000000
292
     0
 70
     2
 71
   256
280
     1
  0
DICTIONARY
  5
256
102
{ACAD_REACTORS
330
C
102
}
330
C
100
AcDbDictionary
281
     1
  0
DICTIONARY
  5
D
102
{ACAD_REACTORS
330
C
102
}
330
C
100
AcDbDictionary
281
     1
  0
DICTIONARY
  5
1A
102
{ACAD_REACTORS
330
C
102
}
330
C
100
AcDbDictionary
281
     1
  3
Layout1
350
1E
  3
Layout2
350
26
  3
Model
350
22
  0
DICTIONARY
  5
43
102
{ACAD_REACTORS
330
C
102
}
330
C
100
AcDbDictionary
281
     1
  3
ByBlock
350
45
  3
ByLayer
350
44
  3
Global
350
46
  0
DICTIONARY
  5
6B
102
{ACAD_REACTORS
330
C
102
}
330
C
100
AcDbDictionary
281
     1
  3
Standard
350
6C
  0
DICTIONARY
  5
17
102
{ACAD_REACTORS
330
C
102
}
330
C
100
AcDbDictionary
281
     1
  3
Standard
350
18
  0
DICTIONARY
  5
19
102
{ACAD_REACTORS
330
C
102
}
330
C
100
AcDbDictionary
281
     1
  0
ACDBDICTIONARYWDFLT
  5
E
102
{ACAD_REACTORS
330
C
102
}
330
C
100
AcDbDictionary
281
     1
  3
Normal
350
F
100
AcDbDictionaryWithDefault
340
F
  0
DICTIONARY
  5
47
102
{ACAD_REACTORS
330
C
102
}
330
C
100
AcDbDictionary
281
     1
  3
A0
350
48
  3
A1
350
49
  3
A2
350
4A
  3
A3
350
4B
  3
A4
350
4C
  3
A5
350
4D
  3
A6
350
4E
  3
A7
350
4F
  3
A8
350
50
  3
A9
350
51
  3
B0
350
52
  3
B1
350
53
  3
B2
350
54
  3
B3
350
55
  3
B4
350
56
  3
B5
350
57
  3
B6
350
58
  3
B7
350
59
  3
B8
350
5A
  3
B9
350
5B
  3
C0
350
5C
  3
C1
350
5D
  3
C2
350
5E
  3
C3
350
5F
  3
C4
350
60
  3
C5
350
61
  3
C6
350
62
  3
C7
350
63
  3
C8
350
64
  3
C9
350
65
  3
D0
350
66
  3
D1
350
67
  3
D2
350
68
  0
DICTIONARY
  5
257
102
{ACAD_REACTORS
330
C
102
}
330
C
100
AcDbDictionary
281
     1
  0
DICTIONARY
  5
69
102
{ACAD_REACTORS
330
C
102
}
330
C
100
AcDbDictionary
281
     1
  3
Standard
350
6A
  0
DICTIONARY
  5
2A
102
{ACAD_REACTORS
330
C
102
}
330
C
100
AcDbDictionary
281
     1
  3
2dWireframe
350
2F
  3
Basic
350
32
  3
Brighten
350
36
  3
ColorChange
350
3A
  3
Conceptual
350
34
  3
Dim
350
35
  3
EdgeColorOff
350
3D
  3
Facepattern
350
39
  3
Flat
350
2B
  3
FlatWithEdges
350
2C
  3
Gouraud
350
2D
  3
GouraudWithEdges
350
2E
  3
Hidden
350
31
  3
JitterOff
350
3B
  3
Linepattern
350
38
  3
OverhangOff
350
3C
  3
Realistic
350
33
  3
Shaded
350
42
  3
Shaded with edges
350
41
  3
Shades of Gray
350
3E
  3
Sketchy
350
3F
  3
Thicken
350
37
  3
Wireframe
350
30
  3
X-Ray
350
40
  0
XRECORD
  5
253
102
{ACAD_REACTORS
330
C
102
}
330
C
100
AcDbXrecord
280
     1
 90
        1
330
6A
  0
DICTIONARY
  5
24F
102
{ACAD_REACTORS
330
C
102
}
330
C
100
AcDbDictionary
281
     1
  3
CANNOSCALE
350
250
  3
CMLEADERSTYLE
350
255
  3
CTABLESTYLE
350
254
  0
LAYOUT
  5
1E
102
{ACAD_REACTORS
330
1A
102
}
330
1A
100
AcDbPlotSettings
  1

  2
none_device
  4

  6

 40
0.0
 41
0.0
 42
0.0
 43
0.0
 44
0.0
 45
0.0
 46
0.0
 47
0.0
 48
0.0
 49
0.0
140
0.0
141
0.0
142
1.0
143
1.0
 70
   688
 72
     0
 73
     0
 74
     5
  7

 75
    16
 76
     0
 77
     2
 78
   300
147
1.0
148
0.0
149
0.0
100
AcDbLayout
  1
Layout1
 70
     1
 71
     1
 10
0.0
 20
0.0
 11
12.0
 21
9.0
 12
0.0
 22
0.0
 32
0.0
 14
1.000000000000000E+20
 24
1.000000000000000E+20
 34
1.000000000000000E+20
 15
-1.000000000000000E+20
 25
-1.000000000000000E+20
 35
-1.000000000000000E+20
146
0.0
 13
0.0
 23
0.0
 33
0.0
 16
1.0
 26
0.0
 36
0.0
 17
0.0
 27
1.0
 37
0.0
 76
     0
330
1B
  0
LAYOUT
  5
26
102
{ACAD_REACTORS
330
1A
102
}
330
1A
100
AcDbPlotSettings
  1

  2
none_device
  4

  6

 40
0.0
 41
0.0
 42
0.0
 43
0.0
 44
0.0
 45
0.0
 46
0.0
 47
0.0
 48
0.0
 49
0.0
140
0.0
141
0.0
142
1.0
143
1.0
 70
   688
 72
     0
 73
     0
 74
     5
  7

 75
    16
 76
     0
 77
     2
 78
   300
147
1.0
148
0.0
149
0.0
100
AcDbLayout
  1
Layout2
 70
     1
 71
     2
 10
0.0
 20
0.0
 11
0.0
 21
0.0
 12
0.0
 22
0.0
 32
0.0
 14
0.0
 24
0.0
 34
0.0
 15
0.0
 25
0.0
 35
0.0
146
0.0
 13
0.0
 23
0.0
 33
0.0
 16
1.0
 26
0.0
 36
0.0
 17
0.0
 27
1.0
 37
0.0
 76
     0
330
23
  0
LAYOUT
  5
22
102
{ACAD_REACTORS
330
1A
102
}
330
1A
100
AcDbPlotSettings
  1

  2
none_device
  4
Letter_(8.50_x_11.00_Inches)
  6

 40
6.35
 41
6.35
 42
6.35000508
 43
6.35000508
 44
215.9
 45
279.4
 46
0.0
 47
0.0
 48
0.0
 49
0.0
140
0.0
141
0.0
142
1.0
143
1.0
 70
  1712
 72
     0
 73
     0
 74
     0
  7

 75
     0
 76
     0
 77
     2
 78
   300
147
1.0
148
0.0
149
0.0
100
AcDbLayout
  1
Model
 70
     1
 71
     0
 10
0.0
 20
0.0
 11
12.0
 21
9.0
 12
0.0
 22
0.0
 32
0.0
 14
1.000000000000000E+20
 24
1.000000000000000E+20
 34
1.000000000000000E+20
 15
-1.000000000000000E+20
 25
-1.000000000000000E+20
 35
-1.000000000000000E+20
146
0.0
 13
0.0
 23
0.0
 33
0.0
 16
1.0
 26
0.0
 36
0.0
 17
0.0
 27
1.0
 37
0.0
 76
     0
330
1F
331
29
  0
MATERIAL
  5
45
102
{ACAD_REACTORS
330
43
102
}
330
43
100
AcDbMaterial
  1
ByBlock
 72
     1
 94
      127
  0
MATERIAL
  5
44
102
{ACAD_REACTORS
330
43
102
}
330
43
100
AcDbMaterial
  1
ByLayer
 72
     1
 94
      127
  0
MATERIAL
  5
46
102
{ACAD_REACTORS
330
43
102
}
330
43
100
AcDbMaterial
  1
Global
 72
     1
 94
      127
  0
MLEADERSTYLE
  5
6C
102
{ACAD_REACTORS
330
6B
102
}
330
6B
100
AcDbMLeaderStyle
179
     2
170
     2
171
     1
172
     0
 90
        2
 40
0.0
 41
0.0
173
     1
 91
-1056964608
340
14
 92
       -2
290
     1
 42
0.09
291
     1
 43
0.36
  3
Standard
341
0
 44
0.18
300

342
11
174
     1
178
     6
175
     1
176
     0
 93
-1056964608
 45
0.18
292
     0
297
     0
 46
0.18
343
0
 94
-1056964608
 47
1.0
 49
1.0
140
1.0
293
     1
141
0.0
294
     1
177
     0
142
1.0
295
     0
296
     0
143
0.125
271
     0
272
     9
273
     9
298
     0
  0
MLINESTYLE
  5
18
102
{ACAD_REACTORS
330
17
102
}
330
17
100
AcDbMlineStyle
  2
Standard
 70
     0
  3

 62
   256
 51
90.0
 52
90.0
 71
     2
 49
0.5
 62
   256
  6
BYLAYER
 49
-0.5
 62
   256
  6
BYLAYER
  0
ACDBPLACEHOLDER
  5
F
102
{ACAD_REACTORS
330
E
102
}
330
E
  0
SCALE
  5
48
102
{ACAD_REACTORS
330
47
102
}
330
47
100
AcDbScale
 70
     0
300
1:1
140
1.0
141
1.0
290
     1
  0
SCALE
  5
49
102
{ACAD_REACTORS
330
47
102
}
330
47
100
AcDbScale
 70
     0
300
1:2
140
1.0
141
2.0
290
     0
  0
SCALE
  5
4A
102
{ACAD_REACTORS
330
47
102
}
330
47
100
AcDbScale
 70
     0
300
1:4
140
1.0
141
4.0
290
     0
  0
SCALE
  5
4B
102
{ACAD_REACTORS
330
47
102
}
330
47
100
AcDbScale
 70
     0
300
1:5
140
1.0
141
5.0
290
     0
  0
SCALE
  5
4C
102
{ACAD_REACTORS
330
47
102
}
330
47
100
AcDbScale
 70
     0
300
1:8
140
1.0
141
8.0
290
     0
  0
SCALE
  5
4D
102
{ACAD_REACTORS
330
47
102
}
330
47
100
AcDbScale
 70
     0
300
1:10
140
1.0
141
10.0
290
     0
  0
SCALE
  5
4E
102
{ACAD_REACTORS
330
47
102
}
330
47
100
AcDbScale
 70
     0
300
1:16
140
1.0
141
16.0
290
     0
  0
SCALE
  5
4F
102
{ACAD_REACTORS
330
47
102
}
330
47
100
AcDbScale
 70
     0
300
1:20
140
1.0
141
20.0
290
     0
  0
SCALE
  5
50
102
{ACAD_REACTORS
330
47
102
}
330
47
100
AcDbScale
 70
     0
300
1:30
140
1.0
141
30.0
290
     0
  0
SCALE
  5
51
102
{ACAD_REACTORS
330
47
102
}
330
47
100
AcDbScale
 70
     0
300
1:40
140
1.0
141
40.0
290
     0
  0
SCALE
  5
52
102
{ACAD_REACTORS
330
47
102
}
330
47
100
AcDbScale
 70
     0
300
1:50
140
1.0
141
50.0
290
     0
  0
SCALE
  5
53
102
{ACAD_REACTORS
330
47
102
}
330
47
100
AcDbScale
 70
     0
300
1:100
140
1.0
141
100.0
290
     0
  0
SCALE
  5
54
102
{ACAD_REACTORS
330
47
102
}
330
47
100
AcDbScale
 70
     0
300
2:1
140
2.0
141
1.0
290
     0
  0
SCALE
  5
55
102
{ACAD_REACTORS
330
47
102
}
330
47
100
AcDbScale
 70
     0
300
4:1
140
4.0
141
1.0
290
     0
  0
SCALE
  5
56
102
{ACAD_REACTORS
330
47
102
}
330
47
100
AcDbScale
 70
     0
300
8:1
140
8.0
141
1.0
290
     0
  0
SCALE
  5
57
102
{ACAD_REACTORS
330
47
102
}
330
47
100
AcDbScale
 70
     0
300
10:1
140
10.0
141
1.0
290
     0
  0
SCALE
  5
58
102
{ACAD_REACTORS
330
47
102
}
330
47
100
AcDbScale
 70
     0
300
100:1
140
100.0
141
1.0
290
     0
  0
SCALE
  5
59
102
{ACAD_REACTORS
330
47
102
}
330
47
100
AcDbScale
 70
     0
300
1/128" = 1'-0"
140
0.0078125
141
12.0
290
     0
  0
SCALE
  5
5A
102
{ACAD_REACTORS
330
47
102
}
330
47
100
AcDbScale
 70
     0
300
1/64" = 1'-0"
140
0.015625
141
12.0
290
     0
  0
SCALE
  5
5B
102
{ACAD_REACTORS
330
47
102
}
330
47
100
AcDbScale
 70
     0
300
1/32" = 1'-0"
140
0.03125
141
12.0
290
     0
  0
SCALE
  5
5C
102
{ACAD_REACTORS
330
47
102
}
330
47
100
AcDbScale
 70
     0
300
1/16" = 1'-0"
140
0.0625
141
12.0
290
     0
  0
SCALE
  5
5D
102
{ACAD_REACTORS
330
47
102
}
330
47
100
AcDbScale
 70
     0
300
3/32" = 1'-0"
140
0.09375
141
12.0
290
     0
  0
SCALE
  5
5E
102
{ACAD_REACTORS
330
47
102
}
330
47
100
AcDbScale
 70
     0
300
1/8" = 1'-0"
140
0.125
141
12.0
290
     0
  0
SCALE
  5
5F
102
{ACAD_REACTORS
330
47
102
}
330
47
100
AcDbScale
 70
     0
300
3/16" = 1'-0"
140
0.1875
141
12.0
290
     0
  0
SCALE
  5
60
102
{ACAD_REACTORS
330
47
102
}
330
47
100
AcDbScale
 70
     0
300
1/4" = 1'-0"
140
0.25
141
12.0
290
     0
  0
SCALE
  5
61
102
{ACAD_REACTORS
330
47
102
}
330
47
100
AcDbScale
 70
     0
300
3/8" = 1'-0"
140
0.375
141
12.0
290
     0
  0
SCALE
  5
62
102
{ACAD_REACTORS
330
47
102
}
330
47
100
AcDbScale
 70
     0
300
1/2" = 1'-0"
140
0.5
141
12.0
290
     0
  0
SCALE
  5
63
102
{ACAD_REACTORS
330
47
102
}
330
47
100
AcDbScale
 70
     0
300
3/4" = 1'-0"
140
0.75
141
12.0
290
     0
  0
SCALE
  5
64
102
{ACAD_REACTORS
330
47
102
}
330
47
100
AcDbScale
 70
     0
300
1" = 1'-0"
140
1.0
141
12.0
290
     0
  0
SCALE
  5
65
102
{ACAD_REACTORS
330
47
102
}
330
47
100
AcDbScale
 70
     0
300
1-1/2" = 1'-0"
140
1.5
141
12.0
290
     0
  0
SCALE
  5
66
102
{ACAD_REACTORS
330
47
102
}
330
47
100
AcDbScale
 70
     0
300
3" = 1'-0"
140
3.0
141
12.0
290
     0
  0
SCALE
  5
67
102
{ACAD_REACTORS
330
47
102
}
330
47
100
AcDbScale
 70
     0
300
6" = 1'-0"
140
6.0
141
12.0
290
     0
  0
SCALE
  5
68
102
{ACAD_REACTORS
330
47
102
}
330
47
100
AcDbScale
 70
     0
300
1'-0" = 1'-0"
140
12.0
141
12.0
290
     0
  0
TABLESTYLE
  5
6A
102
{ACAD_REACTORS
330
69
102
}
102
{ACAD_XDICTIONARY
360
251
102
}
330
69
100
AcDbTableStyle
  3
Standard
 70
     0
 71
     0
 40
0.06
 41
0.06
280
     0
281
     0
  7
Standard
140
0.18
170
     2
 62
     0
 63
   257
283
     0
 90
        4
 91
        0
  1

274
    -2
284
     1
 64
     0
275
    -2
285
     1
 65
     0
276
    -2
286
     1
 66
     0
277
    -2
287
     1
 67
     0
278
    -2
288
     1
 68
     0
279
    -2
289
     1
 69
     0
  7
Standard
140
0.25
170
     5
 62
     0
 63
   257
283
     0
 90
        4
 91
        0
  1

274
    -2
284
     1
 64
     0
275
    -2
285
     1
 65
     0
276
    -2
286
     1
 66
     0
277
    -2
287
     1
 67
     0
278
    -2
288
     1
 68
     0
279
    -2
289
     1
 69
     0
  7
Standard
140
0.18
170
     5
 62
     0
 63
   257
283
     0
 90
        4
 91
        0
  1

274
    -2
284
     1
 64
     0
275
    -2
285
     1
 65
     0
276
    -2
286
     1
 66
     0
277
    -2
287
     1
 67
     0
278
    -2
288
     1
 68
     0
279
    -2
289
     1
 69
     0
  0
VISUALSTYLE
  5
2F
102
{ACAD_REACTORS
330
2A
102
}
330
2A
100
AcDbVisualStyle
  2
2dWireframe
 70
     4
177
     3
291
     0
 70
    58
 90
        0
176
     1
 90
        2
176
     1
 90
        0
176
     1
 90
        0
176
     1
 40
0.6
176
     1
 40
30.0
176
     1
 62
     7
420
 16777215
176
     1
 90
        1
176
     1
 90
        4
176
     1
 62
     7
176
     1
 62
   257
176
     1
 90
        1
176
     1
 90
        1
176
     1
 40
1.0
176
     1
 90
        0
176
     1
 62
   257
176
     1
 40
1.0
176
     1
 90
        1
176
     1
 90
        6
176
     1
 90
        2
176
     1
 62
     7
176
     1
 90
        5
176
     1
 90
        0
176
     1
 90
        0
176
     1
290
     0
176
     1
 90
        1
176
     1
 40
0.0
176
     1
 90
        0
176
     1
290
     1
176
     1
290
     1
176
     1
290
     0
176
     1
290
     0
176
     1
290
     0
176
     1
290
     0
176
     1
290
     0
176
     1
290
     0
176
     1
290
     0
176
     1
 90
       50
176
     1
 40
0.0
176
     1
 40
1.0
176
     1
 90
        0
176
     1
 62
    18
420
        0
176
     1
 90
       50
176
     1
 90
        3
176
     1
 62
     5
420
      255
176
     1
290
     0
176
     1
 90
       50
176
     1
 90
       50
176
     1
 90
       50
176
     1
290
     0
176
     1
 90
       50
176
     1
 62
   256
176
     0
 40
1.0
176
     0
 90
        2
176
     1
  1
strokes_ogs.tif
176
     1
290
     0
176
     1
 40
1.0
176
     1
 40
1.0
176
     1
  0
VISUALSTYLE
  5
32
102
{ACAD_REACTORS
330
2A
102
}
330
2A
100
AcDbVisualStyle
  2
Basic
 70
     7
177
     3
291
     1
 70
    58
 90
        1
176
     1
 90
        0
176
     1
 90
        1
176
     1
 90
        0
176
     1
 40
0.6
176
     1
 40
30.0
176
     1
 62
     7
420
 16777215
176
     1
 90
        0
176
     1
 90
        4
176
     1
 62
     7
176
     1
 62
   257
176
     1
 90
        1
176
     1
 90
        1
176
     1
 40
1.0
176
     1
 90
        8
176
     1
 62
     7
176
     1
 40
1.0
176
     1
 90
        1
176
     1
 90
        6
176
     1
 90
        2
176
     1
 62
     7
176
     1
 90
        5
176
     1
 90
        0
176
     1
 90
        0
176
     1
290
     0
176
     1
 90
        1
176
     1
 40
0.0
176
     1
 90
        0
176
     1
290
     0
176
     1
290
     1
176
     1
290
     1
176
     1
290
     0
176
     1
290
     0
176
     1
290
     0
176
     1
290
     0
176
     1
290
     0
176
     1
290
     0
176
     1
 90
       50
176
     1
 40
0.0
176
     1
 40
1.0
176
     1
 90
        0
176
     1
 62
    18
420
        0
176
     1
 90
       50
176
     1
 90
        3
176
     1
 62
     5
420
      255
176
     1
290
     0
176
     1
 90
       50
176
     1
 90
       50
176
     1
 90
       50
176
     1
290
     0
176
     1
 90
       50
176
     1
 62
   256
176
     0
 40
1.0
176
     0
 90
        2
176
     1
  1
strokes_ogs.tif
176
     1
290
     0
176
     1
 40
1.0
176
     1
 40
1.0
176
     1
  0
VISUALSTYLE
  5
36
102
{ACAD_REACTORS
330
2A
102
}
330
2A
100
AcDbVisualStyle
  2
Brighten
 70
    12
177
     3
291
     1
 70
    58
 90
        2
176
     1
 90
        2
176
     1
 90
        0
176
     1
 90
        0
176
     1
 40
0.6
176
     1
 40
30.0
176
     1
 62
     7
420
 16777215
176
     1
 90
        1
176
     1
 90
        4
176
     1
 62
     7
176
     1
 62
   257
176
     1
 90
        1
176
     1
 90
        1
176
     1
 40
1.0
176
     1
 90
        8
176
     1
 62
     7
176
     1
 40
1.0
176
     1
 90
        1
176
     1
 90
        6
176
     1
 90
        2
176
     1
 62
     7
176
     1
 90
        5
176
     1
 90
        0
176
     1
 90
        0
176
     1
290
     0
176
     1
 90
        1
176
     1
 40
50.0
176
     1
 90
        0
176
     1
290
     0
176
     1
290
     1
176
     1
290
     1
176
     1
290
     0
176
     1
290
     0
176
     1
290
     0
176
     1
290
     0
176
     1
290
     0
176
     1
290
     0
176
     1
 90
       50
176
     1
 40
0.0
176
     1
 40
1.0
176
     1
 90
        0
176
     1
 62
    18
420
        0
176
     1
 90
       50
176
     1
 90
        3
176
     1
 62
     5
420
      255
176
     1
290
     0
176
     1
 90
       50
176
     1
 90
       50
176
     1
 90
       50
176
     1
290
     0
176
     1
 90
       50
176
     1
 62
   256
176
     0
 40
1.0
176
     0
 90
        2
176
     1
  1
strokes_ogs.tif
176
     1
290
     0
176
     1
 40
1.0
176
     1
 40
1.0
176
     1
  0
VISUALSTYLE
  5
3A
102
{ACAD_REACTORS
330
2A
102
}
330
2A
100
AcDbVisualStyle
  2
ColorChange
 70
    16
177
     3
291
     1
 70
    58
 90
        2
176
     1
 90
        2
176
     1
 90
        3
176
     1
 90
        0
176
     1
 40
0.6
176
     1
 40
30.0
176
     1
 62
     8
420
  8421504
176
     1
 90
        1
176
     1
 90
        4
176
     1
 62
     7
176
     1
 62
   257
176
     1
 90
        1
176
     1
 90
        1
176
     1
 40
1.0
176
     1
 90
        8
176
     1
 62
     8
420
  8421504
176
     1
 40
1.0
176
     1
 90
        1
176
     1
 90
        6
176
     1
 90
        2
176
     1
 62
     7
176
     1
 90
        5
176
     1
 90
        0
176
     1
 90
        0
176
     1
290
     0
176
     1
 90
        1
176
     1
 40
0.0
176
     1
 90
        0
176
     1
290
     0
176
     1
290
     1
176
     1
290
     1
176
     1
290
     0
176
     1
290
     0
176
     1
290
     0
176
     1
290
     0
176
     1
290
     0
176
     1
290
     0
176
     1
 90
       50
176
     1
 40
0.0
176
     1
 40
1.0
176
     1
 90
        0
176
     1
 62
    18
420
        0
176
     1
 90
       50
176
     1
 90
        3
176
     1
 62
     5
420
      255
176
     1
290
     0
176
     1
 90
       50
176
     1
 90
       50
176
     1
 90
       50
176
     1
290
     0
176
     1
 90
       50
176
     1
 62
   256
176
     0
 40
1.0
176
     0
 90
        2
176
     1
  1
strokes_ogs.tif
176
     1
290
     0
176
     1
 40
1.0
176
     1
 40
1.0
176
     1
  0
VISUALSTYLE
  5
34
102
{ACAD_REACTORS
330
2A
102
}
330
2A
100
AcDbVisualStyle
  2
Conceptual
 70
     9
177
     3
291
     0
 70
    58
 90
        3
176
     1
 90
        2
176
     1
 90
        0
176
     1
 90
        0
176
     1
 40
0.6
176
     1
 40
30.0
176
     1
 62
     7
420
 16777215
176
     1
 90
        2
176
     1
 90
        2
176
     1
 62
     7
176
     1
 62
   257
176
     1
 90
        1
176
     1
 90
        1
176
     1
 40
179.0
176
     1
 90
        8
176
     1
 62
     7
176
     1
 40
1.0
176
     1
 90
        1
176
     1
 90
        6
176
     1
 90
        2
176
     1
 62
     7
176
     1
 90
        3
176
     1
 90
        0
176
     1
 90
        0
176
     1
290
     0
176
     1
 90
        1
176
     1
 40
0.0
176
     1
 90
        0
176
     1
290
     0
176
     1
290
     1
176
     1
290
     1
176
     1
290
     0
176
     1
290
     0
176
     1
290
     0
176
     1
290
     0
176
     1
290
     0
176
     1
290
     0
176
     1
 90
       50
176
     1
 40
0.0
176
     1
 40
1.0
176
     1
 90
        0
176
     1
 62
    18
420
        0
176
     1
 90
       50
176
     1
 90
        3
176
     1
 62
     5
420
      255
176
     1
290
     0
176
     1
 90
       50
176
     1
 90
       50
176
     1
 90
       50
176
     1
290
     0
176
     1
 90
       50
176
     1
 62
   256
176
     0
 40
1.0
176
     0
 90
        2
176
     1
  1
strokes_ogs.tif
176
     1
290
     0
176
     1
 40
1.0
176
     1
 40
1.0
176
     1
  0
VISUALSTYLE
  5
35
102
{ACAD_REACTORS
330
2A
102
}
330
2A
100
AcDbVisualStyle
  2
Dim
 70
    11
177
     3
291
     1
 70
    58
 90
        2
176
     1
 90
        2
176
     1
 90
        0
176
     1
 90
        0
176
     1
 40
0.6
176
     1
 40
30.0
176
     1
 62
     7
420
 16777215
176
     1
 90
        1
176
     1
 90
        4
176
     1
 62
     7
176
     1
 62
   257
176
     1
 90
        1
176
     1
 90
        1
176
     1
 40
1.0
176
     1
 90
        8
176
     1
 62
     7
176
     1
 40
1.0
176
     1
 90
        1
176
     1
 90
        6
176
     1
 90
        2
176
     1
 62
     7
176
     1
 90
        5
176
     1
 90
        0
176
     1
 90
        0
176
     1
290
     0
176
     1
 90
        1
176
     1
 40
-50.0
176
     1
 90
        0
176
     1
290
     0
176
     1
290
     1
176
     1
290
     1
176
     1
290
     0
176
     1
290
     0
176
     1
290
     0
176
     1
290
     0
176
     1
290
     0
176
     1
290
     0
176
     1
 90
       50
176
     1
 40
0.0
176
     1
 40
1.0
176
     1
 90
        0
176
     1
 62
    18
420
        0
176
     1
 90
       50
176
     1
 90
        3
176
     1
 62
     5
420
      255
176
     1
290
     0
176
     1
 90
       50
176
     1
 90
       50
176
     1
 90
       50
176
     1
290
     0
176
     1
 90
       50
176
     1
 62
   256
176
     0
 40
1.0
176
     0
 90
        2
176
     1
  1
strokes_ogs.tif
176
     1
290
     0
176
     1
 40
1.0
176
     1
 40
1.0
176
     1
  0
VISUALSTYLE
  5
3D
102
{ACAD_REACTORS
330
2A
102
}
330
2A
100
AcDbVisualStyle
  2
EdgeColorOff
 70
    22
177
     3
291
     1
 70
    58
 90
        2
176
     0
 90
        2
176
     0
 90
        0
176
     0
 90
        0
176
     0
 40
0.6
176
     0
 40
30.0
176
     0
 62
     7
420
 16777215
176
     0
 90
        1
176
     0
 90
        4
176
     0
 62
     7
176
     0
 62
   257
176
     0
 90
        1
176
     0
 90
        1
176
     0
 40
1.0
176
     0
 90
        8
176
     2
 62
     7
176
     0
 40
1.0
176
     0
 90
        1
176
     0
 90
        6
176
     0
 90
        2
176
     0
 62
     7
176
     0
 90
        5
176
     0
 90
        0
176
     0
 90
        0
176
     0
290
     0
176
     0
 90
        1
176
     0
 40
0.0
176
     0
 90
        0
176
     0
290
     0
176
     0
290
     1
176
     0
290
     1
176
     0
290
     0
176
     0
290
     0
176
     0
290
     0
176
     0
290
     0
176
     0
290
     0
176
     0
290
     0
176
     0
 90
       50
176
     0
 40
0.0
176
     0
 40
1.0
176
     0
 90
        0
176
     0
 62
    18
420
        0
176
     0
 90
       50
176
     0
 90
        3
176
     0
 62
     5
420
      255
176
     0
290
     0
176
     0
 90
       50
176
     0
 90
       50
176
     0
 90
       50
176
     0
290
     0
176
     0
 90
       50
176
     0
 62
   256
176
     0
 40
1.0
176
     0
 90
        2
176
     0
  1
strokes_ogs.tif
176
     0
290
     0
176
     0
 40
1.0
176
     0
 40
1.0
176
     0
  0
VISUALSTYLE
  5
39
102
{ACAD_REACTORS
330
2A
102
}
330
2A
100
AcDbVisualStyle
  2
Facepattern
 70
    15
177
     3
291
     1
 70
    58
 90
        2
176
     1
 90
        2
176
     1
 90
        0
176
     1
 90
        0
176
     1
 40
0.6
176
     1
 40
30.0
176
     1
 62
     7
420
 16777215
176
     1
 90
        1
176
     1
 90
        4
176
     1
 62
     7
176
     1
 62
   257
176
     1
 90
        1
176
     1
 90
        1
176
     1
 40
1.0
176
     1
 90
        8
176
     1
 62
     7
176
     1
 40
1.0
176
     1
 90
        1
176
     1
 90
        6
176
     1
 90
        2
176
     1
 62
     7
176
     1
 90
        5
176
     1
 90
        0
176
     1
 90
        0
176
     1
290
     0
176
     1
 90
        1
176
     1
 40
0.0
176
     1
 90
        0
176
     1
290
     0
176
     1
290
     1
176
     1
290
     1
176
     1
290
     0
176
     1
290
     0
176
     1
290
     0
176
     1
290
     0
176
     1
290
     0
176
     1
290
     0
176
     1
 90
       50
176
     1
 40
0.0
176
     1
 40
1.0
176
     1
 90
        0
176
     1
 62
    18
420
        0
176
     1
 90
       50
176
     1
 90
        3
176
     1
 62
     5
420
      255
176
     1
290
     0
176
     1
 90
       50
176
     1
 90
       50
176
     1
 90
       50
176
     1
290
     0
176
     1
 90
       50
176
     1
 62
   256
176
     0
 40
1.0
176
     0
 90
        2
176
     1
  1
strokes_ogs.tif
176
     1
290
     0
176
     1
 40
1.0
176
     1
 40
1.0
176
     1
  0
VISUALSTYLE
  5
2B
102
{ACAD_REACTORS
330
2A
102
}
330
2A
100
AcDbVisualStyle
  2
Flat
 70
     0
177
     3
291
     1
 70
    58
 90
        2
176
     1
 90
        1
176
     1
 90
        1
176
     1
 90
        2
176
     1
 40
0.6
176
     1
 40
30.0
176
     1
 62
     7
420
 16777215
176
     1
 90
        0
176
     1
 90
        0
176
     1
 62
     7
176
     1
 62
   257
176
     1
 90
        1
176
     1
 90
        1
176
     1
 40
1.0
176
     1
 90
        8
176
     1
 62
     7
176
     1
 40
1.0
176
     1
 90
        1
176
     1
 90
        6
176
     1
 90
        2
176
     1
 62
     7
176
     1
 90
        5
176
     1
 90
        0
176
     1
 90
        0
176
     1
290
     0
176
     1
 90
       13
176
     1
 40
0.0
176
     1
 90
        0
176
     1
290
     0
176
     1
290
     1
176
     1
290
     1
176
     1
290
     0
176
     1
290
     0
176
     1
290
     0
176
     1
290
     0
176
     1
290
     0
176
     1
290
     0
176
     1
 90
       50
176
     1
 40
0.0
176
     1
 40
1.0
176
     1
 90
        0
176
     1
 62
    18
420
        0
176
     1
 90
       50
176
     1
 90
        3
176
     1
 62
     5
420
      255
176
     1
290
     0
176
     1
 90
       50
176
     1
 90
       50
176
     1
 90
       50
176
     1
290
     0
176
     1
 90
       50
176
     1
 62
   256
176
     0
 40
1.0
176
     0
 90
        2
176
     1
  1
strokes_ogs.tif
176
     1
290
     0
176
     1
 40
1.0
176
     1
 40
1.0
176
     1
  0
VISUALSTYLE
  5
2C
102
{ACAD_REACTORS
330
2A
102
}
330
2A
100
AcDbVisualStyle
  2
FlatWithEdges
 70
     1
177
     3
291
     1
 70
    58
 90
        2
176
     1
 90
        1
176
     1
 90
        1
176
     1
 90
        2
176
     1
 40
0.6
176
     1
 40
30.0
176
     1
 62
     7
420
 16777215
176
     1
 90
        1
176
     1
 90
        0
176
     1
 62
     7
176
     1
 62
   257
176
     1
 90
        1
176
     1
 90
        1
176
     1
 40
1.0
176
     1
 90
        0
176
     1
 62
   257
176
     1
 40
1.0
176
     1
 90
        1
176
     1
 90
        6
176
     1
 90
        2
176
     1
 62
     7
176
     1
 90
        5
176
     1
 90
        0
176
     1
 90
        0
176
     1
290
     0
176
     1
 90
       13
176
     1
 40
0.0
176
     1
 90
        0
176
     1
290
     0
176
     1
290
     1
176
     1
290
     1
176
     1
290
     0
176
     1
290
     0
176
     1
290
     0
176
     1
290
     0
176
     1
290
     0
176
     1
290
     0
176
     1
 90
       50
176
     1
 40
0.0
176
     1
 40
1.0
176
     1
 90
        0
176
     1
 62
    18
420
        0
176
     1
 90
       50
176
     1
 90
        3
176
     1
 62
     5
420
      255
176
     1
290
     0
176
     1
 90
       50
176
     1
 90
       50
176
     1
 90
       50
176
     1
290
     0
176
     1
 90
       50
176
     1
 62
   256
176
     0
 40
1.0
176
     0
 90
        2
176
     1
  1
strokes_ogs.tif
176
     1
290
     0
176
     1
 40
1.0
176
     1
 40
1.0
176
     1
  0
VISUALSTYLE
  5
2D
102
{ACAD_REACTORS
330
2A
102
}
330
2A
100
AcDbVisualStyle
  2
Gouraud
 70
     2
177
     3
291
     1
 70
    58
 90
        2
176
     1
 90
        2
176
     1
 90
        1
176
     1
 90
        2
176
     1
 40
0.6
176
     1
 40
30.0
176
     1
 62
     7
420
 16777215
176
     1
 90
        0
176
     1
 90
        0
176
     1
 62
     7
176
     1
 62
   257
176
     1
 90
        1
176
     1
 90
        1
176
     1
 40
1.0
176
     1
 90
        0
176
     1
 62
     7
176
     1
 40
1.0
176
     1
 90
        1
176
     1
 90
        6
176
     1
 90
        2
176
     1
 62
     7
176
     1
 90
        5
176
     1
 90
        0
176
     1
 90
        0
176
     1
290
     0
176
     1
 90
       13
176
     1
 40
0.0
176
     1
 90
        0
176
     1
290
     0
176
     1
290
     1
176
     1
290
     1
176
     1
290
     0
176
     1
290
     0
176
     1
290
     0
176
     1
290
     0
176
     1
290
     0
176
     1
290
     0
176
     1
 90
       50
176
     1
 40
0.0
176
     1
 40
1.0
176
     1
 90
        0
176
     1
 62
    18
420
        0
176
     1
 90
       50
176
     1
 90
        3
176
     1
 62
     5
420
      255
176
     1
290
     0
176
     1
 90
       50
176
     1
 90
       50
176
     1
 90
       50
176
     1
290
     0
176
     1
 90
       50
176
     1
 62
   256
176
     0
 40
1.0
176
     0
 90
        2
176
     1
  1
strokes_ogs.tif
176
     1
290
     0
176
     1
 40
1.0
176
     1
 40
1.0
176
     1
  0
VISUALSTYLE
  5
2E
102
{ACAD_REACTORS
330
2A
102
}
330
2A
100
AcDbVisualStyle
  2
GouraudWithEdges
 70
     3
177
     3
291
     1
 70
    58
 90
        2
176
     1
 90
        2
176
     1
 90
        1
176
     1
 90
        2
176
     1
 40
0.6
176
     1
 40
30.0
176
     1
 62
     7
420
 16777215
176
     1
 90
        1
176
     1
 90
        0
176
     1
 62
     7
176
     1
 62
   257
176
     1
 90
        1
176
     1
 90
        1
176
     1
 40
1.0
176
     1
 90
        0
176
     1
 62
   257
176
     1
 40
1.0
176
     1
 90
        1
176
     1
 90
        6
176
     1
 90
        2
176
     1
 62
     7
176
     1
 90
        5
176
     1
 90
        0
176
     1
 90
        0
176
     1
290
     0
176
     1
 90
       13
176
     1
 40
0.0
176
     1
 90
        0
176
     1
290
     0
176
     1
290
     1
176
     1
290
     1
176
     1
290
     0
176
     1
290
     0
176
     1
290
     0
176
     1
290
     0
176
     1
290
     0
176
     1
290
     0
176
     1
 90
       50
176
     1
 40
0.0
176
     1
 40
1.0
176
     1
 90
        0
176
     1
 62
    18
420
        0
176
     1
 90
       50
176
     1
 90
        3
176
     1
 62
     5
420
      255
176
     1
290
     0
176
     1
 90
       50
176
     1
 90
       50
176
     1
 90
       50
176
     1
290
     0
176
     1
 90
       50
176
     1
 62
   256
176
     0
 40
1.0
176
     0
 90
        2
176
     1
  1
strokes_ogs.tif
176
     1
290
     0
176
     1
 40
1.0
176
     1
 40
1.0
176
     1
  0
VISUALSTYLE
  5
31
102
{ACAD_REACTORS
330
2A
102
}
330
2A
100
AcDbVisualStyle
  2
Hidden
 70
     6
177
     3
291
     0
 70
    58
 90
        1
176
     1
 90
        2
176
     1
 90
        2
176
     1
 90
        0
176
     1
 40
0.6
176
     1
 40
30.0
176
     1
 62
     7
420
 16777215
176
     1
 90
        2
176
     1
 90
        2
176
     1
 62
     7
176
     1
 62
   257
176
     1
 90
        2
176
     1
 90
        1
176
     1
 40
40.0
176
     1
 90
        0
176
     1
 62
   257
176
     1
 40
1.0
176
     1
 90
        1
176
     1
 90
        6
176
     1
 90
        2
176
     1
 62
     7
176
     1
 90
        3
176
     1
 90
        0
176
     1
 90
        0
176
     1
290
     0
176
     1
 90
        1
176
     1
 40
0.0
176
     1
 90
        0
176
     1
290
     0
176
     1
290
     1
176
     1
290
     1
176
     1
290
     0
176
     1
290
     0
176
     1
290
     0
176
     1
290
     0
176
     1
290
     0
176
     1
290
     0
176
     1
 90
       50
176
     1
 40
0.0
176
     1
 40
1.0
176
     1
 90
        0
176
     1
 62
    18
420
        0
176
     1
 90
       50
176
     1
 90
        3
176
     1
 62
     5
420
      255
176
     1
290
     0
176
     1
 90
       50
176
     1
 90
       50
176
     1
 90
       50
176
     1
290
     0
176
     1
 90
       50
176
     1
 62
   256
176
     0
 40
1.0
176
     0
 90
        2
176
     1
  1
strokes_ogs.tif
176
     1
290
     0
176
     1
 40
1.0
176
     1
 40
1.0
176
     1
  0
VISUALSTYLE
  5
3B
102
{ACAD_REACTORS
330
2A
102
}
330
2A
100
AcDbVisualStyle
  2
JitterOff
 70
    20
177
     3
291
     1
 70
    58
 90
        2
176
     0
 90
        2
176
     0
 90
        0
176
     0
 90
        0
176
     0
 40
0.6
176
     0
 40
30.0
176
     0
 62
     7
420
 16777215
176
     0
 90
        1
176
     0
 90
        4
176
     0
 62
     7
176
     0
 62
   257
176
     0
 90
        1
176
     0
 90
        1
176
     0
 40
1.0
176
     0
 90
       10
176
     2
 62
     7
176
     0
 40
1.0
176
     0
 90
        1
176
     0
 90
        6
176
     0
 90
        2
176
     0
 62
     7
176
     0
 90
        5
176
     0
 90
        0
176
     0
 90
        0
176
     0
290
     0
176
     0
 90
        1
176
     0
 40
0.0
176
     0
 90
        0
176
     0
290
     0
176
     0
290
     1
176
     0
290
     1
176
     0
290
     0
176
     0
290
     0
176
     0
290
     0
176
     0
290
     0
176
     0
290
     0
176
     0
290
     0
176
     0
 90
       50
176
     0
 40
0.0
176
     0
 40
1.0
176
     0
 90
        0
176
     0
 62
    18
420
        0
176
     0
 90
       50
176
     0
 90
        3
176
     0
 62
     5
420
      255
176
     0
290
     0
176
     0
 90
       50
176
     0
 90
       50
176
     0
 90
       50
176
     0
290
     0
176
     0
 90
       50
176
     0
 62
   256
176
     0
 40
1.0
176
     0
 90
        2
176
     0
  1
strokes_ogs.tif
176
     0
290
     0
176
     0
 40
1.0
176
     0
 40
1.0
176
     0
  0
VISUALSTYLE
  5
38
102
{ACAD_REACTORS
330
2A
102
}
330
2A
100
AcDbVisualStyle
  2
Linepattern
 70
    14
177
     3
291
     1
 70
    58
 90
        2
176
     1
 90
        2
176
     1
 90
        0
176
     1
 90
        0
176
     1
 40
0.6
176
     1
 40
30.0
176
     1
 62
     7
420
 16777215
176
     1
 90
        1
176
     1
 90
        4
176
     1
 62
     7
176
     1
 62
   257
176
     1
 90
        7
176
     1
 90
        7
176
     1
 40
1.0
176
     1
 90
        8
176
     1
 62
     7
176
     1
 40
1.0
176
     1
 90
        1
176
     1
 90
        6
176
     1
 90
        2
176
     1
 62
     7
176
     1
 90
        5
176
     1
 90
        0
176
     1
 90
        0
176
     1
290
     0
176
     1
 90
        1
176
     1
 40
0.0
176
     1
 90
        0
176
     1
290
     0
176
     1
290
     1
176
     1
290
     1
176
     1
290
     0
176
     1
290
     0
176
     1
290
     0
176
     1
290
     0
176
     1
290
     0
176
     1
290
     0
176
     1
 90
       50
176
     1
 40
0.0
176
     1
 40
1.0
176
     1
 90
        0
176
     1
 62
    18
420
        0
176
     1
 90
       50
176
     1
 90
        3
176
     1
 62
     5
420
      255
176
     1
290
     0
176
     1
 90
       50
176
     1
 90
       50
176
     1
 90
       50
176
     1
290
     0
176
     1
 90
       50
176
     1
 62
   256
176
     0
 40
1.0
176
     0
 90
        2
176
     1
  1
strokes_ogs.tif
176
     1
290
     0
176
     1
 40
1.0
176
     1
 40
1.0
176
     1
  0
VISUALSTYLE
  5
3C
102
{ACAD_REACTORS
330
2A
102
}
330
2A
100
AcDbVisualStyle
  2
OverhangOff
 70
    21
177
     3
291
     1
 70
    58
 90
        2
176
     0
 90
        2
176
     0
 90
        0
176
     0
 90
        0
176
     0
 40
0.6
176
     0
 40
30.0
176
     0
 62
     7
420
 16777215
176
     0
 90
        1
176
     0
 90
        4
176
     0
 62
     7
176
     0
 62
   257
176
     0
 90
        1
176
     0
 90
        1
176
     0
 40
1.0
176
     0
 90
        9
176
     2
 62
     7
176
     0
 40
1.0
176
     0
 90
        1
176
     0
 90
        6
176
     0
 90
        2
176
     0
 62
     7
176
     0
 90
        5
176
     0
 90
        0
176
     0
 90
        0
176
     0
290
     0
176
     0
 90
        1
176
     0
 40
0.0
176
     0
 90
        0
176
     0
290
     0
176
     0
290
     1
176
     0
290
     1
176
     0
290
     0
176
     0
290
     0
176
     0
290
     0
176
     0
290
     0
176
     0
290
     0
176
     0
290
     0
176
     0
 90
       50
176
     0
 40
0.0
176
     0
 40
1.0
176
     0
 90
        0
176
     0
 62
    18
420
        0
176
     0
 90
       50
176
     0
 90
        3
176
     0
 62
     5
420
      255
176
     0
290
     0
176
     0
 90
       50
176
     0
 90
       50
176
     0
 90
       50
176
     0
290
     0
176
     0
 90
       50
176
     0
 62
   256
176
     0
 40
1.0
176
     0
 90
        2
176
     0
  1
strokes_ogs.tif
176
     0
290
     0
176
     0
 40
1.0
176
     0
 40
1.0
176
     0
  0
VISUALSTYLE
  5
33
102
{ACAD_REACTORS
330
2A
102
}
330
2A
100
AcDbVisualStyle
  2
Realistic
 70
     8
177
     3
291
     0
 70
    58
 90
        2
176
     1
 90
        3
176
     1
 90
        0
176
     1
 90
        2
176
     1
 40
0.6
176
     1
 40
30.0
176
     1
 62
     7
420
 16777215
176
     1
 90
        0
176
     1
 90
        0
176
     1
 62
     7
176
     1
 62
   257
176
     1
 90
        1
176
     1
 90
        1
176
     1
 40
1.0
176
     1
 90
        8
176
     1
 62
   257
176
     1
 40
1.0
176
     1
 90
        1
176
     1
 90
        6
176
     1
 90
        2
176
     1
 62
     7
176
     1
 90
        3
176
     1
 90
        0
176
     1
 90
        0
176
     1
290
     0
176
     1
 90
       13
176
     1
 40
0.0
176
     1
 90
        0
176
     1
290
     0
176
     1
290
     1
176
     1
290
     1
176
     1
290
     0
176
     1
290
     0
176
     1
290
     0
176
     1
290
     0
176
     1
290
     0
176
     1
290
     0
176
     1
 90
       50
176
     1
 40
0.0
176
     1
 40
1.0
176
     1
 90
        0
176
     1
 62
    18
420
        0
176
     1
 90
       50
176
     1
 90
        3
176
     1
 62
     5
420
      255
176
     1
290
     0
176
     1
 90
       50
176
     1
 90
       50
176
     1
 90
       50
176
     1
290
     0
176
     1
 90
       50
176
     1
 62
   256
176
     0
 40
1.0
176
     0
 90
        2
176
     1
  1
strokes_ogs.tif
176
     1
290
     0
176
     1
 40
1.0
176
     1
 40
1.0
176
     1
  0
VISUALSTYLE
  5
42
102
{ACAD_REACTORS
330
2A
102
}
330
2A
100
AcDbVisualStyle
  2
Shaded
 70
    27
177
     3
291
     0
 70
    58
 90
        2
176
     1
 90
        2
176
     1
 90
        1
176
     1
 90
        2
176
     1
 40
0.6
176
     1
 40
30.0
176
     1
 62
     7
420
 16777215
176
     1
 90
        0
176
     1
 90
        4
176
     1
 62
     7
176
     1
 62
   257
176
     1
 90
        1
176
     1
 90
        1
176
     1
 40
1.0
176
     1
 90
        8
176
     1
 62
   257
176
     1
 40
1.0
176
     1
 90
        1
176
     1
 90
        6
176
     1
 90
        2
176
     1
 62
     8
420
  7895160
176
     1
 90
        3
176
     1
 90
        0
176
     1
 90
        0
176
     1
290
     0
176
     1
 90
        5
176
     1
 40
0.0
176
     1
 90
        0
176
     1
290
     0
176
     1
290
     1
176
     1
290
     1
176
     1
290
     0
176
     1
290
     0
176
     1
290
     0
176
     1
290
     0
176
     1
290
     0
176
     1
290
     0
176
     1
 90
       50
176
     1
 40
0.0
176
     1
 40
1.0
176
     1
 90
        0
176
     1
 62
    18
420
        0
176
     1
 90
       50
176
     1
 90
        3
176
     1
 62
     5
420
      255
176
     1
290
     0
176
     1
 90
       50
176
     1
 90
       50
176
     1
 90
       50
176
     1
290
     0
176
     1
 90
       50
176
     1
 62
   256
176
     0
 40
1.0
176
     0
 90
        2
176
     1
  1
strokes_ogs.tif
176
     1
290
     0
176
     1
 40
1.0
176
     1
 40
1.0
176
     1
  0
VISUALSTYLE
  5
41
102
{ACAD_REACTORS
330
2A
102
}
330
2A
100
AcDbVisualStyle
  2
Shaded with edges
 70
    26
177
     3
291
     0
 70
    58
 90
        2
176
     1
 90
        2
176
     1
 90
        1
176
     1
 90
        2
176
     1
 40
0.6
176
     1
 40
30.0
176
     1
 62
     7
420
 16777215
176
     1
 90
        1
176
     1
 90
       10
176
     1
 62
     7
176
     1
 62
   257
176
     1
 90
        2
176
     1
 90
        1
176
     1
 40
1.0
176
     1
 90
        8
176
     1
 62
   257
176
     1
 40
1.0
176
     1
 90
        1
176
     1
 90
        6
176
     1
 90
        2
176
     1
 62
     7
176
     1
 90
        3
176
     1
 90
        0
176
     1
 90
        0
176
     1
290
     0
176
     1
 90
        5
176
     1
 40
0.0
176
     1
 90
        0
176
     1
290
     0
176
     1
290
     1
176
     1
290
     1
176
     1
290
     0
176
     1
290
     0
176
     1
290
     0
176
     1
290
     0
176
     1
290
     0
176
     1
290
     0
176
     1
 90
       50
176
     1
 40
0.0
176
     1
 40
1.0
176
     1
 90
        0
176
     1
 62
    18
420
        0
176
     1
 90
       50
176
     1
 90
        3
176
     1
 62
     5
420
      255
176
     1
290
     0
176
     1
 90
       50
176
     1
 90
       50
176
     1
 90
       50
176
     1
290
     0
176
     1
 90
       50
176
     1
 62
   256
176
     0
 40
1.0
176
     0
 90
        2
176
     1
  1
strokes_ogs.tif
176
     1
290
     0
176
     1
 40
1.0
176
     1
 40
1.0
176
     1
  0
VISUALSTYLE
  5
3E
102
{ACAD_REACTORS
330
2A
102
}
330
2A
100
AcDbVisualStyle
  2
Shades of Gray
 70
    23
177
     3
291
     0
 70
    58
 90
        2
176
     1
 90
        2
176
     1
 90
        3
176
     1
 90
        0
176
     1
 40
0.6
176
     1
 40
30.0
176
     1
 62
     7
420
 16777215
176
     1
 90
        2
176
     1
 90
        2
176
     1
 62
     7
176
     1
 62
     7
176
     1
 90
        1
176
     1
 90
        1
176
     1
 40
40.0
176
     1
 90
        8
176
     1
 62
     7
176
     1
 40
1.0
176
     1
 90
        1
176
     1
 90
        6
176
     1
 90
        2
176
     1
 62
     7
176
     1
 90
        3
176
     1
 90
        0
176
     1
 90
        0
176
     1
290
     0
176
     1
 90
        1
176
     1
 40
0.0
176
     1
 90
        0
176
     1
290
     0
176
     1
290
     1
176
     1
290
     1
176
     1
290
     0
176
     1
290
     0
176
     1
290
     0
176
     1
290
     0
176
     1
290
     0
176
     1
290
     0
176
     1
 90
       50
176
     1
 40
0.0
176
     1
 40
1.0
176
     1
 90
        0
176
     1
 62
    18
420
        0
176
     1
 90
       50
176
     1
 90
        3
176
     1
 62
     5
420
      255
176
     1
290
     0
176
     1
 90
       50
176
     1
 90
       50
176
     1
 90
       50
176
     1
290
     0
176
     1
 90
       50
176
     1
 62
   256
176
     0
 40
1.0
176
     0
 90
        2
176
     1
  1
strokes_ogs.tif
176
     1
290
     0
176
     1
 40
1.0
176
     1
 40
1.0
176
     1
  0
VISUALSTYLE
  5
3F
102
{ACAD_REACTORS
330
2A
102
}
330
2A
100
AcDbVisualStyle
  2
Sketchy
 70
    24
177
     3
291
     0
 70
    58
 90
        1
176
     1
 90
        2
176
     1
 90
        2
176
     1
 90
        0
176
     1
 40
0.6
176
     1
 40
30.0
176
     1
 62
     7
420
 16777215
176
     1
 90
        2
176
     1
 90
        2
176
     1
 62
     7
176
     1
 62
     7
176
     1
 90
        1
176
     1
 90
        1
176
     1
 40
40.0
176
     1
 90
       11
176
     1
 62
     7
176
     1
 40
1.0
176
     1
 90
        1
176
     1
 90
        6
176
     1
 90
        2
176
     1
 62
     7
176
     1
 90
        6
176
     1
 90
        0
176
     1
 90
        0
176
     1
290
     0
176
     1
 90
        1
176
     1
 40
0.0
176
     1
 90
        0
176
     1
290
     0
176
     1
290
     1
176
     1
290
     1
176
     1
290
     0
176
     1
290
     0
176
     1
290
     0
176
     1
290
     0
176
     1
290
     0
176
     1
290
     0
176
     1
 90
       50
176
     1
 40
0.0
176
     1
 40
1.0
176
     1
 90
        0
176
     1
 62
    18
420
        0
176
     1
 90
       50
176
     1
 90
        3
176
     1
 62
     5
420
      255
176
     1
290
     0
176
     1
 90
       50
176
     1
 90
       50
176
     1
 90
       50
176
     1
290
     0
176
     1
 90
       50
176
     1
 62
   256
176
     0
 40
1.0
176
     0
 90
        2
176
     1
  1
strokes_ogs.tif
176
     1
290
     0
176
     1
 40
1.0
176
     1
 40
1.0
176
     1
  0
VISUALSTYLE
  5
37
102
{ACAD_REACTORS
330
2A
102
}
330
2A
100
AcDbVisualStyle
  2
Thicken
 70
    13
177
     3
291
     1
 70
    58
 90
        2
176
     1
 90
        2
176
     1
 90
        0
176
     1
 90
        0
176
     1
 40
0.6
176
     1
 40
30.0
176
     1
 62
     7
420
 16777215
176
     1
 90
        1
176
     1
 90
        4
176
     1
 62
     7
176
     1
 62
   257
176
     1
 90
        1
176
     1
 90
        1
176
     1
 40
1.0
176
     1
 90
       12
176
     1
 62
     7
176
     1
 40
1.0
176
     1
 90
        1
176
     1
 90
        6
176
     1
 90
        2
176
     1
 62
     7
176
     1
 90
        5
176
     1
 90
        0
176
     1
 90
        0
176
     1
290
     0
176
     1
 90
        1
176
     1
 40
0.0
176
     1
 90
        0
176
     1
290
     0
176
     1
290
     1
176
     1
290
     1
176
     1
290
     0
176
     1
290
     0
176
     1
290
     0
176
     1
290
     0
176
     1
290
     0
176
     1
290
     0
176
     1
 90
       50
176
     1
 40
0.0
176
     1
 40
1.0
176
     1
 90
        0
176
     1
 62
    18
420
        0
176
     1
 90
       50
176
     1
 90
        3
176
     1
 62
     5
420
      255
176
     1
290
     0
176
     1
 90
       50
176
     1
 90
       50
176
     1
 90
       50
176
     1
290
     0
176
     1
 90
       50
176
     1
 62
   256
176
     0
 40
1.0
176
     0
 90
        2
176
     1
  1
strokes_ogs.tif
176
     1
290
     0
176
     1
 40
1.0
176
     1
 40
1.0
176
     1
  0
VISUALSTYLE
  5
30
102
{ACAD_REACTORS
330
2A
102
}
330
2A
100
AcDbVisualStyle
  2
Wireframe
 70
     5
177
     3
291
     0
 70
    58
 90
        0
176
     1
 90
        2
176
     1
 90
        0
176
     1
 90
        0
176
     1
 40
0.6
176
     1
 40
30.0
176
     1
 62
     7
420
 16777215
176
     1
 90
        1
176
     1
 90
        4
176
     1
 62
     7
176
     1
 62
   257
176
     1
 90
        1
176
     1
 90
        1
176
     1
 40
1.0
176
     1
 90
        0
176
     1
 62
   257
176
     1
 40
1.0
176
     1
 90
        1
176
     1
 90
        6
176
     1
 90
        2
176
     1
 62
     7
176
     1
 90
        3
176
     1
 90
        0
176
     1
 90
        0
176
     1
290
     0
176
     1
 90
        1
176
     1
 40
0.0
176
     1
 90
        0
176
     1
290
     0
176
     1
290
     1
176
     1
290
     1
176
     1
290
     0
176
     1
290
     0
176
     1
290
     0
176
     1
290
     0
176
     1
290
     0
176
     1
290
     0
176
     1
 90
       50
176
     1
 40
0.0
176
     1
 40
1.0
176
     1
 90
        0
176
     1
 62
    18
420
        0
176
     1
 90
       50
176
     1
 90
        3
176
     1
 62
     5
420
      255
176
     1
290
     0
176
     1
 90
       50
176
     1
 90
       50
176
     1
 90
       50
176
     1
290
     0
176
     1
 90
       50
176
     1
 62
   256
176
     0
 40
1.0
176
     0
 90
        2
176
     1
  1
strokes_ogs.tif
176
     1
290
     0
176
     1
 40
1.0
176
     1
 40
1.0
176
     1
  0
VISUALSTYLE
  5
40
102
{ACAD_REACTORS
330
2A
102
}
330
2A
100
AcDbVisualStyle
  2
X-Ray
 70
    25
177
     3
291
     0
 70
    58
 90
        2
176
     1
 90
        2
176
     1
 90
        1
176
     1
 90
        1
176
     1
 40
0.5
176
     1
 40
30.0
176
     1
 62
     7
420
 16777215
176
     1
 90
        1
176
     1
 90
        0
176
     1
 62
     7
176
     1
 62
   257
176
     1
 90
        1
176
     1
 90
        1
176
     1
 40
1.0
176
     1
 90
        8
176
     1
 62
     7
176
     1
 40
1.0
176
     1
 90
        1
176
     1
 90
        6
176
     1
 90
        2
176
     1
 62
     7
176
     1
 90
        3
176
     1
 90
        0
176
     1
 90
        0
176
     1
290
     0
176
     1
 90
       13
176
     1
 40
0.0
176
     1
 90
        0
176
     1
290
     0
176
     1
290
     1
176
     1
290
     1
176
     1
290
     0
176
     1
290
     0
176
     1
290
     0
176
     1
290
     0
176
     1
290
     0
176
     1
290
     0
176
     1
 90
       50
176
     1
 40
0.0
176
     1
 40
1.0
176
     1
 90
        0
176
     1
 62
    18
420
        0
176
     1
 90
       50
176
     1
 90
        3
176
     1
 62
     5
420
      255
176
     1
290
     0
176
     1
 90
       50
176
     1
 90
       50
176
     1
 90
       50
176
     1
290
     0
176
     1
 90
       50
176
     1
 62
   256
176
     0
 40
1.0
176
     0
 90
        2
176
     1
  1
strokes_ogs.tif
176
     1
290
     0
176
     1
 40
1.0
176
     1
 40
1.0
176
     1
  0
DICTIONARYVAR
  5
250
102
{ACAD_REACTORS
330
24F
102
}
330
24F
100
DictionaryVariables
280
     0
  1
1:1
  0
DICTIONARYVAR
  5
255
102
{ACAD_REACTORS
330
24F
102
}
330
24F
100
DictionaryVariables
280
     0
  1
Standard
  0
DICTIONARYVAR
  5
254
102
{ACAD_REACTORS
330
24F
102
}
330
24F
100
DictionaryVariables
280
     0
  1
Standard
  0
DICTIONARY
  5
251
330
6A
100
AcDbDictionary
280
     1
281
     1
  3
ACAD_ROUNDTRIP_2008_TABLESTYLE_CELLSTYLEMAP
360
252
  0
CELLSTYLEMAP
  5
252
102
{ACAD_REACTORS
330
251
102
}
330
251
100
AcDbCellStyleMap
 90
        3
300
CELLSTYLE
  1
TABLEFORMAT_BEGIN
 90
        5
170
     1
 91
        0
 92
    32768
 62
   257
 93
        1
300
CONTENTFORMAT
  1
CONTENTFORMAT_BEGIN
 90
        0
 91
        0
 92
        4
 93
        0
300

 40
0.0
140
1.0
 94
        5
 62
     0
340
11
144
0.25
309
CONTENTFORMAT_END
171
     1
301
MARGIN
  1
CELLMARGIN_BEGIN
 40
0.06
 40
0.06
 40
0.06
 40
0.06
 40
0.06
 40
0.06
309
CELLMARGIN_END
 94
        6
 95
        1
302
GRIDFORMAT
  1
GRIDFORMAT_BEGIN
 90
        0
 91
        1
 62
     0
 92
       -2
340
14
 93
        0
 40
0.045
309
GRIDFORMAT_END
 95
        2
302
GRIDFORMAT
  1
GRIDFORMAT_BEGIN
 90
        0
 91
        1
 62
     0
 92
       -2
340
14
 93
        0
 40
0.045
309
GRIDFORMAT_END
 95
        4
302
GRIDFORMAT
  1
GRIDFORMAT_BEGIN
 90
        0
 91
        1
 62
     0
 92
       -2
340
14
 93
        0
 40
0.045
309
GRIDFORMAT_END
 95
        8
302
GRIDFORMAT
  1
GRIDFORMAT_BEGIN
 90
        0
 91
        1
 62
     0
 92
       -2
340
14
 93
        0
 40
0.045
309
GRIDFORMAT_END
 95
       16
302
GRIDFORMAT
  1
GRIDFORMAT_BEGIN
 90
        0
 91
        1
 62
     0
 92
       -2
340
14
 93
        0
 40
0.045
309
GRIDFORMAT_END
 95
       32
302
GRIDFORMAT
  1
GRIDFORMAT_BEGIN
 90
        0
 91
        1
 62
     0
 92
       -2
340
14
 93
        0
 40
0.045
309
GRIDFORMAT_END
309
TABLEFORMAT_END
  1
CELLSTYLE_BEGIN
 90
        1
 91
        1
300
_TITLE
309
CELLSTYLE_END
300
CELLSTYLE
  1
TABLEFORMAT_BEGIN
 90
        5
170
     1
 91
        0
 92
        0
 62
   257
 93
        1
300
CONTENTFORMAT
  1
CONTENTFORMAT_BEGIN
 90
        0
 91
        0
 92
        4
 93
        0
300

 40
0.0
140
1.0
 94
        5
 62
     0
340
11
144
0.18
309
CONTENTFORMAT_END
171
     1
301
MARGIN
  1
CELLMARGIN_BEGIN
 40
0.06
 40
0.06
 40
0.06
 40
0.06
 40
0.06
 40
0.06
309
CELLMARGIN_END
 94
        6
 95
        1
302
GRIDFORMAT
  1
GRIDFORMAT_BEGIN
 90
        0
 91
        1
 62
     0
 92
       -2
340
14
 93
        0
 40
0.045
309
GRIDFORMAT_END
 95
        2
302
GRIDFORMAT
  1
GRIDFORMAT_BEGIN
 90
        0
 91
        1
 62
     0
 92
       -2
340
14
 93
        0
 40
0.045
309
GRIDFORMAT_END
 95
        4
302
GRIDFORMAT
  1
GRIDFORMAT_BEGIN
 90
        0
 91
        1
 62
     0
 92
       -2
340
14
 93
        0
 40
0.045
309
GRIDFORMAT_END
 95
        8
302
GRIDFORMAT
  1
GRIDFORMAT_BEGIN
 90
        0
 91
        1
 62
     0
 92
       -2
340
14
 93
        0
 40
0.045
309
GRIDFORMAT_END
 95
       16
302
GRIDFORMAT
  1
GRIDFORMAT_BEGIN
 90
        0
 91
        1
 62
     0
 92
       -2
340
14
 93
        0
 40
0.045
309
GRIDFORMAT_END
 95
       32
302
GRIDFORMAT
  1
GRIDFORMAT_BEGIN
 90
        0
 91
        1
 62
     0
 92
       -2
340
14
 93
        0
 40
0.045
309
GRIDFORMAT_END
309
TABLEFORMAT_END
  1
CELLSTYLE_BEGIN
 90
        2
 91
        1
300
_HEADER
309
CELLSTYLE_END
300
CELLSTYLE
  1
TABLEFORMAT_BEGIN
 90
        5
170
     1
 91
        0
 92
        0
 62
   257
 93
        1
300
CONTENTFORMAT
  1
CONTENTFORMAT_BEGIN
 90
        0
 91
        0
 92
        4
 93
        0
300

 40
0.0
140
1.0
 94
        2
 62
     0
340
11
144
0.18
309
CONTENTFORMAT_END
171
     1
301
MARGIN
  1
CELLMARGIN_BEGIN
 40
0.06
 40
0.06
 40
0.06
 40
0.06
 40
0.06
 40
0.06
309
CELLMARGIN_END
 94
        6
 95
        1
302
GRIDFORMAT
  1
GRIDFORMAT_BEGIN
 90
        0
 91
        1
 62
     0
 92
       -2
340
14
 93
        0
 40
0.045
309
GRIDFORMAT_END
 95
        2
302
GRIDFORMAT
  1
GRIDFORMAT_BEGIN
 90
        0
 91
        1
 62
     0
 92
       -2
340
14
 93
        0
 40
0.045
309
GRIDFORMAT_END
 95
        4
302
GRIDFORMAT
  1
GRIDFORMAT_BEGIN
 90
        0
 91
        1
 62
     0
 92
       -2
340
14
 93
        0
 40
0.045
309
GRIDFORMAT_END
 95
        8
302
GRIDFORMAT
  1
GRIDFORMAT_BEGIN
 90
        0
 91
        1
 62
     0
 92
       -2
340
14
 93
        0
 40
0.045
309
GRIDFORMAT_END
 95
       16
302
GRIDFORMAT
  1
GRIDFORMAT_BEGIN
 90
        0
 91
        1
 62
     0
 92
       -2
340
14
 93
        0
 40
0.045
309
GRIDFORMAT_END
 95
       32
302
GRIDFORMAT
  1
GRIDFORMAT_BEGIN
 90
        0
 91
        1
 62
     0
 92
       -2
340
14
 93
        0
 40
0.045
309
GRIDFORMAT_END
309
TABLEFORMAT_END
  1
CELLSTYLE_BEGIN
 90
        3
 91
        2
300
_DATA
309
CELLSTYLE_END
  0
ENDSEC
  0
EOF