0
SECTION
  2
HEADER
  9
$ACADVER
  1
AC1027
  9
$ACADMAINTVER
 70
     8
  9
$DWGCODEPAGE
  3
ANSI_1252
  9
$REQUIREDVERSIONS
160
                 0
  9
$COMMENTS
  1
File was created by Cadenas
  9
$CUSTOMPROPERTYTAG
  1
NN
  9
$CUSTOMPROPERTY
  1
Imperial -IP Pillow Block 2-1/8 thru 3-1/2  4-Bolt Inch Bore (Contact Seal)
  9
$CUSTOMPROPERTYTAG
  1
NT
  9
$CUSTOMPROPERTY
  1
Imperial 4 Bolt Piliow Block Bearings
  9
$CUSTOMPROPERTYTAG
  1
NB
  9
$CUSTOMPROPERTY
  1
069555
  9
$CUSTOMPROPERTYTAG
  1
NBSYN
  9
$CUSTOMPROPERTY
  1
$PN.
  9
$CUSTOMPROPERTYTAG
  1
LINA
  9
$CUSTOMPROPERTY
  1
069555
  9
$CUSTOMPROPERTYTAG
  1
SS
  9
$CUSTOMPROPERTY
  1
5
  9
$CUSTOMPROPERTYTAG
  1
PN
  9
$CUSTOMPROPERTY
  1
069555
  9
$CUSTOMPROPERTYTAG
  1
DESCRIPTION
  9
$CUSTOMPROPERTY
  1
P4B-IP-500RE
  9
$CUSTOMPROPERTYTAG
  1
EF
  9
$CUSTOMPROPERTY
  1
Expansion Type
  9
$CUSTOMPROPERTYTAG
  1
ST
  9
$CUSTOMPROPERTY
  1
Contact  Seal
  9
$CUSTOMPROPERTYTAG
  1
A
  9
$CUSTOMPROPERTY
  1
5-63/64
  9
$CUSTOMPROPERTYTAG
  1
B
  9
$CUSTOMPROPERTY
  1
18-5/8
  9
$CUSTOMPROPERTYTAG
  1
C
  9
$CUSTOMPROPERTY
  1
5-3/8
  9
$CUSTOMPROPERTYTAG
  1
DMIN
  9
$CUSTOMPROPERTY
  1
15
  9
$CUSTOMPROPERTYTAG
  1
DMAX
  9
$CUSTOMPROPERTY
  1
16
  9
$CUSTOMPROPERTYTAG
  1
E
  9
$CUSTOMPROPERTY
  1
2-3/4
  9
$CUSTOMPROPERTYTAG
  1
F
  9
$CUSTOMPROPERTY
  1
7/8
  9
$CUSTOMPROPERTYTAG
  1
G
  9
$CUSTOMPROPERTY
  1
1-1/2
  9
$CUSTOMPROPERTYTAG
  1
H
  9
$CUSTOMPROPERTY
  1
3
  9
$CUSTOMPROPERTYTAG
  1
J
  9
$CUSTOMPROPERTY
  1
11-1/8
  9
$CUSTOMPROPERTYTAG
  1
L
  9
$CUSTOMPROPERTY
  1
7-5/8
  9
$CUSTOMPROPERTYTAG
  1
M
  9
$CUSTOMPROPERTY
  1
5-1/2
  9
$CUSTOMPROPERTYTAG
  1
R
  9
$CUSTOMPROPERTY
  1
1-29/32
  9
$CUSTOMPROPERTYTAG
  1
S
  9
$CUSTOMPROPERTY
  1
4-5/64
  9
$CUSTOMPROPERTYTAG
  1
X
  9
$CUSTOMPROPERTY
  1
3/8
  9
$CUSTOMPROPERTYTAG
  1
Y
  9
$CUSTOMPROPERTY
  1
0.036
  9
$CUSTOMPROPERTYTAG
  1
Z
  9
$CUSTOMPROPERTY
  1
5-27/32
  9
$CUSTOMPROPERTYTAG
  1
COMPANY
  9
$CUSTOMPROPERTY
  1
baldor
  9
$INSBASE
 10
0.0
 20
0.0
 30
0.0
  9
$EXTMIN
 10
1.000000000000000E+20
 20
1.000000000000000E+20
 30
1.000000000000000E+20
  9
$EXTMAX
 10
-1.000000000000000E+20
 20
-1.000000000000000E+20
 30
-1.000000000000000E+20
  9
$LIMMIN
 10
0.0
 20
0.0
  9
$LIMMAX
 10
12.0
 20
9.0
  9
$ORTHOMODE
 70
     0
  9
$REGENMODE
 70
     1
  9
$FILLMODE
 70
     1
  9
$QTEXTMODE
 70
     0
  9
$MIRRTEXT
 70
     1
  9
$LTSCALE
 40
1.0
  9
$ATTMODE
 70
     1
  9
$TEXTSIZE
 40
0.2
  9
$TRACEWID
 40
0.05
  9
$TEXTSTYLE
  7
Standard
  9
$CLAYER
  8
0
  9
$CELTYPE
  6
ByLayer
  9
$CECOLOR
 62
   256
  9
$CELTSCALE
 40
1.0
  9
$DISPSILH
 70
     0
  9
$DIMSCALE
 40
1.0
  9
$DIMASZ
 40
0.18
  9
$DIMEXO
 40
0.0625
  9
$DIMDLI
 40
0.38
  9
$DIMRND
 40
0.0
  9
$DIMDLE
 40
0.0
  9
$DIMEXE
 40
0.18
  9
$DIMTP
 40
0.0
  9
$DIMTM
 40
0.0
  9
$DIMTXT
 40
0.18
  9
$DIMCEN
 40
0.09
  9
$DIMTSZ
 40
0.0
  9
$DIMTOL
 70
     0
  9
$DIMLIM
 70
     0
  9
$DIMTIH
 70
     1
  9
$DIMTOH
 70
     1
  9
$DIMSE1
 70
     0
  9
$DIMSE2
 70
     0
  9
$DIMTAD
 70
     0
  9
$DIMZIN
 70
     0
  9
$DIMBLK
  1

  9
$DIMASO
 70
     1
  9
$DIMSHO
 70
     1
  9
$DIMPOST
  1

  9
$DIMAPOST
  1

  9
$DIMALT
 70
     0
  9
$DIMALTD
 70
     2
  9
$DIMALTF
 40
25.4
  9
$DIMLFAC
 40
1.0
  9
$DIMTOFL
 70
     0
  9
$DIMTVP
 40
0.0
  9
$DIMTIX
 70
     0
  9
$DIMSOXD
 70
     0
  9
$DIMSAH
 70
     0
  9
$DIMBLK1
  1

  9
$DIMBLK2
  1

  9
$DIMSTYLE
  2
Standard
  9
$DIMCLRD
 70
     0
  9
$DIMCLRE
 70
     0
  9
$DIMCLRT
 70
     0
  9
$DIMTFAC
 40
1.0
  9
$DIMGAP
 40
0.09
  9
$DIMJUST
 70
     0
  9
$DIMSD1
 70
     0
  9
$DIMSD2
 70
     0
  9
$DIMTOLJ
 70
     1
  9
$DIMTZIN
 70
     0
  9
$DIMALTZ
 70
     0
  9
$DIMALTTZ
 70
     0
  9
$DIMUPT
 70
     0
  9
$DIMDEC
 70
     4
  9
$DIMTDEC
 70
     4
  9
$DIMALTU
 70
     2
  9
$DIMALTTD
 70
     2
  9
$DIMTXSTY
  7
Standard
  9
$DIMAUNIT
 70
     0
  9
$DIMADEC
 70
     0
  9
$DIMALTRND
 40
0.0
  9
$DIMAZIN
 70
     0
  9
$DIMDSEP
 70
    46
  9
$DIMATFIT
 70
     3
  9
$DIMFRAC
 70
     0
  9
$DIMLDRBLK
  1

  9
$DIMLUNIT
 70
     2
  9
$DIMLWD
 70
    -2
  9
$DIMLWE
 70
    -2
  9
$DIMTMOVE
 70
     0
  9
$DIMFXL
 40
1.0
  9
$DIMFXLON
 70
     0
  9
$DIMJOGANG
 40
0.7853981633974483
  9
$DIMTFILL
 70
     0
  9
$DIMTFILLCLR
 70
     0
  9
$DIMARCSYM
 70
     0
  9
$DIMLTYPE
  6

  9
$DIMLTEX1
  6

  9
$DIMLTEX2
  6

  9
$DIMTXTDIRECTION
 70
     0
  9
$LUNITS
 70
     2
  9
$LUPREC
 70
     4
  9
$SKETCHINC
 40
0.1
  9
$FILLETRAD
 40
0.5
  9
$AUNITS
 70
     0
  9
$AUPREC
 70
     0
  9
$MENU
  1
.
  9
$ELEVATION
 40
0.0
  9
$PELEVATION
 40
0.0
  9
$THICKNESS
 40
0.0
  9
$LIMCHECK
 70
     0
  9
$CHAMFERA
 40
0.0
  9
$CHAMFERB
 40
0.0
  9
$CHAMFERC
 40
0.0
  9
$CHAMFERD
 40
0.0
  9
$SKPOLY
 70
     0
  9
$TDCREATE
 40
2458168.988512014
  9
$TDUCREATE
 40
2458168.946845347
  9
$TDUPDATE
 40
2458168.988512199
  9
$TDUUPDATE
 40
2458168.946845532
  9
$TDINDWG
 40
0.0000000116
  9
$TDUSRTIMER
 40
0.0000000116
  9
$USRTIMER
 70
     1
  9
$ANGBASE
 50
0.0
  9
$ANGDIR
 70
     0
  9
$PDMODE
 70
     0
  9
$PDSIZE
 40
0.0
  9
$PLINEWID
 40
0.0
  9
$SPLFRAME
 70
     0
  9
$SPLINETYPE
 70
     6
  9
$SPLINESEGS
 70
     8
  9
$HANDSEED
  5
21B
  9
$SURFTAB1
 70
     6
  9
$SURFTAB2
 70
     6
  9
$SURFTYPE
 70
     6
  9
$SURFU
 70
     6
  9
$SURFV
 70
     6
  9
$UCSBASE
  2

  9
$UCSNAME
  2

  9
$UCSORG
 10
0.0
 20
0.0
 30
0.0
  9
$UCSXDIR
 10
1.0
 20
0.0
 30
0.0
  9
$UCSYDIR
 10
0.0
 20
1.0
 30
0.0
  9
$UCSORTHOREF
  2

  9
$UCSORTHOVIEW
 70
     0
  9
$UCSORGTOP
 10
0.0
 20
0.0
 30
0.0
  9
$UCSORGBOTTOM
 10
0.0
 20
0.0
 30
0.0
  9
$UCSORGLEFT
 10
0.0
 20
0.0
 30
0.0
  9
$UCSORGRIGHT
 10
0.0
 20
0.0
 30
0.0
  9
$UCSORGFRONT
 10
0.0
 20
0.0
 30
0.0
  9
$UCSORGBACK
 10
0.0
 20
0.0
 30
0.0
  9
$PUCSBASE
  2

  9
$PUCSNAME
  2

  9
$PUCSORG
 10
0.0
 20
0.0
 30
0.0
  9
$PUCSXDIR
 10
1.0
 20
0.0
 30
0.0
  9
$PUCSYDIR
 10
0.0
 20
1.0
 30
0.0
  9
$PUCSORTHOREF
  2

  9
$PUCSORTHOVIEW
 70
     0
  9
$PUCSORGTOP
 10
0.0
 20
0.0
 30
0.0
  9
$PUCSORGBOTTOM
 10
0.0
 20
0.0
 30
0.0
  9
$PUCSORGLEFT
 10
0.0
 20
0.0
 30
0.0
  9
$PUCSORGRIGHT
 10
0.0
 20
0.0
 30
0.0
  9
$PUCSORGFRONT
 10
0.0
 20
0.0
 30
0.0
  9
$PUCSORGBACK
 10
0.0
 20
0.0
 30
0.0
  9
$USERI1
 70
     0
  9
$USERI2
 70
     0
  9
$USERI3
 70
     0
  9
$USERI4
 70
     0
  9
$USERI5
 70
     0
  9
$USERR1
 40
0.0
  9
$USERR2
 40
0.0
  9
$USERR3
 40
0.0
  9
$USERR4
 40
0.0
  9
$USERR5
 40
0.0
  9
$WORLDVIEW
 70
     1
  9
$SHADEDGE
 70
     3
  9
$SHADEDIF
 70
    70
  9
$TILEMODE
 70
     1
  9
$MAXACTVP
 70
    64
  9
$PINSBASE
 10
0.0
 20
0.0
 30
0.0
  9
$PLIMCHECK
 70
     0
  9
$PEXTMIN
 10
1.000000000000000E+20
 20
1.000000000000000E+20
 30
1.000000000000000E+20
  9
$PEXTMAX
 10
-1.000000000000000E+20
 20
-1.000000000000000E+20
 30
-1.000000000000000E+20
  9
$PLIMMIN
 10
0.0
 20
0.0
  9
$PLIMMAX
 10
12.0
 20
9.0
  9
$UNITMODE
 70
     0
  9
$VISRETAIN
 70
     1
  9
$PLINEGEN
 70
     0
  9
$PSLTSCALE
 70
     1
  9
$TREEDEPTH
 70
  3020
  9
$CMLSTYLE
  2
Standard
  9
$CMLJUST
 70
     0
  9
$CMLSCALE
 40
1.0
  9
$PROXYGRAPHICS
 70
     1
  9
$MEASUREMENT
 70
     0
  9
$CELWEIGHT
370
    -1
  9
$ENDCAPS
280
     0
  9
$JOINSTYLE
280
     0
  9
$LWDISPLAY
290
     0
  9
$INSUNITS
 70
     1
  9
$HYPERLINKBASE
  1

  9
$STYLESHEET
  1

  9
$XEDIT
290
     1
  9
$CEPSNTYPE
380
     0
  9
$PSTYLEMODE
290
     1
  9
$FINGERPRINTGUID
  2
{42506B71-7AF1-4C2E-B316-058931E04C6D}
  9
$VERSIONGUID
  2
{FAEB1C32-E019-11D5-929B-00C0DF256EC4}
  9
$EXTNAMES
290
     1
  9
$PSVPSCALE
 40
0.0
  9
$OLESTARTUP
290
     0
  9
$SORTENTS
280
   127
  9
$INDEXCTL
280
     0
  9
$HIDETEXT
280
     1
  9
$XCLIPFRAME
280
     2
  9
$HALOGAP
280
     0
  9
$OBSCOLOR
 70
   257
  9
$OBSLTYPE
280
     0
  9
$INTERSECTIONDISPLAY
280
     0
  9
$INTERSECTIONCOLOR
 70
   257
  9
$DIMASSOC
280
     2
  9
$PROJECTNAME
  1

  9
$CAMERADISPLAY
290
     0
  9
$LENSLENGTH
 40
50.0
  9
$CAMERAHEIGHT
 40
0.0
  9
$STEPSPERSEC
 40
2.0
  9
$STEPSIZE
 40
6.0
  9
$3DDWFPREC
 40
2.0
  9
$PSOLWIDTH
 40
0.25
  9
$PSOLHEIGHT
 40
4.0
  9
$LOFTANG1
 40
1.570796326794897
  9
$LOFTANG2
 40
1.570796326794897
  9
$LOFTMAG1
 40
0.0
  9
$LOFTMAG2
 40
0.0
  9
$LOFTPARAM
 70
     7
  9
$LOFTNORMALS
280
     1
  9
$LATITUDE
 40
37.795
  9
$LONGITUDE
 40
-122.394
  9
$NORTHDIRECTION
 40
0.0
  9
$TIMEZONE
 70
 -8000
  9
$LIGHTGLYPHDISPLAY
280
     1
  9
$TILEMODELIGHTSYNCH
280
     1
  9
$CMATERIAL
347
44
  9
$SOLIDHIST
280
     0
  9
$SHOWHIST
280
     1
  9
$DWFFRAME
280
     2
  9
$DGNFRAME
280
     2
  9
$REALWORLDSCALE
290
     1
  9
$INTERFERECOLOR
 62
   256
  9
$CSHADOW
280
     0
  9
$SHADOWPLANELOCATION
 40
0.0
  0
ENDSEC
  0
SECTION
  2
CLASSES
  0
CLASS
  1
ACDBDICTIONARYWDFLT
  2
AcDbDictionaryWithDefault
  3
ObjectDBX Classes
 90
        0
 91
        4
280
     0
281
     0
  0
CLASS
  1
VISUALSTYLE
  2
AcDbVisualStyle
  3
ObjectDBX Classes
 90
     4095
 91
        4
280
     0
281
     0
  0
CLASS
  1
MATERIAL
  2
AcDbMaterial
  3
ObjectDBX Classes
 90
     1153
 91
        4
280
     0
281
     0
  0
CLASS
  1
SCALE
  2
AcDbScale
  3
ObjectDBX Classes
 90
     1153
 91
        4
280
     0
281
     0
  0
CLASS
  1
TABLESTYLE
  2
AcDbTableStyle
  3
ObjectDBX Classes
 90
     4095
 91
        4
280
     0
281
     0
  0
CLASS
  1
MLEADERSTYLE
  2
AcDbMLeaderStyle
  3
ACDB_MLEADERSTYLE_CLASS
 90
     4095
 91
        4
280
     0
281
     0
  0
CLASS
  1
SUN
  2
AcDbSun
  3
SCENEOE
 90
     1153
 91
        4
280
     0
281
     0
  0
CLASS
  1
DICTIONARYVAR
  2
AcDbDictionaryVar
  3
ObjectDBX Classes
 90
        0
 91
        4
280
     0
281
     0
  0
CLASS
  1
CELLSTYLEMAP
  2
AcDbCellStyleMap
  3
ObjectDBX Classes
 90
     1152
 91
        4
280
     0
281
     0
  0
ENDSEC
  0
SECTION
  2
TABLES
  0
TABLE
  2
VPORT
  5
8
330
0
100
AcDbSymbolTable
 70
     1
  0
VPORT
  5
29
330
8
100
AcDbSymbolTableRecord
100
AcDbViewportTableRecord
  2
*Active
 70
     0
 10
0.0
 20
0.0
 11
1.0
 21
1.0
 12
0.0
 22
0.0625
 13
0.0
 23
0.0
 14
0.5
 24
0.5
 15
0.5
 25
0.5
 16
0.0
 26
0.0
 36
1.0
 17
0.0
 27
0.0
 37
0.0
 40
11.3475
 41
1.674157303370786
 42
50.0
 43
0.0
 44
0.0
 50
0.0
 51
0.0
 71
     0
 72
   100
 73
     1
 74
     3
 75
     0
 76
     0
 77
     0
 78
     0
281
     0
 65
     1
110
0.0
120
0.0
130
0.0
111
1.0
121
0.0
131
0.0
112
0.0
122
1.0
132
0.0
 79
     0
146
0.0
348
2F
 60
     3
 61
     5
292
     1
282
     1
141
0.0
142
0.0
 63
   250
361
6D
  0
ENDTAB
  0
TABLE
  2
LTYPE
  5
5
330
0
100
AcDbSymbolTable
 70
     3
  0
LTYPE
  5
14
330
5
100
AcDbSymbolTableRecord
100
AcDbLinetypeTableRecord
  2
ByBlock
 70
     0
  3

 72
    65
 73
     0
 40
0.0
  0
LTYPE
  5
15
330
5
100
AcDbSymbolTableRecord
100
AcDbLinetypeTableRecord
  2
ByLayer
 70
     0
  3

 72
    65
 73
     0
 40
0.0
  0
LTYPE
  5
16
330
5
100
AcDbSymbolTableRecord
100
AcDbLinetypeTableRecord
  2
Continuous
 70
     0
  3
Solid line
 72
    65
 73
     0
 40
0.0
  0
LTYPE
  5
9B
330
5
100
AcDbSymbolTableRecord
100
AcDbLinetypeTableRecord
  2
Dashed
 70
     0
  3

 72
    65
 73
     2
 40
2.0
 49
1.0
 74
     0
 49
-1.0
 74
     0
  0
LTYPE
  5
DA
330
5
100
AcDbSymbolTableRecord
100
AcDbLinetypeTableRecord
  2
Center
 70
     0
  3

 72
    65
 73
     4
 40
1.5
 49
0.45
 74
     0
 49
-0.5
 74
     0
 49
0.05
 74
     0
 49
-0.5
 74
     0
  0
ENDTAB
  0
TABLE
  2
LAYER
  5
2
330
0
100
AcDbSymbolTable
 70
     7
  0
LAYER
  5
10
330
2
100
AcDbSymbolTableRecord
100
AcDbLayerTableRecord
  2
0
 70
     0
 62
     7
  6
Continuous
370
    -3
390
F
347
46
348
0
  0
LAYER
  5
72
330
2
100
AcDbSymbolTableRecord
100
AcDbLayerTableRecord
  2
AM_6
 70
     0
 62
    -2
  6
Continuous
370
    35
390
F
347
46
348
0
  0
LAYER
  5
9C
330
2
100
AcDbSymbolTableRecord
100
AcDbLayerTableRecord
  2
AM_9
 70
     0
 62
     6
  6
Dashed
370
    25
390
F
347
46
348
0
  0
LAYER
  5
A3
330
2
100
AcDbSymbolTableRecord
100
AcDbLayerTableRecord
  2
AM_5
 70
     0
 62
     3
  6
Continuous
370
    25
390
F
347
46
348
0
  0
LAYER
  5
A9
330
2
100
AcDbSymbolTableRecord
100
AcDbLayerTableRecord
  2
AM_4
 70
     0
 62
     7
  6
Continuous
370
    50
390
F
347
46
348
0
  0
LAYER
  5
DB
330
2
100
AcDbSymbolTableRecord
100
AcDbLayerTableRecord
  2
AM_7
 70
     0
 62
     7
  6
Center
370
    25
390
F
347
46
348
0
  0
LAYER
  5
204
330
2
100
AcDbSymbolTableRecord
100
AcDbLayerTableRecord
  2
ConnectionPoints
 70
     0
 62
     7
  6
Continuous
370
    50
390
F
347
46
348
0
  0
ENDTAB
  0
TABLE
  2
STYLE
  5
3
330
0
100
AcDbSymbolTable
 70
     1
  0
STYLE
  5
11
330
3
100
AcDbSymbolTableRecord
100
AcDbTextStyleTableRecord
  2
Standard
 70
     0
 40
0.0
 41
1.0
 50
0.0
 71
     0
 42
0.2
  3
txt
  4

  0
ENDTAB
  0
TABLE
  2
VIEW
  5
6
330
0
100
AcDbSymbolTable
 70
     0
  0
ENDTAB
  0
TABLE
  2
UCS
  5
7
330
0
100
AcDbSymbolTable
 70
     0
  0
ENDTAB
  0
TABLE
  2
APPID
  5
9
330
0
100
AcDbSymbolTable
 70
     1
  0
APPID
  5
12
330
9
100
AcDbSymbolTableRecord
100
AcDbRegAppTableRecord
  2
ACAD
 70
     0
  0
ENDTAB
  0
TABLE
  2
DIMSTYLE
  5
A
330
0
100
AcDbSymbolTable
 70
     1
100
AcDbDimStyleTable
  0
DIMSTYLE
105
27
330
A
100
AcDbSymbolTableRecord
100
AcDbDimStyleTableRecord
  2
Standard
 70
     0
178
     0
340
11
  0
ENDTAB
  0
TABLE
  2
BLOCK_RECORD
  5
1
330
0
100
AcDbSymbolTable
 70
     8
  0
BLOCK_RECORD
  5
1F
330
1
100
AcDbSymbolTableRecord
100
AcDbBlockTableRecord
  2
*Model_Space
340
22
 70
     0
280
     1
281
     0
  0
BLOCK_RECORD
  5
1B
330
1
100
AcDbSymbolTableRecord
100
AcDbBlockTableRecord
  2
*Paper_Space
340
1E
 70
     0
280
     1
281
     0
  0
BLOCK_RECORD
  5
23
330
1
100
AcDbSymbolTableRecord
100
AcDbBlockTableRecord
  2
*Paper_Space0
340
26
 70
     0
280
     1
281
     0
  0
BLOCK_RECORD
  5
6E
330
1
100
AcDbSymbolTableRecord
100
AcDbBlockTableRecord
  2
1_069555_0
340
0
102
{BLKREFS
331
6F
102
}
 70
     0
280
     1
281
     0
  0
BLOCK_RECORD
  5
8F
330
1
100
AcDbSymbolTableRecord
100
AcDbBlockTableRecord
  2
2_405015E_Inch_0_in_069555_0
340
0
102
{BLKREFS
331
90
102
}
 70
     0
280
     1
281
     0
  0
BLOCK_RECORD
  5
C8
330
1
100
AcDbSymbolTableRecord
100
AcDbBlockTableRecord
  2
3_ASME_B18_3_5_16_1_0_in_069555_0
340
0
102
{BLKREFS
331
C9
102
}
 70
     0
280
     1
281
     0
  0
BLOCK_RECORD
  5
E7
330
1
100
AcDbSymbolTableRecord
100
AcDbBlockTableRecord
  2
4_ASME_B18_3_5_16_2_0_in_069555_0
340
0
102
{BLKREFS
331
E8
102
}
 70
     0
280
     1
281
     0
  0
BLOCK_RECORD
  5
104
330
1
100
AcDbSymbolTableRecord
100
AcDbBlockTableRecord
  2
5_070911LW_0_in_069555_0
340
0
102
{BLKREFS
331
105
102
}
 70
     0
280
     1
281
     0
  0
BLOCK_RECORD
  5
14F
330
1
100
AcDbSymbolTableRecord
100
AcDbBlockTableRecord
  2
6_070911I_0_in_069555_0
340
0
102
{BLKREFS
331
150
102
}
 70
     0
280
     1
281
     0
  0
BLOCK_RECORD
  5
1AA
330
1
100
AcDbSymbolTableRecord
100
AcDbBlockTableRecord
  2
7_069555H_0_in_069555_0
340
0
102
{BLKREFS
331
1AB
102
}
 70
     0
280
     1
281
     0
  0
ENDTAB
  0
ENDSEC
  0
SECTION
  2
BLOCKS
  0
BLOCK
  5
20
330
1F
100
AcDbEntity
  8
0
100
AcDbBlockBegin
  2
*Model_Space
 70
     0
 10
0.0
 20
0.0
 30
0.0
  3
*Model_Space
  1

  0
ENDBLK
  5
21
330
1F
100
AcDbEntity
  8
0
100
AcDbBlockEnd
  0
BLOCK
  5
1C
330
1B
100
AcDbEntity
 67
     1
  8
0
100
AcDbBlockBegin
  2
*Paper_Space
 70
     0
 10
0.0
 20
0.0
 30
0.0
  3
*Paper_Space
  1

  0
ENDBLK
  5
1D
330
1B
100
AcDbEntity
 67
     1
  8
0
100
AcDbBlockEnd
  0
BLOCK
  5
24
330
23
100
AcDbEntity
  8
0
100
AcDbBlockBegin
  2
*Paper_Space0
 70
     0
 10
0.0
 20
0.0
 30
0.0
  3
*Paper_Space0
  1

  0
ENDBLK
  5
25
330
23
100
AcDbEntity
  8
0
100
AcDbBlockEnd
  0
BLOCK
  5
70
330
6E
100
AcDbEntity
  8
0
100
AcDbBlockBegin
  2
1_069555_0
 70
     2
 10
0.0
 20
0.0
 30
0.0
  3
1_069555_0
  1

  0
ATTDEF
  5
73
330
6E
100
AcDbEntity
  8
AM_6
100
AcDbText
 10
14.3125
 20
5.625
 30
0.0
 40
0.5
  1
Imperial -IP Pillow Block 2-1/8 thru 3-1/2  4-Bolt Inch Bore (Contact Seal)
100
AcDbAttributeDefinition
  3

  2
NN
 70
     8
280
     0
  0
ATTDEF
  5
74
330
6E
100
AcDbEntity
  8
AM_6
100
AcDbText
 10
14.3125
 20
5.125
 30
0.0
 40
0.5
  1
Imperial 4 Bolt Piliow Block Bearings
100
AcDbAttributeDefinition
  3

  2
NT
 70
     8
280
     0
  0
ATTDEF
  5
75
330
6E
100
AcDbEntity
  8
AM_6
100
AcDbText
 10
14.3125
 20
4.625
 30
0.0
 40
0.5
  1
069555
100
AcDbAttributeDefinition
  3

  2
NB
 70
     8
280
     0
  0
ATTDEF
  5
76
330
6E
100
AcDbEntity
  8
AM_6
100
AcDbText
 10
14.3125
 20
4.125
 30
0.0
 40
0.5
  1
$PN.
100
AcDbAttributeDefinition
  3

  2
NBSYN
 70
     8
280
     0
  0
ATTDEF
  5
77
330
6E
100
AcDbEntity
  8
AM_6
100
AcDbText
 10
14.3125
 20
3.625
 30
0.0
 40
0.5
  1
069555
100
AcDbAttributeDefinition
  3

  2
LINA
 70
     8
280
     0
  0
ATTDEF
  5
78
330
6E
100
AcDbEntity
  8
AM_6
100
AcDbText
 10
14.3125
 20
3.125
 30
0.0
 40
0.5
  1
5
100
AcDbAttributeDefinition
  3

  2
SS
 70
     8
280
     0
  0
ATTDEF
  5
79
330
6E
100
AcDbEntity
  8
AM_6
100
AcDbText
 10
14.3125
 20
2.625
 30
0.0
 40
0.5
  1
069555
100
AcDbAttributeDefinition
  3

  2
PN
 70
     8
280
     0
  0
ATTDEF
  5
7A
330
6E
100
AcDbEntity
  8
AM_6
100
AcDbText
 10
14.3125
 20
2.125
 30
0.0
 40
0.5
  1
P4B-IP-500RE
100
AcDbAttributeDefinition
  3

  2
DESCRIPTION
 70
     8
280
     0
  0
ATTDEF
  5
7B
330
6E
100
AcDbEntity
  8
AM_6
100
AcDbText
 10
14.3125
 20
1.625
 30
0.0
 40
0.5
  1
Expansion Type
100
AcDbAttributeDefinition
  3

  2
EF
 70
     8
280
     0
  0
ATTDEF
  5
7C
330
6E
100
AcDbEntity
  8
AM_6
100
AcDbText
 10
14.3125
 20
1.125
 30
0.0
 40
0.5
  1
Contact  Seal
100
AcDbAttributeDefinition
  3

  2
ST
 70
     8
280
     0
  0
ATTDEF
  5
7D
330
6E
100
AcDbEntity
  8
AM_6
100
AcDbText
 10
14.3125
 20
0.625
 30
0.0
 40
0.5
  1
5-63/64
100
AcDbAttributeDefinition
  3

  2
A
 70
     8
280
     0
  0
ATTDEF
  5
7E
330
6E
100
AcDbEntity
  8
AM_6
100
AcDbText
 10
14.3125
 20
0.125
 30
0.0
 40
0.5
  1
18-5/8
100
AcDbAttributeDefinition
  3

  2
B
 70
     8
280
     0
  0
ATTDEF
  5
7F
330
6E
100
AcDbEntity
  8
AM_6
100
AcDbText
 10
14.3125
 20
-0.375
 30
0.0
 40
0.5
  1
5-3/8
100
AcDbAttributeDefinition
  3

  2
C
 70
     8
280
     0
  0
ATTDEF
  5
80
330
6E
100
AcDbEntity
  8
AM_6
100
AcDbText
 10
14.3125
 20
-0.875
 30
0.0
 40
0.5
  1
15
100
AcDbAttributeDefinition
  3

  2
DMIN
 70
     8
280
     0
  0
ATTDEF
  5
81
330
6E
100
AcDbEntity
  8
AM_6
100
AcDbText
 10
14.3125
 20
-1.375
 30
0.0
 40
0.5
  1
16
100
AcDbAttributeDefinition
  3

  2
DMAX
 70
     8
280
     0
  0
ATTDEF
  5
82
330
6E
100
AcDbEntity
  8
AM_6
100
AcDbText
 10
14.3125
 20
-1.875
 30
0.0
 40
0.5
  1
2-3/4
100
AcDbAttributeDefinition
  3

  2
E
 70
     8
280
     0
  0
ATTDEF
  5
83
330
6E
100
AcDbEntity
  8
AM_6
100
AcDbText
 10
14.3125
 20
-2.375
 30
0.0
 40
0.5
  1
7/8
100
AcDbAttributeDefinition
  3

  2
F
 70
     8
280
     0
  0
ATTDEF
  5
84
330
6E
100
AcDbEntity
  8
AM_6
100
AcDbText
 10
14.3125
 20
-2.875
 30
0.0
 40
0.5
  1
1-1/2
100
AcDbAttributeDefinition
  3

  2
G
 70
     8
280
     0
  0
ATTDEF
  5
85
330
6E
100
AcDbEntity
  8
AM_6
100
AcDbText
 10
14.3125
 20
-3.375
 30
0.0
 40
0.5
  1
3
100
AcDbAttributeDefinition
  3

  2
H
 70
     8
280
     0
  0
ATTDEF
  5
86
330
6E
100
AcDbEntity
  8
AM_6
100
AcDbText
 10
14.3125
 20
-3.875
 30
0.0
 40
0.5
  1
11-1/8
100
AcDbAttributeDefinition
  3

  2
J
 70
     8
280
     0
  0
ATTDEF
  5
87
330
6E
100
AcDbEntity
  8
AM_6
100
AcDbText
 10
14.3125
 20
-4.375
 30
0.0
 40
0.5
  1
7-5/8
100
AcDbAttributeDefinition
  3

  2
L
 70
     8
280
     0
  0
ATTDEF
  5
88
330
6E
100
AcDbEntity
  8
AM_6
100
AcDbText
 10
14.3125
 20
-4.875
 30
0.0
 40
0.5
  1
5-1/2
100
AcDbAttributeDefinition
  3

  2
M
 70
     8
280
     0
  0
ATTDEF
  5
89
330
6E
100
AcDbEntity
  8
AM_6
100
AcDbText
 10
14.3125
 20
-5.375
 30
0.0
 40
0.5
  1
1-29/32
100
AcDbAttributeDefinition
  3

  2
R
 70
     8
280
     0
  0
ATTDEF
  5
8A
330
6E
100
AcDbEntity
  8
AM_6
100
AcDbText
 10
14.3125
 20
-5.875
 30
0.0
 40
0.5
  1
4-5/64
100
AcDbAttributeDefinition
  3

  2
S
 70
     8
280
     0
  0
ATTDEF
  5
8B
330
6E
100
AcDbEntity
  8
AM_6
100
AcDbText
 10
14.3125
 20
-6.375
 30
0.0
 40
0.5
  1
3/8
100
AcDbAttributeDefinition
  3

  2
X
 70
     8
280
     0
  0
ATTDEF
  5
8C
330
6E
100
AcDbEntity
  8
AM_6
100
AcDbText
 10
14.3125
 20
-6.875
 30
0.0
 40
0.5
  1
0.036
100
AcDbAttributeDefinition
  3

  2
Y
 70
     8
280
     0
  0
ATTDEF
  5
8D
330
6E
100
AcDbEntity
  8
AM_6
100
AcDbText
 10
14.3125
 20
-7.375
 30
0.0
 40
0.5
  1
5-27/32
100
AcDbAttributeDefinition
  3

  2
Z
 70
     8
280
     0
  0
ATTDEF
  5
8E
330
6E
100
AcDbEntity
  8
AM_6
100
AcDbText
 10
14.3125
 20
-7.875
 30
0.0
 40
0.5
  1
baldor
100
AcDbAttributeDefinition
  3

  2
COMPANY
 70
     8
280
     0
  0
INSERT
  5
90
330
6E
100
AcDbEntity
  8
0
100
AcDbBlockReference
  2
2_405015E_Inch_0_in_069555_0
 10
0.0
 20
0.0
 30
0.0
  0
INSERT
  5
C9
330
6E
100
AcDbEntity
  8
0
100
AcDbBlockReference
  2
3_ASME_B18_3_5_16_1_0_in_069555_0
 10
0.0
 20
0.0
 30
0.0
  0
INSERT
  5
E8
330
6E
100
AcDbEntity
  8
0
100
AcDbBlockReference
  2
4_ASME_B18_3_5_16_2_0_in_069555_0
 10
0.0
 20
0.0
 30
0.0
  0
INSERT
  5
105
330
6E
100
AcDbEntity
  8
0
100
AcDbBlockReference
  2
5_070911LW_0_in_069555_0
 10
0.0
 20
0.0
 30
0.0
  0
INSERT
  5
150
330
6E
100
AcDbEntity
  8
0
100
AcDbBlockReference
  2
6_070911I_0_in_069555_0
 10
0.0
 20
0.0
 30
0.0
  0
INSERT
  5
1AB
330
6E
100
AcDbEntity
  8
0
100
AcDbBlockReference
  2
7_069555H_0_in_069555_0
 10
0.0
 20
0.0
 30
0.0
  0
ENDBLK
  5
71
330
6E
100
AcDbEntity
  8
0
100
AcDbBlockEnd
  0
BLOCK
  5
91
330
8F
100
AcDbEntity
  8
0
100
AcDbBlockBegin
  2
2_405015E_Inch_0_in_069555_0
 70
     2
 10
0.0
 20
0.0
 30
0.0
  3
2_405015E_Inch_0_in_069555_0
  1

  0
ATTDEF
  5
93
330
8F
100
AcDbEntity
  8
AM_6
100
AcDbText
 10
2.423650533277436
 20
5.334093914051668
 30
0.0
 40
0.5
  1
405015E -Inch
100
AcDbAttributeDefinition
  3

  2
NN
 70
     8
280
     0
  0
ATTDEF
  5
94
330
8F
100
AcDbEntity
  8
AM_6
100
AcDbText
 10
2.423650533277436
 20
4.834093914051668
 30
0.0
 40
0.5
  1
Grease Fitting
100
AcDbAttributeDefinition
  3

  2
NT
 70
     8
280
     0
  0
ATTDEF
  5
95
330
8F
100
AcDbEntity
  8
AM_6
100
AcDbText
 10
2.423650533277436
 20
4.334093914051668
 30
0.0
 40
0.5
  1
405015E-Inch
100
AcDbAttributeDefinition
  3

  2
NB
 70
     8
280
     0
  0
ATTDEF
  5
96
330
8F
100
AcDbEntity
  8
AM_6
100
AcDbText
 10
2.423650533277436
 20
3.834093914051668
 30
0.0
 40
0.5
  1
$MN.-Inch
100
AcDbAttributeDefinition
  3

  2
NBSYN
 70
     8
280
     0
  0
ATTDEF
  5
97
330
8F
100
AcDbEntity
  8
AM_6
100
AcDbText
 10
2.423650533277436
 20
3.334093914051668
 30
0.0
 40
0.5
  1
405015E
100
AcDbAttributeDefinition
  3

  2
LINA
 70
     8
280
     0
  0
ATTDEF
  5
98
330
8F
100
AcDbEntity
  8
AM_6
100
AcDbText
 10
2.423650533277436
 20
2.834093914051668
 30
0.0
 40
0.5
  1
405015E
100
AcDbAttributeDefinition
  3

  2
MN
 70
     8
280
     0
  0
ATTDEF
  5
99
330
8F
100
AcDbEntity
  8
AM_6
100
AcDbText
 10
2.423650533277436
 20
2.334093914051668
 30
0.0
 40
0.5
  1
1/8 x 27PTF
100
AcDbAttributeDefinition
  3

  2
T
 70
     8
280
     0
  0
ATTDEF
  5
9A
330
8F
100
AcDbEntity
  8
AM_6
100
AcDbText
 10
2.423650533277436
 20
1.834093914051668
 30
0.0
 40
0.5
  1
baldor
100
AcDbAttributeDefinition
  3

  2
COMPANY
 70
     8
280
     0
  0
LINE
  5
9D
330
8F
100
AcDbEntity
  8
AM_9
100
AcDbLine
 10
-2.589787999493342
 20
4.809450140899169
 30
0.0
 11
-2.576349466722564
 21
4.859603427978894
 31
0.0
  0
LINE
  5
9E
330
8F
100
AcDbEntity
  8
AM_9
100
AcDbLine
 10
-2.920365287586382
 20
4.660985801197678
 30
0.0
 11
-2.870212000506656
 21
4.6475472684269
 31
0.0
  0
LINE
  5
9F
330
8F
100
AcDbEntity
  8
AM_9
100
AcDbLine
 10
-2.870212000506656
 20
4.6475472684269
 30
0.0
 11
-2.589787999493342
 21
4.809450140899169
 31
0.0
  0
LINE
  5
A0
330
8F
100
AcDbEntity
  8
AM_9
100
AcDbLine
 10
-2.576349466722564
 20
4.859603427978894
 30
0.0
 11
-2.684313630127976
 21
5.060871385277445
 31
0.0
  0
LINE
  5
A1
330
8F
100
AcDbEntity
  8
AM_9
100
AcDbLine
 10
-3.040686369872022
 20
4.855119488054376
 30
0.0
 11
-2.920365287586382
 21
4.660985801197678
 31
0.0
  0
LINE
  5
A2
330
8F
100
AcDbEntity
  8
AM_9
100
AcDbLine
 10
-2.920365287586382
 20
4.660985801197678
 30
0.0
 11
-2.576349466722564
 21
4.859603427978894
 31
0.0
  0
LINE
  5
A4
330
8F
100
AcDbEntity
  8
AM_5
100
AcDbLine
 10
-2.684313630127976
 20
4.985665840536002
 30
0.0
 11
-2.589787999493342
 21
4.809450140899169
 31
0.0
  0
LINE
  5
A5
330
8F
100
AcDbEntity
  8
AM_5
100
AcDbLine
 10
-2.684313630127976
 20
5.060871385277446
 30
0.0
 11
-2.684313630127976
 21
4.985665840536002
 31
0.0
  0
LINE
  5
A6
330
8F
100
AcDbEntity
  8
AM_5
100
AcDbLine
 10
-3.006358695704769
 20
4.79973303523405
 30
0.0
 11
-2.653511392043692
 21
5.003449520985606
 31
0.0
  0
LINE
  5
A7
330
8F
100
AcDbEntity
  8
AM_5
100
AcDbLine
 10
-2.975556457620486
 20
4.817516715683654
 30
0.0
 11
-2.870212000506656
 21
4.647547268426901
 31
0.0
  0
LINE
  5
A8
330
8F
100
AcDbEntity
  8
AM_5
100
AcDbLine
 10
-3.040686369872022
 20
4.855119488054376
 30
0.0
 11
-2.975556457620486
 21
4.817516715683654
 31
0.0
  0
LINE
  5
AA
330
8F
100
AcDbEntity
  8
AM_4
100
AcDbLine
 10
-2.874067332602633
 20
5.18803064444172
 30
0.0
 11
-2.889067332602633
 21
5.214011406555254
 31
0.0
  0
LINE
  5
AB
330
8F
100
AcDbEntity
  8
AM_4
100
AcDbLine
 10
-3.070932667397365
 20
5.109011406555254
 30
0.0
 11
-3.055932667397366
 21
5.083030644441719
 31
0.0
  0
LINE
  5
AC
330
8F
100
AcDbEntity
  8
AM_4
100
AcDbLine
 10
-3.055932667397366
 20
5.083030644441719
 30
0.0
 11
-3.051777777865678
 21
5.048193983203208
 31
0.0
  0
LINE
  5
AD
330
8F
100
AcDbEntity
  8
AM_4
100
AcDbLine
 10
-2.845975343752892
 20
5.167014073938106
 30
0.0
 11
-2.874067332602633
 21
5.18803064444172
 31
0.0
  0
LINE
  5
AE
330
8F
100
AcDbEntity
  8
AM_4
100
AcDbLine
 10
-3.055932667397366
 20
5.083030644441719
 30
0.0
 11
-2.874067332602633
 21
5.18803064444172
 31
0.0
  0
LINE
  5
AF
330
8F
100
AcDbEntity
  8
AM_4
100
AcDbLine
 10
-3.138921671481427
 20
5.231416012118481
 30
0.0
 11
-3.126913429510899
 21
5.145972930782319
 31
0.0
  0
LINE
  5
B0
330
8F
100
AcDbEntity
  8
AM_4
100
AcDbLine
 10
-2.8930865704891
 20
5.28097293078232
 30
0.0
 11
-2.961078328518572
 21
5.334093914051668
 31
0.0
  0
LINE
  5
B1
330
8F
100
AcDbEntity
  8
AM_4
100
AcDbLine
 10
-3.138921671481427
 20
5.231416012118481
 30
0.0
 11
-2.961078328518572
 21
5.334093914051668
 31
0.0
  0
LINE
  5
B2
330
8F
100
AcDbEntity
  8
AM_4
100
AcDbLine
 10
-2.889067332602633
 20
5.214011406555254
 30
0.0
 11
-2.8930865704891
 21
5.28097293078232
 31
0.0
  0
LINE
  5
B3
330
8F
100
AcDbEntity
  8
AM_4
100
AcDbLine
 10
-3.126913429510899
 20
5.145972930782319
 30
0.0
 11
-3.070932667397365
 21
5.109011406555254
 31
0.0
  0
LINE
  5
B4
330
8F
100
AcDbEntity
  8
AM_4
100
AcDbLine
 10
-3.126913429510899
 20
5.145972930782319
 30
0.0
 11
-2.8930865704891
 21
5.28097293078232
 31
0.0
  0
LINE
  5
B5
330
8F
100
AcDbEntity
  8
AM_4
100
AcDbLine
 10
-3.070932667397365
 20
5.109011406555254
 30
0.0
 11
-2.889067332602633
 21
5.214011406555254
 31
0.0
  0
LINE
  5
B6
330
8F
100
AcDbEntity
  8
AM_4
100
AcDbLine
 10
-3.051777777865678
 20
5.048193983203208
 30
0.0
 11
-3.071077972431429
 21
4.974194975690818
 31
0.0
  0
LINE
  5
B7
330
8F
100
AcDbEntity
  8
AM_4
100
AcDbLine
 10
-2.772240226109451
 20
5.146729028973834
 30
0.0
 11
-2.845975343752892
 21
5.167014073938106
 31
0.0
  0
LINE
  5
B8
330
8F
100
AcDbEntity
  8
AM_4
100
AcDbLine
 10
-3.051777777865678
 20
5.048193983203208
 30
0.0
 11
-2.845975343752892
 21
5.167014073938106
 31
0.0
  0
LINE
  5
B9
330
8F
100
AcDbEntity
  8
AM_4
100
AcDbLine
 10
-2.673056942922153
 20
5.06737043666591
 30
0.0
 11
-2.723056942922153
 21
5.153972977044355
 31
0.0
  0
LINE
  5
BA
330
8F
100
AcDbEntity
  8
AM_4
100
AcDbLine
 10
-3.101943057077845
 20
4.935222977044354
 30
0.0
 11
-2.723056942922153
 21
5.153972977044355
 31
0.0
  0
LINE
  5
BB
330
8F
100
AcDbEntity
  8
AM_4
100
AcDbLine
 10
-3.101943057077845
 20
4.935222977044354
 30
0.0
 11
-3.051943057077846
 21
4.84862043666591
 31
0.0
  0
LINE
  5
BC
330
8F
100
AcDbEntity
  8
AM_4
100
AcDbLine
 10
-3.071077972431429
 20
4.974194975690818
 30
0.0
 11
-3.097612930058923
 21
4.937722977044354
 31
0.0
  0
LINE
  5
BD
330
8F
100
AcDbEntity
  8
AM_4
100
AcDbLine
 10
-2.727387069941076
 20
5.151472977044354
 30
0.0
 11
-2.772240226109451
 21
5.146729028973834
 31
0.0
  0
LINE
  5
BE
330
8F
100
AcDbEntity
  8
AM_4
100
AcDbLine
 10
-3.071077972431429
 20
4.974194975690818
 30
0.0
 11
-2.772240226109451
 21
5.146729028973834
 31
0.0
  0
LWPOLYLINE
  5
BF
330
8F
100
AcDbEntity
  8
AM_4
100
AcDbPolyline
 90
        3
 70
     0
 43
0.0
 10
-3.097409257229538
 20
4.927370205355738
 10
-3.05358797708269
 20
4.960352742236987
 10
-3.007221528538922
 20
4.989910477044355
  0
LWPOLYLINE
  5
C0
330
8F
100
AcDbEntity
  8
AM_4
100
AcDbPolyline
 90
        3
 70
     0
 43
0.0
 10
-2.957221528538923
 20
4.903307936665911
 10
-3.005778983200901
 20
4.87803691522668
 10
-3.056476856926152
 20
4.856473208354527
  0
LWPOLYLINE
  5
C1
330
8F
100
AcDbEntity
  8
AM_4
100
AcDbPolyline
 90
        3
 70
     0
 43
0.0
 10
-3.007221528538922
 20
4.989910477044355
 10
-2.958664073876943
 20
5.015181498483585
 10
-2.907966200151692
 20
5.036745205355738
  0
LWPOLYLINE
  5
C2
330
8F
100
AcDbEntity
  8
AM_4
100
AcDbPolyline
 90
        3
 70
     0
 43
0.0
 10
-2.817778471461077
 20
5.099285477044354
 10
-2.769221016799098
 20
5.124556498483584
 10
-2.718523143073846
 20
5.146120205355738
  0
LWPOLYLINE
  5
C3
330
8F
100
AcDbEntity
  8
AM_4
100
AcDbPolyline
 90
        3
 70
     0
 43
0.0
 10
-2.907966200151692
 20
5.036745205355738
 10
-2.864144920004844
 20
5.069727742236987
 10
-2.817778471461077
 20
5.099285477044354
  0
LINE
  5
C4
330
8F
100
AcDbEntity
  8
AM_4
100
AcDbLine
 10
-2.907966200151692
 20
5.036745205355738
 30
0.0
 11
-2.867033799848306
 21
4.965848208354527
 31
0.0
  0
LWPOLYLINE
  5
C5
330
8F
100
AcDbEntity
  8
AM_4
100
AcDbPolyline
 90
        3
 70
     0
 43
0.0
 10
-2.677590742770461
 20
5.075223208354527
 10
-2.721412022917308
 20
5.042240671473278
 10
-2.767778471461076
 20
5.012682936665911
  0
LWPOLYLINE
  5
C6
330
8F
100
AcDbEntity
  8
AM_4
100
AcDbPolyline
 90
        3
 70
     0
 43
0.0
 10
-2.767778471461076
 20
5.012682936665911
 10
-2.816335926123055
 20
4.98741191522668
 10
-2.867033799848306
 20
4.965848208354527
  0
LWPOLYLINE
  5
C7
330
8F
100
AcDbEntity
  8
AM_4
100
AcDbPolyline
 90
        3
 70
     0
 43
0.0
 10
-2.867033799848306
 20
4.965848208354527
 10
-2.910855079995155
 20
4.932865671473278
 10
-2.957221528538923
 20
4.903307936665911
  0
ENDBLK
  5
92
330
8F
100
AcDbEntity
  8
0
100
AcDbBlockEnd
  0
BLOCK
  5
CA
330
C8
100
AcDbEntity
  8
0
100
AcDbBlockBegin
  2
3_ASME_B18_3_5_16_1_0_in_069555_0
 70
     2
 10
0.0
 20
0.0
 30
0.0
  3
3_ASME_B18_3_5_16_1_0_in_069555_0
  1

  0
ATTDEF
  5
CC
330
C8
100
AcDbEntity
  8
AM_6
100
AcDbText
 10
5.287175
 20
-3.021638888888889
 30
0.0
 40
0.5
  1
ANSI/ASME B18.3-1998
100
AcDbAttributeDefinition
  3

  2
NN
 70
     8
280
     0
  0
ATTDEF
  5
CD
330
C8
100
AcDbEntity
  8
AM_6
100
AcDbText
 10
5.287175
 20
-3.521638888888889
 30
0.0
 40
0.5
  1
Socket Button Head Cap Screws
100
AcDbAttributeDefinition
  3

  2
NT
 70
     8
280
     0
  0
ATTDEF
  5
CE
330
C8
100
AcDbEntity
  8
AM_6
100
AcDbText
 10
5.287175
 20
-4.021638888888889
 30
0.0
 40
0.5
  1
ASME B18.3-5/16
100
AcDbAttributeDefinition
  3

  2
NB
 70
     8
280
     0
  0
ATTDEF
  5
CF
330
C8
100
AcDbEntity
  8
AM_6
100
AcDbText
 10
5.287175
 20
-4.521638888888889
 30
0.0
 40
0.5
  1
ASME B18.3-$NS.
100
AcDbAttributeDefinition
  3

  2
NBSYN
 70
     8
280
     0
  0
ATTDEF
  5
D0
330
C8
100
AcDbEntity
  8
AM_6
100
AcDbText
 10
5.287175
 20
-5.021638888888889
 30
0.0
 40
0.5
  1
ASME B18.3-5/16
100
AcDbAttributeDefinition
  3

  2
LINA
 70
     8
280
     0
  0
ATTDEF
  5
D1
330
C8
100
AcDbEntity
  8
AM_6
100
AcDbText
 10
5.287175
 20
-5.521638888888889
 30
0.0
 40
0.5
  1
5/16
100
AcDbAttributeDefinition
  3

  2
NS
 70
     8
280
     0
  0
ATTDEF
  5
D2
330
C8
100
AcDbEntity
  8
AM_6
100
AcDbText
 10
5.287175
 20
-6.021638888888889
 30
0.0
 40
0.5
  1
0.547
100
AcDbAttributeDefinition
  3

  2
A
 70
     8
280
     0
  0
ATTDEF
  5
D3
330
C8
100
AcDbEntity
  8
AM_6
100
AcDbText
 10
5.287175
 20
-6.521638888888889
 30
0.0
 40
0.5
  1
0.166
100
AcDbAttributeDefinition
  3

  2
H
 70
     8
280
     0
  0
ATTDEF
  5
D4
330
C8
100
AcDbEntity
  8
AM_6
100
AcDbText
 10
5.287175
 20
-7.021638888888889
 30
0.0
 40
0.5
  1
1.000
100
AcDbAttributeDefinition
  3

  2
L
 70
     8
280
     0
  0
ATTDEF
  5
D5
330
C8
100
AcDbEntity
  8
AM_6
100
AcDbText
 10
5.287175
 20
-7.521638888888889
 30
0.0
 40
0.5
  1
0.031
100
AcDbAttributeDefinition
  3

  2
S
 70
     8
280
     0
  0
ATTDEF
  5
D6
330
C8
100
AcDbEntity
  8
AM_6
100
AcDbText
 10
5.287175
 20
-8.021638888888889
 30
0.0
 40
0.5
  1
0.187500
100
AcDbAttributeDefinition
  3

  2
J
 70
     8
280
     0
  0
ATTDEF
  5
D7
330
C8
100
AcDbEntity
  8
AM_6
100
AcDbText
 10
5.287175
 20
-8.521638888888889
 30
0.0
 40
0.5
  1
baldor
100
AcDbAttributeDefinition
  3

  2
COMPANY
 70
     8
280
     0
  0
ARC
  5
D8
330
C8
100
AcDbEntity
  8
AM_5
100
AcDbCircle
 10
-0.0000000000000003
 20
-3.295138888888889
 30
0.0
 40
0.13765
100
AcDbArc
 50
74.99999999999994
 51
15.00000000000002
  0
ARC
  5
D9
330
C8
100
AcDbEntity
  8
AM_5
100
AcDbCircle
 10
-0.0000000000000001
 20
-3.295138888888889
 30
0.0
 40
0.1265000000000001
100
AcDbArc
 50
75.0
 51
14.99999999999994
  0
LINE
  5
DC
330
C8
100
AcDbEntity
  8
AM_7
100
AcDbLine
 10
-0.2871749999999998
 20
-3.295138888888889
 30
0.0
 11
0.2871749999999998
 21
-3.295138888888889
 31
0.0
  0
LINE
  5
DD
330
C8
100
AcDbEntity
  8
AM_4
100
AcDbLine
 10
0.0
 20
-3.403392064361944
 30
0.0
 11
-0.09375
 21
-3.349265476625416
 31
0.0
  0
LINE
  5
DE
330
C8
100
AcDbEntity
  8
AM_4
100
AcDbLine
 10
0.0
 20
-3.186885713415834
 30
0.0
 11
0.09375
 21
-3.241012301152362
 31
0.0
  0
CIRCLE
  5
DF
330
C8
100
AcDbEntity
  8
AM_4
100
AcDbCircle
 10
0.0
 20
-3.295138888888889
 30
0.0
 40
0.1385
  0
LINE
  5
E0
330
C8
100
AcDbEntity
  8
AM_4
100
AcDbLine
 10
-0.09375
 20
-3.349265476625416
 30
0.0
 11
-0.09375
 21
-3.241012301152362
 31
0.0
  0
LINE
  5
E1
330
C8
100
AcDbEntity
  8
AM_4
100
AcDbLine
 10
-0.09375
 20
-3.241012301152362
 30
0.0
 11
0.0
 21
-3.186885713415834
 31
0.0
  0
LINE
  5
E2
330
C8
100
AcDbEntity
  8
AM_4
100
AcDbLine
 10
0.09375
 20
-3.241012301152362
 30
0.0
 11
0.09375
 21
-3.349265476625416
 31
0.0
  0
LINE
  5
E3
330
C8
100
AcDbEntity
  8
AM_4
100
AcDbLine
 10
0.09375
 20
-3.349265476625416
 30
0.0
 11
0.0
 21
-3.403392064361944
 31
0.0
  0
ARC
  5
E4
330
C8
100
AcDbEntity
  8
AM_5
100
AcDbCircle
 10
0.0000000000000002
 20
-3.295138888888889
 30
0.0
 40
0.1376500000000001
100
AcDbArc
 50
254.9999999999999
 51
195.0
  0
ARC
  5
E5
330
C8
100
AcDbEntity
  8
AM_5
100
AcDbCircle
 10
-0.0000000000000001
 20
-3.295138888888889
 30
0.0
 40
0.1265000000000001
100
AcDbArc
 50
345.0000000000001
 51
285.0
  0
CIRCLE
  5
E6
330
C8
100
AcDbEntity
  8
AM_4
100
AcDbCircle
 10
0.0
 20
-3.295138888888889
 30
0.0
 40
0.2734999999999999
  0
ENDBLK
  5
CB
330
C8
100
AcDbEntity
  8
0
100
AcDbBlockEnd
  0
BLOCK
  5
E9
330
E7
100
AcDbEntity
  8
0
100
AcDbBlockBegin
  2
4_ASME_B18_3_5_16_2_0_in_069555_0
 70
     2
 10
0.0
 20
0.0
 30
0.0
  3
4_ASME_B18_3_5_16_2_0_in_069555_0
  1

  0
ATTDEF
  5
EB
330
E7
100
AcDbEntity
  8
AM_6
100
AcDbText
 10
5.287175
 20
3.56863888888889
 30
0.0
 40
0.5
  1
ANSI/ASME B18.3-1998
100
AcDbAttributeDefinition
  3

  2
NN
 70
     8
280
     0
  0
ATTDEF
  5
EC
330
E7
100
AcDbEntity
  8
AM_6
100
AcDbText
 10
5.287175
 20
3.06863888888889
 30
0.0
 40
0.5
  1
Socket Button Head Cap Screws
100
AcDbAttributeDefinition
  3

  2
NT
 70
     8
280
     0
  0
ATTDEF
  5
ED
330
E7
100
AcDbEntity
  8
AM_6
100
AcDbText
 10
5.287175
 20
2.56863888888889
 30
0.0
 40
0.5
  1
ASME B18.3-5/16
100
AcDbAttributeDefinition
  3

  2
NB
 70
     8
280
     0
  0
ATTDEF
  5
EE
330
E7
100
AcDbEntity
  8
AM_6
100
AcDbText
 10
5.287175
 20
2.06863888888889
 30
0.0
 40
0.5
  1
ASME B18.3-$NS.
100
AcDbAttributeDefinition
  3

  2
NBSYN
 70
     8
280
     0
  0
ATTDEF
  5
EF
330
E7
100
AcDbEntity
  8
AM_6
100
AcDbText
 10
5.287175
 20
1.56863888888889
 30
0.0
 40
0.5
  1
ASME B18.3-5/16
100
AcDbAttributeDefinition
  3

  2
LINA
 70
     8
280
     0
  0
ATTDEF
  5
F0
330
E7
100
AcDbEntity
  8
AM_6
100
AcDbText
 10
5.287175
 20
1.06863888888889
 30
0.0
 40
0.5
  1
5/16
100
AcDbAttributeDefinition
  3

  2
NS
 70
     8
280
     0
  0
ATTDEF
  5
F1
330
E7
100
AcDbEntity
  8
AM_6
100
AcDbText
 10
5.287175
 20
0.5686388888888896
 30
0.0
 40
0.5
  1
0.547
100
AcDbAttributeDefinition
  3

  2
A
 70
     8
280
     0
  0
ATTDEF
  5
F2
330
E7
100
AcDbEntity
  8
AM_6
100
AcDbText
 10
5.287175
 20
0.0686388888888896
 30
0.0
 40
0.5
  1
0.166
100
AcDbAttributeDefinition
  3

  2
H
 70
     8
280
     0
  0
ATTDEF
  5
F3
330
E7
100
AcDbEntity
  8
AM_6
100
AcDbText
 10
5.287175
 20
-0.4313611111111104
 30
0.0
 40
0.5
  1
1.000
100
AcDbAttributeDefinition
  3

  2
L
 70
     8
280
     0
  0
ATTDEF
  5
F4
330
E7
100
AcDbEntity
  8
AM_6
100
AcDbText
 10
5.287175
 20
-0.9313611111111104
 30
0.0
 40
0.5
  1
0.031
100
AcDbAttributeDefinition
  3

  2
S
 70
     8
280
     0
  0
ATTDEF
  5
F5
330
E7
100
AcDbEntity
  8
AM_6
100
AcDbText
 10
5.287175
 20
-1.43136111111111
 30
0.0
 40
0.5
  1
0.187500
100
AcDbAttributeDefinition
  3

  2
J
 70
     8
280
     0
  0
ATTDEF
  5
F6
330
E7
100
AcDbEntity
  8
AM_6
100
AcDbText
 10
5.287175
 20
-1.93136111111111
 30
0.0
 40
0.5
  1
baldor
100
AcDbAttributeDefinition
  3

  2
COMPANY
 70
     8
280
     0
  0
ARC
  5
F7
330
E7
100
AcDbEntity
  8
AM_5
100
AcDbCircle
 10
0.0000000000000001
 20
3.295138888888889
 30
0.0
 40
0.1376499999999999
100
AcDbArc
 50
75.0000000000001
 51
15.00000000000002
  0
ARC
  5
F8
330
E7
100
AcDbEntity
  8
AM_5
100
AcDbCircle
 10
0.0000000000000004
 20
3.295138888888889
 30
0.0
 40
0.1264999999999996
100
AcDbArc
 50
74.99999999999996
 51
14.99999999999992
  0
LINE
  5
F9
330
E7
100
AcDbEntity
  8
AM_7
100
AcDbLine
 10
-0.2871750000000004
 20
3.295138888888889
 30
0.0
 11
0.2871750000000003
 21
3.295138888888889
 31
0.0
  0
LINE
  5
FA
330
E7
100
AcDbEntity
  8
AM_4
100
AcDbLine
 10
0.0
 20
3.186885713415834
 30
0.0
 11
-0.09375
 21
3.241012301152362
 31
0.0
  0
LINE
  5
FB
330
E7
100
AcDbEntity
  8
AM_4
100
AcDbLine
 10
-0.09375
 20
3.349265476625416
 30
0.0
 11
0.0
 21
3.403392064361944
 31
0.0
  0
LINE
  5
FC
330
E7
100
AcDbEntity
  8
AM_4
100
AcDbLine
 10
0.0
 20
3.403392064361944
 30
0.0
 11
0.09375
 21
3.349265476625416
 31
0.0
  0
LINE
  5
FD
330
E7
100
AcDbEntity
  8
AM_4
100
AcDbLine
 10
0.09375
 20
3.349265476625416
 30
0.0
 11
0.09375
 21
3.241012301152362
 31
0.0
  0
LINE
  5
FE
330
E7
100
AcDbEntity
  8
AM_4
100
AcDbLine
 10
0.09375
 20
3.241012301152362
 30
0.0
 11
0.0
 21
3.186885713415834
 31
0.0
  0
LINE
  5
FF
330
E7
100
AcDbEntity
  8
AM_4
100
AcDbLine
 10
-0.09375
 20
3.241012301152362
 30
0.0
 11
-0.09375
 21
3.349265476625416
 31
0.0
  0
CIRCLE
  5
100
330
E7
100
AcDbEntity
  8
AM_4
100
AcDbCircle
 10
0.0
 20
3.295138888888889
 30
0.0
 40
0.1385
  0
ARC
  5
101
330
E7
100
AcDbEntity
  8
AM_5
100
AcDbCircle
 10
0.0000000000000002
 20
3.295138888888889
 30
0.0
 40
0.1376500000000001
100
AcDbArc
 50
254.9999999999999
 51
195.0
  0
ARC
  5
102
330
E7
100
AcDbEntity
  8
AM_5
100
AcDbCircle
 10
-0.0000000000000001
 20
3.295138888888889
 30
0.0
 40
0.1265000000000001
100
AcDbArc
 50
345.0000000000001
 51
285.0
  0
CIRCLE
  5
103
330
E7
100
AcDbEntity
  8
AM_4
100
AcDbCircle
 10
0.0
 20
3.295138888888889
 30
0.0
 40
0.2735000000000003
  0
ENDBLK
  5
EA
330
E7
100
AcDbEntity
  8
0
100
AcDbBlockEnd
  0
BLOCK
  5
106
330
104
100
AcDbEntity
  8
0
100
AcDbBlockBegin
  2
5_070911LW_0_in_069555_0
 70
     2
 10
0.0
 20
0.0
 30
0.0
  3
5_070911LW_0_in_069555_0
  1

  0
ATTDEF
  5
108
330
104
100
AcDbEntity
  8
AM_6
100
AcDbText
 10
8.8125
 20
3.8125
 30
0.0
 40
0.5
  1
Imperial Insert Lockwasher -Inch
100
AcDbAttributeDefinition
  3

  2
NN
 70
     8
280
     0
  0
ATTDEF
  5
109
330
104
100
AcDbEntity
  8
AM_6
100
AcDbText
 10
8.8125
 20
3.3125
 30
0.0
 40
0.5
  1
Imperial Bearings
100
AcDbAttributeDefinition
  3

  2
NT
 70
     8
280
     0
  0
ATTDEF
  5
10A
330
104
100
AcDbEntity
  8
AM_6
100
AcDbText
 10
8.8125
 20
2.8125
 30
0.0
 40
0.5
  1
070911LW
100
AcDbAttributeDefinition
  3

  2
NB
 70
     8
280
     0
  0
ATTDEF
  5
10B
330
104
100
AcDbEntity
  8
AM_6
100
AcDbText
 10
8.8125
 20
2.3125
 30
0.0
 40
0.5
  1
$PN.LW
100
AcDbAttributeDefinition
  3

  2
NBSYN
 70
     8
280
     0
  0
ATTDEF
  5
10C
330
104
100
AcDbEntity
  8
AM_6
100
AcDbText
 10
8.8125
 20
1.8125
 30
0.0
 40
0.5
  1
070911
100
AcDbAttributeDefinition
  3

  2
LINA
 70
     8
280
     0
  0
ATTDEF
  5
10D
330
104
100
AcDbEntity
  8
AM_6
100
AcDbText
 10
8.8125
 20
1.3125
 30
0.0
 40
0.5
  1
5
100
AcDbAttributeDefinition
  3

  2
SS
 70
     8
280
     0
  0
ATTDEF
  5
10E
330
104
100
AcDbEntity
  8
AM_6
100
AcDbText
 10
8.8125
 20
0.8125
 30
0.0
 40
0.5
  1
5.000000
100
AcDbAttributeDefinition
  3

  2
SS1
 70
     8
280
     0
  0
ATTDEF
  5
10F
330
104
100
AcDbEntity
  8
AM_6
100
AcDbText
 10
8.8125
 20
0.3125
 30
0.0
 40
0.5
  1
070911
100
AcDbAttributeDefinition
  3

  2
PN
 70
     8
280
     0
  0
ATTDEF
  5
110
330
104
100
AcDbEntity
  8
AM_6
100
AcDbText
 10
8.8125
 20
-0.1875
 30
0.0
 40
0.5
  1
INS-IP-500R
100
AcDbAttributeDefinition
  3

  2
DESCRIPTION
 70
     8
280
     0
  0
ATTDEF
  5
111
330
104
100
AcDbEntity
  8
AM_6
100
AcDbText
 10
8.8125
 20
-0.6875
 30
0.0
 40
0.5
  1
9.0551
100
AcDbAttributeDefinition
  3

  2
A
 70
     8
280
     0
  0
ATTDEF
  5
112
330
104
100
AcDbEntity
  8
AM_6
100
AcDbText
 10
8.8125
 20
-1.1875
 30
0.0
 40
0.5
  1
2-19/32
100
AcDbAttributeDefinition
  3

  2
B
 70
     8
280
     0
  0
ATTDEF
  5
113
330
104
100
AcDbEntity
  8
AM_6
100
AcDbText
 10
8.8125
 20
-1.6875
 30
0.0
 40
0.5
  1
5-63/64
100
AcDbAttributeDefinition
  3

  2
C
 70
     8
280
     0
  0
ATTDEF
  5
114
330
104
100
AcDbEntity
  8
AM_6
100
AcDbText
 10
8.8125
 20
-2.1875
 30
0.0
 40
0.5
  1
2.107
100
AcDbAttributeDefinition
  3

  2
D
 70
     8
280
     0
  0
ATTDEF
  5
115
330
104
100
AcDbEntity
  8
AM_6
100
AcDbText
 10
8.8125
 20
-2.6875
 30
0.0
 40
0.5
  1
7-5/8
100
AcDbAttributeDefinition
  3

  2
E
 70
     8
280
     0
  0
ATTDEF
  5
116
330
104
100
AcDbEntity
  8
AM_6
100
AcDbText
 10
8.8125
 20
-3.1875
 30
0.0
 40
0.5
  1
0.3125
100
AcDbAttributeDefinition
  3

  2
NDM
 70
     8
280
     0
  0
ATTDEF
  5
117
330
104
100
AcDbEntity
  8
AM_6
100
AcDbText
 10
8.8125
 20
-3.6875
 30
0.0
 40
0.5
  1
0.2580
100
AcDbAttributeDefinition
  3

  2
KDM
 70
     8
280
     0
  0
ATTDEF
  5
118
330
104
100
AcDbEntity
  8
AM_6
100
AcDbText
 10
8.8125
 20
-4.1875
 30
0.0
 40
0.5
  1
6.80
100
AcDbAttributeDefinition
  3

  2
AL
 70
     8
280
     0
  0
ATTDEF
  5
119
330
104
100
AcDbEntity
  8
AM_6
100
AcDbText
 10
8.8125
 20
-4.6875
 30
0.0
 40
0.5
  1
0.50
100
AcDbAttributeDefinition
  3

  2
BL
 70
     8
280
     0
  0
ATTDEF
  5
11A
330
104
100
AcDbEntity
  8
AM_6
100
AcDbText
 10
8.8125
 20
-5.1875
 30
0.0
 40
0.5
  1
0.07
100
AcDbAttributeDefinition
  3

  2
CL
 70
     8
280
     0
  0
ATTDEF
  5
11B
330
104
100
AcDbEntity
  8
AM_6
100
AcDbText
 10
8.8125
 20
-5.6875
 30
0.0
 40
0.5
  1
0.50
100
AcDbAttributeDefinition
  3

  2
DL
 70
     8
280
     0
  0
ATTDEF
  5
11C
330
104
100
AcDbEntity
  8
AM_6
100
AcDbText
 10
8.8125
 20
-6.1875
 30
0.0
 40
0.5
  1
baldor
100
AcDbAttributeDefinition
  3

  2
COMPANY
 70
     8
280
     0
  0
ARC
  5
11D
330
104
100
AcDbEntity
  8
AM_9
100
AcDbCircle
 10
-0.0000000000000812
 20
0.0000000000002025
 30
0.0
 40
2.631578947368204
100
AcDbArc
 50
109.7774260166237
 51
115.2225739833764
  0
LINE
  5
11E
330
104
100
AcDbEntity
  8
AM_9
100
AcDbLine
 10
0.1562499999999992
 20
3.295138888888888
 30
0.0
 11
0.1562499999999996
 21
3.070665755752649
 31
0.0
  0
LINE
  5
11F
330
104
100
AcDbEntity
  8
AM_9
100
AcDbLine
 10
-0.1562500000000004
 20
3.070665755752649
 30
0.0
 11
-0.1562500000000008
 21
3.295138888888889
 31
0.0
  0
LINE
  5
120
330
104
100
AcDbEntity
  8
AM_9
100
AcDbLine
 10
0.1562500000000013
 20
-3.07066575575265
 30
0.0
 11
0.1562500000000016
 21
-3.295138888888889
 31
0.0
  0
LINE
  5
121
330
104
100
AcDbEntity
  8
AM_9
100
AcDbLine
 10
-0.1562499999999984
 20
-3.295138888888889
 30
0.0
 11
-0.1562499999999985
 21
-3.070665755752648
 31
0.0
  0
LINE
  5
122
330
104
100
AcDbEntity
  8
AM_7
100
AcDbLine
 10
3.295182841951559
 20
-0.1640625064910878
 30
0.0
 11
3.295182841951559
 21
0.1640625064910899
 31
0.0
  0
LINE
  5
123
330
104
100
AcDbEntity
  8
AM_7
100
AcDbLine
 10
-2.494108639284595
 20
-2.330046132793508
 30
0.0
 11
-2.165983626302416
 21
-2.330046132793508
 31
0.0
  0
LINE
  5
124
330
104
100
AcDbEntity
  8
AM_7
100
AcDbLine
 10
-2.330046132793505
 20
-2.494108639284597
 30
0.0
 11
-2.330046132793505
 21
-2.165983626302418
 31
0.0
  0
LINE
  5
125
330
104
100
AcDbEntity
  8
AM_7
100
AcDbLine
 10
2.165983626302417
 20
2.330046132793507
 30
0.0
 11
2.494108639284596
 21
2.330046132793507
 31
0.0
  0
LINE
  5
126
330
104
100
AcDbEntity
  8
AM_7
100
AcDbLine
 10
2.330046132793506
 20
2.165983626302418
 30
0.0
 11
2.330046132793506
 21
2.494108639284597
 31
0.0
  0
LINE
  5
127
330
104
100
AcDbEntity
  8
AM_7
100
AcDbLine
 10
2.165983626302419
 20
-2.330046132793506
 30
0.0
 11
2.494108639284597
 21
-2.330046132793506
 31
0.0
  0
LINE
  5
128
330
104
100
AcDbEntity
  8
AM_7
100
AcDbLine
 10
2.330046132793508
 20
-2.494108639284595
 30
0.0
 11
2.330046132793508
 21
-2.165983626302417
 31
0.0
  0
LINE
  5
129
330
104
100
AcDbEntity
  8
AM_7
100
AcDbLine
 10
-3.295182841951559
 20
-0.1640625064910905
 30
0.0
 11
-3.295182841951559
 21
0.1640625064910872
 31
0.0
  0
LINE
  5
12A
330
104
100
AcDbEntity
  8
AM_7
100
AcDbLine
 10
-2.494108639284596
 20
2.330046132793507
 30
0.0
 11
-2.165983626302418
 21
2.330046132793507
 31
0.0
  0
LINE
  5
12B
330
104
100
AcDbEntity
  8
AM_7
100
AcDbLine
 10
-2.330046132793507
 20
2.165983626302418
 30
0.0
 11
-2.330046132793507
 21
2.494108639284596
 31
0.0
  0
LINE
  5
12C
330
104
100
AcDbEntity
  8
AM_4
100
AcDbLine
 10
-1.797417581409823
 20
-2.01838845053061
 30
0.0
 11
-2.21952961872444
 21
-2.440500487845238
 31
0.0
  0
ARC
  5
12D
330
104
100
AcDbEntity
  8
AM_4
100
AcDbCircle
 10
0.0000000000000049
 20
0.0000000000000098
 30
0.0
 40
2.702702702702692
100
AcDbArc
 50
48.3142602048739
 51
86.68573979512598
  0
LINE
  5
12E
330
104
100
AcDbEntity
  8
AM_4
100
AcDbLine
 10
0.1562499999999996
 20
3.070665755752649
 30
0.0
 11
0.1562499999999997
 21
2.698182320877611
 31
0.0
  0
ARC
  5
12F
330
104
100
AcDbEntity
  8
AM_4
100
AcDbCircle
 10
-0.0000000000000011
 20
-0.0000000000000031
 30
0.0
 40
2.7027027027027
100
AcDbArc
 50
228.3142602048739
 51
266.6857397951259
  0
ARC
  5
130
330
104
100
AcDbEntity
  8
AM_4
100
AcDbCircle
 10
-2.330046132793506
 20
-2.330046132793508
 30
0.0
 40
0.1562500061819891
100
AcDbArc
 50
134.9838827205039
 51
315.0161172794961
  0
LINE
  5
131
330
104
100
AcDbEntity
  8
AM_4
100
AcDbLine
 10
-0.1562499999999997
 20
2.698182320877611
 30
0.0
 11
-0.1562500000000004
 21
3.070665755752649
 31
0.0
  0
ARC
  5
132
330
104
100
AcDbEntity
  8
AM_4
100
AcDbCircle
 10
-3.295182841951559
 20
-0.0000000000000016
 30
0.0
 40
0.1562500061819894
100
AcDbArc
 50
89.98388272050393
 51
270.0161172794961
  0
LINE
  5
133
330
104
100
AcDbEntity
  8
AM_4
100
AcDbLine
 10
0.1562500000000027
 20
-2.698182320877612
 30
0.0
 11
0.1562500000000013
 21
-3.07066575575265
 31
0.0
  0
ARC
  5
134
330
104
100
AcDbEntity
  8
AM_4
100
AcDbCircle
 10
0.0000000000000007
 20
-0.0000000000000018
 30
0.0
 40
2.702702702702701
100
AcDbArc
 50
273.3142602048741
 51
311.6857397951259
  0
LINE
  5
135
330
104
100
AcDbEntity
  8
AM_4
100
AcDbLine
 10
2.219529618724421
 20
-2.440500487845215
 30
0.0
 11
1.797417581409819
 21
-2.018388450530614
 31
0.0
  0
ARC
  5
136
330
104
100
AcDbEntity
  8
AM_4
100
AcDbCircle
 10
2.330046132793508
 20
-2.330046132793507
 30
0.0
 40
0.1562500061819894
100
AcDbArc
 50
224.9838827204929
 51
45.01611727949635
  0
LINE
  5
137
330
104
100
AcDbEntity
  8
AM_4
100
AcDbLine
 10
2.018388450530616
 20
-1.797417581409817
 30
0.0
 11
2.440500487845238
 21
-2.21952961872444
 31
0.0
  0
ARC
  5
138
330
104
100
AcDbEntity
  8
AM_4
100
AcDbCircle
 10
-0.0000000000000031
 20
0.0
 30
0.0
 40
2.702702702702705
100
AcDbArc
 50
318.3142602048742
 51
356.6857397951259
  0
LINE
  5
139
330
104
100
AcDbEntity
  8
AM_4
100
AcDbLine
 10
3.295138888888889
 20
-0.1562499999999989
 30
0.0
 11
2.698182320877611
 21
-0.1562499999999995
 31
0.0
  0
ARC
  5
13A
330
104
100
AcDbEntity
  8
AM_4
100
AcDbCircle
 10
3.295182841951559
 20
0.0000000000000011
 30
0.0
 40
0.1562500061819894
100
AcDbArc
 50
269.9838827205039
 51
90.01611727949609
  0
LINE
  5
13B
330
104
100
AcDbEntity
  8
AM_4
100
AcDbLine
 10
2.698182320877611
 20
0.1562500000000014
 30
0.0
 11
3.295138888888889
 21
0.1562500000000011
 31
0.0
  0
ARC
  5
13C
330
104
100
AcDbEntity
  8
AM_4
100
AcDbCircle
 10
0.0000000000000062
 20
0.0000000000000024
 30
0.0
 40
2.702702702702696
100
AcDbArc
 50
3.314260204874172
 51
41.68573979512595
  0
LINE
  5
13D
330
104
100
AcDbEntity
  8
AM_4
100
AcDbLine
 10
2.440500487845237
 20
2.219529618724441
 30
0.0
 11
2.018388450530613
 21
1.797417581409818
 31
0.0
  0
ARC
  5
13E
330
104
100
AcDbEntity
  8
AM_4
100
AcDbCircle
 10
-0.0000000000000169
 20
0.0000000000000058
 30
0.0
 40
2.702702702702686
100
AcDbArc
 50
138.314260204874
 51
176.6857397951261
  0
LINE
  5
13F
330
104
100
AcDbEntity
  8
AM_4
100
AcDbLine
 10
-0.1562499999999985
 20
-3.070665755752648
 30
0.0
 11
-0.1562499999999989
 21
-2.698182320877612
 31
0.0
  0
ARC
  5
140
330
104
100
AcDbEntity
  8
AM_4
100
AcDbCircle
 10
-0.0000000000000064
 20
0.0000000000000284
 30
0.0
 40
2.702702702702673
100
AcDbArc
 50
93.31426020487402
 51
109.8491245594084
  0
LINE
  5
141
330
104
100
AcDbEntity
  8
AM_4
100
AcDbLine
 10
-0.8904399895643816
 20
2.47635304050478
 30
0.0
 11
-0.9176878188838663
 21
2.542135119593107
 31
0.0
  0
ARC
  5
142
330
104
100
AcDbEntity
  8
AM_4
100
AcDbCircle
 10
-0.000000000000133
 20
0.0000000000003277
 30
0.0
 40
2.499999999999647
100
AcDbArc
 50
109.6340160174008
 51
115.3659839825993
  0
LINE
  5
143
330
104
100
AcDbEntity
  8
AM_4
100
AcDbLine
 10
-1.148657702011688
 20
2.446464261501835
 30
0.0
 11
-1.121409872692203
 21
2.380682182413508
 31
0.0
  0
LINE
  5
144
330
104
100
AcDbEntity
  8
AM_4
100
AcDbLine
 10
1.797417581409823
 20
2.018388450530609
 30
0.0
 11
2.21952961872444
 21
2.440500487845238
 31
0.0
  0
ARC
  5
145
330
104
100
AcDbEntity
  8
AM_4
100
AcDbCircle
 10
2.330046132793507
 20
2.330046132793507
 30
0.0
 40
0.1562500061819894
100
AcDbArc
 50
314.983882720504
 51
135.016117279496
  0
LINE
  5
146
330
104
100
AcDbEntity
  8
AM_4
100
AcDbLine
 10
-2.440500487845236
 20
-2.219529618724442
 30
0.0
 11
-2.018388450530613
 21
-1.797417581409819
 31
0.0
  0
ARC
  5
147
330
104
100
AcDbEntity
  8
AM_4
100
AcDbCircle
 10
-0.0000000000000075
 20
-0.0000000000000034
 30
0.0
 40
2.702702702702694
100
AcDbArc
 50
183.314260204874
 51
221.685739795126
  0
LINE
  5
148
330
104
100
AcDbEntity
  8
AM_4
100
AcDbLine
 10
-2.698182320877611
 20
-0.1562500000000014
 30
0.0
 11
-3.295138888888889
 21
-0.1562500000000016
 31
0.0
  0
LINE
  5
149
330
104
100
AcDbEntity
  8
AM_4
100
AcDbLine
 10
-3.295138888888889
 20
0.1562499999999984
 30
0.0
 11
-2.698182320877612
 21
0.1562499999999986
 31
0.0
  0
LINE
  5
14A
330
104
100
AcDbEntity
  8
AM_4
100
AcDbLine
 10
-2.018388450530614
 20
1.797417581409817
 30
0.0
 11
-2.440500487845237
 21
2.219529618724441
 31
0.0
  0
ARC
  5
14B
330
104
100
AcDbEntity
  8
AM_4
100
AcDbCircle
 10
-2.330046132793507
 20
2.330046132793507
 30
0.0
 40
0.1562500061819894
100
AcDbArc
 50
44.98388272047039
 51
225.0161172794961
  0
LINE
  5
14C
330
104
100
AcDbEntity
  8
AM_4
100
AcDbLine
 10
-2.219529618724376
 20
2.440500487845172
 30
0.0
 11
-1.797417581409817
 21
2.018388450530614
 31
0.0
  0
ARC
  5
14D
330
104
100
AcDbEntity
  8
AM_4
100
AcDbCircle
 10
0.0000000000000355
 20
-0.0000000000000506
 30
0.0
 40
2.702702702702763
100
AcDbArc
 50
115.150875440592
 51
131.6857397951258
  0
CIRCLE
  5
14E
330
104
100
AcDbEntity
  8
AM_4
100
AcDbCircle
 10
0.0
 20
0.0
 30
0.0
 40
3.8125
  0
ENDBLK
  5
107
330
104
100
AcDbEntity
  8
0
100
AcDbBlockEnd
  0
BLOCK
  5
151
330
14F
100
AcDbEntity
  8
0
100
AcDbBlockBegin
  2
6_070911I_0_in_069555_0
 70
     2
 10
0.0
 20
0.0
 30
0.0
  3
6_070911I_0_in_069555_0
  1

  0
ATTDEF
  5
153
330
14F
100
AcDbEntity
  8
AM_6
100
AcDbText
 10
9.47755
 20
4.477550000000001
 30
0.0
 40
0.5
  1
Imperial Insert -Inch
100
AcDbAttributeDefinition
  3

  2
NN
 70
     8
280
     0
  0
ATTDEF
  5
154
330
14F
100
AcDbEntity
  8
AM_6
100
AcDbText
 10
9.47755
 20
3.977550000000001
 30
0.0
 40
0.5
  1
Imperial Bearings
100
AcDbAttributeDefinition
  3

  2
NT
 70
     8
280
     0
  0
ATTDEF
  5
155
330
14F
100
AcDbEntity
  8
AM_6
100
AcDbText
 10
9.47755
 20
3.477550000000001
 30
0.0
 40
0.5
  1
070911I
100
AcDbAttributeDefinition
  3

  2
NB
 70
     8
280
     0
  0
ATTDEF
  5
156
330
14F
100
AcDbEntity
  8
AM_6
100
AcDbText
 10
9.47755
 20
2.977550000000001
 30
0.0
 40
0.5
  1
$PN.I
100
AcDbAttributeDefinition
  3

  2
NBSYN
 70
     8
280
     0
  0
ATTDEF
  5
157
330
14F
100
AcDbEntity
  8
AM_6
100
AcDbText
 10
9.47755
 20
2.477550000000001
 30
0.0
 40
0.5
  1
070911
100
AcDbAttributeDefinition
  3

  2
LINA
 70
     8
280
     0
  0
ATTDEF
  5
158
330
14F
100
AcDbEntity
  8
AM_6
100
AcDbText
 10
9.47755
 20
1.977550000000001
 30
0.0
 40
0.5
  1
5
100
AcDbAttributeDefinition
  3

  2
SS
 70
     8
280
     0
  0
ATTDEF
  5
159
330
14F
100
AcDbEntity
  8
AM_6
100
AcDbText
 10
9.47755
 20
1.477550000000001
 30
0.0
 40
0.5
  1
5.000000
100
AcDbAttributeDefinition
  3

  2
SS1
 70
     8
280
     0
  0
ATTDEF
  5
15A
330
14F
100
AcDbEntity
  8
AM_6
100
AcDbText
 10
9.47755
 20
0.9775500000000008
 30
0.0
 40
0.5
  1
070911
100
AcDbAttributeDefinition
  3

  2
PN
 70
     8
280
     0
  0
ATTDEF
  5
15B
330
14F
100
AcDbEntity
  8
AM_6
100
AcDbText
 10
9.47755
 20
0.4775500000000008
 30
0.0
 40
0.5
  1
INS-IP-500R
100
AcDbAttributeDefinition
  3

  2
DESCRIPTION
 70
     8
280
     0
  0
ATTDEF
  5
15C
330
14F
100
AcDbEntity
  8
AM_6
100
AcDbText
 10
9.47755
 20
-0.0224499999999992
 30
0.0
 40
0.5
  1
Contact Seal
100
AcDbAttributeDefinition
  3

  2
ST
 70
     8
280
     0
  0
ATTDEF
  5
15D
330
14F
100
AcDbEntity
  8
AM_6
100
AcDbText
 10
9.47755
 20
-0.5224499999999992
 30
0.0
 40
0.5
  1
9.0551
100
AcDbAttributeDefinition
  3

  2
A
 70
     8
280
     0
  0
ATTDEF
  5
15E
330
14F
100
AcDbEntity
  8
AM_6
100
AcDbText
 10
9.47755
 20
-1.022449999999999
 30
0.0
 40
0.5
  1
2-19/32
100
AcDbAttributeDefinition
  3

  2
B
 70
     8
280
     0
  0
ATTDEF
  5
15F
330
14F
100
AcDbEntity
  8
AM_6
100
AcDbText
 10
9.47755
 20
-1.522449999999999
 30
0.0
 40
0.5
  1
5-63/64
100
AcDbAttributeDefinition
  3

  2
C
 70
     8
280
     0
  0
ATTDEF
  5
160
330
14F
100
AcDbEntity
  8
AM_6
100
AcDbText
 10
9.47755
 20
-2.022449999999999
 30
0.0
 40
0.5
  1
2.107
100
AcDbAttributeDefinition
  3

  2
D
 70
     8
280
     0
  0
ATTDEF
  5
161
330
14F
100
AcDbEntity
  8
AM_6
100
AcDbText
 10
9.47755
 20
-2.522449999999999
 30
0.0
 40
0.5
  1
7-5/8
100
AcDbAttributeDefinition
  3

  2
E
 70
     8
280
     0
  0
ATTDEF
  5
162
330
14F
100
AcDbEntity
  8
AM_6
100
AcDbText
 10
9.47755
 20
-3.022449999999999
 30
0.0
 40
0.5
  1
0.3125
100
AcDbAttributeDefinition
  3

  2
NDM
 70
     8
280
     0
  0
ATTDEF
  5
163
330
14F
100
AcDbEntity
  8
AM_6
100
AcDbText
 10
9.47755
 20
-3.522449999999999
 30
0.0
 40
0.5
  1
0.166
100
AcDbAttributeDefinition
  3

  2
H
 70
     8
280
     0
  0
ATTDEF
  5
164
330
14F
100
AcDbEntity
  8
AM_6
100
AcDbText
 10
9.47755
 20
-4.022449999999999
 30
0.0
 40
0.5
  1
0.2580
100
AcDbAttributeDefinition
  3

  2
KDM
 70
     8
280
     0
  0
ATTDEF
  5
165
330
14F
100
AcDbEntity
  8
AM_6
100
AcDbText
 10
9.47755
 20
-4.522449999999999
 30
0.0
 40
0.5
  1
6.80
100
AcDbAttributeDefinition
  3

  2
AL
 70
     8
280
     0
  0
ATTDEF
  5
166
330
14F
100
AcDbEntity
  8
AM_6
100
AcDbText
 10
9.47755
 20
-5.022449999999999
 30
0.0
 40
0.5
  1
0.50
100
AcDbAttributeDefinition
  3

  2
BL
 70
     8
280
     0
  0
ATTDEF
  5
167
330
14F
100
AcDbEntity
  8
AM_6
100
AcDbText
 10
9.47755
 20
-5.522449999999999
 30
0.0
 40
0.5
  1
0.07
100
AcDbAttributeDefinition
  3

  2
CL
 70
     8
280
     0
  0
ATTDEF
  5
168
330
14F
100
AcDbEntity
  8
AM_6
100
AcDbText
 10
9.47755
 20
-6.022449999999999
 30
0.0
 40
0.5
  1
0.50
100
AcDbAttributeDefinition
  3

  2
DL
 70
     8
280
     0
  0
ATTDEF
  5
169
330
14F
100
AcDbEntity
  8
AM_6
100
AcDbText
 10
9.47755
 20
-6.522449999999999
 30
0.0
 40
0.5
  1
1.0000
100
AcDbAttributeDefinition
  3

  2
LL
 70
     8
280
     0
  0
ATTDEF
  5
16A
330
14F
100
AcDbEntity
  8
AM_6
100
AcDbText
 10
9.47755
 20
-7.022449999999999
 30
0.0
 40
0.5
  1
0.036
100
AcDbAttributeDefinition
  3

  2
Y
 70
     8
280
     0
  0
ATTDEF
  5
16B
330
14F
100
AcDbEntity
  8
AM_6
100
AcDbText
 10
9.47755
 20
-7.522449999999999
 30
0.0
 40
0.5
  1
0.036000
100
AcDbAttributeDefinition
  3

  2
Y1
 70
     8
280
     0
  0
ATTDEF
  5
16C
330
14F
100
AcDbEntity
  8
AM_6
100
AcDbText
 10
9.47755
 20
-8.02245
 30
0.0
 40
0.5
  1
5-27/32
100
AcDbAttributeDefinition
  3

  2
Z
 70
     8
280
     0
  0
ATTDEF
  5
16D
330
14F
100
AcDbEntity
  8
AM_6
100
AcDbText
 10
9.47755
 20
-8.52245
 30
0.0
 40
0.5
  1
5.843750
100
AcDbAttributeDefinition
  3

  2
Z1
 70
     8
280
     0
  0
ATTDEF
  5
16E
330
14F
100
AcDbEntity
  8
AM_6
100
AcDbText
 10
9.47755
 20
-9.02245
 30
0.0
 40
0.5
  1
baldor
100
AcDbAttributeDefinition
  3

  2
COMPANY
 70
     8
280
     0
  0
CIRCLE
  5
16F
330
14F
100
AcDbEntity
  8
AM_9
100
AcDbCircle
 10
0.0
 20
0.0
 30
0.0
 40
2.921875
  0
CIRCLE
  5
170
330
14F
100
AcDbEntity
  8
AM_9
100
AcDbCircle
 10
0.0
 20
0.0
 30
0.0
 40
3.171607905982905
  0
CIRCLE
  5
171
330
14F
100
AcDbEntity
  8
AM_9
100
AcDbCircle
 10
0.0
 20
0.0
 30
0.0
 40
3.970314520938919
  0
CIRCLE
  5
172
330
14F
100
AcDbEntity
  8
AM_9
100
AcDbCircle
 10
0.0
 20
0.0
 30
0.0
 40
3.246527777777778
  0
CIRCLE
  5
173
330
14F
100
AcDbEntity
  8
AM_9
100
AcDbCircle
 10
0.0
 20
0.0
 30
0.0
 40
4.056917061317362
  0
CIRCLE
  5
174
330
14F
100
AcDbEntity
  8
AM_9
100
AcDbCircle
 10
0.0
 20
0.0
 30
0.0
 40
4.32755
  0
CIRCLE
  5
175
330
14F
100
AcDbEntity
  8
AM_9
100
AcDbCircle
 10
0.0
 20
0.0
 30
0.0
 40
4.397862499999999
  0
LINE
  5
176
330
14F
100
AcDbEntity
  8
AM_9
100
AcDbLine
 10
2.514459823199705
 20
-2.868013213792981
 30
0.0
 11
2.227386360737623
 21
-2.580939751330899
 31
0.0
  0
LINE
  5
177
330
14F
100
AcDbEntity
  8
AM_9
100
AcDbLine
 10
-2.227386360737625
 20
-2.580939751330898
 30
0.0
 11
-2.514459823199706
 21
-2.868013213792979
 31
0.0
  0
LINE
  5
178
330
14F
100
AcDbEntity
  8
AM_9
100
AcDbLine
 10
2.580939751330898
 20
-2.227386360737625
 30
0.0
 11
2.868013213792979
 21
-2.514459823199706
 31
0.0
  0
LINE
  5
179
330
14F
100
AcDbEntity
  8
AM_9
100
AcDbLine
 10
2.86801321379298
 20
2.514459823199706
 30
0.0
 11
2.580939751330898
 21
2.227386360737624
 31
0.0
  0
LINE
  5
17A
330
14F
100
AcDbEntity
  8
AM_9
100
AcDbLine
 10
-2.580939751330899
 20
2.227386360737625
 30
0.0
 11
-2.868013213792979
 21
2.514459823199706
 31
0.0
  0
LINE
  5
17B
330
14F
100
AcDbEntity
  8
AM_9
100
AcDbLine
 10
-2.868013213792981
 20
-2.514459823199705
 30
0.0
 11
-2.5809397513309
 21
-2.227386360737623
 31
0.0
  0
LINE
  5
17C
330
14F
100
AcDbEntity
  8
AM_9
100
AcDbLine
 10
2.227386360737624
 20
2.580939751330899
 30
0.0
 11
2.514459823199705
 21
2.86801321379298
 31
0.0
  0
LINE
  5
17D
330
14F
100
AcDbEntity
  8
AM_9
100
AcDbLine
 10
-2.514459823199706
 20
2.86801321379298
 30
0.0
 11
-2.227386360737624
 21
2.580939751330899
 31
0.0
  0
LINE
  5
17E
330
14F
100
AcDbEntity
  8
AM_9
100
AcDbLine
 10
-2.486100311939375
 20
2.322225800129148
 30
0.0
 11
-2.580939751330899
 21
2.227386360737625
 31
0.0
  0
LINE
  5
17F
330
14F
100
AcDbEntity
  8
AM_9
100
AcDbLine
 10
-2.227386360737624
 20
2.580939751330899
 30
0.0
 11
-2.322225800129148
 21
2.486100311939375
 31
0.0
  0
ARC
  5
180
330
14F
100
AcDbEntity
  8
AM_9
100
AcDbCircle
 10
-0.0000000000000004
 20
-0.0000000000000004
 30
0.0
 40
3.764215561259644
100
AcDbArc
 50
138.8080965191768
 51
221.1919034808232
  0
LINE
  5
181
330
14F
100
AcDbEntity
  8
AM_9
100
AcDbLine
 10
-2.322225800129147
 20
-2.486100311939376
 30
0.0
 11
-2.227386360737625
 21
-2.580939751330898
 31
0.0
  0
LINE
  5
182
330
14F
100
AcDbEntity
  8
AM_9
100
AcDbLine
 10
-2.5809397513309
 20
-2.227386360737623
 30
0.0
 11
-2.486100311939373
 21
-2.32222580012915
 31
0.0
  0
ARC
  5
183
330
14F
100
AcDbEntity
  8
AM_9
100
AcDbCircle
 10
0.0000000000000002
 20
-0.0000000000000009
 30
0.0
 40
3.764215561259643
100
AcDbArc
 50
228.8080965191768
 51
311.1919034808232
  0
LINE
  5
184
330
14F
100
AcDbEntity
  8
AM_9
100
AcDbLine
 10
2.486100311939376
 20
-2.322225800129147
 30
0.0
 11
2.580939751330898
 21
-2.227386360737625
 31
0.0
  0
LINE
  5
185
330
14F
100
AcDbEntity
  8
AM_9
100
AcDbLine
 10
2.227386360737623
 20
-2.580939751330899
 30
0.0
 11
2.322225800129149
 21
-2.486100311939373
 31
0.0
  0
ARC
  5
186
330
14F
100
AcDbEntity
  8
AM_9
100
AcDbCircle
 10
0.0000000000000027
 20
0.0000000000000002
 30
0.0
 40
3.764215561259642
100
AcDbArc
 50
318.8080965191767
 51
41.19190348082325
  0
LINE
  5
187
330
14F
100
AcDbEntity
  8
AM_9
100
AcDbLine
 10
2.322225800129147
 20
2.486100311939375
 30
0.0
 11
2.227386360737624
 21
2.580939751330899
 31
0.0
  0
LINE
  5
188
330
14F
100
AcDbEntity
  8
AM_9
100
AcDbLine
 10
2.580939751330898
 20
2.227386360737624
 30
0.0
 11
2.486100311939374
 21
2.322225800129149
 31
0.0
  0
ARC
  5
189
330
14F
100
AcDbEntity
  8
AM_9
100
AcDbCircle
 10
0.0000000000000491
 20
-0.0000000000001061
 30
0.0
 40
2.638522427440749
100
AcDbArc
 50
109.7845960610459
 51
115.2154039389543
  0
ARC
  5
18A
330
14F
100
AcDbEntity
  8
AM_9
100
AcDbCircle
 10
0.0
 20
0.0000000000000004
 30
0.0
 40
3.764215561259644
100
AcDbArc
 50
48.80809651917679
 51
131.1919034808232
  0
ARC
  5
18B
330
14F
100
AcDbEntity
  8
AM_5
100
AcDbCircle
 10
0.0000000000000007
 20
-3.295138888888889
 30
0.0
 40
0.1562500000000004
100
AcDbArc
 50
75.0000000000002
 51
15.00000000000021
  0
CIRCLE
  5
18C
330
14F
100
AcDbEntity
  8
AM_4
100
AcDbCircle
 10
0.0
 20
0.0
 30
0.0
 40
4.477550000000001
  0
LINE
  5
18D
330
14F
100
AcDbEntity
  8
AM_4
100
AcDbLine
 10
-2.525638571526983
 20
2.879191962120257
 30
0.0
 11
-2.514459823199706
 21
2.86801321379298
 31
0.0
  0
LINE
  5
18E
330
14F
100
AcDbEntity
  8
AM_4
100
AcDbLine
 10
2.868013213792979
 20
-2.514459823199706
 30
0.0
 11
2.879191962120256
 21
-2.525638571526984
 31
0.0
  0
LINE
  5
18F
330
14F
100
AcDbEntity
  8
AM_4
100
AcDbLine
 10
-2.868013213792979
 20
2.514459823199706
 30
0.0
 11
-2.879191962120256
 21
2.525638571526983
 31
0.0
  0
LINE
  5
190
330
14F
100
AcDbEntity
  8
AM_4
100
AcDbLine
 10
2.525638571526983
 20
-2.879191962120257
 30
0.0
 11
2.514459823199705
 21
-2.868013213792981
 31
0.0
  0
LINE
  5
191
330
14F
100
AcDbEntity
  8
AM_4
100
AcDbLine
 10
2.879191962120257
 20
2.525638571526983
 30
0.0
 11
2.86801321379298
 21
2.514459823199706
 31
0.0
  0
LINE
  5
192
330
14F
100
AcDbEntity
  8
AM_4
100
AcDbLine
 10
2.514459823199705
 20
2.86801321379298
 30
0.0
 11
2.525638571526983
 21
2.879191962120257
 31
0.0
  0
LINE
  5
193
330
14F
100
AcDbEntity
  8
AM_4
100
AcDbLine
 10
-2.879191962120258
 20
-2.525638571526982
 30
0.0
 11
-2.868013213792981
 21
-2.514459823199705
 31
0.0
  0
LINE
  5
194
330
14F
100
AcDbEntity
  8
AM_4
100
AcDbLine
 10
-2.514459823199706
 20
-2.868013213792979
 30
0.0
 11
-2.525638571526983
 21
-2.879191962120256
 31
0.0
  0
CIRCLE
  5
195
330
14F
100
AcDbEntity
  8
AM_4
100
AcDbCircle
 10
0.0
 20
0.0
 30
0.0
 40
3.88790558158918
  0
ARC
  5
196
330
14F
100
AcDbEntity
  8
AM_4
100
AcDbCircle
 10
0.0000000000001155
 20
-0.0000000000001164
 30
0.0
 40
3.829960384745709
100
AcDbArc
 50
311.2573669414265
 51
318.7426330585734
  0
ARC
  5
197
330
14F
100
AcDbEntity
  8
AM_4
100
AcDbCircle
 10
-0.0000000000005098
 20
-0.000000000000508
 30
0.0
 40
3.829960384745155
100
AcDbArc
 50
221.257366941426
 51
228.742633058574
  0
ARC
  5
198
330
14F
100
AcDbEntity
  8
AM_4
100
AcDbCircle
 10
-0.000000000000115
 20
0.0000000000001159
 30
0.0
 40
3.82996038474571
100
AcDbArc
 50
131.2573669414266
 51
138.7426330585735
  0
ARC
  5
199
330
14F
100
AcDbEntity
  8
AM_4
100
AcDbCircle
 10
0.0000000000001523
 20
0.0000000000001488
 30
0.0
 40
3.82996038474566
100
AcDbArc
 50
41.25736694142653
 51
48.74263305857356
  0
ARC
  5
19A
330
14F
100
AcDbEntity
  8
AM_4
100
AcDbCircle
 10
0.0000000000000002
 20
0.0000000000000009
 30
0.0
 40
3.814185102610601
100
AcDbArc
 50
228.7581345960849
 51
311.241865403915
  0
ARC
  5
19B
330
14F
100
AcDbEntity
  8
AM_4
100
AcDbCircle
 10
0.0000000000000022
 20
0.0000000000000002
 30
0.0
 40
3.814185102610598
100
AcDbArc
 50
318.7581345960849
 51
41.24186540391511
  0
ARC
  5
19C
330
14F
100
AcDbEntity
  8
AM_4
100
AcDbCircle
 10
0.0000000000000004
 20
-0.0000000000000004
 30
0.0
 40
3.8141851026106
100
AcDbArc
 50
138.7581345960849
 51
221.2418654039151
  0
LINE
  5
19D
330
14F
100
AcDbEntity
  8
AM_4
100
AcDbLine
 10
-2.322225800129148
 20
2.486100311939375
 30
0.0
 11
-2.486100311939375
 21
2.322225800129148
 31
0.0
  0
LINE
  5
19E
330
14F
100
AcDbEntity
  8
AM_4
100
AcDbLine
 10
-2.486100311939373
 20
-2.32222580012915
 30
0.0
 11
-2.322225800129147
 21
-2.486100311939376
 31
0.0
  0
LINE
  5
19F
330
14F
100
AcDbEntity
  8
AM_4
100
AcDbLine
 10
2.322225800129149
 20
-2.486100311939373
 30
0.0
 11
2.486100311939376
 21
-2.322225800129147
 31
0.0
  0
LINE
  5
1A0
330
14F
100
AcDbEntity
  8
AM_4
100
AcDbLine
 10
2.486100311939374
 20
2.322225800129149
 30
0.0
 11
2.322225800129147
 21
2.486100311939375
 31
0.0
  0
ARC
  5
1A1
330
14F
100
AcDbEntity
  8
AM_4
100
AcDbCircle
 10
-0.0000000000000004
 20
0.0
 30
0.0
 40
3.814185102610599
100
AcDbArc
 50
48.75813459608491
 51
131.2418654039151
  0
ARC
  5
1A2
330
14F
100
AcDbEntity
  8
AM_4
100
AcDbCircle
 10
0.0000000000000036
 20
0.0000000000000012
 30
0.0
 40
2.631578947368421
100
AcDbArc
 50
115.2225739833762
 51
109.7774260166239
  0
ARC
  5
1A3
330
14F
100
AcDbEntity
  8
AM_4
100
AcDbCircle
 10
-0.0000000000000051
 20
-0.0000000000000018
 30
0.0
 40
2.5
100
AcDbArc
 50
115.3659839825987
 51
109.634016017401
  0
LINE
  5
1A4
330
14F
100
AcDbEntity
  8
AM_4
100
AcDbLine
 10
-0.8400270052583456
 20
2.354645330073448
 30
0.0
 11
-0.8904399895643812
 21
2.476353040504781
 31
0.0
  0
LINE
  5
1A5
330
14F
100
AcDbEntity
  8
AM_4
100
AcDbLine
 10
-1.121409872692203
 20
2.380682182413508
 30
0.0
 11
-1.070996888386167
 21
2.258974471982175
 31
0.0
  0
ARC
  5
1A6
330
14F
100
AcDbEntity
  8
AM_5
100
AcDbCircle
 10
-0.0000000000000003
 20
3.295138888888888
 30
0.0
 40
0.1562499999999999
100
AcDbArc
 50
164.9999999999998
 51
104.9999999999999
  0
ARC
  5
1A7
330
14F
100
AcDbEntity
  8
AM_5
100
AcDbCircle
 10
-0.0000000000000003
 20
-3.295138888888889
 30
0.0
 40
0.1562499999999999
100
AcDbArc
 50
164.9999999999998
 51
104.9999999999999
  0
ARC
  5
1A8
330
14F
100
AcDbEntity
  8
AM_5
100
AcDbCircle
 10
0.0
 20
3.295138888888889
 30
0.0
 40
0.1562500000000001
100
AcDbArc
 50
105.0
 51
15.00000000000004
  0
ARC
  5
1A9
330
14F
100
AcDbEntity
  8
AM_5
100
AcDbCircle
 10
0.0
 20
-3.295138888888889
 30
0.0
 40
0.1562500000000001
100
AcDbArc
 50
105.0
 51
15.00000000000004
  0
ENDBLK
  5
152
330
14F
100
AcDbEntity
  8
0
100
AcDbBlockEnd
  0
BLOCK
  5
1AC
330
1AA
100
AcDbEntity
  8
0
100
AcDbBlockBegin
  2
7_069555H_0_in_069555_0
 70
     2
 10
0.0
 20
0.0
 30
0.0
  3
7_069555H_0_in_069555_0
  1

  0
ATTDEF
  5
1AE
330
1AA
100
AcDbEntity
  8
AM_6
100
AcDbText
 10
14.3125
 20
5.625
 30
0.0
 40
0.5
  1
P4B-IP -(Contact Seal)-Housing -Inch
100
AcDbAttributeDefinition
  3

  2
NN
 70
     8
280
     0
  0
ATTDEF
  5
1AF
330
1AA
100
AcDbEntity
  8
AM_6
100
AcDbText
 10
14.3125
 20
5.125
 30
0.0
 40
0.5
  1
Imperial 4 Bolt Piliow Block Bearings
100
AcDbAttributeDefinition
  3

  2
NT
 70
     8
280
     0
  0
ATTDEF
  5
1B0
330
1AA
100
AcDbEntity
  8
AM_6
100
AcDbText
 10
14.3125
 20
4.625
 30
0.0
 40
0.5
  1
069555H
100
AcDbAttributeDefinition
  3

  2
NB
 70
     8
280
     0
  0
ATTDEF
  5
1B1
330
1AA
100
AcDbEntity
  8
AM_6
100
AcDbText
 10
14.3125
 20
4.125
 30
0.0
 40
0.5
  1
$PN.H
100
AcDbAttributeDefinition
  3

  2
NBSYN
 70
     8
280
     0
  0
ATTDEF
  5
1B2
330
1AA
100
AcDbEntity
  8
AM_6
100
AcDbText
 10
14.3125
 20
3.625
 30
0.0
 40
0.5
  1
069555
100
AcDbAttributeDefinition
  3

  2
LINA
 70
     8
280
     0
  0
ATTDEF
  5
1B3
330
1AA
100
AcDbEntity
  8
AM_6
100
AcDbText
 10
14.3125
 20
3.125
 30
0.0
 40
0.5
  1
5
100
AcDbAttributeDefinition
  3

  2
SS
 70
     8
280
     0
  0
ATTDEF
  5
1B4
330
1AA
100
AcDbEntity
  8
AM_6
100
AcDbText
 10
14.3125
 20
2.625
 30
0.0
 40
0.5
  1
069555
100
AcDbAttributeDefinition
  3

  2
PN
 70
     8
280
     0
  0
ATTDEF
  5
1B5
330
1AA
100
AcDbEntity
  8
AM_6
100
AcDbText
 10
14.3125
 20
2.125
 30
0.0
 40
0.5
  1
P4B-IP-500RE
100
AcDbAttributeDefinition
  3

  2
DESCRIPTION
 70
     8
280
     0
  0
ATTDEF
  5
1B6
330
1AA
100
AcDbEntity
  8
AM_6
100
AcDbText
 10
14.3125
 20
1.625
 30
0.0
 40
0.5
  1
Expansion Type
100
AcDbAttributeDefinition
  3

  2
EF
 70
     8
280
     0
  0
ATTDEF
  5
1B7
330
1AA
100
AcDbEntity
  8
AM_6
100
AcDbText
 10
14.3125
 20
1.125
 30
0.0
 40
0.5
  1
Contact  Seal
100
AcDbAttributeDefinition
  3

  2
ST
 70
     8
280
     0
  0
ATTDEF
  5
1B8
330
1AA
100
AcDbEntity
  8
AM_6
100
AcDbText
 10
14.3125
 20
0.625
 30
0.0
 40
0.5
  1
5-63/64
100
AcDbAttributeDefinition
  3

  2
A
 70
     8
280
     0
  0
ATTDEF
  5
1B9
330
1AA
100
AcDbEntity
  8
AM_6
100
AcDbText
 10
14.3125
 20
0.125
 30
0.0
 40
0.5
  1
18-5/8
100
AcDbAttributeDefinition
  3

  2
B
 70
     8
280
     0
  0
ATTDEF
  5
1BA
330
1AA
100
AcDbEntity
  8
AM_6
100
AcDbText
 10
14.3125
 20
-0.375
 30
0.0
 40
0.5
  1
5-3/8
100
AcDbAttributeDefinition
  3

  2
C
 70
     8
280
     0
  0
ATTDEF
  5
1BB
330
1AA
100
AcDbEntity
  8
AM_6
100
AcDbText
 10
14.3125
 20
-0.875
 30
0.0
 40
0.5
  1
15
100
AcDbAttributeDefinition
  3

  2
DMIN
 70
     8
280
     0
  0
ATTDEF
  5
1BC
330
1AA
100
AcDbEntity
  8
AM_6
100
AcDbText
 10
14.3125
 20
-1.375
 30
0.0
 40
0.5
  1
16
100
AcDbAttributeDefinition
  3

  2
DMAX
 70
     8
280
     0
  0
ATTDEF
  5
1BD
330
1AA
100
AcDbEntity
  8
AM_6
100
AcDbText
 10
14.3125
 20
-1.875
 30
0.0
 40
0.5
  1
2-3/4
100
AcDbAttributeDefinition
  3

  2
E
 70
     8
280
     0
  0
ATTDEF
  5
1BE
330
1AA
100
AcDbEntity
  8
AM_6
100
AcDbText
 10
14.3125
 20
-2.375
 30
0.0
 40
0.5
  1
7/8
100
AcDbAttributeDefinition
  3

  2
F
 70
     8
280
     0
  0
ATTDEF
  5
1BF
330
1AA
100
AcDbEntity
  8
AM_6
100
AcDbText
 10
14.3125
 20
-2.875
 30
0.0
 40
0.5
  1
1-1/2
100
AcDbAttributeDefinition
  3

  2
G
 70
     8
280
     0
  0
ATTDEF
  5
1C0
330
1AA
100
AcDbEntity
  8
AM_6
100
AcDbText
 10
14.3125
 20
-3.375
 30
0.0
 40
0.5
  1
3
100
AcDbAttributeDefinition
  3

  2
H
 70
     8
280
     0
  0
ATTDEF
  5
1C1
330
1AA
100
AcDbEntity
  8
AM_6
100
AcDbText
 10
14.3125
 20
-3.875
 30
0.0
 40
0.5
  1
11-1/8
100
AcDbAttributeDefinition
  3

  2
J
 70
     8
280
     0
  0
ATTDEF
  5
1C2
330
1AA
100
AcDbEntity
  8
AM_6
100
AcDbText
 10
14.3125
 20
-4.375
 30
0.0
 40
0.5
  1
7-5/8
100
AcDbAttributeDefinition
  3

  2
L
 70
     8
280
     0
  0
ATTDEF
  5
1C3
330
1AA
100
AcDbEntity
  8
AM_6
100
AcDbText
 10
14.3125
 20
-4.875
 30
0.0
 40
0.5
  1
5-1/2
100
AcDbAttributeDefinition
  3

  2
M
 70
     8
280
     0
  0
ATTDEF
  5
1C4
330
1AA
100
AcDbEntity
  8
AM_6
100
AcDbText
 10
14.3125
 20
-5.375
 30
0.0
 40
0.5
  1
1-29/32
100
AcDbAttributeDefinition
  3

  2
R
 70
     8
280
     0
  0
ATTDEF
  5
1C5
330
1AA
100
AcDbEntity
  8
AM_6
100
AcDbText
 10
14.3125
 20
-5.875
 30
0.0
 40
0.5
  1
4-5/64
100
AcDbAttributeDefinition
  3

  2
S
 70
     8
280
     0
  0
ATTDEF
  5
1C6
330
1AA
100
AcDbEntity
  8
AM_6
100
AcDbText
 10
14.3125
 20
-6.375
 30
0.0
 40
0.5
  1
3/8
100
AcDbAttributeDefinition
  3

  2
X
 70
     8
280
     0
  0
ATTDEF
  5
1C7
330
1AA
100
AcDbEntity
  8
AM_6
100
AcDbText
 10
14.3125
 20
-6.875
 30
0.0
 40
0.5
  1
0.036
100
AcDbAttributeDefinition
  3

  2
Y
 70
     8
280
     0
  0
ATTDEF
  5
1C8
330
1AA
100
AcDbEntity
  8
AM_6
100
AcDbText
 10
14.3125
 20
-7.375
 30
0.0
 40
0.5
  1
5-27/32
100
AcDbAttributeDefinition
  3

  2
Z
 70
     8
280
     0
  0
ATTDEF
  5
1C9
330
1AA
100
AcDbEntity
  8
AM_6
100
AcDbText
 10
14.3125
 20
-7.875
 30
0.0
 40
0.5
  1
baldor
100
AcDbAttributeDefinition
  3

  2
COMPANY
 70
     8
280
     0
  0
LINE
  5
1CA
330
1AA
100
AcDbEntity
  8
AM_9
100
AcDbLine
 10
5.715
 20
-2.499999999999999
 30
0.0
 11
6.194578610390232
 21
-2.5
 31
0.0
  0
ARC
  5
1CB
330
1AA
100
AcDbEntity
  8
AM_9
100
AcDbCircle
 10
5.714999999999999
 20
-2.35
 30
0.0
 40
0.1499999999999986
100
AcDbArc
 50
180.0
 51
270.0
  0
LINE
  5
1CC
330
1AA
100
AcDbEntity
  8
AM_9
100
AcDbLine
 10
5.565
 20
0.8193900170248632
 30
0.0
 11
5.565
 21
-2.35
 31
0.0
  0
ARC
  5
1CD
330
1AA
100
AcDbEntity
  8
AM_9
100
AcDbCircle
 10
-5.715
 20
-2.35
 30
0.0
 40
0.1499999999999999
100
AcDbArc
 50
270.0
 51
0.0
  0
LINE
  5
1CE
330
1AA
100
AcDbEntity
  8
AM_9
100
AcDbLine
 10
-5.565
 20
-2.349999997764825
 30
0.0
 11
-5.565
 21
0.8193900170248458
 31
0.0
  0
LINE
  5
1CF
330
1AA
100
AcDbEntity
  8
AM_9
100
AcDbLine
 10
-6.194578610390235
 20
-2.5
 30
0.0
 11
-5.715000000000001
 21
-2.5
 31
0.0
  0
ARC
  5
1D0
330
1AA
100
AcDbEntity
  8
AM_9
100
AcDbCircle
 10
-4.326661530556783
 20
-4.299999999999992
 30
0.0
 40
0.5999999999999913
100
AcDbArc
 50
44.82292242402995
 51
90.0
  0
LINE
  5
1D1
330
1AA
100
AcDbEntity
  8
AM_9
100
AcDbLine
 10
8.0
 20
-5.500000000000001
 30
0.0
 11
8.0
 21
-2.5
 31
0.0
  0
LINE
  5
1D2
330
1AA
100
AcDbEntity
  8
AM_9
100
AcDbLine
 10
8.5
 20
-2.5
 30
0.0
 11
8.5
 21
-5.5
 31
0.0
  0
LINE
  5
1D3
330
1AA
100
AcDbEntity
  8
AM_9
100
AcDbLine
 10
-1.5
 20
-5.5
 30
0.0
 11
-1.5
 21
-5.291502622129181
 31
0.0
  0
LINE
  5
1D4
330
1AA
100
AcDbEntity
  8
AM_9
100
AcDbLine
 10
7.499999999999999
 20
-2.5
 30
0.0
 11
7.499999999999999
 21
-3.700000000000001
 31
0.0
  0
LINE
  5
1D5
330
1AA
100
AcDbEntity
  8
AM_9
100
AcDbLine
 10
7.0
 20
-2.5
 30
0.0
 11
7.0
 21
-3.7
 31
0.0
  0
ARC
  5
1D6
330
1AA
100
AcDbEntity
  8
AM_9
100
AcDbCircle
 10
0.0000000000000191
 20
-0.0000000000000338
 30
0.0
 40
5.499999999999963
100
AcDbArc
 50
285.8266201318722
 51
315.1770773071009
  0
LINE
  5
1D7
330
1AA
100
AcDbEntity
  8
AM_9
100
AcDbLine
 10
8.5
 20
-3.7
 30
0.0
 11
4.326661530556787
 21
-3.7
 31
0.0
  0
LINE
  5
1D8
330
1AA
100
AcDbEntity
  8
AM_9
100
AcDbLine
 10
1.500000000000001
 20
-5.291502622129181
 30
0.0
 11
1.5
 21
-5.5
 31
0.0
  0
ARC
  5
1D9
330
1AA
100
AcDbEntity
  8
AM_9
100
AcDbCircle
 10
4.326661530556787
 20
-4.300000000000002
 30
0.0
 40
0.6000000000000028
100
AcDbArc
 50
90.0
 51
135.1770800406018
  0
LINE
  5
1DA
330
1AA
100
AcDbEntity
  8
AM_9
100
AcDbLine
 10
-7.5
 20
-2.5
 30
0.0
 11
-7.5
 21
-3.7
 31
0.0
  0
LINE
  5
1DB
330
1AA
100
AcDbEntity
  8
AM_9
100
AcDbLine
 10
-6.999999999999998
 20
-3.7
 30
0.0
 11
-6.999999999999998
 21
-2.5
 31
0.0
  0
ARC
  5
1DC
330
1AA
100
AcDbEntity
  8
AM_9
100
AcDbCircle
 10
0.0000000000000124
 20
0.0000000000000204
 30
0.0
 40
5.500000000000023
100
AcDbArc
 50
224.8229224240303
 51
254.1733798681276
  0
LINE
  5
1DD
330
1AA
100
AcDbEntity
  8
AM_9
100
AcDbLine
 10
-8.0
 20
-2.5
 30
0.0
 11
-8.0
 21
-5.5
 31
0.0
  0
LINE
  5
1DE
330
1AA
100
AcDbEntity
  8
AM_9
100
AcDbLine
 10
-4.326661530556783
 20
-3.700000000000001
 30
0.0
 11
-8.5
 21
-3.7
 31
0.0
  0
LINE
  5
1DF
330
1AA
100
AcDbEntity
  8
AM_9
100
AcDbLine
 10
-8.5
 20
-2.5
 30
0.0
 11
-8.5
 21
-5.5
 31
0.0
  0
LINE
  5
1E0
330
1AA
100
AcDbEntity
  8
AM_7
100
AcDbLine
 10
-4.7539275
 20
0.0
 30
0.0
 11
4.7539275
 21
0.0
 31
0.0
  0
LINE
  5
1E1
330
1AA
100
AcDbEntity
  8
AM_7
100
AcDbLine
 10
0.0
 20
-4.7539275
 30
0.0
 11
0.0
 21
4.7539275
 31
0.0
  0
LINE
  5
1E2
330
1AA
100
AcDbEntity
  8
AM_7
100
AcDbLine
 10
-3.065999999999999
 20
5.310467776006178
 30
0.0
 11
-2.533879513350588
 21
4.388808057381121
 31
0.0
  0
LINE
  5
1E3
330
1AA
100
AcDbEntity
  8
AM_4
100
AcDbLine
 10
-3.208910161513775
 20
4.757995436665911
 30
0.0
 11
-2.516089838579178
 21
5.157995436612244
 31
0.0
  0
ARC
  5
1E4
330
1AA
100
AcDbEntity
  8
AM_4
100
AcDbCircle
 10
-2.466089838486223
 20
5.071392896287467
 30
0.0
 40
0.0999999999999997
100
AcDbArc
 50
30.00000000000175
 51
120.0000000000005
  0
ARC
  5
1E5
330
1AA
100
AcDbEntity
  8
AM_4
100
AcDbCircle
 10
-3.158910161513777
 20
4.671392896287468
 30
0.0
 40
0.0999999999999978
100
AcDbArc
 50
119.9999999999994
 51
210.0000000000004
  0
LINE
  5
1E6
330
1AA
100
AcDbEntity
  8
AM_4
100
AcDbLine
 10
-3.245512701892219
 20
4.621392896287468
 30
0.0
 11
-2.379487298107781
 21
5.121392896287468
 31
0.0
  0
LINE
  5
1E7
330
1AA
100
AcDbEntity
  8
AM_4
100
AcDbLine
 10
-2.368428871879894
 20
5.102239140209016
 30
0.0
 11
-2.379487298107781
 21
5.121392896287468
 31
0.0
  0
LINE
  5
1E8
330
1AA
100
AcDbEntity
  8
AM_4
100
AcDbLine
 10
-3.245512701892219
 20
4.621392896287468
 30
0.0
 11
-3.234379555769089
 21
4.602109721554118
 31
0.0
  0
ARC
  5
1E9
330
1AA
100
AcDbEntity
  8
AM_4
100
AcDbCircle
 10
-6.194578610390296
 20
-2.19999999999998
 30
0.0
 40
0.3000000000000647
100
AcDbArc
 50
333.9740444910365
 51
353.8854352456778
  0
ARC
  5
1EA
330
1AA
100
AcDbEntity
  8
AM_4
100
AcDbCircle
 10
6.194578610390219
 20
-2.200000000000002
 30
0.0
 40
0.2999999999999864
100
AcDbArc
 50
186.1145647543194
 51
206.0259555089655
  0
LINE
  5
1EB
330
1AA
100
AcDbEntity
  8
AM_4
100
AcDbLine
 10
-1.509183333333333
 20
5.418762835407072
 30
0.0
 11
-1.509183333333333
 21
5.474999999999999
 31
0.0
  0
LINE
  5
1EC
330
1AA
100
AcDbEntity
  8
AM_4
100
AcDbLine
 10
-5.896285340579263
 20
-2.231955049452
 30
0.0
 11
-5.592998808955691
 21
0.5991571772249938
 31
0.0
  0
LINE
  5
1ED
330
1AA
100
AcDbEntity
  8
AM_4
100
AcDbLine
 10
5.592998808955692
 20
0.5991571772249884
 30
0.0
 11
5.896285340579262
 21
-2.231955049452
 31
0.0
  0
ARC
  5
1EE
330
1AA
100
AcDbEntity
  8
AM_4
100
AcDbCircle
 10
1.359183333333331
 20
5.474999999999998
 30
0.0
 40
0.1500000000000019
100
AcDbArc
 50
0.0
 51
90.0
  0
ARC
  5
1EF
330
1AA
100
AcDbEntity
  8
AM_4
100
AcDbCircle
 10
-1.359183333333333
 20
5.474999999999999
 30
0.0
 40
0.1500000000000012
100
AcDbArc
 50
90.0
 51
180.0
  0
LINE
  5
1F0
330
1AA
100
AcDbEntity
  8
AM_4
100
AcDbLine
 10
-1.359183333333333
 20
5.625
 30
0.0
 11
1.359183333333332
 21
5.625
 31
0.0
  0
ARC
  5
1F1
330
1AA
100
AcDbEntity
  8
AM_4
100
AcDbCircle
 10
0.0000000000000053
 20
0.0000000000000044
 30
0.0
 40
5.624999999999995
100
AcDbArc
 50
6.114564754319443
 51
74.43691209857442
  0
CIRCLE
  5
1F2
330
1AA
100
AcDbEntity
  8
AM_4
100
AcDbCircle
 10
0.0
 20
0.0
 30
0.0
 40
4.52755
  0
LINE
  5
1F3
330
1AA
100
AcDbEntity
  8
AM_4
100
AcDbLine
 10
1.509183333333333
 20
5.475000000000001
 30
0.0
 11
1.509183333333333
 21
5.418762835407072
 31
0.0
  0
ARC
  5
1F4
330
1AA
100
AcDbEntity
  8
AM_4
100
AcDbCircle
 10
0.0000000000000067
 20
-0.0000000000000053
 30
0.0
 40
5.625000000000006
100
AcDbArc
 50
105.5630879014257
 51
173.8854352456804
  0
LINE
  5
1F5
330
1AA
100
AcDbEntity
  8
AM_4
100
AcDbLine
 10
9.3125
 20
-5.499999999999999
 30
0.0
 11
-9.3125
 21
-5.499999999999999
 31
0.0
  0
LINE
  5
1F6
330
1AA
100
AcDbEntity
  8
AM_4
100
AcDbLine
 10
-9.0125
 20
-2.5
 30
0.0
 11
-6.194578610390235
 21
-2.5
 31
0.0
  0
LWPOLYLINE
  5
1F7
330
1AA
100
AcDbEntity
  8
AM_4
100
AcDbPolyline
 90
       19
 70
     0
 43
0.0
 10
-9.3125
 20
-2.800000000000001
 10
-9.311358409427523
 20
-2.773853277175703
 10
-9.307942325903662
 20
-2.747905546699921
 10
-9.30227774788672
 20
-2.722354286469244
 10
-9.294407786235773
 20
-2.6973939570023
 10
-9.284392336110995
 20
-2.673214521477791
 10
-9.272307621135331
 20
-2.65
 10
-9.258245613286697
 20
-2.627927069094687
 10
-9.242313332935693
 20
-2.607163717094039
 10
-9.224632034355963
 20
-2.587867965644036
 10
-9.20533628290596
 20
-2.570186667064307
 10
-9.184572930905313
 20
-2.554254386713303
 10
-9.1625
 20
-2.540192378864669
 10
-9.13928547852221
 20
-2.528107663889005
 10
-9.1151060429977
 20
-2.518092213764227
 10
-9.090145713530756
 20
-2.51022225211328
 10
-9.064594453300078
 20
-2.504557674096338
 10
-9.038646722824296
 20
-2.501141590572476
 10
-9.0125
 20
-2.5
  0
LINE
  5
1F8
330
1AA
100
AcDbEntity
  8
AM_4
100
AcDbLine
 10
-9.3125
 20
-2.8
 30
0.0
 11
-9.3125
 21
-5.499999999999999
 31
0.0
  0
LINE
  5
1F9
330
1AA
100
AcDbEntity
  8
AM_4
100
AcDbLine
 10
9.012499999999998
 20
-2.5
 30
0.0
 11
6.194578610390232
 21
-2.5
 31
0.0
  0
LWPOLYLINE
  5
1FA
330
1AA
100
AcDbEntity
  8
AM_4
100
AcDbPolyline
 90
       14
 70
     0
 43
0.0
 10
-5.925
 20
-2.33163347910038
 10
-5.937498441641995
 20
-2.354627897988612
 10
-5.951953418597413
 20
-2.376445505206273
 10
-5.968254919763472
 20
-2.396920255588605
 10
-5.98627888087318
 20
-2.415896323922206
 10
-6.00588812869933
 20
-2.433229290868995
 10
-6.026933425025574
 20
-2.448787242084575
 10
-6.049254602439375
 20
-2.462451772166047
 10
-6.072681783302716
 20
-2.474118885788623
 10
-6.097036672623511
 20
-2.483699789172838
 10
-6.122133914988143
 20
-2.491121565858832
 10
-6.147782505228086
 20
-2.496327731644632
 10
-6.173787242084575
 20
-2.499278664465041
 10
-6.19375
 20
-2.49999885567252
  0
LINE
  5
1FB
330
1AA
100
AcDbEntity
  8
AM_4
100
AcDbLine
 10
-5.925
 20
-2.33163347910038
 30
0.0
 11
-5.925
 21
-5.499999999999999
 31
0.0
  0
LINE
  5
1FC
330
1AA
100
AcDbEntity
  8
AM_4
100
AcDbLine
 10
6.19375
 20
-5.499999999999999
 30
0.0
 11
6.19375
 21
-2.49999885567252
 31
0.0
  0
LWPOLYLINE
  5
1FD
330
1AA
100
AcDbEntity
  8
AM_4
100
AcDbPolyline
 90
       14
 70
     0
 43
0.0
 10
6.19375
 20
-2.49999885567252
 10
6.167606530023114
 20
-2.498785051300545
 10
6.141668333864008
 20
-2.495297312276828
 10
6.116132816857364
 20
-2.489562182401291
 10
6.091194319706372
 20
-2.481623309475255
 10
6.067042639432626
 20
-2.471541113115307
 10
6.043861584906191
 20
-2.459392324923547
 10
6.021827577949119
 20
-2.445269404513748
 10
6.001108310658848
 20
-2.429279835837886
 10
5.981861469170094
 20
-2.411545309168347
 10
5.964233533568147
 20
-2.392200794961486
 10
5.948358663086977
 20
-2.371393516650956
 10
5.934357675076453
 20
-2.349281830188477
 10
5.924999999999997
 20
-2.331633479100377
  0
LINE
  5
1FE
330
1AA
100
AcDbEntity
  8
AM_4
100
AcDbLine
 10
5.924999999999997
 20
-2.331633479100377
 30
0.0
 11
5.924999999999997
 21
-5.499999999999999
 31
0.0
  0
LINE
  5
1FF
330
1AA
100
AcDbEntity
  8
AM_4
100
AcDbLine
 10
-6.19375
 20
-2.49999885567252
 30
0.0
 11
-6.19375
 21
-5.499999999999999
 31
0.0
  0
LINE
  5
200
330
1AA
100
AcDbEntity
  8
AM_4
100
AcDbLine
 10
-8.775
 20
-5.5
 30
0.0
 11
-8.775
 21
-2.5
 31
0.0
  0
LINE
  5
201
330
1AA
100
AcDbEntity
  8
AM_4
100
AcDbLine
 10
9.3125
 20
-2.800000000000002
 30
0.0
 11
9.3125
 21
-5.499999999999999
 31
0.0
  0
LWPOLYLINE
  5
202
330
1AA
100
AcDbEntity
  8
AM_4
100
AcDbPolyline
 90
       19
 70
     0
 43
0.0
 10
9.012499999999998
 20
-2.5
 10
9.038646722824296
 20
-2.501141590572476
 10
9.064594453300078
 20
-2.504557674096338
 10
9.090145713530754
 20
-2.51022225211328
 10
9.115106042997699
 20
-2.518092213764227
 10
9.139285478522208
 20
-2.528107663889005
 10
9.1625
 20
-2.540192378864669
 10
9.184572930905313
 20
-2.554254386713303
 10
9.20533628290596
 20
-2.570186667064307
 10
9.224632034355963
 20
-2.587867965644036
 10
9.242313332935693
 20
-2.607163717094039
 10
9.258245613286697
 20
-2.627927069094687
 10
9.272307621135331
 20
-2.650000000000001
 10
9.284392336110995
 20
-2.673214521477791
 10
9.294407786235771
 20
-2.6973939570023
 10
9.30227774788672
 20
-2.722354286469245
 10
9.307942325903662
 20
-2.747905546699922
 10
9.311358409427523
 20
-2.773853277175704
 10
9.3125
 20
-2.800000000000001
  0
LINE
  5
203
330
1AA
100
AcDbEntity
  8
AM_4
100
AcDbLine
 10
8.775000000000002
 20
-2.5
 30
0.0
 11
8.775
 21
-5.499999999999999
 31
0.0
  0
ENDBLK
  5
1AD
330
1AA
100
AcDbEntity
  8
0
100
AcDbBlockEnd
  0
ENDSEC
  0
SECTION
  2
ENTITIES
  0
INSERT
  5
6F
330
1F
100
AcDbEntity
  8
0
100
AcDbBlockReference
  2
1_069555_0
 10
0.0
 20
0.0
 30
0.0
  0
POINT
  5
205
330
1F
100
AcDbEntity
  8
ConnectionPoints
100
AcDbPoint
 10
0.0
 20
-3.295138888888889
 30
3.351958333333333
  0
POINT
  5
206
330
1F
100
AcDbEntity
  8
ConnectionPoints
100
AcDbPoint
 10
0.0
 20
3.295138888888889
 30
3.351958333333333
  0
POINT
  5
207
330
1F
100
AcDbEntity
  8
ConnectionPoints
100
AcDbPoint
 10
0.0
 20
0.0
 30
3.281958333333333
  0
POINT
  5
208
330
1F
100
AcDbEntity
  8
ConnectionPoints
100
AcDbPoint
 10
0.0
 20
0.0
 30
3.703125
  0
POINT
  5
209
330
1F
100
AcDbEntity
  8
ConnectionPoints
100
AcDbPoint
 10
0.0
 20
0.0
 30
3.480958333333333
  0
POINT
  5
20A
330
1F
100
AcDbEntity
  8
ConnectionPoints
100
AcDbPoint
 10
0.0
 20
3.295138888888889
 30
3.281958333333333
  0
POINT
  5
20B
330
1F
100
AcDbEntity
  8
ConnectionPoints
100
AcDbPoint
 10
0.0
 20
3.295138888888889
 30
3.537125
  0
POINT
  5
20C
330
1F
100
AcDbEntity
  8
ConnectionPoints
100
AcDbPoint
 10
0.0
 20
-3.295138888888889
 30
3.281958333333333
  0
POINT
  5
20D
330
1F
100
AcDbEntity
  8
ConnectionPoints
100
AcDbPoint
 10
0.0
 20
-3.295138888888889
 30
3.537125
  0
POINT
  5
20E
330
1F
100
AcDbEntity
  8
ConnectionPoints
100
AcDbPoint
 10
0.0
 20
0.0
 30
3.281958333333333
  0
POINT
  5
20F
330
1F
100
AcDbEntity
  8
ConnectionPoints
100
AcDbPoint
 10
-2.862499999999999
 20
4.957995436665911
 30
0.0
  0
POINT
  5
210
330
1F
100
AcDbEntity
  8
ConnectionPoints
100
AcDbPoint
 10
0.0
 20
0.0
 30
3.703125
  0
POINT
  5
211
330
1F
100
AcDbEntity
  8
ConnectionPoints
100
AcDbPoint
 10
0.0
 20
0.0
 30
4.078125
  0
ENDSEC
  0
SECTION
  2
OBJECTS
  0
DICTIONARY
  5
C
330
0
100
AcDbDictionary
281
     1
  3
ACAD_DETAILVIEWSTYLE
350
219
  3
ACAD_GROUP
350
D
  3
ACAD_LAYOUT
350
1A
  3
ACAD_MATERIAL
350
43
  3
ACAD_MLEADERSTYLE
350
6B
  3
ACAD_MLINESTYLE
350
17
  3
ACAD_PLOTSETTINGS
350
19
  3
ACAD_PLOTSTYLENAME
350
E
  3
ACAD_SCALELIST
350
47
  3
ACAD_SECTIONVIEWSTYLE
350
21A
  3
ACAD_TABLESTYLE
350
69
  3
ACAD_VISUALSTYLE
350
2A
  3
ACDB_RECOMPOSE_DATA
350
216
  3
AcDbVariableDictionary
350
212
  0
SUN
  5
6D
330
29
100
AcDbSun
 90
        1
290
     0
 63
     7
421
 16777215
 40
1.0
291
     1
 91
  2455826
 92
 54000000
292
     0
 70
     2
 71
   256
280
     1
  0
DICTIONARY
  5
219
102
{ACAD_REACTORS
330
C
102
}
330
C
100
AcDbDictionary
281
     1
  0
DICTIONARY
  5
D
102
{ACAD_REACTORS
330
C
102
}
330
C
100
AcDbDictionary
281
     1
  0
DICTIONARY
  5
1A
102
{ACAD_REACTORS
330
C
102
}
330
C
100
AcDbDictionary
281
     1
  3
Layout1
350
1E
  3
Layout2
350
26
  3
Model
350
22
  0
DICTIONARY
  5
43
102
{ACAD_REACTORS
330
C
102
}
330
C
100
AcDbDictionary
281
     1
  3
ByBlock
350
45
  3
ByLayer
350
44
  3
Global
350
46
  0
DICTIONARY
  5
6B
102
{ACAD_REACTORS
330
C
102
}
330
C
100
AcDbDictionary
281
     1
  3
Standard
350
6C
  0
DICTIONARY
  5
17
102
{ACAD_REACTORS
330
C
102
}
330
C
100
AcDbDictionary
281
     1
  3
Standard
350
18
  0
DICTIONARY
  5
19
102
{ACAD_REACTORS
330
C
102
}
330
C
100
AcDbDictionary
281
     1
  0
ACDBDICTIONARYWDFLT
  5
E
102
{ACAD_REACTORS
330
C
102
}
330
C
100
AcDbDictionary
281
     1
  3
Normal
350
F
100
AcDbDictionaryWithDefault
340
F
  0
DICTIONARY
  5
47
102
{ACAD_REACTORS
330
C
102
}
330
C
100
AcDbDictionary
281
     1
  3
A0
350
48
  3
A1
350
49
  3
A2
350
4A
  3
A3
350
4B
  3
A4
350
4C
  3
A5
350
4D
  3
A6
350
4E
  3
A7
350
4F
  3
A8
350
50
  3
A9
350
51
  3
B0
350
52
  3
B1
350
53
  3
B2
350
54
  3
B3
350
55
  3
B4
350
56
  3
B5
350
57
  3
B6
350
58
  3
B7
350
59
  3
B8
350
5A
  3
B9
350
5B
  3
C0
350
5C
  3
C1
350
5D
  3
C2
350
5E
  3
C3
350
5F
  3
C4
350
60
  3
C5
350
61
  3
C6
350
62
  3
C7
350
63
  3
C8
350
64
  3
C9
350
65
  3
D0
350
66
  3
D1
350
67
  3
D2
350
68
  0
DICTIONARY
  5
21A
102
{ACAD_REACTORS
330
C
102
}
330
C
100
AcDbDictionary
281
     1
  0
DICTIONARY
  5
69
102
{ACAD_REACTORS
330
C
102
}
330
C
100
AcDbDictionary
281
     1
  3
Standard
350
6A
  0
DICTIONARY
  5
2A
102
{ACAD_REACTORS
330
C
102
}
330
C
100
AcDbDictionary
281
     1
  3
2dWireframe
350
2F
  3
Basic
350
32
  3
Brighten
350
36
  3
ColorChange
350
3A
  3
Conceptual
350
34
  3
Dim
350
35
  3
EdgeColorOff
350
3D
  3
Facepattern
350
39
  3
Flat
350
2B
  3
FlatWithEdges
350
2C
  3
Gouraud
350
2D
  3
GouraudWithEdges
350
2E
  3
Hidden
350
31
  3
JitterOff
350
3B
  3
Linepattern
350
38
  3
OverhangOff
350
3C
  3
Realistic
350
33
  3
Shaded
350
42
  3
Shaded with edges
350
41
  3
Shades of Gray
350
3E
  3
Sketchy
350
3F
  3
Thicken
350
37
  3
Wireframe
350
30
  3
X-Ray
350
40
  0
XRECORD
  5
216
102
{ACAD_REACTORS
330
C
102
}
330
C
100
AcDbXrecord
280
     1
 90
        1
330
6A
  0
DICTIONARY
  5
212
102
{ACAD_REACTORS
330
C
102
}
330
C
100
AcDbDictionary
281
     1
  3
CANNOSCALE
350
213
  3
CMLEADERSTYLE
350
218
  3
CTABLESTYLE
350
217
  0
LAYOUT
  5
1E
102
{ACAD_REACTORS
330
1A
102
}
330
1A
100
AcDbPlotSettings
  1

  2
none_device
  4

  6

 40
0.0
 41
0.0
 42
0.0
 43
0.0
 44
0.0
 45
0.0
 46
0.0
 47
0.0
 48
0.0
 49
0.0
140
0.0
141
0.0
142
1.0
143
1.0
 70
   688
 72
     0
 73
     0
 74
     5
  7

 75
    16
 76
     0
 77
     2
 78
   300
147
1.0
148
0.0
149
0.0
100
AcDbLayout
  1
Layout1
 70
     1
 71
     1
 10
0.0
 20
0.0
 11
12.0
 21
9.0
 12
0.0
 22
0.0
 32
0.0
 14
1.000000000000000E+20
 24
1.000000000000000E+20
 34
1.000000000000000E+20
 15
-1.000000000000000E+20
 25
-1.000000000000000E+20
 35
-1.000000000000000E+20
146
0.0
 13
0.0
 23
0.0
 33
0.0
 16
1.0
 26
0.0
 36
0.0
 17
0.0
 27
1.0
 37
0.0
 76
     0
330
1B
  0
LAYOUT
  5
26
102
{ACAD_REACTORS
330
1A
102
}
330
1A
100
AcDbPlotSettings
  1

  2
none_device
  4

  6

 40
0.0
 41
0.0
 42
0.0
 43
0.0
 44
0.0
 45
0.0
 46
0.0
 47
0.0
 48
0.0
 49
0.0
140
0.0
141
0.0
142
1.0
143
1.0
 70
   688
 72
     0
 73
     0
 74
     5
  7

 75
    16
 76
     0
 77
     2
 78
   300
147
1.0
148
0.0
149
0.0
100
AcDbLayout
  1
Layout2
 70
     1
 71
     2
 10
0.0
 20
0.0
 11
0.0
 21
0.0
 12
0.0
 22
0.0
 32
0.0
 14
0.0
 24
0.0
 34
0.0
 15
0.0
 25
0.0
 35
0.0
146
0.0
 13
0.0
 23
0.0
 33
0.0
 16
1.0
 26
0.0
 36
0.0
 17
0.0
 27
1.0
 37
0.0
 76
     0
330
23
  0
LAYOUT
  5
22
102
{ACAD_REACTORS
330
1A
102
}
330
1A
100
AcDbPlotSettings
  1

  2
none_device
  4
Letter_(8.50_x_11.00_Inches)
  6

 40
6.35
 41
6.35
 42
6.35000508
 43
6.35000508
 44
215.9
 45
279.4
 46
0.0
 47
0.0
 48
0.0
 49
0.0
140
0.0
141
0.0
142
1.0
143
1.0
 70
  1712
 72
     0
 73
     0
 74
     0
  7

 75
     0
 76
     0
 77
     2
 78
   300
147
1.0
148
0.0
149
0.0
100
AcDbLayout
  1
Model
 70
     1
 71
     0
 10
0.0
 20
0.0
 11
12.0
 21
9.0
 12
0.0
 22
0.0
 32
0.0
 14
1.000000000000000E+20
 24
1.000000000000000E+20
 34
1.000000000000000E+20
 15
-1.000000000000000E+20
 25
-1.000000000000000E+20
 35
-1.000000000000000E+20
146
0.0
 13
0.0
 23
0.0
 33
0.0
 16
1.0
 26
0.0
 36
0.0
 17
0.0
 27
1.0
 37
0.0
 76
     0
330
1F
331
29
  0
MATERIAL
  5
45
102
{ACAD_REACTORS
330
43
102
}
330
43
100
AcDbMaterial
  1
ByBlock
 72
     1
 94
      127
  0
MATERIAL
  5
44
102
{ACAD_REACTORS
330
43
102
}
330
43
100
AcDbMaterial
  1
ByLayer
 72
     1
 94
      127
  0
MATERIAL
  5
46
102
{ACAD_REACTORS
330
43
102
}
330
43
100
AcDbMaterial
  1
Global
 72
     1
 94
      127
  0
MLEADERSTYLE
  5
6C
102
{ACAD_REACTORS
330
6B
102
}
330
6B
100
AcDbMLeaderStyle
179
     2
170
     2
171
     1
172
     0
 90
        2
 40
0.0
 41
0.0
173
     1
 91
-1056964608
340
14
 92
       -2
290
     1
 42
0.09
291
     1
 43
0.36
  3
Standard
341
0
 44
0.18
300

342
11
174
     1
178
     6
175
     1
176
     0
 93
-1056964608
 45
0.18
292
     0
297
     0
 46
0.18
343
0
 94
-1056964608
 47
1.0
 49
1.0
140
1.0
293
     1
141
0.0
294
     1
177
     0
142
1.0
295
     0
296
     0
143
0.125
271
     0
272
     9
273
     9
298
     0
  0
MLINESTYLE
  5
18
102
{ACAD_REACTORS
330
17
102
}
330
17
100
AcDbMlineStyle
  2
Standard
 70
     0
  3

 62
   256
 51
90.0
 52
90.0
 71
     2
 49
0.5
 62
   256
  6
BYLAYER
 49
-0.5
 62
   256
  6
BYLAYER
  0
ACDBPLACEHOLDER
  5
F
102
{ACAD_REACTORS
330
E
102
}
330
E
  0
SCALE
  5
48
102
{ACAD_REACTORS
330
47
102
}
330
47
100
AcDbScale
 70
     0
300
1:1
140
1.0
141
1.0
290
     1
  0
SCALE
  5
49
102
{ACAD_REACTORS
330
47
102
}
330
47
100
AcDbScale
 70
     0
300
1:2
140
1.0
141
2.0
290
     0
  0
SCALE
  5
4A
102
{ACAD_REACTORS
330
47
102
}
330
47
100
AcDbScale
 70
     0
300
1:4
140
1.0
141
4.0
290
     0
  0
SCALE
  5
4B
102
{ACAD_REACTORS
330
47
102
}
330
47
100
AcDbScale
 70
     0
300
1:5
140
1.0
141
5.0
290
     0
  0
SCALE
  5
4C
102
{ACAD_REACTORS
330
47
102
}
330
47
100
AcDbScale
 70
     0
300
1:8
140
1.0
141
8.0
290
     0
  0
SCALE
  5
4D
102
{ACAD_REACTORS
330
47
102
}
330
47
100
AcDbScale
 70
     0
300
1:10
140
1.0
141
10.0
290
     0
  0
SCALE
  5
4E
102
{ACAD_REACTORS
330
47
102
}
330
47
100
AcDbScale
 70
     0
300
1:16
140
1.0
141
16.0
290
     0
  0
SCALE
  5
4F
102
{ACAD_REACTORS
330
47
102
}
330
47
100
AcDbScale
 70
     0
300
1:20
140
1.0
141
20.0
290
     0
  0
SCALE
  5
50
102
{ACAD_REACTORS
330
47
102
}
330
47
100
AcDbScale
 70
     0
300
1:30
140
1.0
141
30.0
290
     0
  0
SCALE
  5
51
102
{ACAD_REACTORS
330
47
102
}
330
47
100
AcDbScale
 70
     0
300
1:40
140
1.0
141
40.0
290
     0
  0
SCALE
  5
52
102
{ACAD_REACTORS
330
47
102
}
330
47
100
AcDbScale
 70
     0
300
1:50
140
1.0
141
50.0
290
     0
  0
SCALE
  5
53
102
{ACAD_REACTORS
330
47
102
}
330
47
100
AcDbScale
 70
     0
300
1:100
140
1.0
141
100.0
290
     0
  0
SCALE
  5
54
102
{ACAD_REACTORS
330
47
102
}
330
47
100
AcDbScale
 70
     0
300
2:1
140
2.0
141
1.0
290
     0
  0
SCALE
  5
55
102
{ACAD_REACTORS
330
47
102
}
330
47
100
AcDbScale
 70
     0
300
4:1
140
4.0
141
1.0
290
     0
  0
SCALE
  5
56
102
{ACAD_REACTORS
330
47
102
}
330
47
100
AcDbScale
 70
     0
300
8:1
140
8.0
141
1.0
290
     0
  0
SCALE
  5
57
102
{ACAD_REACTORS
330
47
102
}
330
47
100
AcDbScale
 70
     0
300
10:1
140
10.0
141
1.0
290
     0
  0
SCALE
  5
58
102
{ACAD_REACTORS
330
47
102
}
330
47
100
AcDbScale
 70
     0
300
100:1
140
100.0
141
1.0
290
     0
  0
SCALE
  5
59
102
{ACAD_REACTORS
330
47
102
}
330
47
100
AcDbScale
 70
     0
300
1/128" = 1'-0"
140
0.0078125
141
12.0
290
     0
  0
SCALE
  5
5A
102
{ACAD_REACTORS
330
47
102
}
330
47
100
AcDbScale
 70
     0
300
1/64" = 1'-0"
140
0.015625
141
12.0
290
     0
  0
SCALE
  5
5B
102
{ACAD_REACTORS
330
47
102
}
330
47
100
AcDbScale
 70
     0
300
1/32" = 1'-0"
140
0.03125
141
12.0
290
     0
  0
SCALE
  5
5C
102
{ACAD_REACTORS
330
47
102
}
330
47
100
AcDbScale
 70
     0
300
1/16" = 1'-0"
140
0.0625
141
12.0
290
     0
  0
SCALE
  5
5D
102
{ACAD_REACTORS
330
47
102
}
330
47
100
AcDbScale
 70
     0
300
3/32" = 1'-0"
140
0.09375
141
12.0
290
     0
  0
SCALE
  5
5E
102
{ACAD_REACTORS
330
47
102
}
330
47
100
AcDbScale
 70
     0
300
1/8" = 1'-0"
140
0.125
141
12.0
290
     0
  0
SCALE
  5
5F
102
{ACAD_REACTORS
330
47
102
}
330
47
100
AcDbScale
 70
     0
300
3/16" = 1'-0"
140
0.1875
141
12.0
290
     0
  0
SCALE
  5
60
102
{ACAD_REACTORS
330
47
102
}
330
47
100
AcDbScale
 70
     0
300
1/4" = 1'-0"
140
0.25
141
12.0
290
     0
  0
SCALE
  5
61
102
{ACAD_REACTORS
330
47
102
}
330
47
100
AcDbScale
 70
     0
300
3/8" = 1'-0"
140
0.375
141
12.0
290
     0
  0
SCALE
  5
62
102
{ACAD_REACTORS
330
47
102
}
330
47
100
AcDbScale
 70
     0
300
1/2" = 1'-0"
140
0.5
141
12.0
290
     0
  0
SCALE
  5
63
102
{ACAD_REACTORS
330
47
102
}
330
47
100
AcDbScale
 70
     0
300
3/4" = 1'-0"
140
0.75
141
12.0
290
     0
  0
SCALE
  5
64
102
{ACAD_REACTORS
330
47
102
}
330
47
100
AcDbScale
 70
     0
300
1" = 1'-0"
140
1.0
141
12.0
290
     0
  0
SCALE
  5
65
102
{ACAD_REACTORS
330
47
102
}
330
47
100
AcDbScale
 70
     0
300
1-1/2" = 1'-0"
140
1.5
141
12.0
290
     0
  0
SCALE
  5
66
102
{ACAD_REACTORS
330
47
102
}
330
47
100
AcDbScale
 70
     0
300
3" = 1'-0"
140
3.0
141
12.0
290
     0
  0
SCALE
  5
67
102
{ACAD_REACTORS
330
47
102
}
330
47
100
AcDbScale
 70
     0
300
6" = 1'-0"
140
6.0
141
12.0
290
     0
  0
SCALE
  5
68
102
{ACAD_REACTORS
330
47
102
}
330
47
100
AcDbScale
 70
     0
300
1'-0" = 1'-0"
140
12.0
141
12.0
290
     0
  0
TABLESTYLE
  5
6A
102
{ACAD_REACTORS
330
69
102
}
102
{ACAD_XDICTIONARY
360
214
102
}
330
69
100
AcDbTableStyle
  3
Standard
 70
     0
 71
     0
 40
0.06
 41
0.06
280
     0
281
     0
  7
Standard
140
0.18
170
     2
 62
     0
 63
   257
283
     0
 90
        4
 91
        0
  1

274
    -2
284
     1
 64
     0
275
    -2
285
     1
 65
     0
276
    -2
286
     1
 66
     0
277
    -2
287
     1
 67
     0
278
    -2
288
     1
 68
     0
279
    -2
289
     1
 69
     0
  7
Standard
140
0.25
170
     5
 62
     0
 63
   257
283
     0
 90
        4
 91
        0
  1

274
    -2
284
     1
 64
     0
275
    -2
285
     1
 65
     0
276
    -2
286
     1
 66
     0
277
    -2
287
     1
 67
     0
278
    -2
288
     1
 68
     0
279
    -2
289
     1
 69
     0
  7
Standard
140
0.18
170
     5
 62
     0
 63
   257
283
     0
 90
        4
 91
        0
  1

274
    -2
284
     1
 64
     0
275
    -2
285
     1
 65
     0
276
    -2
286
     1
 66
     0
277
    -2
287
     1
 67
     0
278
    -2
288
     1
 68
     0
279
    -2
289
     1
 69
     0
  0
VISUALSTYLE
  5
2F
102
{ACAD_REACTORS
330
2A
102
}
330
2A
100
AcDbVisualStyle
  2
2dWireframe
 70
     4
177
     3
291
     0
 70
    58
 90
        0
176
     1
 90
        2
176
     1
 90
        0
176
     1
 90
        0
176
     1
 40
0.6
176
     1
 40
30.0
176
     1
 62
     7
420
 16777215
176
     1
 90
        1
176
     1
 90
        4
176
     1
 62
     7
176
     1
 62
   257
176
     1
 90
        1
176
     1
 90
        1
176
     1
 40
1.0
176
     1
 90
        0
176
     1
 62
   257
176
     1
 40
1.0
176
     1
 90
        1
176
     1
 90
        6
176
     1
 90
        2
176
     1
 62
     7
176
     1
 90
        5
176
     1
 90
        0
176
     1
 90
        0
176
     1
290
     0
176
     1
 90
        1
176
     1
 40
0.0
176
     1
 90
        0
176
     1
290
     1
176
     1
290
     1
176
     1
290
     0
176
     1
290
     0
176
     1
290
     0
176
     1
290
     0
176
     1
290
     0
176
     1
290
     0
176
     1
290
     0
176
     1
 90
       50
176
     1
 40
0.0
176
     1
 40
1.0
176
     1
 90
        0
176
     1
 62
    18
420
        0
176
     1
 90
       50
176
     1
 90
        3
176
     1
 62
     5
420
      255
176
     1
290
     0
176
     1
 90
       50
176
     1
 90
       50
176
     1
 90
       50
176
     1
290
     0
176
     1
 90
       50
176
     1
 62
   256
176
     0
 40
1.0
176
     0
 90
        2
176
     1
  1
strokes_ogs.tif
176
     1
290
     0
176
     1
 40
1.0
176
     1
 40
1.0
176
     1
  0
VISUALSTYLE
  5
32
102
{ACAD_REACTORS
330
2A
102
}
330
2A
100
AcDbVisualStyle
  2
Basic
 70
     7
177
     3
291
     1
 70
    58
 90
        1
176
     1
 90
        0
176
     1
 90
        1
176
     1
 90
        0
176
     1
 40
0.6
176
     1
 40
30.0
176
     1
 62
     7
420
 16777215
176
     1
 90
        0
176
     1
 90
        4
176
     1
 62
     7
176
     1
 62
   257
176
     1
 90
        1
176
     1
 90
        1
176
     1
 40
1.0
176
     1
 90
        8
176
     1
 62
     7
176
     1
 40
1.0
176
     1
 90
        1
176
     1
 90
        6
176
     1
 90
        2
176
     1
 62
     7
176
     1
 90
        5
176
     1
 90
        0
176
     1
 90
        0
176
     1
290
     0
176
     1
 90
        1
176
     1
 40
0.0
176
     1
 90
        0
176
     1
290
     0
176
     1
290
     1
176
     1
290
     1
176
     1
290
     0
176
     1
290
     0
176
     1
290
     0
176
     1
290
     0
176
     1
290
     0
176
     1
290
     0
176
     1
 90
       50
176
     1
 40
0.0
176
     1
 40
1.0
176
     1
 90
        0
176
     1
 62
    18
420
        0
176
     1
 90
       50
176
     1
 90
        3
176
     1
 62
     5
420
      255
176
     1
290
     0
176
     1
 90
       50
176
     1
 90
       50
176
     1
 90
       50
176
     1
290
     0
176
     1
 90
       50
176
     1
 62
   256
176
     0
 40
1.0
176
     0
 90
        2
176
     1
  1
strokes_ogs.tif
176
     1
290
     0
176
     1
 40
1.0
176
     1
 40
1.0
176
     1
  0
VISUALSTYLE
  5
36
102
{ACAD_REACTORS
330
2A
102
}
330
2A
100
AcDbVisualStyle
  2
Brighten
 70
    12
177
     3
291
     1
 70
    58
 90
        2
176
     1
 90
        2
176
     1
 90
        0
176
     1
 90
        0
176
     1
 40
0.6
176
     1
 40
30.0
176
     1
 62
     7
420
 16777215
176
     1
 90
        1
176
     1
 90
        4
176
     1
 62
     7
176
     1
 62
   257
176
     1
 90
        1
176
     1
 90
        1
176
     1
 40
1.0
176
     1
 90
        8
176
     1
 62
     7
176
     1
 40
1.0
176
     1
 90
        1
176
     1
 90
        6
176
     1
 90
        2
176
     1
 62
     7
176
     1
 90
        5
176
     1
 90
        0
176
     1
 90
        0
176
     1
290
     0
176
     1
 90
        1
176
     1
 40
50.0
176
     1
 90
        0
176
     1
290
     0
176
     1
290
     1
176
     1
290
     1
176
     1
290
     0
176
     1
290
     0
176
     1
290
     0
176
     1
290
     0
176
     1
290
     0
176
     1
290
     0
176
     1
 90
       50
176
     1
 40
0.0
176
     1
 40
1.0
176
     1
 90
        0
176
     1
 62
    18
420
        0
176
     1
 90
       50
176
     1
 90
        3
176
     1
 62
     5
420
      255
176
     1
290
     0
176
     1
 90
       50
176
     1
 90
       50
176
     1
 90
       50
176
     1
290
     0
176
     1
 90
       50
176
     1
 62
   256
176
     0
 40
1.0
176
     0
 90
        2
176
     1
  1
strokes_ogs.tif
176
     1
290
     0
176
     1
 40
1.0
176
     1
 40
1.0
176
     1
  0
VISUALSTYLE
  5
3A
102
{ACAD_REACTORS
330
2A
102
}
330
2A
100
AcDbVisualStyle
  2
ColorChange
 70
    16
177
     3
291
     1
 70
    58
 90
        2
176
     1
 90
        2
176
     1
 90
        3
176
     1
 90
        0
176
     1
 40
0.6
176
     1
 40
30.0
176
     1
 62
     8
420
  8421504
176
     1
 90
        1
176
     1
 90
        4
176
     1
 62
     7
176
     1
 62
   257
176
     1
 90
        1
176
     1
 90
        1
176
     1
 40
1.0
176
     1
 90
        8
176
     1
 62
     8
420
  8421504
176
     1
 40
1.0
176
     1
 90
        1
176
     1
 90
        6
176
     1
 90
        2
176
     1
 62
     7
176
     1
 90
        5
176
     1
 90
        0
176
     1
 90
        0
176
     1
290
     0
176
     1
 90
        1
176
     1
 40
0.0
176
     1
 90
        0
176
     1
290
     0
176
     1
290
     1
176
     1
290
     1
176
     1
290
     0
176
     1
290
     0
176
     1
290
     0
176
     1
290
     0
176
     1
290
     0
176
     1
290
     0
176
     1
 90
       50
176
     1
 40
0.0
176
     1
 40
1.0
176
     1
 90
        0
176
     1
 62
    18
420
        0
176
     1
 90
       50
176
     1
 90
        3
176
     1
 62
     5
420
      255
176
     1
290
     0
176
     1
 90
       50
176
     1
 90
       50
176
     1
 90
       50
176
     1
290
     0
176
     1
 90
       50
176
     1
 62
   256
176
     0
 40
1.0
176
     0
 90
        2
176
     1
  1
strokes_ogs.tif
176
     1
290
     0
176
     1
 40
1.0
176
     1
 40
1.0
176
     1
  0
VISUALSTYLE
  5
34
102
{ACAD_REACTORS
330
2A
102
}
330
2A
100
AcDbVisualStyle
  2
Conceptual
 70
     9
177
     3
291
     0
 70
    58
 90
        3
176
     1
 90
        2
176
     1
 90
        0
176
     1
 90
        0
176
     1
 40
0.6
176
     1
 40
30.0
176
     1
 62
     7
420
 16777215
176
     1
 90
        2
176
     1
 90
        2
176
     1
 62
     7
176
     1
 62
   257
176
     1
 90
        1
176
     1
 90
        1
176
     1
 40
179.0
176
     1
 90
        8
176
     1
 62
     7
176
     1
 40
1.0
176
     1
 90
        1
176
     1
 90
        6
176
     1
 90
        2
176
     1
 62
     7
176
     1
 90
        3
176
     1
 90
        0
176
     1
 90
        0
176
     1
290
     0
176
     1
 90
        1
176
     1
 40
0.0
176
     1
 90
        0
176
     1
290
     0
176
     1
290
     1
176
     1
290
     1
176
     1
290
     0
176
     1
290
     0
176
     1
290
     0
176
     1
290
     0
176
     1
290
     0
176
     1
290
     0
176
     1
 90
       50
176
     1
 40
0.0
176
     1
 40
1.0
176
     1
 90
        0
176
     1
 62
    18
420
        0
176
     1
 90
       50
176
     1
 90
        3
176
     1
 62
     5
420
      255
176
     1
290
     0
176
     1
 90
       50
176
     1
 90
       50
176
     1
 90
       50
176
     1
290
     0
176
     1
 90
       50
176
     1
 62
   256
176
     0
 40
1.0
176
     0
 90
        2
176
     1
  1
strokes_ogs.tif
176
     1
290
     0
176
     1
 40
1.0
176
     1
 40
1.0
176
     1
  0
VISUALSTYLE
  5
35
102
{ACAD_REACTORS
330
2A
102
}
330
2A
100
AcDbVisualStyle
  2
Dim
 70
    11
177
     3
291
     1
 70
    58
 90
        2
176
     1
 90
        2
176
     1
 90
        0
176
     1
 90
        0
176
     1
 40
0.6
176
     1
 40
30.0
176
     1
 62
     7
420
 16777215
176
     1
 90
        1
176
     1
 90
        4
176
     1
 62
     7
176
     1
 62
   257
176
     1
 90
        1
176
     1
 90
        1
176
     1
 40
1.0
176
     1
 90
        8
176
     1
 62
     7
176
     1
 40
1.0
176
     1
 90
        1
176
     1
 90
        6
176
     1
 90
        2
176
     1
 62
     7
176
     1
 90
        5
176
     1
 90
        0
176
     1
 90
        0
176
     1
290
     0
176
     1
 90
        1
176
     1
 40
-50.0
176
     1
 90
        0
176
     1
290
     0
176
     1
290
     1
176
     1
290
     1
176
     1
290
     0
176
     1
290
     0
176
     1
290
     0
176
     1
290
     0
176
     1
290
     0
176
     1
290
     0
176
     1
 90
       50
176
     1
 40
0.0
176
     1
 40
1.0
176
     1
 90
        0
176
     1
 62
    18
420
        0
176
     1
 90
       50
176
     1
 90
        3
176
     1
 62
     5
420
      255
176
     1
290
     0
176
     1
 90
       50
176
     1
 90
       50
176
     1
 90
       50
176
     1
290
     0
176
     1
 90
       50
176
     1
 62
   256
176
     0
 40
1.0
176
     0
 90
        2
176
     1
  1
strokes_ogs.tif
176
     1
290
     0
176
     1
 40
1.0
176
     1
 40
1.0
176
     1
  0
VISUALSTYLE
  5
3D
102
{ACAD_REACTORS
330
2A
102
}
330
2A
100
AcDbVisualStyle
  2
EdgeColorOff
 70
    22
177
     3
291
     1
 70
    58
 90
        2
176
     0
 90
        2
176
     0
 90
        0
176
     0
 90
        0
176
     0
 40
0.6
176
     0
 40
30.0
176
     0
 62
     7
420
 16777215
176
     0
 90
        1
176
     0
 90
        4
176
     0
 62
     7
176
     0
 62
   257
176
     0
 90
        1
176
     0
 90
        1
176
     0
 40
1.0
176
     0
 90
        8
176
     2
 62
     7
176
     0
 40
1.0
176
     0
 90
        1
176
     0
 90
        6
176
     0
 90
        2
176
     0
 62
     7
176
     0
 90
        5
176
     0
 90
        0
176
     0
 90
        0
176
     0
290
     0
176
     0
 90
        1
176
     0
 40
0.0
176
     0
 90
        0
176
     0
290
     0
176
     0
290
     1
176
     0
290
     1
176
     0
290
     0
176
     0
290
     0
176
     0
290
     0
176
     0
290
     0
176
     0
290
     0
176
     0
290
     0
176
     0
 90
       50
176
     0
 40
0.0
176
     0
 40
1.0
176
     0
 90
        0
176
     0
 62
    18
420
        0
176
     0
 90
       50
176
     0
 90
        3
176
     0
 62
     5
420
      255
176
     0
290
     0
176
     0
 90
       50
176
     0
 90
       50
176
     0
 90
       50
176
     0
290
     0
176
     0
 90
       50
176
     0
 62
   256
176
     0
 40
1.0
176
     0
 90
        2
176
     0
  1
strokes_ogs.tif
176
     0
290
     0
176
     0
 40
1.0
176
     0
 40
1.0
176
     0
  0
VISUALSTYLE
  5
39
102
{ACAD_REACTORS
330
2A
102
}
330
2A
100
AcDbVisualStyle
  2
Facepattern
 70
    15
177
     3
291
     1
 70
    58
 90
        2
176
     1
 90
        2
176
     1
 90
        0
176
     1
 90
        0
176
     1
 40
0.6
176
     1
 40
30.0
176
     1
 62
     7
420
 16777215
176
     1
 90
        1
176
     1
 90
        4
176
     1
 62
     7
176
     1
 62
   257
176
     1
 90
        1
176
     1
 90
        1
176
     1
 40
1.0
176
     1
 90
        8
176
     1
 62
     7
176
     1
 40
1.0
176
     1
 90
        1
176
     1
 90
        6
176
     1
 90
        2
176
     1
 62
     7
176
     1
 90
        5
176
     1
 90
        0
176
     1
 90
        0
176
     1
290
     0
176
     1
 90
        1
176
     1
 40
0.0
176
     1
 90
        0
176
     1
290
     0
176
     1
290
     1
176
     1
290
     1
176
     1
290
     0
176
     1
290
     0
176
     1
290
     0
176
     1
290
     0
176
     1
290
     0
176
     1
290
     0
176
     1
 90
       50
176
     1
 40
0.0
176
     1
 40
1.0
176
     1
 90
        0
176
     1
 62
    18
420
        0
176
     1
 90
       50
176
     1
 90
        3
176
     1
 62
     5
420
      255
176
     1
290
     0
176
     1
 90
       50
176
     1
 90
       50
176
     1
 90
       50
176
     1
290
     0
176
     1
 90
       50
176
     1
 62
   256
176
     0
 40
1.0
176
     0
 90
        2
176
     1
  1
strokes_ogs.tif
176
     1
290
     0
176
     1
 40
1.0
176
     1
 40
1.0
176
     1
  0
VISUALSTYLE
  5
2B
102
{ACAD_REACTORS
330
2A
102
}
330
2A
100
AcDbVisualStyle
  2
Flat
 70
     0
177
     3
291
     1
 70
    58
 90
        2
176
     1
 90
        1
176
     1
 90
        1
176
     1
 90
        2
176
     1
 40
0.6
176
     1
 40
30.0
176
     1
 62
     7
420
 16777215
176
     1
 90
        0
176
     1
 90
        0
176
     1
 62
     7
176
     1
 62
   257
176
     1
 90
        1
176
     1
 90
        1
176
     1
 40
1.0
176
     1
 90
        8
176
     1
 62
     7
176
     1
 40
1.0
176
     1
 90
        1
176
     1
 90
        6
176
     1
 90
        2
176
     1
 62
     7
176
     1
 90
        5
176
     1
 90
        0
176
     1
 90
        0
176
     1
290
     0
176
     1
 90
       13
176
     1
 40
0.0
176
     1
 90
        0
176
     1
290
     0
176
     1
290
     1
176
     1
290
     1
176
     1
290
     0
176
     1
290
     0
176
     1
290
     0
176
     1
290
     0
176
     1
290
     0
176
     1
290
     0
176
     1
 90
       50
176
     1
 40
0.0
176
     1
 40
1.0
176
     1
 90
        0
176
     1
 62
    18
420
        0
176
     1
 90
       50
176
     1
 90
        3
176
     1
 62
     5
420
      255
176
     1
290
     0
176
     1
 90
       50
176
     1
 90
       50
176
     1
 90
       50
176
     1
290
     0
176
     1
 90
       50
176
     1
 62
   256
176
     0
 40
1.0
176
     0
 90
        2
176
     1
  1
strokes_ogs.tif
176
     1
290
     0
176
     1
 40
1.0
176
     1
 40
1.0
176
     1
  0
VISUALSTYLE
  5
2C
102
{ACAD_REACTORS
330
2A
102
}
330
2A
100
AcDbVisualStyle
  2
FlatWithEdges
 70
     1
177
     3
291
     1
 70
    58
 90
        2
176
     1
 90
        1
176
     1
 90
        1
176
     1
 90
        2
176
     1
 40
0.6
176
     1
 40
30.0
176
     1
 62
     7
420
 16777215
176
     1
 90
        1
176
     1
 90
        0
176
     1
 62
     7
176
     1
 62
   257
176
     1
 90
        1
176
     1
 90
        1
176
     1
 40
1.0
176
     1
 90
        0
176
     1
 62
   257
176
     1
 40
1.0
176
     1
 90
        1
176
     1
 90
        6
176
     1
 90
        2
176
     1
 62
     7
176
     1
 90
        5
176
     1
 90
        0
176
     1
 90
        0
176
     1
290
     0
176
     1
 90
       13
176
     1
 40
0.0
176
     1
 90
        0
176
     1
290
     0
176
     1
290
     1
176
     1
290
     1
176
     1
290
     0
176
     1
290
     0
176
     1
290
     0
176
     1
290
     0
176
     1
290
     0
176
     1
290
     0
176
     1
 90
       50
176
     1
 40
0.0
176
     1
 40
1.0
176
     1
 90
        0
176
     1
 62
    18
420
        0
176
     1
 90
       50
176
     1
 90
        3
176
     1
 62
     5
420
      255
176
     1
290
     0
176
     1
 90
       50
176
     1
 90
       50
176
     1
 90
       50
176
     1
290
     0
176
     1
 90
       50
176
     1
 62
   256
176
     0
 40
1.0
176
     0
 90
        2
176
     1
  1
strokes_ogs.tif
176
     1
290
     0
176
     1
 40
1.0
176
     1
 40
1.0
176
     1
  0
VISUALSTYLE
  5
2D
102
{ACAD_REACTORS
330
2A
102
}
330
2A
100
AcDbVisualStyle
  2
Gouraud
 70
     2
177
     3
291
     1
 70
    58
 90
        2
176
     1
 90
        2
176
     1
 90
        1
176
     1
 90
        2
176
     1
 40
0.6
176
     1
 40
30.0
176
     1
 62
     7
420
 16777215
176
     1
 90
        0
176
     1
 90
        0
176
     1
 62
     7
176
     1
 62
   257
176
     1
 90
        1
176
     1
 90
        1
176
     1
 40
1.0
176
     1
 90
        0
176
     1
 62
     7
176
     1
 40
1.0
176
     1
 90
        1
176
     1
 90
        6
176
     1
 90
        2
176
     1
 62
     7
176
     1
 90
        5
176
     1
 90
        0
176
     1
 90
        0
176
     1
290
     0
176
     1
 90
       13
176
     1
 40
0.0
176
     1
 90
        0
176
     1
290
     0
176
     1
290
     1
176
     1
290
     1
176
     1
290
     0
176
     1
290
     0
176
     1
290
     0
176
     1
290
     0
176
     1
290
     0
176
     1
290
     0
176
     1
 90
       50
176
     1
 40
0.0
176
     1
 40
1.0
176
     1
 90
        0
176
     1
 62
    18
420
        0
176
     1
 90
       50
176
     1
 90
        3
176
     1
 62
     5
420
      255
176
     1
290
     0
176
     1
 90
       50
176
     1
 90
       50
176
     1
 90
       50
176
     1
290
     0
176
     1
 90
       50
176
     1
 62
   256
176
     0
 40
1.0
176
     0
 90
        2
176
     1
  1
strokes_ogs.tif
176
     1
290
     0
176
     1
 40
1.0
176
     1
 40
1.0
176
     1
  0
VISUALSTYLE
  5
2E
102
{ACAD_REACTORS
330
2A
102
}
330
2A
100
AcDbVisualStyle
  2
GouraudWithEdges
 70
     3
177
     3
291
     1
 70
    58
 90
        2
176
     1
 90
        2
176
     1
 90
        1
176
     1
 90
        2
176
     1
 40
0.6
176
     1
 40
30.0
176
     1
 62
     7
420
 16777215
176
     1
 90
        1
176
     1
 90
        0
176
     1
 62
     7
176
     1
 62
   257
176
     1
 90
        1
176
     1
 90
        1
176
     1
 40
1.0
176
     1
 90
        0
176
     1
 62
   257
176
     1
 40
1.0
176
     1
 90
        1
176
     1
 90
        6
176
     1
 90
        2
176
     1
 62
     7
176
     1
 90
        5
176
     1
 90
        0
176
     1
 90
        0
176
     1
290
     0
176
     1
 90
       13
176
     1
 40
0.0
176
     1
 90
        0
176
     1
290
     0
176
     1
290
     1
176
     1
290
     1
176
     1
290
     0
176
     1
290
     0
176
     1
290
     0
176
     1
290
     0
176
     1
290
     0
176
     1
290
     0
176
     1
 90
       50
176
     1
 40
0.0
176
     1
 40
1.0
176
     1
 90
        0
176
     1
 62
    18
420
        0
176
     1
 90
       50
176
     1
 90
        3
176
     1
 62
     5
420
      255
176
     1
290
     0
176
     1
 90
       50
176
     1
 90
       50
176
     1
 90
       50
176
     1
290
     0
176
     1
 90
       50
176
     1
 62
   256
176
     0
 40
1.0
176
     0
 90
        2
176
     1
  1
strokes_ogs.tif
176
     1
290
     0
176
     1
 40
1.0
176
     1
 40
1.0
176
     1
  0
VISUALSTYLE
  5
31
102
{ACAD_REACTORS
330
2A
102
}
330
2A
100
AcDbVisualStyle
  2
Hidden
 70
     6
177
     3
291
     0
 70
    58
 90
        1
176
     1
 90
        2
176
     1
 90
        2
176
     1
 90
        0
176
     1
 40
0.6
176
     1
 40
30.0
176
     1
 62
     7
420
 16777215
176
     1
 90
        2
176
     1
 90
        2
176
     1
 62
     7
176
     1
 62
   257
176
     1
 90
        2
176
     1
 90
        1
176
     1
 40
40.0
176
     1
 90
        0
176
     1
 62
   257
176
     1
 40
1.0
176
     1
 90
        1
176
     1
 90
        6
176
     1
 90
        2
176
     1
 62
     7
176
     1
 90
        3
176
     1
 90
        0
176
     1
 90
        0
176
     1
290
     0
176
     1
 90
        1
176
     1
 40
0.0
176
     1
 90
        0
176
     1
290
     0
176
     1
290
     1
176
     1
290
     1
176
     1
290
     0
176
     1
290
     0
176
     1
290
     0
176
     1
290
     0
176
     1
290
     0
176
     1
290
     0
176
     1
 90
       50
176
     1
 40
0.0
176
     1
 40
1.0
176
     1
 90
        0
176
     1
 62
    18
420
        0
176
     1
 90
       50
176
     1
 90
        3
176
     1
 62
     5
420
      255
176
     1
290
     0
176
     1
 90
       50
176
     1
 90
       50
176
     1
 90
       50
176
     1
290
     0
176
     1
 90
       50
176
     1
 62
   256
176
     0
 40
1.0
176
     0
 90
        2
176
     1
  1
strokes_ogs.tif
176
     1
290
     0
176
     1
 40
1.0
176
     1
 40
1.0
176
     1
  0
VISUALSTYLE
  5
3B
102
{ACAD_REACTORS
330
2A
102
}
330
2A
100
AcDbVisualStyle
  2
JitterOff
 70
    20
177
     3
291
     1
 70
    58
 90
        2
176
     0
 90
        2
176
     0
 90
        0
176
     0
 90
        0
176
     0
 40
0.6
176
     0
 40
30.0
176
     0
 62
     7
420
 16777215
176
     0
 90
        1
176
     0
 90
        4
176
     0
 62
     7
176
     0
 62
   257
176
     0
 90
        1
176
     0
 90
        1
176
     0
 40
1.0
176
     0
 90
       10
176
     2
 62
     7
176
     0
 40
1.0
176
     0
 90
        1
176
     0
 90
        6
176
     0
 90
        2
176
     0
 62
     7
176
     0
 90
        5
176
     0
 90
        0
176
     0
 90
        0
176
     0
290
     0
176
     0
 90
        1
176
     0
 40
0.0
176
     0
 90
        0
176
     0
290
     0
176
     0
290
     1
176
     0
290
     1
176
     0
290
     0
176
     0
290
     0
176
     0
290
     0
176
     0
290
     0
176
     0
290
     0
176
     0
290
     0
176
     0
 90
       50
176
     0
 40
0.0
176
     0
 40
1.0
176
     0
 90
        0
176
     0
 62
    18
420
        0
176
     0
 90
       50
176
     0
 90
        3
176
     0
 62
     5
420
      255
176
     0
290
     0
176
     0
 90
       50
176
     0
 90
       50
176
     0
 90
       50
176
     0
290
     0
176
     0
 90
       50
176
     0
 62
   256
176
     0
 40
1.0
176
     0
 90
        2
176
     0
  1
strokes_ogs.tif
176
     0
290
     0
176
     0
 40
1.0
176
     0
 40
1.0
176
     0
  0
VISUALSTYLE
  5
38
102
{ACAD_REACTORS
330
2A
102
}
330
2A
100
AcDbVisualStyle
  2
Linepattern
 70
    14
177
     3
291
     1
 70
    58
 90
        2
176
     1
 90
        2
176
     1
 90
        0
176
     1
 90
        0
176
     1
 40
0.6
176
     1
 40
30.0
176
     1
 62
     7
420
 16777215
176
     1
 90
        1
176
     1
 90
        4
176
     1
 62
     7
176
     1
 62
   257
176
     1
 90
        7
176
     1
 90
        7
176
     1
 40
1.0
176
     1
 90
        8
176
     1
 62
     7
176
     1
 40
1.0
176
     1
 90
        1
176
     1
 90
        6
176
     1
 90
        2
176
     1
 62
     7
176
     1
 90
        5
176
     1
 90
        0
176
     1
 90
        0
176
     1
290
     0
176
     1
 90
        1
176
     1
 40
0.0
176
     1
 90
        0
176
     1
290
     0
176
     1
290
     1
176
     1
290
     1
176
     1
290
     0
176
     1
290
     0
176
     1
290
     0
176
     1
290
     0
176
     1
290
     0
176
     1
290
     0
176
     1
 90
       50
176
     1
 40
0.0
176
     1
 40
1.0
176
     1
 90
        0
176
     1
 62
    18
420
        0
176
     1
 90
       50
176
     1
 90
        3
176
     1
 62
     5
420
      255
176
     1
290
     0
176
     1
 90
       50
176
     1
 90
       50
176
     1
 90
       50
176
     1
290
     0
176
     1
 90
       50
176
     1
 62
   256
176
     0
 40
1.0
176
     0
 90
        2
176
     1
  1
strokes_ogs.tif
176
     1
290
     0
176
     1
 40
1.0
176
     1
 40
1.0
176
     1
  0
VISUALSTYLE
  5
3C
102
{ACAD_REACTORS
330
2A
102
}
330
2A
100
AcDbVisualStyle
  2
OverhangOff
 70
    21
177
     3
291
     1
 70
    58
 90
        2
176
     0
 90
        2
176
     0
 90
        0
176
     0
 90
        0
176
     0
 40
0.6
176
     0
 40
30.0
176
     0
 62
     7
420
 16777215
176
     0
 90
        1
176
     0
 90
        4
176
     0
 62
     7
176
     0
 62
   257
176
     0
 90
        1
176
     0
 90
        1
176
     0
 40
1.0
176
     0
 90
        9
176
     2
 62
     7
176
     0
 40
1.0
176
     0
 90
        1
176
     0
 90
        6
176
     0
 90
        2
176
     0
 62
     7
176
     0
 90
        5
176
     0
 90
        0
176
     0
 90
        0
176
     0
290
     0
176
     0
 90
        1
176
     0
 40
0.0
176
     0
 90
        0
176
     0
290
     0
176
     0
290
     1
176
     0
290
     1
176
     0
290
     0
176
     0
290
     0
176
     0
290
     0
176
     0
290
     0
176
     0
290
     0
176
     0
290
     0
176
     0
 90
       50
176
     0
 40
0.0
176
     0
 40
1.0
176
     0
 90
        0
176
     0
 62
    18
420
        0
176
     0
 90
       50
176
     0
 90
        3
176
     0
 62
     5
420
      255
176
     0
290
     0
176
     0
 90
       50
176
     0
 90
       50
176
     0
 90
       50
176
     0
290
     0
176
     0
 90
       50
176
     0
 62
   256
176
     0
 40
1.0
176
     0
 90
        2
176
     0
  1
strokes_ogs.tif
176
     0
290
     0
176
     0
 40
1.0
176
     0
 40
1.0
176
     0
  0
VISUALSTYLE
  5
33
102
{ACAD_REACTORS
330
2A
102
}
330
2A
100
AcDbVisualStyle
  2
Realistic
 70
     8
177
     3
291
     0
 70
    58
 90
        2
176
     1
 90
        3
176
     1
 90
        0
176
     1
 90
        2
176
     1
 40
0.6
176
     1
 40
30.0
176
     1
 62
     7
420
 16777215
176
     1
 90
        0
176
     1
 90
        0
176
     1
 62
     7
176
     1
 62
   257
176
     1
 90
        1
176
     1
 90
        1
176
     1
 40
1.0
176
     1
 90
        8
176
     1
 62
   257
176
     1
 40
1.0
176
     1
 90
        1
176
     1
 90
        6
176
     1
 90
        2
176
     1
 62
     7
176
     1
 90
        3
176
     1
 90
        0
176
     1
 90
        0
176
     1
290
     0
176
     1
 90
       13
176
     1
 40
0.0
176
     1
 90
        0
176
     1
290
     0
176
     1
290
     1
176
     1
290
     1
176
     1
290
     0
176
     1
290
     0
176
     1
290
     0
176
     1
290
     0
176
     1
290
     0
176
     1
290
     0
176
     1
 90
       50
176
     1
 40
0.0
176
     1
 40
1.0
176
     1
 90
        0
176
     1
 62
    18
420
        0
176
     1
 90
       50
176
     1
 90
        3
176
     1
 62
     5
420
      255
176
     1
290
     0
176
     1
 90
       50
176
     1
 90
       50
176
     1
 90
       50
176
     1
290
     0
176
     1
 90
       50
176
     1
 62
   256
176
     0
 40
1.0
176
     0
 90
        2
176
     1
  1
strokes_ogs.tif
176
     1
290
     0
176
     1
 40
1.0
176
     1
 40
1.0
176
     1
  0
VISUALSTYLE
  5
42
102
{ACAD_REACTORS
330
2A
102
}
330
2A
100
AcDbVisualStyle
  2
Shaded
 70
    27
177
     3
291
     0
 70
    58
 90
        2
176
     1
 90
        2
176
     1
 90
        1
176
     1
 90
        2
176
     1
 40
0.6
176
     1
 40
30.0
176
     1
 62
     7
420
 16777215
176
     1
 90
        0
176
     1
 90
        4
176
     1
 62
     7
176
     1
 62
   257
176
     1
 90
        1
176
     1
 90
        1
176
     1
 40
1.0
176
     1
 90
        8
176
     1
 62
   257
176
     1
 40
1.0
176
     1
 90
        1
176
     1
 90
        6
176
     1
 90
        2
176
     1
 62
     8
420
  7895160
176
     1
 90
        3
176
     1
 90
        0
176
     1
 90
        0
176
     1
290
     0
176
     1
 90
        5
176
     1
 40
0.0
176
     1
 90
        0
176
     1
290
     0
176
     1
290
     1
176
     1
290
     1
176
     1
290
     0
176
     1
290
     0
176
     1
290
     0
176
     1
290
     0
176
     1
290
     0
176
     1
290
     0
176
     1
 90
       50
176
     1
 40
0.0
176
     1
 40
1.0
176
     1
 90
        0
176
     1
 62
    18
420
        0
176
     1
 90
       50
176
     1
 90
        3
176
     1
 62
     5
420
      255
176
     1
290
     0
176
     1
 90
       50
176
     1
 90
       50
176
     1
 90
       50
176
     1
290
     0
176
     1
 90
       50
176
     1
 62
   256
176
     0
 40
1.0
176
     0
 90
        2
176
     1
  1
strokes_ogs.tif
176
     1
290
     0
176
     1
 40
1.0
176
     1
 40
1.0
176
     1
  0
VISUALSTYLE
  5
41
102
{ACAD_REACTORS
330
2A
102
}
330
2A
100
AcDbVisualStyle
  2
Shaded with edges
 70
    26
177
     3
291
     0
 70
    58
 90
        2
176
     1
 90
        2
176
     1
 90
        1
176
     1
 90
        2
176
     1
 40
0.6
176
     1
 40
30.0
176
     1
 62
     7
420
 16777215
176
     1
 90
        1
176
     1
 90
       10
176
     1
 62
     7
176
     1
 62
   257
176
     1
 90
        2
176
     1
 90
        1
176
     1
 40
1.0
176
     1
 90
        8
176
     1
 62
   257
176
     1
 40
1.0
176
     1
 90
        1
176
     1
 90
        6
176
     1
 90
        2
176
     1
 62
     7
176
     1
 90
        3
176
     1
 90
        0
176
     1
 90
        0
176
     1
290
     0
176
     1
 90
        5
176
     1
 40
0.0
176
     1
 90
        0
176
     1
290
     0
176
     1
290
     1
176
     1
290
     1
176
     1
290
     0
176
     1
290
     0
176
     1
290
     0
176
     1
290
     0
176
     1
290
     0
176
     1
290
     0
176
     1
 90
       50
176
     1
 40
0.0
176
     1
 40
1.0
176
     1
 90
        0
176
     1
 62
    18
420
        0
176
     1
 90
       50
176
     1
 90
        3
176
     1
 62
     5
420
      255
176
     1
290
     0
176
     1
 90
       50
176
     1
 90
       50
176
     1
 90
       50
176
     1
290
     0
176
     1
 90
       50
176
     1
 62
   256
176
     0
 40
1.0
176
     0
 90
        2
176
     1
  1
strokes_ogs.tif
176
     1
290
     0
176
     1
 40
1.0
176
     1
 40
1.0
176
     1
  0
VISUALSTYLE
  5
3E
102
{ACAD_REACTORS
330
2A
102
}
330
2A
100
AcDbVisualStyle
  2
Shades of Gray
 70
    23
177
     3
291
     0
 70
    58
 90
        2
176
     1
 90
        2
176
     1
 90
        3
176
     1
 90
        0
176
     1
 40
0.6
176
     1
 40
30.0
176
     1
 62
     7
420
 16777215
176
     1
 90
        2
176
     1
 90
        2
176
     1
 62
     7
176
     1
 62
     7
176
     1
 90
        1
176
     1
 90
        1
176
     1
 40
40.0
176
     1
 90
        8
176
     1
 62
     7
176
     1
 40
1.0
176
     1
 90
        1
176
     1
 90
        6
176
     1
 90
        2
176
     1
 62
     7
176
     1
 90
        3
176
     1
 90
        0
176
     1
 90
        0
176
     1
290
     0
176
     1
 90
        1
176
     1
 40
0.0
176
     1
 90
        0
176
     1
290
     0
176
     1
290
     1
176
     1
290
     1
176
     1
290
     0
176
     1
290
     0
176
     1
290
     0
176
     1
290
     0
176
     1
290
     0
176
     1
290
     0
176
     1
 90
       50
176
     1
 40
0.0
176
     1
 40
1.0
176
     1
 90
        0
176
     1
 62
    18
420
        0
176
     1
 90
       50
176
     1
 90
        3
176
     1
 62
     5
420
      255
176
     1
290
     0
176
     1
 90
       50
176
     1
 90
       50
176
     1
 90
       50
176
     1
290
     0
176
     1
 90
       50
176
     1
 62
   256
176
     0
 40
1.0
176
     0
 90
        2
176
     1
  1
strokes_ogs.tif
176
     1
290
     0
176
     1
 40
1.0
176
     1
 40
1.0
176
     1
  0
VISUALSTYLE
  5
3F
102
{ACAD_REACTORS
330
2A
102
}
330
2A
100
AcDbVisualStyle
  2
Sketchy
 70
    24
177
     3
291
     0
 70
    58
 90
        1
176
     1
 90
        2
176
     1
 90
        2
176
     1
 90
        0
176
     1
 40
0.6
176
     1
 40
30.0
176
     1
 62
     7
420
 16777215
176
     1
 90
        2
176
     1
 90
        2
176
     1
 62
     7
176
     1
 62
     7
176
     1
 90
        1
176
     1
 90
        1
176
     1
 40
40.0
176
     1
 90
       11
176
     1
 62
     7
176
     1
 40
1.0
176
     1
 90
        1
176
     1
 90
        6
176
     1
 90
        2
176
     1
 62
     7
176
     1
 90
        6
176
     1
 90
        0
176
     1
 90
        0
176
     1
290
     0
176
     1
 90
        1
176
     1
 40
0.0
176
     1
 90
        0
176
     1
290
     0
176
     1
290
     1
176
     1
290
     1
176
     1
290
     0
176
     1
290
     0
176
     1
290
     0
176
     1
290
     0
176
     1
290
     0
176
     1
290
     0
176
     1
 90
       50
176
     1
 40
0.0
176
     1
 40
1.0
176
     1
 90
        0
176
     1
 62
    18
420
        0
176
     1
 90
       50
176
     1
 90
        3
176
     1
 62
     5
420
      255
176
     1
290
     0
176
     1
 90
       50
176
     1
 90
       50
176
     1
 90
       50
176
     1
290
     0
176
     1
 90
       50
176
     1
 62
   256
176
     0
 40
1.0
176
     0
 90
        2
176
     1
  1
strokes_ogs.tif
176
     1
290
     0
176
     1
 40
1.0
176
     1
 40
1.0
176
     1
  0
VISUALSTYLE
  5
37
102
{ACAD_REACTORS
330
2A
102
}
330
2A
100
AcDbVisualStyle
  2
Thicken
 70
    13
177
     3
291
     1
 70
    58
 90
        2
176
     1
 90
        2
176
     1
 90
        0
176
     1
 90
        0
176
     1
 40
0.6
176
     1
 40
30.0
176
     1
 62
     7
420
 16777215
176
     1
 90
        1
176
     1
 90
        4
176
     1
 62
     7
176
     1
 62
   257
176
     1
 90
        1
176
     1
 90
        1
176
     1
 40
1.0
176
     1
 90
       12
176
     1
 62
     7
176
     1
 40
1.0
176
     1
 90
        1
176
     1
 90
        6
176
     1
 90
        2
176
     1
 62
     7
176
     1
 90
        5
176
     1
 90
        0
176
     1
 90
        0
176
     1
290
     0
176
     1
 90
        1
176
     1
 40
0.0
176
     1
 90
        0
176
     1
290
     0
176
     1
290
     1
176
     1
290
     1
176
     1
290
     0
176
     1
290
     0
176
     1
290
     0
176
     1
290
     0
176
     1
290
     0
176
     1
290
     0
176
     1
 90
       50
176
     1
 40
0.0
176
     1
 40
1.0
176
     1
 90
        0
176
     1
 62
    18
420
        0
176
     1
 90
       50
176
     1
 90
        3
176
     1
 62
     5
420
      255
176
     1
290
     0
176
     1
 90
       50
176
     1
 90
       50
176
     1
 90
       50
176
     1
290
     0
176
     1
 90
       50
176
     1
 62
   256
176
     0
 40
1.0
176
     0
 90
        2
176
     1
  1
strokes_ogs.tif
176
     1
290
     0
176
     1
 40
1.0
176
     1
 40
1.0
176
     1
  0
VISUALSTYLE
  5
30
102
{ACAD_REACTORS
330
2A
102
}
330
2A
100
AcDbVisualStyle
  2
Wireframe
 70
     5
177
     3
291
     0
 70
    58
 90
        0
176
     1
 90
        2
176
     1
 90
        0
176
     1
 90
        0
176
     1
 40
0.6
176
     1
 40
30.0
176
     1
 62
     7
420
 16777215
176
     1
 90
        1
176
     1
 90
        4
176
     1
 62
     7
176
     1
 62
   257
176
     1
 90
        1
176
     1
 90
        1
176
     1
 40
1.0
176
     1
 90
        0
176
     1
 62
   257
176
     1
 40
1.0
176
     1
 90
        1
176
     1
 90
        6
176
     1
 90
        2
176
     1
 62
     7
176
     1
 90
        3
176
     1
 90
        0
176
     1
 90
        0
176
     1
290
     0
176
     1
 90
        1
176
     1
 40
0.0
176
     1
 90
        0
176
     1
290
     0
176
     1
290
     1
176
     1
290
     1
176
     1
290
     0
176
     1
290
     0
176
     1
290
     0
176
     1
290
     0
176
     1
290
     0
176
     1
290
     0
176
     1
 90
       50
176
     1
 40
0.0
176
     1
 40
1.0
176
     1
 90
        0
176
     1
 62
    18
420
        0
176
     1
 90
       50
176
     1
 90
        3
176
     1
 62
     5
420
      255
176
     1
290
     0
176
     1
 90
       50
176
     1
 90
       50
176
     1
 90
       50
176
     1
290
     0
176
     1
 90
       50
176
     1
 62
   256
176
     0
 40
1.0
176
     0
 90
        2
176
     1
  1
strokes_ogs.tif
176
     1
290
     0
176
     1
 40
1.0
176
     1
 40
1.0
176
     1
  0
VISUALSTYLE
  5
40
102
{ACAD_REACTORS
330
2A
102
}
330
2A
100
AcDbVisualStyle
  2
X-Ray
 70
    25
177
     3
291
     0
 70
    58
 90
        2
176
     1
 90
        2
176
     1
 90
        1
176
     1
 90
        1
176
     1
 40
0.5
176
     1
 40
30.0
176
     1
 62
     7
420
 16777215
176
     1
 90
        1
176
     1
 90
        0
176
     1
 62
     7
176
     1
 62
   257
176
     1
 90
        1
176
     1
 90
        1
176
     1
 40
1.0
176
     1
 90
        8
176
     1
 62
     7
176
     1
 40
1.0
176
     1
 90
        1
176
     1
 90
        6
176
     1
 90
        2
176
     1
 62
     7
176
     1
 90
        3
176
     1
 90
        0
176
     1
 90
        0
176
     1
290
     0
176
     1
 90
       13
176
     1
 40
0.0
176
     1
 90
        0
176
     1
290
     0
176
     1
290
     1
176
     1
290
     1
176
     1
290
     0
176
     1
290
     0
176
     1
290
     0
176
     1
290
     0
176
     1
290
     0
176
     1
290
     0
176
     1
 90
       50
176
     1
 40
0.0
176
     1
 40
1.0
176
     1
 90
        0
176
     1
 62
    18
420
        0
176
     1
 90
       50
176
     1
 90
        3
176
     1
 62
     5
420
      255
176
     1
290
     0
176
     1
 90
       50
176
     1
 90
       50
176
     1
 90
       50
176
     1
290
     0
176
     1
 90
       50
176
     1
 62
   256
176
     0
 40
1.0
176
     0
 90
        2
176
     1
  1
strokes_ogs.tif
176
     1
290
     0
176
     1
 40
1.0
176
     1
 40
1.0
176
     1
  0
DICTIONARYVAR
  5
213
102
{ACAD_REACTORS
330
212
102
}
330
212
100
DictionaryVariables
280
     0
  1
1:1
  0
DICTIONARYVAR
  5
218
102
{ACAD_REACTORS
330
212
102
}
330
212
100
DictionaryVariables
280
     0
  1
Standard
  0
DICTIONARYVAR
  5
217
102
{ACAD_REACTORS
330
212
102
}
330
212
100
DictionaryVariables
280
     0
  1
Standard
  0
DICTIONARY
  5
214
330
6A
100
AcDbDictionary
280
     1
281
     1
  3
ACAD_ROUNDTRIP_2008_TABLESTYLE_CELLSTYLEMAP
360
215
  0
CELLSTYLEMAP
  5
215
102
{ACAD_REACTORS
330
214
102
}
330
214
100
AcDbCellStyleMap
 90
        3
300
CELLSTYLE
  1
TABLEFORMAT_BEGIN
 90
        5
170
     1
 91
        0
 92
    32768
 62
   257
 93
        1
300
CONTENTFORMAT
  1
CONTENTFORMAT_BEGIN
 90
        0
 91
        0
 92
        4
 93
        0
300

 40
0.0
140
1.0
 94
        5
 62
     0
340
11
144
0.25
309
CONTENTFORMAT_END
171
     1
301
MARGIN
  1
CELLMARGIN_BEGIN
 40
0.06
 40
0.06
 40
0.06
 40
0.06
 40
0.06
 40
0.06
309
CELLMARGIN_END
 94
        6
 95
        1
302
GRIDFORMAT
  1
GRIDFORMAT_BEGIN
 90
        0
 91
        1
 62
     0
 92
       -2
340
14
 93
        0
 40
0.045
309
GRIDFORMAT_END
 95
        2
302
GRIDFORMAT
  1
GRIDFORMAT_BEGIN
 90
        0
 91
        1
 62
     0
 92
       -2
340
14
 93
        0
 40
0.045
309
GRIDFORMAT_END
 95
        4
302
GRIDFORMAT
  1
GRIDFORMAT_BEGIN
 90
        0
 91
        1
 62
     0
 92
       -2
340
14
 93
        0
 40
0.045
309
GRIDFORMAT_END
 95
        8
302
GRIDFORMAT
  1
GRIDFORMAT_BEGIN
 90
        0
 91
        1
 62
     0
 92
       -2
340
14
 93
        0
 40
0.045
309
GRIDFORMAT_END
 95
       16
302
GRIDFORMAT
  1
GRIDFORMAT_BEGIN
 90
        0
 91
        1
 62
     0
 92
       -2
340
14
 93
        0
 40
0.045
309
GRIDFORMAT_END
 95
       32
302
GRIDFORMAT
  1
GRIDFORMAT_BEGIN
 90
        0
 91
        1
 62
     0
 92
       -2
340
14
 93
        0
 40
0.045
309
GRIDFORMAT_END
309
TABLEFORMAT_END
  1
CELLSTYLE_BEGIN
 90
        1
 91
        1
300
_TITLE
309
CELLSTYLE_END
300
CELLSTYLE
  1
TABLEFORMAT_BEGIN
 90
        5
170
     1
 91
        0
 92
        0
 62
   257
 93
        1
300
CONTENTFORMAT
  1
CONTENTFORMAT_BEGIN
 90
        0
 91
        0
 92
        4
 93
        0
300

 40
0.0
140
1.0
 94
        5
 62
     0
340
11
144
0.18
309
CONTENTFORMAT_END
171
     1
301
MARGIN
  1
CELLMARGIN_BEGIN
 40
0.06
 40
0.06
 40
0.06
 40
0.06
 40
0.06
 40
0.06
309
CELLMARGIN_END
 94
        6
 95
        1
302
GRIDFORMAT
  1
GRIDFORMAT_BEGIN
 90
        0
 91
        1
 62
     0
 92
       -2
340
14
 93
        0
 40
0.045
309
GRIDFORMAT_END
 95
        2
302
GRIDFORMAT
  1
GRIDFORMAT_BEGIN
 90
        0
 91
        1
 62
     0
 92
       -2
340
14
 93
        0
 40
0.045
309
GRIDFORMAT_END
 95
        4
302
GRIDFORMAT
  1
GRIDFORMAT_BEGIN
 90
        0
 91
        1
 62
     0
 92
       -2
340
14
 93
        0
 40
0.045
309
GRIDFORMAT_END
 95
        8
302
GRIDFORMAT
  1
GRIDFORMAT_BEGIN
 90
        0
 91
        1
 62
     0
 92
       -2
340
14
 93
        0
 40
0.045
309
GRIDFORMAT_END
 95
       16
302
GRIDFORMAT
  1
GRIDFORMAT_BEGIN
 90
        0
 91
        1
 62
     0
 92
       -2
340
14
 93
        0
 40
0.045
309
GRIDFORMAT_END
 95
       32
302
GRIDFORMAT
  1
GRIDFORMAT_BEGIN
 90
        0
 91
        1
 62
     0
 92
       -2
340
14
 93
        0
 40
0.045
309
GRIDFORMAT_END
309
TABLEFORMAT_END
  1
CELLSTYLE_BEGIN
 90
        2
 91
        1
300
_HEADER
309
CELLSTYLE_END
300
CELLSTYLE
  1
TABLEFORMAT_BEGIN
 90
        5
170
     1
 91
        0
 92
        0
 62
   257
 93
        1
300
CONTENTFORMAT
  1
CONTENTFORMAT_BEGIN
 90
        0
 91
        0
 92
        4
 93
        0
300

 40
0.0
140
1.0
 94
        2
 62
     0
340
11
144
0.18
309
CONTENTFORMAT_END
171
     1
301
MARGIN
  1
CELLMARGIN_BEGIN
 40
0.06
 40
0.06
 40
0.06
 40
0.06
 40
0.06
 40
0.06
309
CELLMARGIN_END
 94
        6
 95
        1
302
GRIDFORMAT
  1
GRIDFORMAT_BEGIN
 90
        0
 91
        1
 62
     0
 92
       -2
340
14
 93
        0
 40
0.045
309
GRIDFORMAT_END
 95
        2
302
GRIDFORMAT
  1
GRIDFORMAT_BEGIN
 90
        0
 91
        1
 62
     0
 92
       -2
340
14
 93
        0
 40
0.045
309
GRIDFORMAT_END
 95
        4
302
GRIDFORMAT
  1
GRIDFORMAT_BEGIN
 90
        0
 91
        1
 62
     0
 92
       -2
340
14
 93
        0
 40
0.045
309
GRIDFORMAT_END
 95
        8
302
GRIDFORMAT
  1
GRIDFORMAT_BEGIN
 90
        0
 91
        1
 62
     0
 92
       -2
340
14
 93
        0
 40
0.045
309
GRIDFORMAT_END
 95
       16
302
GRIDFORMAT
  1
GRIDFORMAT_BEGIN
 90
        0
 91
        1
 62
     0
 92
       -2
340
14
 93
        0
 40
0.045
309
GRIDFORMAT_END
 95
       32
302
GRIDFORMAT
  1
GRIDFORMAT_BEGIN
 90
        0
 91
        1
 62
     0
 92
       -2
340
14
 93
        0
 40
0.045
309
GRIDFORMAT_END
309
TABLEFORMAT_END
  1
CELLSTYLE_BEGIN
 90
        3
 91
        2
300
_DATA
309
CELLSTYLE_END
  0
ENDSEC
  0
EOF