0
SECTION
  2
HEADER
  9
$ACADVER
  1
AC1027
  9
$ACADMAINTVER
 70
     8
  9
$DWGCODEPAGE
  3
ANSI_1252
  9
$REQUIREDVERSIONS
160
                 0
  9
$COMMENTS
  1
File was created by Cadenas
  9
$CUSTOMPROPERTYTAG
  1
NN
  9
$CUSTOMPROPERTY
  1
Imperial -IP Pillow Block 2-1/8 thru 3-1/2  4-Bolt Inch Bore (Contact Seal)
  9
$CUSTOMPROPERTYTAG
  1
NT
  9
$CUSTOMPROPERTY
  1
Imperial 4 Bolt Piliow Block Bearings
  9
$CUSTOMPROPERTYTAG
  1
NB
  9
$CUSTOMPROPERTY
  1
069549
  9
$CUSTOMPROPERTYTAG
  1
NBSYN
  9
$CUSTOMPROPERTY
  1
$PN.
  9
$CUSTOMPROPERTYTAG
  1
LINA
  9
$CUSTOMPROPERTY
  1
069549
  9
$CUSTOMPROPERTYTAG
  1
SS
  9
$CUSTOMPROPERTY
  1
3-11/16
  9
$CUSTOMPROPERTYTAG
  1
PN
  9
$CUSTOMPROPERTY
  1
069549
  9
$CUSTOMPROPERTYTAG
  1
DESCRIPTION
  9
$CUSTOMPROPERTY
  1
P4B-IP-311RE
  9
$CUSTOMPROPERTYTAG
  1
EF
  9
$CUSTOMPROPERTY
  1
Expansion Type
  9
$CUSTOMPROPERTYTAG
  1
ST
  9
$CUSTOMPROPERTY
  1
Contact  Seal
  9
$CUSTOMPROPERTYTAG
  1
A
  9
$CUSTOMPROPERTY
  1
4-45/64
  9
$CUSTOMPROPERTYTAG
  1
B
  9
$CUSTOMPROPERTY
  1
15-1/4
  9
$CUSTOMPROPERTYTAG
  1
C
  9
$CUSTOMPROPERTY
  1
4-1/2
  9
$CUSTOMPROPERTYTAG
  1
DMIN
  9
$CUSTOMPROPERTY
  1
12-1/8
  9
$CUSTOMPROPERTYTAG
  1
DMAX
  9
$CUSTOMPROPERTY
  1
12-7/8
  9
$CUSTOMPROPERTYTAG
  1
E
  9
$CUSTOMPROPERTY
  1
2-1/4
  9
$CUSTOMPROPERTYTAG
  1
F
  9
$CUSTOMPROPERTY
  1
3/4
  9
$CUSTOMPROPERTYTAG
  1
G
  9
$CUSTOMPROPERTY
  1
1-1/4
  9
$CUSTOMPROPERTYTAG
  1
H
  9
$CUSTOMPROPERTY
  1
2-7/16
  9
$CUSTOMPROPERTYTAG
  1
J
  9
$CUSTOMPROPERTY
  1
8-7/16
  9
$CUSTOMPROPERTYTAG
  1
L
  9
$CUSTOMPROPERTY
  1
5-9/16
  9
$CUSTOMPROPERTYTAG
  1
M
  9
$CUSTOMPROPERTY
  1
4-1/4
  9
$CUSTOMPROPERTYTAG
  1
R
  9
$CUSTOMPROPERTY
  1
1-41/64
  9
$CUSTOMPROPERTYTAG
  1
S
  9
$CUSTOMPROPERTY
  1
3-1/16
  9
$CUSTOMPROPERTYTAG
  1
X
  9
$CUSTOMPROPERTY
  1
5/16
  9
$CUSTOMPROPERTYTAG
  1
Y
  9
$CUSTOMPROPERTY
  1
0.025
  9
$CUSTOMPROPERTYTAG
  1
Z
  9
$CUSTOMPROPERTY
  1
4-1/2
  9
$CUSTOMPROPERTYTAG
  1
COMPANY
  9
$CUSTOMPROPERTY
  1
baldor
  9
$INSBASE
 10
0.0
 20
0.0
 30
0.0
  9
$EXTMIN
 10
1.000000000000000E+20
 20
1.000000000000000E+20
 30
1.000000000000000E+20
  9
$EXTMAX
 10
-1.000000000000000E+20
 20
-1.000000000000000E+20
 30
-1.000000000000000E+20
  9
$LIMMIN
 10
0.0
 20
0.0
  9
$LIMMAX
 10
12.0
 20
9.0
  9
$ORTHOMODE
 70
     0
  9
$REGENMODE
 70
     1
  9
$FILLMODE
 70
     1
  9
$QTEXTMODE
 70
     0
  9
$MIRRTEXT
 70
     1
  9
$LTSCALE
 40
1.0
  9
$ATTMODE
 70
     1
  9
$TEXTSIZE
 40
0.2
  9
$TRACEWID
 40
0.05
  9
$TEXTSTYLE
  7
Standard
  9
$CLAYER
  8
0
  9
$CELTYPE
  6
ByLayer
  9
$CECOLOR
 62
   256
  9
$CELTSCALE
 40
1.0
  9
$DISPSILH
 70
     0
  9
$DIMSCALE
 40
1.0
  9
$DIMASZ
 40
0.18
  9
$DIMEXO
 40
0.0625
  9
$DIMDLI
 40
0.38
  9
$DIMRND
 40
0.0
  9
$DIMDLE
 40
0.0
  9
$DIMEXE
 40
0.18
  9
$DIMTP
 40
0.0
  9
$DIMTM
 40
0.0
  9
$DIMTXT
 40
0.18
  9
$DIMCEN
 40
0.09
  9
$DIMTSZ
 40
0.0
  9
$DIMTOL
 70
     0
  9
$DIMLIM
 70
     0
  9
$DIMTIH
 70
     1
  9
$DIMTOH
 70
     1
  9
$DIMSE1
 70
     0
  9
$DIMSE2
 70
     0
  9
$DIMTAD
 70
     0
  9
$DIMZIN
 70
     0
  9
$DIMBLK
  1

  9
$DIMASO
 70
     1
  9
$DIMSHO
 70
     1
  9
$DIMPOST
  1

  9
$DIMAPOST
  1

  9
$DIMALT
 70
     0
  9
$DIMALTD
 70
     2
  9
$DIMALTF
 40
25.4
  9
$DIMLFAC
 40
1.0
  9
$DIMTOFL
 70
     0
  9
$DIMTVP
 40
0.0
  9
$DIMTIX
 70
     0
  9
$DIMSOXD
 70
     0
  9
$DIMSAH
 70
     0
  9
$DIMBLK1
  1

  9
$DIMBLK2
  1

  9
$DIMSTYLE
  2
Standard
  9
$DIMCLRD
 70
     0
  9
$DIMCLRE
 70
     0
  9
$DIMCLRT
 70
     0
  9
$DIMTFAC
 40
1.0
  9
$DIMGAP
 40
0.09
  9
$DIMJUST
 70
     0
  9
$DIMSD1
 70
     0
  9
$DIMSD2
 70
     0
  9
$DIMTOLJ
 70
     1
  9
$DIMTZIN
 70
     0
  9
$DIMALTZ
 70
     0
  9
$DIMALTTZ
 70
     0
  9
$DIMUPT
 70
     0
  9
$DIMDEC
 70
     4
  9
$DIMTDEC
 70
     4
  9
$DIMALTU
 70
     2
  9
$DIMALTTD
 70
     2
  9
$DIMTXSTY
  7
Standard
  9
$DIMAUNIT
 70
     0
  9
$DIMADEC
 70
     0
  9
$DIMALTRND
 40
0.0
  9
$DIMAZIN
 70
     0
  9
$DIMDSEP
 70
    46
  9
$DIMATFIT
 70
     3
  9
$DIMFRAC
 70
     0
  9
$DIMLDRBLK
  1

  9
$DIMLUNIT
 70
     2
  9
$DIMLWD
 70
    -2
  9
$DIMLWE
 70
    -2
  9
$DIMTMOVE
 70
     0
  9
$DIMFXL
 40
1.0
  9
$DIMFXLON
 70
     0
  9
$DIMJOGANG
 40
0.7853981633974483
  9
$DIMTFILL
 70
     0
  9
$DIMTFILLCLR
 70
     0
  9
$DIMARCSYM
 70
     0
  9
$DIMLTYPE
  6

  9
$DIMLTEX1
  6

  9
$DIMLTEX2
  6

  9
$DIMTXTDIRECTION
 70
     0
  9
$LUNITS
 70
     2
  9
$LUPREC
 70
     4
  9
$SKETCHINC
 40
0.1
  9
$FILLETRAD
 40
0.5
  9
$AUNITS
 70
     0
  9
$AUPREC
 70
     0
  9
$MENU
  1
.
  9
$ELEVATION
 40
0.0
  9
$PELEVATION
 40
0.0
  9
$THICKNESS
 40
0.0
  9
$LIMCHECK
 70
     0
  9
$CHAMFERA
 40
0.0
  9
$CHAMFERB
 40
0.0
  9
$CHAMFERC
 40
0.0
  9
$CHAMFERD
 40
0.0
  9
$SKPOLY
 70
     0
  9
$TDCREATE
 40
2458168.988450926
  9
$TDUCREATE
 40
2458168.946784259
  9
$TDUPDATE
 40
2458168.988451111
  9
$TDUUPDATE
 40
2458168.946784445
  9
$TDINDWG
 40
0.0000000116
  9
$TDUSRTIMER
 40
0.0000000116
  9
$USRTIMER
 70
     1
  9
$ANGBASE
 50
0.0
  9
$ANGDIR
 70
     0
  9
$PDMODE
 70
     0
  9
$PDSIZE
 40
0.0
  9
$PLINEWID
 40
0.0
  9
$SPLFRAME
 70
     0
  9
$SPLINETYPE
 70
     6
  9
$SPLINESEGS
 70
     8
  9
$HANDSEED
  5
255
  9
$SURFTAB1
 70
     6
  9
$SURFTAB2
 70
     6
  9
$SURFTYPE
 70
     6
  9
$SURFU
 70
     6
  9
$SURFV
 70
     6
  9
$UCSBASE
  2

  9
$UCSNAME
  2

  9
$UCSORG
 10
0.0
 20
0.0
 30
0.0
  9
$UCSXDIR
 10
1.0
 20
0.0
 30
0.0
  9
$UCSYDIR
 10
0.0
 20
1.0
 30
0.0
  9
$UCSORTHOREF
  2

  9
$UCSORTHOVIEW
 70
     0
  9
$UCSORGTOP
 10
0.0
 20
0.0
 30
0.0
  9
$UCSORGBOTTOM
 10
0.0
 20
0.0
 30
0.0
  9
$UCSORGLEFT
 10
0.0
 20
0.0
 30
0.0
  9
$UCSORGRIGHT
 10
0.0
 20
0.0
 30
0.0
  9
$UCSORGFRONT
 10
0.0
 20
0.0
 30
0.0
  9
$UCSORGBACK
 10
0.0
 20
0.0
 30
0.0
  9
$PUCSBASE
  2

  9
$PUCSNAME
  2

  9
$PUCSORG
 10
0.0
 20
0.0
 30
0.0
  9
$PUCSXDIR
 10
1.0
 20
0.0
 30
0.0
  9
$PUCSYDIR
 10
0.0
 20
1.0
 30
0.0
  9
$PUCSORTHOREF
  2

  9
$PUCSORTHOVIEW
 70
     0
  9
$PUCSORGTOP
 10
0.0
 20
0.0
 30
0.0
  9
$PUCSORGBOTTOM
 10
0.0
 20
0.0
 30
0.0
  9
$PUCSORGLEFT
 10
0.0
 20
0.0
 30
0.0
  9
$PUCSORGRIGHT
 10
0.0
 20
0.0
 30
0.0
  9
$PUCSORGFRONT
 10
0.0
 20
0.0
 30
0.0
  9
$PUCSORGBACK
 10
0.0
 20
0.0
 30
0.0
  9
$USERI1
 70
     0
  9
$USERI2
 70
     0
  9
$USERI3
 70
     0
  9
$USERI4
 70
     0
  9
$USERI5
 70
     0
  9
$USERR1
 40
0.0
  9
$USERR2
 40
0.0
  9
$USERR3
 40
0.0
  9
$USERR4
 40
0.0
  9
$USERR5
 40
0.0
  9
$WORLDVIEW
 70
     1
  9
$SHADEDGE
 70
     3
  9
$SHADEDIF
 70
    70
  9
$TILEMODE
 70
     1
  9
$MAXACTVP
 70
    64
  9
$PINSBASE
 10
0.0
 20
0.0
 30
0.0
  9
$PLIMCHECK
 70
     0
  9
$PEXTMIN
 10
1.000000000000000E+20
 20
1.000000000000000E+20
 30
1.000000000000000E+20
  9
$PEXTMAX
 10
-1.000000000000000E+20
 20
-1.000000000000000E+20
 30
-1.000000000000000E+20
  9
$PLIMMIN
 10
0.0
 20
0.0
  9
$PLIMMAX
 10
12.0
 20
9.0
  9
$UNITMODE
 70
     0
  9
$VISRETAIN
 70
     1
  9
$PLINEGEN
 70
     0
  9
$PSLTSCALE
 70
     1
  9
$TREEDEPTH
 70
  3020
  9
$CMLSTYLE
  2
Standard
  9
$CMLJUST
 70
     0
  9
$CMLSCALE
 40
1.0
  9
$PROXYGRAPHICS
 70
     1
  9
$MEASUREMENT
 70
     0
  9
$CELWEIGHT
370
    -1
  9
$ENDCAPS
280
     0
  9
$JOINSTYLE
280
     0
  9
$LWDISPLAY
290
     0
  9
$INSUNITS
 70
     1
  9
$HYPERLINKBASE
  1

  9
$STYLESHEET
  1

  9
$XEDIT
290
     1
  9
$CEPSNTYPE
380
     0
  9
$PSTYLEMODE
290
     1
  9
$FINGERPRINTGUID
  2
{041AA322-8B05-40AF-8D1E-DEE57CD07E31}
  9
$VERSIONGUID
  2
{FAEB1C32-E019-11D5-929B-00C0DF256EC4}
  9
$EXTNAMES
290
     1
  9
$PSVPSCALE
 40
0.0
  9
$OLESTARTUP
290
     0
  9
$SORTENTS
280
   127
  9
$INDEXCTL
280
     0
  9
$HIDETEXT
280
     1
  9
$XCLIPFRAME
280
     2
  9
$HALOGAP
280
     0
  9
$OBSCOLOR
 70
   257
  9
$OBSLTYPE
280
     0
  9
$INTERSECTIONDISPLAY
280
     0
  9
$INTERSECTIONCOLOR
 70
   257
  9
$DIMASSOC
280
     2
  9
$PROJECTNAME
  1

  9
$CAMERADISPLAY
290
     0
  9
$LENSLENGTH
 40
50.0
  9
$CAMERAHEIGHT
 40
0.0
  9
$STEPSPERSEC
 40
2.0
  9
$STEPSIZE
 40
6.0
  9
$3DDWFPREC
 40
2.0
  9
$PSOLWIDTH
 40
0.25
  9
$PSOLHEIGHT
 40
4.0
  9
$LOFTANG1
 40
1.570796326794897
  9
$LOFTANG2
 40
1.570796326794897
  9
$LOFTMAG1
 40
0.0
  9
$LOFTMAG2
 40
0.0
  9
$LOFTPARAM
 70
     7
  9
$LOFTNORMALS
280
     1
  9
$LATITUDE
 40
37.795
  9
$LONGITUDE
 40
-122.394
  9
$NORTHDIRECTION
 40
0.0
  9
$TIMEZONE
 70
 -8000
  9
$LIGHTGLYPHDISPLAY
280
     1
  9
$TILEMODELIGHTSYNCH
280
     1
  9
$CMATERIAL
347
44
  9
$SOLIDHIST
280
     0
  9
$SHOWHIST
280
     1
  9
$DWFFRAME
280
     2
  9
$DGNFRAME
280
     2
  9
$REALWORLDSCALE
290
     1
  9
$INTERFERECOLOR
 62
   256
  9
$CSHADOW
280
     0
  9
$SHADOWPLANELOCATION
 40
0.0
  0
ENDSEC
  0
SECTION
  2
CLASSES
  0
CLASS
  1
ACDBDICTIONARYWDFLT
  2
AcDbDictionaryWithDefault
  3
ObjectDBX Classes
 90
        0
 91
        4
280
     0
281
     0
  0
CLASS
  1
VISUALSTYLE
  2
AcDbVisualStyle
  3
ObjectDBX Classes
 90
     4095
 91
        4
280
     0
281
     0
  0
CLASS
  1
MATERIAL
  2
AcDbMaterial
  3
ObjectDBX Classes
 90
     1153
 91
        4
280
     0
281
     0
  0
CLASS
  1
SCALE
  2
AcDbScale
  3
ObjectDBX Classes
 90
     1153
 91
        4
280
     0
281
     0
  0
CLASS
  1
TABLESTYLE
  2
AcDbTableStyle
  3
ObjectDBX Classes
 90
     4095
 91
        4
280
     0
281
     0
  0
CLASS
  1
MLEADERSTYLE
  2
AcDbMLeaderStyle
  3
ACDB_MLEADERSTYLE_CLASS
 90
     4095
 91
        4
280
     0
281
     0
  0
CLASS
  1
SUN
  2
AcDbSun
  3
SCENEOE
 90
     1153
 91
        4
280
     0
281
     0
  0
CLASS
  1
DICTIONARYVAR
  2
AcDbDictionaryVar
  3
ObjectDBX Classes
 90
        0
 91
        4
280
     0
281
     0
  0
CLASS
  1
CELLSTYLEMAP
  2
AcDbCellStyleMap
  3
ObjectDBX Classes
 90
     1152
 91
        4
280
     0
281
     0
  0
ENDSEC
  0
SECTION
  2
TABLES
  0
TABLE
  2
VPORT
  5
8
330
0
100
AcDbSymbolTable
 70
     1
  0
VPORT
  5
29
330
8
100
AcDbSymbolTableRecord
100
AcDbViewportTableRecord
  2
*Active
 70
     0
 10
0.0
 20
0.0
 11
1.0
 21
1.0
 12
-0.2937499999999993
 22
-0.03125
 13
0.0
 23
0.0
 14
0.5
 24
0.5
 15
0.5
 25
0.5
 16
0.0
 26
0.0
 36
1.0
 17
0.0
 27
0.0
 37
0.0
 40
8.60625
 41
0.6562962962962965
 42
50.0
 43
0.0
 44
0.0
 50
0.0
 51
0.0
 71
     0
 72
   100
 73
     1
 74
     3
 75
     0
 76
     0
 77
     0
 78
     0
281
     0
 65
     1
110
0.0
120
0.0
130
0.0
111
1.0
121
0.0
131
0.0
112
0.0
122
1.0
132
0.0
 79
     0
146
0.0
348
2F
 60
     3
 61
     5
292
     1
282
     1
141
0.0
142
0.0
 63
   250
361
6D
  0
ENDTAB
  0
TABLE
  2
LTYPE
  5
5
330
0
100
AcDbSymbolTable
 70
     3
  0
LTYPE
  5
14
330
5
100
AcDbSymbolTableRecord
100
AcDbLinetypeTableRecord
  2
ByBlock
 70
     0
  3

 72
    65
 73
     0
 40
0.0
  0
LTYPE
  5
15
330
5
100
AcDbSymbolTableRecord
100
AcDbLinetypeTableRecord
  2
ByLayer
 70
     0
  3

 72
    65
 73
     0
 40
0.0
  0
LTYPE
  5
16
330
5
100
AcDbSymbolTableRecord
100
AcDbLinetypeTableRecord
  2
Continuous
 70
     0
  3
Solid line
 72
    65
 73
     0
 40
0.0
  0
LTYPE
  5
9B
330
5
100
AcDbSymbolTableRecord
100
AcDbLinetypeTableRecord
  2
Dashed
 70
     0
  3

 72
    65
 73
     2
 40
2.0
 49
1.0
 74
     0
 49
-1.0
 74
     0
  0
LTYPE
  5
1D4
330
5
100
AcDbSymbolTableRecord
100
AcDbLinetypeTableRecord
  2
Center
 70
     0
  3

 72
    65
 73
     4
 40
1.5
 49
0.45
 74
     0
 49
-0.5
 74
     0
 49
0.05
 74
     0
 49
-0.5
 74
     0
  0
ENDTAB
  0
TABLE
  2
LAYER
  5
2
330
0
100
AcDbSymbolTable
 70
     7
  0
LAYER
  5
10
330
2
100
AcDbSymbolTableRecord
100
AcDbLayerTableRecord
  2
0
 70
     0
 62
     7
  6
Continuous
370
    -3
390
F
347
46
348
0
  0
LAYER
  5
72
330
2
100
AcDbSymbolTableRecord
100
AcDbLayerTableRecord
  2
AM_6
 70
     0
 62
    -2
  6
Continuous
370
    35
390
F
347
46
348
0
  0
LAYER
  5
9C
330
2
100
AcDbSymbolTableRecord
100
AcDbLayerTableRecord
  2
AM_9
 70
     0
 62
     6
  6
Dashed
370
    25
390
F
347
46
348
0
  0
LAYER
  5
FA
330
2
100
AcDbSymbolTableRecord
100
AcDbLayerTableRecord
  2
AM_5
 70
     0
 62
     3
  6
Continuous
370
    25
390
F
347
46
348
0
  0
LAYER
  5
FE
330
2
100
AcDbSymbolTableRecord
100
AcDbLayerTableRecord
  2
AM_4
 70
     0
 62
     7
  6
Continuous
370
    50
390
F
347
46
348
0
  0
LAYER
  5
1D5
330
2
100
AcDbSymbolTableRecord
100
AcDbLayerTableRecord
  2
AM_7
 70
     0
 62
     7
  6
Center
370
    25
390
F
347
46
348
0
  0
LAYER
  5
23E
330
2
100
AcDbSymbolTableRecord
100
AcDbLayerTableRecord
  2
ConnectionPoints
 70
     0
 62
     7
  6
Continuous
370
    50
390
F
347
46
348
0
  0
ENDTAB
  0
TABLE
  2
STYLE
  5
3
330
0
100
AcDbSymbolTable
 70
     1
  0
STYLE
  5
11
330
3
100
AcDbSymbolTableRecord
100
AcDbTextStyleTableRecord
  2
Standard
 70
     0
 40
0.0
 41
1.0
 50
0.0
 71
     0
 42
0.2
  3
txt
  4

  0
ENDTAB
  0
TABLE
  2
VIEW
  5
6
330
0
100
AcDbSymbolTable
 70
     0
  0
ENDTAB
  0
TABLE
  2
UCS
  5
7
330
0
100
AcDbSymbolTable
 70
     0
  0
ENDTAB
  0
TABLE
  2
APPID
  5
9
330
0
100
AcDbSymbolTable
 70
     1
  0
APPID
  5
12
330
9
100
AcDbSymbolTableRecord
100
AcDbRegAppTableRecord
  2
ACAD
 70
     0
  0
ENDTAB
  0
TABLE
  2
DIMSTYLE
  5
A
330
0
100
AcDbSymbolTable
 70
     1
100
AcDbDimStyleTable
  0
DIMSTYLE
105
27
330
A
100
AcDbSymbolTableRecord
100
AcDbDimStyleTableRecord
  2
Standard
 70
     0
178
     0
340
11
  0
ENDTAB
  0
TABLE
  2
BLOCK_RECORD
  5
1
330
0
100
AcDbSymbolTable
 70
     8
  0
BLOCK_RECORD
  5
1F
330
1
100
AcDbSymbolTableRecord
100
AcDbBlockTableRecord
  2
*Model_Space
340
22
 70
     0
280
     1
281
     0
  0
BLOCK_RECORD
  5
1B
330
1
100
AcDbSymbolTableRecord
100
AcDbBlockTableRecord
  2
*Paper_Space
340
1E
 70
     0
280
     1
281
     0
  0
BLOCK_RECORD
  5
23
330
1
100
AcDbSymbolTableRecord
100
AcDbBlockTableRecord
  2
*Paper_Space0
340
26
 70
     0
280
     1
281
     0
  0
BLOCK_RECORD
  5
6E
330
1
100
AcDbSymbolTableRecord
100
AcDbBlockTableRecord
  2
1_069549_2
340
0
102
{BLKREFS
331
6F
102
}
 70
     0
280
     1
281
     0
  0
BLOCK_RECORD
  5
8F
330
1
100
AcDbSymbolTableRecord
100
AcDbBlockTableRecord
  2
2_405015E_Inch_0_in_069549_2
340
0
102
{BLKREFS
331
90
102
}
 70
     0
280
     1
281
     0
  0
BLOCK_RECORD
  5
DF
330
1
100
AcDbSymbolTableRecord
100
AcDbBlockTableRecord
  2
3_ASME_B18_3_1_4_1_0_in_069549_2
340
0
102
{BLKREFS
331
E0
102
}
 70
     0
280
     1
281
     0
  0
BLOCK_RECORD
  5
105
330
1
100
AcDbSymbolTableRecord
100
AcDbBlockTableRecord
  2
4_ASME_B18_3_1_4_2_0_in_069549_2
340
0
102
{BLKREFS
331
106
102
}
 70
     0
280
     1
281
     0
  0
BLOCK_RECORD
  5
129
330
1
100
AcDbSymbolTableRecord
100
AcDbBlockTableRecord
  2
5_070905LW_0_in_069549_2
340
0
102
{BLKREFS
331
12A
102
}
 70
     0
280
     1
281
     0
  0
BLOCK_RECORD
  5
15F
330
1
100
AcDbSymbolTableRecord
100
AcDbBlockTableRecord
  2
6_070905I_0_in_069549_2
340
0
102
{BLKREFS
331
160
102
}
 70
     0
280
     1
281
     0
  0
BLOCK_RECORD
  5
1EC
330
1
100
AcDbSymbolTableRecord
100
AcDbBlockTableRecord
  2
7_069549H_0_in_069549_2
340
0
102
{BLKREFS
331
1ED
102
}
 70
     0
280
     1
281
     0
  0
ENDTAB
  0
ENDSEC
  0
SECTION
  2
BLOCKS
  0
BLOCK
  5
20
330
1F
100
AcDbEntity
  8
0
100
AcDbBlockBegin
  2
*Model_Space
 70
     0
 10
0.0
 20
0.0
 30
0.0
  3
*Model_Space
  1

  0
ENDBLK
  5
21
330
1F
100
AcDbEntity
  8
0
100
AcDbBlockEnd
  0
BLOCK
  5
1C
330
1B
100
AcDbEntity
 67
     1
  8
0
100
AcDbBlockBegin
  2
*Paper_Space
 70
     0
 10
0.0
 20
0.0
 30
0.0
  3
*Paper_Space
  1

  0
ENDBLK
  5
1D
330
1B
100
AcDbEntity
 67
     1
  8
0
100
AcDbBlockEnd
  0
BLOCK
  5
24
330
23
100
AcDbEntity
  8
0
100
AcDbBlockBegin
  2
*Paper_Space0
 70
     0
 10
0.0
 20
0.0
 30
0.0
  3
*Paper_Space0
  1

  0
ENDBLK
  5
25
330
23
100
AcDbEntity
  8
0
100
AcDbBlockEnd
  0
BLOCK
  5
70
330
6E
100
AcDbEntity
  8
0
100
AcDbBlockBegin
  2
1_069549_2
 70
     2
 10
0.0
 20
0.0
 30
0.0
  3
1_069549_2
  1

  0
ATTDEF
  5
73
330
6E
100
AcDbEntity
  8
AM_6
100
AcDbText
 10
7.475
 20
4.1875
 30
0.0
 40
0.5
  1
Imperial -IP Pillow Block 2-1/8 thru 3-1/2  4-Bolt Inch Bore (Contact Seal)
100
AcDbAttributeDefinition
  3

  2
NN
 70
     8
280
     0
  0
ATTDEF
  5
74
330
6E
100
AcDbEntity
  8
AM_6
100
AcDbText
 10
7.475
 20
3.6875
 30
0.0
 40
0.5
  1
Imperial 4 Bolt Piliow Block Bearings
100
AcDbAttributeDefinition
  3

  2
NT
 70
     8
280
     0
  0
ATTDEF
  5
75
330
6E
100
AcDbEntity
  8
AM_6
100
AcDbText
 10
7.475
 20
3.1875
 30
0.0
 40
0.5
  1
069549
100
AcDbAttributeDefinition
  3

  2
NB
 70
     8
280
     0
  0
ATTDEF
  5
76
330
6E
100
AcDbEntity
  8
AM_6
100
AcDbText
 10
7.475
 20
2.6875
 30
0.0
 40
0.5
  1
$PN.
100
AcDbAttributeDefinition
  3

  2
NBSYN
 70
     8
280
     0
  0
ATTDEF
  5
77
330
6E
100
AcDbEntity
  8
AM_6
100
AcDbText
 10
7.475
 20
2.1875
 30
0.0
 40
0.5
  1
069549
100
AcDbAttributeDefinition
  3

  2
LINA
 70
     8
280
     0
  0
ATTDEF
  5
78
330
6E
100
AcDbEntity
  8
AM_6
100
AcDbText
 10
7.475
 20
1.6875
 30
0.0
 40
0.5
  1
3-11/16
100
AcDbAttributeDefinition
  3

  2
SS
 70
     8
280
     0
  0
ATTDEF
  5
79
330
6E
100
AcDbEntity
  8
AM_6
100
AcDbText
 10
7.475
 20
1.1875
 30
0.0
 40
0.5
  1
069549
100
AcDbAttributeDefinition
  3

  2
PN
 70
     8
280
     0
  0
ATTDEF
  5
7A
330
6E
100
AcDbEntity
  8
AM_6
100
AcDbText
 10
7.475
 20
0.6875
 30
0.0
 40
0.5
  1
P4B-IP-311RE
100
AcDbAttributeDefinition
  3

  2
DESCRIPTION
 70
     8
280
     0
  0
ATTDEF
  5
7B
330
6E
100
AcDbEntity
  8
AM_6
100
AcDbText
 10
7.475
 20
0.1875
 30
0.0
 40
0.5
  1
Expansion Type
100
AcDbAttributeDefinition
  3

  2
EF
 70
     8
280
     0
  0
ATTDEF
  5
7C
330
6E
100
AcDbEntity
  8
AM_6
100
AcDbText
 10
7.475
 20
-0.3125
 30
0.0
 40
0.5
  1
Contact  Seal
100
AcDbAttributeDefinition
  3

  2
ST
 70
     8
280
     0
  0
ATTDEF
  5
7D
330
6E
100
AcDbEntity
  8
AM_6
100
AcDbText
 10
7.475
 20
-0.8125
 30
0.0
 40
0.5
  1
4-45/64
100
AcDbAttributeDefinition
  3

  2
A
 70
     8
280
     0
  0
ATTDEF
  5
7E
330
6E
100
AcDbEntity
  8
AM_6
100
AcDbText
 10
7.475
 20
-1.3125
 30
0.0
 40
0.5
  1
15-1/4
100
AcDbAttributeDefinition
  3

  2
B
 70
     8
280
     0
  0
ATTDEF
  5
7F
330
6E
100
AcDbEntity
  8
AM_6
100
AcDbText
 10
7.475
 20
-1.8125
 30
0.0
 40
0.5
  1
4-1/2
100
AcDbAttributeDefinition
  3

  2
C
 70
     8
280
     0
  0
ATTDEF
  5
80
330
6E
100
AcDbEntity
  8
AM_6
100
AcDbText
 10
7.475
 20
-2.3125
 30
0.0
 40
0.5
  1
12-1/8
100
AcDbAttributeDefinition
  3

  2
DMIN
 70
     8
280
     0
  0
ATTDEF
  5
81
330
6E
100
AcDbEntity
  8
AM_6
100
AcDbText
 10
7.475
 20
-2.8125
 30
0.0
 40
0.5
  1
12-7/8
100
AcDbAttributeDefinition
  3

  2
DMAX
 70
     8
280
     0
  0
ATTDEF
  5
82
330
6E
100
AcDbEntity
  8
AM_6
100
AcDbText
 10
7.475
 20
-3.3125
 30
0.0
 40
0.5
  1
2-1/4
100
AcDbAttributeDefinition
  3

  2
E
 70
     8
280
     0
  0
ATTDEF
  5
83
330
6E
100
AcDbEntity
  8
AM_6
100
AcDbText
 10
7.475
 20
-3.8125
 30
0.0
 40
0.5
  1
3/4
100
AcDbAttributeDefinition
  3

  2
F
 70
     8
280
     0
  0
ATTDEF
  5
84
330
6E
100
AcDbEntity
  8
AM_6
100
AcDbText
 10
7.475
 20
-4.3125
 30
0.0
 40
0.5
  1
1-1/4
100
AcDbAttributeDefinition
  3

  2
G
 70
     8
280
     0
  0
ATTDEF
  5
85
330
6E
100
AcDbEntity
  8
AM_6
100
AcDbText
 10
7.475
 20
-4.8125
 30
0.0
 40
0.5
  1
2-7/16
100
AcDbAttributeDefinition
  3

  2
H
 70
     8
280
     0
  0
ATTDEF
  5
86
330
6E
100
AcDbEntity
  8
AM_6
100
AcDbText
 10
7.475
 20
-5.3125
 30
0.0
 40
0.5
  1
8-7/16
100
AcDbAttributeDefinition
  3

  2
J
 70
     8
280
     0
  0
ATTDEF
  5
87
330
6E
100
AcDbEntity
  8
AM_6
100
AcDbText
 10
7.475
 20
-5.8125
 30
0.0
 40
0.5
  1
5-9/16
100
AcDbAttributeDefinition
  3

  2
L
 70
     8
280
     0
  0
ATTDEF
  5
88
330
6E
100
AcDbEntity
  8
AM_6
100
AcDbText
 10
7.475
 20
-6.3125
 30
0.0
 40
0.5
  1
4-1/4
100
AcDbAttributeDefinition
  3

  2
M
 70
     8
280
     0
  0
ATTDEF
  5
89
330
6E
100
AcDbEntity
  8
AM_6
100
AcDbText
 10
7.475
 20
-6.8125
 30
0.0
 40
0.5
  1
1-41/64
100
AcDbAttributeDefinition
  3

  2
R
 70
     8
280
     0
  0
ATTDEF
  5
8A
330
6E
100
AcDbEntity
  8
AM_6
100
AcDbText
 10
7.475
 20
-7.3125
 30
0.0
 40
0.5
  1
3-1/16
100
AcDbAttributeDefinition
  3

  2
S
 70
     8
280
     0
  0
ATTDEF
  5
8B
330
6E
100
AcDbEntity
  8
AM_6
100
AcDbText
 10
7.475
 20
-7.8125
 30
0.0
 40
0.5
  1
5/16
100
AcDbAttributeDefinition
  3

  2
X
 70
     8
280
     0
  0
ATTDEF
  5
8C
330
6E
100
AcDbEntity
  8
AM_6
100
AcDbText
 10
7.475
 20
-8.3125
 30
0.0
 40
0.5
  1
0.025
100
AcDbAttributeDefinition
  3

  2
Y
 70
     8
280
     0
  0
ATTDEF
  5
8D
330
6E
100
AcDbEntity
  8
AM_6
100
AcDbText
 10
7.475
 20
-8.8125
 30
0.0
 40
0.5
  1
4-1/2
100
AcDbAttributeDefinition
  3

  2
Z
 70
     8
280
     0
  0
ATTDEF
  5
8E
330
6E
100
AcDbEntity
  8
AM_6
100
AcDbText
 10
7.475
 20
-9.3125
 30
0.0
 40
0.5
  1
baldor
100
AcDbAttributeDefinition
  3

  2
COMPANY
 70
     8
280
     0
  0
INSERT
  5
90
330
6E
100
AcDbEntity
  8
0
100
AcDbBlockReference
  2
2_405015E_Inch_0_in_069549_2
 10
0.0
 20
0.0
 30
0.0
  0
INSERT
  5
E0
330
6E
100
AcDbEntity
  8
0
100
AcDbBlockReference
  2
3_ASME_B18_3_1_4_1_0_in_069549_2
 10
0.0
 20
0.0
 30
0.0
  0
INSERT
  5
106
330
6E
100
AcDbEntity
  8
0
100
AcDbBlockReference
  2
4_ASME_B18_3_1_4_2_0_in_069549_2
 10
0.0
 20
0.0
 30
0.0
  0
INSERT
  5
12A
330
6E
100
AcDbEntity
  8
0
100
AcDbBlockReference
  2
5_070905LW_0_in_069549_2
 10
0.0
 20
0.0
 30
0.0
  0
INSERT
  5
160
330
6E
100
AcDbEntity
  8
0
100
AcDbBlockReference
  2
6_070905I_0_in_069549_2
 10
0.0
 20
0.0
 30
0.0
  0
INSERT
  5
1ED
330
6E
100
AcDbEntity
  8
0
100
AcDbBlockReference
  2
7_069549H_0_in_069549_2
 10
0.0
 20
0.0
 30
0.0
  0
ENDBLK
  5
71
330
6E
100
AcDbEntity
  8
0
100
AcDbBlockEnd
  0
BLOCK
  5
91
330
8F
100
AcDbEntity
  8
0
100
AcDbBlockBegin
  2
2_405015E_Inch_0_in_069549_2
 70
     2
 10
0.0
 20
0.0
 30
0.0
  3
2_405015E_Inch_0_in_069549_2
  1

  0
ATTDEF
  5
93
330
8F
100
AcDbEntity
  8
AM_6
100
AcDbText
 10
5.252590742770461
 20
4.089182396111511
 30
0.0
 40
0.5
  1
405015E -Inch
100
AcDbAttributeDefinition
  3

  2
NN
 70
     8
280
     0
  0
ATTDEF
  5
94
330
8F
100
AcDbEntity
  8
AM_6
100
AcDbText
 10
5.252590742770461
 20
3.589182396111511
 30
0.0
 40
0.5
  1
Grease Fitting
100
AcDbAttributeDefinition
  3

  2
NT
 70
     8
280
     0
  0
ATTDEF
  5
95
330
8F
100
AcDbEntity
  8
AM_6
100
AcDbText
 10
5.252590742770461
 20
3.089182396111511
 30
0.0
 40
0.5
  1
405015E-Inch
100
AcDbAttributeDefinition
  3

  2
NB
 70
     8
280
     0
  0
ATTDEF
  5
96
330
8F
100
AcDbEntity
  8
AM_6
100
AcDbText
 10
5.252590742770461
 20
2.589182396111511
 30
0.0
 40
0.5
  1
$MN.-Inch
100
AcDbAttributeDefinition
  3

  2
NBSYN
 70
     8
280
     0
  0
ATTDEF
  5
97
330
8F
100
AcDbEntity
  8
AM_6
100
AcDbText
 10
5.252590742770461
 20
2.089182396111511
 30
0.0
 40
0.5
  1
405015E
100
AcDbAttributeDefinition
  3

  2
LINA
 70
     8
280
     0
  0
ATTDEF
  5
98
330
8F
100
AcDbEntity
  8
AM_6
100
AcDbText
 10
5.252590742770461
 20
1.589182396111511
 30
0.0
 40
0.5
  1
405015E
100
AcDbAttributeDefinition
  3

  2
MN
 70
     8
280
     0
  0
ATTDEF
  5
99
330
8F
100
AcDbEntity
  8
AM_6
100
AcDbText
 10
5.252590742770461
 20
1.089182396111511
 30
0.0
 40
0.5
  1
1/8 x 27PTF
100
AcDbAttributeDefinition
  3

  2
T
 70
     8
280
     0
  0
ATTDEF
  5
9A
330
8F
100
AcDbEntity
  8
AM_6
100
AcDbText
 10
5.252590742770461
 20
0.5891823961115108
 30
0.0
 40
0.5
  1
baldor
100
AcDbAttributeDefinition
  3

  2
COMPANY
 70
     8
280
     0
  0
LINE
  5
9D
330
8F
100
AcDbEntity
  8
AM_9
100
AcDbLine
 10
0.1262953713852305
 20
3.682458687415608
 30
0.0
 11
0.1262953713852305
 21
3.611561690414396
 31
0.0
  0
LINE
  5
9E
330
8F
100
AcDbEntity
  8
AM_9
100
AcDbLine
 10
-0.1262953713852308
 20
3.682458687415608
 30
0.0
 11
-0.1262953713852308
 21
3.611561690414396
 31
0.0
  0
LWPOLYLINE
  5
9F
330
8F
100
AcDbEntity
  8
AM_9
100
AcDbPolyline
 90
        5
 70
     0
 43
0.0
 10
0.1262953713852305
 20
3.682458687415608
 10
0.0949251544150458
 20
3.685738138692492
 10
0.0634316146914366
 20
3.688220419159781
 10
0.0317600370486141
 20
3.689779232960907
 10
-0.0000000000000001
 20
3.690311459104224
  0
LWPOLYLINE
  5
A0
330
8F
100
AcDbEntity
  8
AM_9
100
AcDbPolyline
 90
        4
 70
     0
 43
0.0
 10
-0.0000000000000001
 20
3.690311459104224
 10
-0.048399816055899
 20
3.689083815511776
 10
-0.096799632111798
 20
3.685563550589745
 10
-0.1262953713852308
 20
3.682458687415608
  0
ELLIPSE
  5
A1
330
8F
100
AcDbEntity
  8
AM_9
100
AcDbEllipse
 10
-0.0000000000000002
 20
3.799686459104222
 30
0.0
 11
0.2187499999999996
 21
0.0
 31
0.0
210
0.0
220
0.0
230
1.0
 40
0.4999999999999908
 41
2.617993877991463
 42
4.71238898038469
  0
LWPOLYLINE
  5
A2
330
8F
100
AcDbEntity
  8
AM_9
100
AcDbPolyline
 90
        4
 70
     0
 43
0.0
 10
-0.1262953713852308
 20
3.682458687415608
 10
-0.149854201438865
 20
3.707491166383694
 10
-0.173563038553539
 20
3.73071423350629
 10
-0.1894430570778461
 20
3.744998959104224
  0
LWPOLYLINE
  5
A3
330
8F
100
AcDbEntity
  8
AM_9
100
AcDbPolyline
 90
        4
 70
     0
 43
0.0
 10
0.1894430570778458
 20
3.744998959104224
 10
0.173656135654692
 20
3.730801048146146
 10
0.1578454609156136
 20
3.71555885101263
 10
0.1262953713852305
 20
3.682458687415608
  0
LWPOLYLINE
  5
A4
330
8F
100
AcDbEntity
  8
AM_9
100
AcDbPolyline
 90
        4
 70
     0
 43
0.0
 10
0.1262953713852305
 20
3.611561690414396
 10
0.1498542014388647
 20
3.627334302066084
 10
0.1735630385535387
 20
3.645176145414479
 10
0.1894430570778458
 20
3.65839641872578
  0
LWPOLYLINE
  5
A5
330
8F
100
AcDbEntity
  8
AM_9
100
AcDbPolyline
 90
        5
 70
     0
 43
0.0
 10
-0.0000000000000001
 20
3.60370891872578
 10
0.0315738428463075
 20
3.604234954683858
 10
0.0631476856926152
 20
3.60578164728655
 10
0.0947562840569829
 20
3.608266651506048
 10
0.1262953713852305
 20
3.611561690414396
  0
LWPOLYLINE
  5
A6
330
8F
100
AcDbEntity
  8
AM_9
100
AcDbPolyline
 90
        4
 70
     0
 43
0.0
 10
-0.1894430570778461
 20
3.65839641872578
 10
-0.1736561356546922
 20
3.645250579683858
 10
-0.1578454609156138
 20
3.633107884867345
 10
-0.1262953713852308
 20
3.611561690414396
  0
LWPOLYLINE
  5
A7
330
8F
100
AcDbEntity
  8
AM_9
100
AcDbPolyline
 90
        4
 70
     0
 43
0.0
 10
-0.1262953713852308
 20
3.611561690414396
 10
-0.0967996321117979
 20
3.608456827240258
 10
-0.0485424412477545
 20
3.604943722205714
 10
-0.0000000000000001
 20
3.60370891872578
  0
LINE
  5
A8
330
8F
100
AcDbEntity
  8
AM_9
100
AcDbLine
 10
-0.0998453562378799
 20
4.049819007586143
 30
0.0
 11
-0.131275793898522
 21
3.984306776733767
 31
0.0
  0
LINE
  5
A9
330
8F
100
AcDbEntity
  8
AM_9
100
AcDbLine
 10
0.1312757938985218
 20
3.984306776733767
 30
0.0
 11
0.0998453562378796
 21
4.049819007586143
 31
0.0
  0
LINE
  5
AA
330
8F
100
AcDbEntity
  8
AM_9
100
AcDbLine
 10
0.1049999999999999
 20
3.89123877208848
 30
0.0
 11
0.1049999999999999
 21
3.916599888615123
 31
0.0
  0
LINE
  5
AB
330
8F
100
AcDbEntity
  8
AM_9
100
AcDbLine
 10
-0.1050000000000001
 20
3.916599888615123
 30
0.0
 11
-0.1050000000000001
 21
3.89123877208848
 31
0.0
  0
ELLIPSE
  5
AC
330
8F
100
AcDbEntity
  8
AM_9
100
AcDbEllipse
 10
-0.0000000000000001
 20
3.916599888615123
 30
0.0
 11
0.1050000000000001
 21
0.0
 31
0.0
210
0.0
220
0.0
230
1.0
 40
0.4999999999999974
 41
0.0
 42
3.434435425318372
  0
ELLIPSE
  5
AD
330
8F
100
AcDbEntity
  8
AM_9
100
AcDbEllipse
 10
0.0000000000000081
 20
3.890619126501612
 30
0.0
 11
0.1050000000000082
 21
0.0
 31
0.0
210
0.0
220
0.0
230
1.0
 40
0.4999999999999631
 41
2.891559760491405
 42
3.141592653589793
  0
ELLIPSE
  5
AE
330
8F
100
AcDbEntity
  8
AM_9
100
AcDbEllipse
 10
0.0000000000000022
 20
3.916599888615103
 30
0.0
 11
0.1049999999999976
 21
0.0
 31
0.0
210
0.0
220
0.0
230
1.0
 40
0.4999999999999754
 41
3.434435425318018
 42
6.283185307179586
  0
LINE
  5
AF
330
8F
100
AcDbEntity
  8
AM_9
100
AcDbLine
 10
0.1005298463144153
 20
3.901444444048896
 30
0.0
 11
0.1292526595471055
 21
3.94907584125704
 31
0.0
  0
LINE
  5
B0
330
8F
100
AcDbEntity
  8
AM_9
100
AcDbLine
 10
-0.1292526595471058
 20
3.94907584125704
 30
0.0
 11
-0.1005298463144157
 21
3.901444444048896
 31
0.0
  0
LWPOLYLINE
  5
B1
330
8F
100
AcDbEntity
  8
AM_9
100
AcDbPolyline
 90
        4
 70
     0
 43
0.0
 10
-0.1894430570778461
 20
3.744998959104224
 10
-0.2052299785009999
 20
3.758144798146146
 10
-0.2368330595416477
 20
3.78147998419114
 10
-0.2525907427704613
 20
3.791833687415608
  0
LWPOLYLINE
  5
B2
330
8F
100
AcDbEntity
  8
AM_9
100
AcDbPolyline
 90
        4
 70
     0
 43
0.0
 10
0.2525907427704611
 20
3.791833687415608
 10
0.2290319127168269
 20
3.776061075763919
 10
0.205323075602153
 20
3.758219232415525
 10
0.1894430570778458
 20
3.744998959104224
  0
LINE
  5
B3
330
8F
100
AcDbEntity
  8
AM_9
100
AcDbLine
 10
-0.1017349497468792
 20
3.903609507558357
 30
0.0
 11
-0.1151252948555659
 21
3.877392684495725
 31
0.0
  0
LINE
  5
B4
330
8F
100
AcDbEntity
  8
AM_9
100
AcDbLine
 10
0.1151252948555656
 20
3.877392684495725
 30
0.0
 11
0.1017349497468789
 21
3.903609507558357
 31
0.0
  0
ELLIPSE
  5
B5
330
8F
100
AcDbEntity
  8
AM_9
100
AcDbEllipse
 10
0.0000000000000001
 20
3.890619126501579
 30
0.0
 11
0.1049999999999999
 21
0.0
 31
0.0
210
0.0
220
0.0
230
1.0
 40
0.5000000000000449
 41
3.141592653589793
 42
8.754866455497396
  0
ELLIPSE
  5
B6
330
8F
100
AcDbEntity
  8
AM_9
100
AcDbEllipse
 10
-0.0000000000000009
 20
3.890619126501594
 30
0.0
 11
0.1049999999999992
 21
0.0
 31
0.0
210
0.0
220
0.0
230
1.0
 40
0.4999999999999931
 41
2.471681148317975
 42
2.891559760491061
  0
ELLIPSE
  5
B7
330
8F
100
AcDbEntity
  8
AM_9
100
AcDbEllipse
 10
0.000000000000007
 20
3.862692510630552
 30
0.0
 11
0.118820090734905
 21
0.0
 31
0.0
210
0.0
220
0.0
230
1.0
 40
0.4999999999999188
 41
2.535447513395006
 42
2.891559760491378
  0
ELLIPSE
  5
B8
330
8F
100
AcDbEntity
  8
AM_9
100
AcDbEllipse
 10
0.0000000000000051
 20
3.862692510630492
 30
0.0
 11
0.1188200907348923
 21
1.770557325108235E-9
 31
0.0
210
0.0
220
0.0
230
1.0
 40
0.5000000000000248
 41
2.891559732056605
 42
6.889330424827364
  0
LINE
  5
B9
330
8F
100
AcDbEntity
  8
AM_9
100
AcDbLine
 10
-0.0976523208201059
 20
3.896538626362973
 30
0.0
 11
-0.1417971541629019
 21
3.864697118594266
 31
0.0
  0
LINE
  5
BA
330
8F
100
AcDbEntity
  8
AM_9
100
AcDbLine
 10
0.1417971541629016
 20
3.864697118594266
 30
0.0
 11
0.0976523208201056
 21
3.896538626362973
 31
0.0
  0
ELLIPSE
  5
BB
330
8F
100
AcDbEntity
  8
AM_9
100
AcDbEllipse
 10
-0.0000000000000001
 20
3.862692510630527
 30
0.0
 11
0.118820090734898
 21
0.0
 31
0.0
210
0.0
220
0.0
230
1.0
 40
0.499999999999997
 41
0.6061451401950926
 42
2.535447513394701
  0
LWPOLYLINE
  5
BC
330
8F
100
AcDbEntity
  8
AM_9
100
AcDbPolyline
 90
        4
 70
     0
 43
0.0
 10
0.1894430570778458
 20
3.65839641872578
 10
0.2052299785009996
 20
3.672594329683858
 10
0.221040653240078
 20
3.687836526817374
 10
0.2525907427704611
 20
3.720936690414396
  0
LWPOLYLINE
  5
BD
330
8F
100
AcDbEntity
  8
AM_9
100
AcDbPolyline
 90
        4
 70
     0
 43
0.0
 10
-0.2525907427704613
 20
3.720936690414396
 10
-0.2290319127168272
 20
3.695904211446309
 10
-0.2053230756021532
 20
3.672681144323715
 10
-0.1894430570778461
 20
3.65839641872578
  0
ELLIPSE
  5
BE
330
8F
100
AcDbEntity
  8
AM_9
100
AcDbEllipse
 10
-0.0000000000000001
 20
3.799686459104224
 30
0.0
 11
-0.21375
 21
3.185123231361761E-9
 31
0.0
210
0.0
220
0.0
230
1.0
 40
0.5000000000000003
 41
0.0
 42
6.283185307179586
  0
ELLIPSE
  5
BF
330
8F
100
AcDbEntity
  8
AM_9
100
AcDbEllipse
 10
-0.0000000000000006
 20
3.799686459104226
 30
0.0
 11
0.2187499999999994
 21
0.0
 31
0.0
210
0.0
220
0.0
230
1.0
 40
0.4999999999999954
 41
1.570796326794897
 42
2.617993877991501
  0
ELLIPSE
  5
C0
330
8F
100
AcDbEntity
  8
AM_9
100
AcDbEllipse
 10
0.0000000000000003
 20
3.799686459104226
 30
0.0
 11
0.218749999999999
 21
3.259629011154161E-9
 31
0.0
210
0.0
220
0.0
230
1.0
 40
0.4999999999999941
 41
4.71238898038469
 42
7.853981633974483
  0
LWPOLYLINE
  5
C1
330
8F
100
AcDbEntity
  8
AM_9
100
AcDbPolyline
 90
        5
 70
     0
 43
0.0
 10
-0.0000000000000001
 20
3.909061459104224
 10
0.0315738428463075
 20
3.908535423146147
 10
0.0631476856926152
 20
3.906988730543454
 10
0.0947562840569829
 20
3.904503726323956
 10
0.1262953713852305
 20
3.901208687415608
  0
LWPOLYLINE
  5
C2
330
8F
100
AcDbEntity
  8
AM_9
100
AcDbPolyline
 90
        4
 70
     0
 43
0.0
 10
-0.1262953713852308
 20
3.901208687415608
 10
-0.0967996321117979
 20
3.904313550589745
 10
-0.0485424412477545
 20
3.90782665562429
 10
-0.0000000000000001
 20
3.909061459104224
  0
LINE
  5
C3
330
8F
100
AcDbEntity
  8
AM_9
100
AcDbLine
 10
0.2525907427704611
 20
3.791833687415608
 30
0.0
 11
0.2525907427704611
 21
3.720936690414396
 31
0.0
  0
LWPOLYLINE
  5
C4
330
8F
100
AcDbEntity
  8
AM_9
100
AcDbPolyline
 90
        4
 70
     0
 43
0.0
 10
0.1894430570778458
 20
3.854373959104224
 10
0.2052299785009996
 20
3.840176048146146
 10
0.221040653240078
 20
3.82493385101263
 10
0.2525907427704611
 20
3.791833687415608
  0
LWPOLYLINE
  5
C5
330
8F
100
AcDbEntity
  8
AM_9
100
AcDbPolyline
 90
        4
 70
     0
 43
0.0
 10
0.1262953713852305
 20
3.901208687415608
 10
0.1498542014388647
 20
3.885436075763919
 10
0.1735630385535387
 20
3.867594232415525
 10
0.1894430570778458
 20
3.854373959104224
  0
LINE
  5
C6
330
8F
100
AcDbEntity
  8
AM_9
100
AcDbLine
 10
0.1262953713852305
 20
3.901208687415608
 30
0.0
 11
0.1262953713852305
 21
3.830311690414396
 31
0.0
  0
LWPOLYLINE
  5
C7
330
8F
100
AcDbEntity
  8
AM_9
100
AcDbPolyline
 90
        4
 70
     0
 43
0.0
 10
0.2525907427704611
 20
3.720936690414396
 10
0.2290319127168269
 20
3.736709302066085
 10
0.2053230756021529
 20
3.75455114541448
 10
0.1894430570778458
 20
3.76777141872578
  0
LWPOLYLINE
  5
C8
330
8F
100
AcDbEntity
  8
AM_9
100
AcDbPolyline
 90
        4
 70
     0
 43
0.0
 10
-0.0000000000000001
 20
3.82245891872578
 10
-0.048399816055899
 20
3.823686562318228
 10
-0.0967996321117979
 20
3.827206827240259
 10
-0.1262953713852308
 20
3.830311690414396
  0
ELLIPSE
  5
C9
330
8F
100
AcDbEntity
  8
AM_9
100
AcDbEllipse
 10
-0.0000000000000001
 20
3.713083918725781
 30
0.0
 11
0.2187499999999998
 21
0.0
 31
0.0
210
0.0
220
0.0
230
1.0
 40
0.4999999999999983
 41
1.570796326794897
 42
4.71238898038469
  0
ELLIPSE
  5
CA
330
8F
100
AcDbEntity
  8
AM_9
100
AcDbEllipse
 10
0.0000000000000005
 20
3.713083918725782
 30
0.0
 11
0.2187499999999988
 21
0.0
 31
0.0
210
0.0
220
0.0
230
1.0
 40
0.5000000000000088
 41
4.71238898038469
 42
6.806784082777865
  0
LWPOLYLINE
  5
CB
330
8F
100
AcDbEntity
  8
AM_9
100
AcDbPolyline
 90
        4
 70
     0
 43
0.0
 10
0.1894430570778458
 20
3.76777141872578
 10
0.173656135654692
 20
3.781969329683858
 10
0.1578454609156136
 20
3.797211526817374
 10
0.1262953713852305
 20
3.830311690414396
  0
LWPOLYLINE
  5
CC
330
8F
100
AcDbEntity
  8
AM_9
100
AcDbPolyline
 90
        5
 70
     0
 43
0.0
 10
0.1262953713852305
 20
3.830311690414396
 10
0.0949251544150458
 20
3.827032239137513
 10
0.0634316146914366
 20
3.824549958670223
 10
0.0317600370486142
 20
3.822991144869097
 10
-0.0000000000000001
 20
3.82245891872578
  0
ELLIPSE
  5
CD
330
8F
100
AcDbEntity
  8
AM_9
100
AcDbEllipse
 10
-0.0000000000000006
 20
3.71308391872578
 30
0.0
 11
0.2187500000000005
 21
0.0
 31
0.0
210
0.0
220
0.0
230
1.0
 40
0.5000000000000009
 41
0.5235987755983018
 42
1.570796326794897
  0
LINE
  5
CE
330
8F
100
AcDbEntity
  8
AM_9
100
AcDbLine
 10
-0.1262953713852308
 20
3.901208687415608
 30
0.0
 11
-0.1262953713852308
 21
3.830311690414396
 31
0.0
  0
LWPOLYLINE
  5
CF
330
8F
100
AcDbEntity
  8
AM_9
100
AcDbPolyline
 90
        4
 70
     0
 43
0.0
 10
-0.1894430570778461
 20
3.854373959104224
 10
-0.1736561356546923
 20
3.867519798146147
 10
-0.1578454609156139
 20
3.87966249296266
 10
-0.1262953713852308
 20
3.901208687415608
  0
LWPOLYLINE
  5
D0
330
8F
100
AcDbEntity
  8
AM_9
100
AcDbPolyline
 90
        4
 70
     0
 43
0.0
 10
-0.2525907427704613
 20
3.791833687415608
 10
-0.2290319127168272
 20
3.816866166383694
 10
-0.2053230756021532
 20
3.84008923350629
 10
-0.1894430570778461
 20
3.854373959104224
  0
LINE
  5
D1
330
8F
100
AcDbEntity
  8
AM_9
100
AcDbLine
 10
-0.2525907427704613
 20
3.791833687415608
 30
0.0
 11
-0.2525907427704613
 21
3.720936690414396
 31
0.0
  0
LWPOLYLINE
  5
D2
330
8F
100
AcDbEntity
  8
AM_9
100
AcDbPolyline
 90
        4
 70
     0
 43
0.0
 10
-0.1894430570778461
 20
3.76777141872578
 10
-0.2052299785009999
 20
3.754625579683858
 10
-0.2210406532400783
 20
3.742482884867344
 10
-0.2525907427704613
 20
3.720936690414396
  0
LWPOLYLINE
  5
D3
330
8F
100
AcDbEntity
  8
AM_9
100
AcDbPolyline
 90
        4
 70
     0
 43
0.0
 10
-0.1262953713852308
 20
3.830311690414396
 10
-0.149854201438865
 20
3.80527921144631
 10
-0.173563038553539
 20
3.782056144323715
 10
-0.1894430570778461
 20
3.76777141872578
  0
LINE
  5
D4
330
8F
100
AcDbEntity
  8
AM_9
100
AcDbLine
 10
0.1985852938306407
 20
3.513591258039336
 30
0.0
 11
0.2057184028850726
 21
3.71122771794815
 31
0.0
  0
LINE
  5
D5
330
8F
100
AcDbEntity
  8
AM_9
100
AcDbLine
 10
-0.2057184028850729
 20
3.71122771794815
 30
0.0
 11
-0.1985852938306409
 21
3.513591258039336
 31
0.0
  0
ELLIPSE
  5
D6
330
8F
100
AcDbEntity
  8
AM_9
100
AcDbEllipse
 10
-0.0000000000000002
 20
3.515383096648156
 30
0.0
 11
0.1986176267812157
 21
0.0
 31
0.0
210
0.0
220
0.0
230
1.0
 40
0.5000000000000027
 41
0.0
 42
6.265141230475132
  0
ELLIPSE
  5
D7
330
8F
100
AcDbEntity
  8
AM_9
100
AcDbEllipse
 10
-0.0000000000013809
 20
3.515383096645384
 30
0.0
 11
0.1986176267825962
 21
0.0
 31
0.0
210
0.0
220
0.0
230
1.0
 40
0.4999999999998992
 41
6.265141230503167
 42
6.283185307179586
  0
LINE
  5
D8
330
8F
100
AcDbEntity
  8
AM_9
100
AcDbLine
 10
0.1321931418159851
 20
3.436849853220685
 30
0.0
 11
0.1621706131788414
 21
3.458047126504186
 31
0.0
  0
LINE
  5
D9
330
8F
100
AcDbEntity
  8
AM_9
100
AcDbLine
 10
-0.1621706131788417
 20
3.458047126504186
 30
0.0
 11
-0.1321931418159854
 21
3.436849853220685
 31
0.0
  0
ELLIPSE
  5
DA
330
8F
100
AcDbEntity
  8
AM_9
100
AcDbEllipse
 10
0.0000000000000111
 20
4.037843445144921
 30
0.0
 11
0.1026779019331761
 21
0.0
 31
0.0
210
0.0
220
0.0
230
1.0
 40
0.500000000000017
 41
0.0
 42
6.283185307179586
  0
ELLIPSE
  5
DB
330
8F
100
AcDbEntity
  8
AM_9
100
AcDbEllipse
 10
0.0000000000000006
 20
3.968561412842205
 30
0.0
 11
0.1349999999999993
 21
0.0
 31
0.0
210
0.0
220
0.0
230
1.0
 40
0.5000000000000183
 41
0.0
 42
6.283185307179586
  0
ELLIPSE
  5
DC
330
8F
100
AcDbEntity
  8
AM_9
100
AcDbEllipse
 10
-0.0000000000000001
 20
3.815550484392194
 30
0.0
 11
0.1725340532830156
 21
0.0
 31
0.0
210
0.0
220
0.0
230
1.0
 40
0.5000000000000036
 41
0.0
 42
6.283185307179586
  0
ELLIPSE
  5
DD
330
8F
100
AcDbEntity
  8
AM_9
100
AcDbEllipse
 10
-0.0000000000002292
 20
3.713083918724251
 30
0.0
 11
0.2057518972232986
 21
0.0
 31
0.0
210
0.0
220
0.0
230
1.0
 40
0.4999999999999999
 41
0.0
 42
6.283185307179586
  0
ELLIPSE
  5
DE
330
8F
100
AcDbEntity
  8
AM_9
100
AcDbEllipse
 10
0.0000000000000012
 20
3.483587186722905
 30
0.0
 11
0.1619028724722677
 21
0.0
 31
0.0
210
0.0
220
0.0
230
1.0
 40
0.5000000000000014
 41
0.0
 42
6.283185307179586
  0
ENDBLK
  5
92
330
8F
100
AcDbEntity
  8
0
100
AcDbBlockEnd
  0
BLOCK
  5
E1
330
DF
100
AcDbEntity
  8
0
100
AcDbBlockBegin
  2
3_ASME_B18_3_1_4_1_0_in_069549_2
 70
     2
 10
0.0
 20
0.0
 30
0.0
  3
3_ASME_B18_3_1_4_1_0_in_069549_2
  1

  0
ATTDEF
  5
E3
330
DF
100
AcDbEntity
  8
AM_6
100
AcDbText
 10
3.324333333333334
 20
-2.196430555555555
 30
0.0
 40
0.5
  1
ANSI/ASME B18.3-1998
100
AcDbAttributeDefinition
  3

  2
NN
 70
     8
280
     0
  0
ATTDEF
  5
E4
330
DF
100
AcDbEntity
  8
AM_6
100
AcDbText
 10
3.324333333333334
 20
-2.696430555555555
 30
0.0
 40
0.5
  1
Socket Button Head Cap Screws
100
AcDbAttributeDefinition
  3

  2
NT
 70
     8
280
     0
  0
ATTDEF
  5
E5
330
DF
100
AcDbEntity
  8
AM_6
100
AcDbText
 10
3.324333333333334
 20
-3.196430555555555
 30
0.0
 40
0.5
  1
ASME B18.3-1/4
100
AcDbAttributeDefinition
  3

  2
NB
 70
     8
280
     0
  0
ATTDEF
  5
E6
330
DF
100
AcDbEntity
  8
AM_6
100
AcDbText
 10
3.324333333333334
 20
-3.696430555555555
 30
0.0
 40
0.5
  1
ASME B18.3-$NS.
100
AcDbAttributeDefinition
  3

  2
NBSYN
 70
     8
280
     0
  0
ATTDEF
  5
E7
330
DF
100
AcDbEntity
  8
AM_6
100
AcDbText
 10
3.324333333333334
 20
-4.196430555555555
 30
0.0
 40
0.5
  1
ASME B18.3-1/4
100
AcDbAttributeDefinition
  3

  2
LINA
 70
     8
280
     0
  0
ATTDEF
  5
E8
330
DF
100
AcDbEntity
  8
AM_6
100
AcDbText
 10
3.324333333333334
 20
-4.696430555555555
 30
0.0
 40
0.5
  1
1/4
100
AcDbAttributeDefinition
  3

  2
NS
 70
     8
280
     0
  0
ATTDEF
  5
E9
330
DF
100
AcDbEntity
  8
AM_6
100
AcDbText
 10
3.324333333333334
 20
-5.196430555555555
 30
0.0
 40
0.5
  1
0.437
100
AcDbAttributeDefinition
  3

  2
A
 70
     8
280
     0
  0
ATTDEF
  5
EA
330
DF
100
AcDbEntity
  8
AM_6
100
AcDbText
 10
3.324333333333334
 20
-5.696430555555555
 30
0.0
 40
0.5
  1
0.132
100
AcDbAttributeDefinition
  3

  2
H
 70
     8
280
     0
  0
ATTDEF
  5
EB
330
DF
100
AcDbEntity
  8
AM_6
100
AcDbText
 10
3.324333333333334
 20
-6.196430555555555
 30
0.0
 40
0.5
  1
0.800
100
AcDbAttributeDefinition
  3

  2
L
 70
     8
280
     0
  0
ATTDEF
  5
EC
330
DF
100
AcDbEntity
  8
AM_6
100
AcDbText
 10
3.324333333333334
 20
-6.696430555555555
 30
0.0
 40
0.5
  1
0.031
100
AcDbAttributeDefinition
  3

  2
S
 70
     8
280
     0
  0
ATTDEF
  5
ED
330
DF
100
AcDbEntity
  8
AM_6
100
AcDbText
 10
3.324333333333334
 20
-7.196430555555555
 30
0.0
 40
0.5
  1
0.156250
100
AcDbAttributeDefinition
  3

  2
J
 70
     8
280
     0
  0
ATTDEF
  5
EE
330
DF
100
AcDbEntity
  8
AM_6
100
AcDbText
 10
3.324333333333334
 20
-7.696430555555555
 30
0.0
 40
0.5
  1
baldor
100
AcDbAttributeDefinition
  3

  2
COMPANY
 70
     8
280
     0
  0
LINE
  5
EF
330
DF
100
AcDbEntity
  8
AM_9
100
AcDbLine
 10
-2.537666666666667
 20
-2.505141535116434
 30
0.0
 11
-2.607666666666667
 21
-2.505141535116434
 31
0.0
  0
LINE
  5
F0
330
DF
100
AcDbEntity
  8
AM_9
100
AcDbLine
 10
-2.537666666666667
 20
-2.324719575994676
 30
0.0
 11
-2.607666666666667
 21
-2.324719575994676
 31
0.0
  0
LINE
  5
F1
330
DF
100
AcDbEntity
  8
AM_9
100
AcDbLine
 10
-2.537666666666667
 20
-2.369825065775116
 30
0.0
 11
-2.607666666666667
 21
-2.369825065775116
 31
0.0
  0
LINE
  5
F2
330
DF
100
AcDbEntity
  8
AM_9
100
AcDbLine
 10
-2.537666666666667
 20
-2.460036045335995
 30
0.0
 11
-2.607666666666667
 21
-2.460036045335995
 31
0.0
  0
LINE
  5
F3
330
DF
100
AcDbEntity
  8
AM_9
100
AcDbLine
 10
-2.537666666666667
 20
-2.324719575994676
 30
0.0
 11
-2.537666666666667
 21
-2.505141535116434
 31
0.0
  0
LINE
  5
F4
330
DF
100
AcDbEntity
  8
AM_9
100
AcDbLine
 10
-1.675666666666667
 20
-2.308530555555556
 30
0.0
 11
-1.675666666666667
 21
-2.521330555555555
 31
0.0
  0
LINE
  5
F5
330
DF
100
AcDbEntity
  8
AM_9
100
AcDbLine
 10
-1.675666666666667
 20
-2.308530555555556
 30
0.0
 11
-1.694266666666667
 21
-2.289930555555555
 31
0.0
  0
LINE
  5
F6
330
DF
100
AcDbEntity
  8
AM_9
100
AcDbLine
 10
-1.694266666666667
 20
-2.539930555555555
 30
0.0
 11
-1.675666666666667
 21
-2.521330555555555
 31
0.0
  0
LINE
  5
F7
330
DF
100
AcDbEntity
  8
AM_9
100
AcDbLine
 10
-1.694266666666667
 20
-2.289930555555555
 30
0.0
 11
-1.694266666666667
 21
-2.539930555555555
 31
0.0
  0
LINE
  5
F8
330
DF
100
AcDbEntity
  8
AM_9
100
AcDbLine
 10
-2.475666666666667
 20
-2.539930555555555
 30
0.0
 11
-1.694266666666667
 21
-2.539930555555555
 31
0.0
  0
LINE
  5
F9
330
DF
100
AcDbEntity
  8
AM_9
100
AcDbLine
 10
-1.694266666666667
 20
-2.289930555555555
 30
0.0
 11
-2.475666666666667
 21
-2.289930555555555
 31
0.0
  0
LINE
  5
FB
330
DF
100
AcDbEntity
  8
AM_5
100
AcDbLine
 10
-2.395666666666667
 20
-2.521330555555555
 30
0.0
 11
-2.427882811687447
 21
-2.539930555555555
 31
0.0
  0
LINE
  5
FC
330
DF
100
AcDbEntity
  8
AM_5
100
AcDbLine
 10
-2.395666666666667
 20
-2.289930574764945
 30
0.0
 11
-2.395666666666667
 21
-2.539930637142017
 31
0.0
  0
LINE
  5
FD
330
DF
100
AcDbEntity
  8
AM_5
100
AcDbLine
 10
-2.395666666666667
 20
-2.308530555555556
 30
0.0
 11
-2.427882811687448
 21
-2.289930555555555
 31
0.0
  0
LINE
  5
FF
330
DF
100
AcDbEntity
  8
AM_4
100
AcDbLine
 10
-2.506666666666666
 20
-2.633430555555555
 30
0.0
 11
-2.475666666666667
 21
-2.633430555555555
 31
0.0
  0
LINE
  5
100
330
DF
100
AcDbEntity
  8
AM_4
100
AcDbLine
 10
-2.475666666666667
 20
-2.196430555555555
 30
0.0
 11
-2.506666666666666
 21
-2.196430555555555
 31
0.0
  0
LINE
  5
101
330
DF
100
AcDbEntity
  8
AM_4
100
AcDbLine
 10
-2.607666666666667
 20
-2.297430555555555
 30
0.0
 11
-2.607666666666667
 21
-2.532430555555555
 31
0.0
  0
LINE
  5
102
330
DF
100
AcDbEntity
  8
AM_4
100
AcDbLine
 10
-2.506666666666666
 20
-2.196430555555555
 30
0.0
 11
-2.506666666666666
 21
-2.633430555555555
 31
0.0
  0
ARC
  5
103
330
DF
100
AcDbEntity
  8
AM_4
100
AcDbCircle
 10
-2.506666666666665
 20
-2.532430555555555
 30
0.0
 40
0.1010000000000013
100
AcDbArc
 50
180.0
 51
270.0
  0
ARC
  5
104
330
DF
100
AcDbEntity
  8
AM_4
100
AcDbCircle
 10
-2.506666666666666
 20
-2.297430555555555
 30
0.0
 40
0.101
100
AcDbArc
 50
90.0
 51
180.0
  0
ENDBLK
  5
E2
330
DF
100
AcDbEntity
  8
0
100
AcDbBlockEnd
  0
BLOCK
  5
107
330
105
100
AcDbEntity
  8
0
100
AcDbBlockBegin
  2
4_ASME_B18_3_1_4_2_0_in_069549_2
 70
     2
 10
0.0
 20
0.0
 30
0.0
  3
4_ASME_B18_3_1_4_2_0_in_069549_2
  1

  0
ATTDEF
  5
109
330
105
100
AcDbEntity
  8
AM_6
100
AcDbText
 10
3.324333333333334
 20
2.633430555555555
 30
0.0
 40
0.5
  1
ANSI/ASME B18.3-1998
100
AcDbAttributeDefinition
  3

  2
NN
 70
     8
280
     0
  0
ATTDEF
  5
10A
330
105
100
AcDbEntity
  8
AM_6
100
AcDbText
 10
3.324333333333334
 20
2.133430555555555
 30
0.0
 40
0.5
  1
Socket Button Head Cap Screws
100
AcDbAttributeDefinition
  3

  2
NT
 70
     8
280
     0
  0
ATTDEF
  5
10B
330
105
100
AcDbEntity
  8
AM_6
100
AcDbText
 10
3.324333333333334
 20
1.633430555555555
 30
0.0
 40
0.5
  1
ASME B18.3-1/4
100
AcDbAttributeDefinition
  3

  2
NB
 70
     8
280
     0
  0
ATTDEF
  5
10C
330
105
100
AcDbEntity
  8
AM_6
100
AcDbText
 10
3.324333333333334
 20
1.133430555555555
 30
0.0
 40
0.5
  1
ASME B18.3-$NS.
100
AcDbAttributeDefinition
  3

  2
NBSYN
 70
     8
280
     0
  0
ATTDEF
  5
10D
330
105
100
AcDbEntity
  8
AM_6
100
AcDbText
 10
3.324333333333334
 20
0.6334305555555555
 30
0.0
 40
0.5
  1
ASME B18.3-1/4
100
AcDbAttributeDefinition
  3

  2
LINA
 70
     8
280
     0
  0
ATTDEF
  5
10E
330
105
100
AcDbEntity
  8
AM_6
100
AcDbText
 10
3.324333333333334
 20
0.1334305555555555
 30
0.0
 40
0.5
  1
1/4
100
AcDbAttributeDefinition
  3

  2
NS
 70
     8
280
     0
  0
ATTDEF
  5
10F
330
105
100
AcDbEntity
  8
AM_6
100
AcDbText
 10
3.324333333333334
 20
-0.3665694444444445
 30
0.0
 40
0.5
  1
0.437
100
AcDbAttributeDefinition
  3

  2
A
 70
     8
280
     0
  0
ATTDEF
  5
110
330
105
100
AcDbEntity
  8
AM_6
100
AcDbText
 10
3.324333333333334
 20
-0.8665694444444445
 30
0.0
 40
0.5
  1
0.132
100
AcDbAttributeDefinition
  3

  2
H
 70
     8
280
     0
  0
ATTDEF
  5
111
330
105
100
AcDbEntity
  8
AM_6
100
AcDbText
 10
3.324333333333334
 20
-1.366569444444445
 30
0.0
 40
0.5
  1
0.800
100
AcDbAttributeDefinition
  3

  2
L
 70
     8
280
     0
  0
ATTDEF
  5
112
330
105
100
AcDbEntity
  8
AM_6
100
AcDbText
 10
3.324333333333334
 20
-1.866569444444445
 30
0.0
 40
0.5
  1
0.031
100
AcDbAttributeDefinition
  3

  2
S
 70
     8
280
     0
  0
ATTDEF
  5
113
330
105
100
AcDbEntity
  8
AM_6
100
AcDbText
 10
3.324333333333334
 20
-2.366569444444445
 30
0.0
 40
0.5
  1
0.156250
100
AcDbAttributeDefinition
  3

  2
J
 70
     8
280
     0
  0
ATTDEF
  5
114
330
105
100
AcDbEntity
  8
AM_6
100
AcDbText
 10
3.324333333333334
 20
-2.866569444444445
 30
0.0
 40
0.5
  1
baldor
100
AcDbAttributeDefinition
  3

  2
COMPANY
 70
     8
280
     0
  0
LINE
  5
115
330
105
100
AcDbEntity
  8
AM_9
100
AcDbLine
 10
-2.537666666666667
 20
2.324719575994676
 30
0.0
 11
-2.607666666666667
 21
2.324719575994676
 31
0.0
  0
LINE
  5
116
330
105
100
AcDbEntity
  8
AM_9
100
AcDbLine
 10
-2.537666666666667
 20
2.505141535116434
 30
0.0
 11
-2.607666666666667
 21
2.505141535116434
 31
0.0
  0
LINE
  5
117
330
105
100
AcDbEntity
  8
AM_9
100
AcDbLine
 10
-2.537666666666667
 20
2.460036045335995
 30
0.0
 11
-2.607666666666667
 21
2.460036045335995
 31
0.0
  0
LINE
  5
118
330
105
100
AcDbEntity
  8
AM_9
100
AcDbLine
 10
-2.537666666666667
 20
2.369825065775116
 30
0.0
 11
-2.607666666666667
 21
2.369825065775116
 31
0.0
  0
LINE
  5
119
330
105
100
AcDbEntity
  8
AM_9
100
AcDbLine
 10
-2.537666666666667
 20
2.505141535116434
 30
0.0
 11
-2.537666666666667
 21
2.324719575994676
 31
0.0
  0
LINE
  5
11A
330
105
100
AcDbEntity
  8
AM_9
100
AcDbLine
 10
-1.675666666666667
 20
2.521330555555555
 30
0.0
 11
-1.675666666666667
 21
2.308530555555556
 31
0.0
  0
LINE
  5
11B
330
105
100
AcDbEntity
  8
AM_9
100
AcDbLine
 10
-1.675666666666667
 20
2.521330555555555
 30
0.0
 11
-1.694266666666667
 21
2.539930555555555
 31
0.0
  0
LINE
  5
11C
330
105
100
AcDbEntity
  8
AM_9
100
AcDbLine
 10
-1.694266666666667
 20
2.289930555555555
 30
0.0
 11
-1.675666666666667
 21
2.308530555555556
 31
0.0
  0
LINE
  5
11D
330
105
100
AcDbEntity
  8
AM_9
100
AcDbLine
 10
-1.694266666666667
 20
2.539930555555555
 30
0.0
 11
-1.694266666666667
 21
2.289930555555555
 31
0.0
  0
LINE
  5
11E
330
105
100
AcDbEntity
  8
AM_9
100
AcDbLine
 10
-2.475666666666667
 20
2.289930555555555
 30
0.0
 11
-1.694266666666667
 21
2.289930555555555
 31
0.0
  0
LINE
  5
11F
330
105
100
AcDbEntity
  8
AM_9
100
AcDbLine
 10
-1.694266666666667
 20
2.539930555555555
 30
0.0
 11
-2.475666666666667
 21
2.539930555555555
 31
0.0
  0
LINE
  5
120
330
105
100
AcDbEntity
  8
AM_5
100
AcDbLine
 10
-2.395666666666667
 20
2.308530555555556
 30
0.0
 11
-2.427882811687447
 21
2.289930555555555
 31
0.0
  0
LINE
  5
121
330
105
100
AcDbEntity
  8
AM_5
100
AcDbLine
 10
-2.395666666666667
 20
2.539930637142016
 30
0.0
 11
-2.395666666666667
 21
2.289930574764945
 31
0.0
  0
LINE
  5
122
330
105
100
AcDbEntity
  8
AM_5
100
AcDbLine
 10
-2.395666666666667
 20
2.521330555555555
 30
0.0
 11
-2.427882811687448
 21
2.539930555555555
 31
0.0
  0
LINE
  5
123
330
105
100
AcDbEntity
  8
AM_4
100
AcDbLine
 10
-2.506666666666666
 20
2.196430555555555
 30
0.0
 11
-2.475666666666667
 21
2.196430555555555
 31
0.0
  0
LINE
  5
124
330
105
100
AcDbEntity
  8
AM_4
100
AcDbLine
 10
-2.475666666666667
 20
2.633430555555555
 30
0.0
 11
-2.506666666666666
 21
2.633430555555555
 31
0.0
  0
LINE
  5
125
330
105
100
AcDbEntity
  8
AM_4
100
AcDbLine
 10
-2.607666666666667
 20
2.532430555555555
 30
0.0
 11
-2.607666666666667
 21
2.297430555555555
 31
0.0
  0
LINE
  5
126
330
105
100
AcDbEntity
  8
AM_4
100
AcDbLine
 10
-2.506666666666666
 20
2.633430555555555
 30
0.0
 11
-2.506666666666666
 21
2.196430555555555
 31
0.0
  0
ARC
  5
127
330
105
100
AcDbEntity
  8
AM_4
100
AcDbCircle
 10
-2.506666666666666
 20
2.297430555555556
 30
0.0
 40
0.1010000000000004
100
AcDbArc
 50
180.0
 51
270.0
  0
ARC
  5
128
330
105
100
AcDbEntity
  8
AM_4
100
AcDbCircle
 10
-2.506666666666665
 20
2.532430555555555
 30
0.0
 40
0.1010000000000009
100
AcDbArc
 50
90.0
 51
180.0
  0
ENDBLK
  5
108
330
105
100
AcDbEntity
  8
0
100
AcDbBlockEnd
  0
BLOCK
  5
12B
330
129
100
AcDbEntity
  8
0
100
AcDbBlockBegin
  2
5_070905LW_0_in_069549_2
 70
     2
 10
0.0
 20
0.0
 30
0.0
  3
5_070905LW_0_in_069549_2
  1

  0
ATTDEF
  5
12D
330
129
100
AcDbEntity
  8
AM_6
100
AcDbText
 10
3.024333333333333
 20
2.781249999999999
 30
0.0
 40
0.5
  1
Imperial Insert Lockwasher -Inch
100
AcDbAttributeDefinition
  3

  2
NN
 70
     8
280
     0
  0
ATTDEF
  5
12E
330
129
100
AcDbEntity
  8
AM_6
100
AcDbText
 10
3.024333333333333
 20
2.281249999999999
 30
0.0
 40
0.5
  1
Imperial Bearings
100
AcDbAttributeDefinition
  3

  2
NT
 70
     8
280
     0
  0
ATTDEF
  5
12F
330
129
100
AcDbEntity
  8
AM_6
100
AcDbText
 10
3.024333333333333
 20
1.781249999999999
 30
0.0
 40
0.5
  1
070905LW
100
AcDbAttributeDefinition
  3

  2
NB
 70
     8
280
     0
  0
ATTDEF
  5
130
330
129
100
AcDbEntity
  8
AM_6
100
AcDbText
 10
3.024333333333333
 20
1.281249999999999
 30
0.0
 40
0.5
  1
$PN.LW
100
AcDbAttributeDefinition
  3

  2
NBSYN
 70
     8
280
     0
  0
ATTDEF
  5
131
330
129
100
AcDbEntity
  8
AM_6
100
AcDbText
 10
3.024333333333333
 20
0.7812499999999991
 30
0.0
 40
0.5
  1
070905
100
AcDbAttributeDefinition
  3

  2
LINA
 70
     8
280
     0
  0
ATTDEF
  5
132
330
129
100
AcDbEntity
  8
AM_6
100
AcDbText
 10
3.024333333333333
 20
0.2812499999999991
 30
0.0
 40
0.5
  1
3-11/16
100
AcDbAttributeDefinition
  3

  2
SS
 70
     8
280
     0
  0
ATTDEF
  5
133
330
129
100
AcDbEntity
  8
AM_6
100
AcDbText
 10
3.024333333333333
 20
-0.2187500000000009
 30
0.0
 40
0.5
  1
3.687500
100
AcDbAttributeDefinition
  3

  2
SS1
 70
     8
280
     0
  0
ATTDEF
  5
134
330
129
100
AcDbEntity
  8
AM_6
100
AcDbText
 10
3.024333333333333
 20
-0.7187500000000009
 30
0.0
 40
0.5
  1
070905
100
AcDbAttributeDefinition
  3

  2
PN
 70
     8
280
     0
  0
ATTDEF
  5
135
330
129
100
AcDbEntity
  8
AM_6
100
AcDbText
 10
3.024333333333333
 20
-1.218750000000001
 30
0.0
 40
0.5
  1
INS-IP-311R
100
AcDbAttributeDefinition
  3

  2
DESCRIPTION
 70
     8
280
     0
  0
ATTDEF
  5
136
330
129
100
AcDbEntity
  8
AM_6
100
AcDbText
 10
3.024333333333333
 20
-1.718750000000001
 30
0.0
 40
0.5
  1
7.0866
100
AcDbAttributeDefinition
  3

  2
A
 70
     8
280
     0
  0
ATTDEF
  5
137
330
129
100
AcDbEntity
  8
AM_6
100
AcDbText
 10
3.024333333333333
 20
-2.218750000000001
 30
0.0
 40
0.5
  1
1-7/8
100
AcDbAttributeDefinition
  3

  2
B
 70
     8
280
     0
  0
ATTDEF
  5
138
330
129
100
AcDbEntity
  8
AM_6
100
AcDbText
 10
3.024333333333333
 20
-2.718750000000001
 30
0.0
 40
0.5
  1
4-45/64
100
AcDbAttributeDefinition
  3

  2
C
 70
     8
280
     0
  0
ATTDEF
  5
139
330
129
100
AcDbEntity
  8
AM_6
100
AcDbText
 10
3.024333333333333
 20
-3.218750000000001
 30
0.0
 40
0.5
  1
1.646
100
AcDbAttributeDefinition
  3

  2
D
 70
     8
280
     0
  0
ATTDEF
  5
13A
330
129
100
AcDbEntity
  8
AM_6
100
AcDbText
 10
3.024333333333333
 20
-3.718750000000001
 30
0.0
 40
0.5
  1
5-9/16
100
AcDbAttributeDefinition
  3

  2
E
 70
     8
280
     0
  0
ATTDEF
  5
13B
330
129
100
AcDbEntity
  8
AM_6
100
AcDbText
 10
3.024333333333333
 20
-4.218750000000001
 30
0.0
 40
0.5
  1
0.2500
100
AcDbAttributeDefinition
  3

  2
NDM
 70
     8
280
     0
  0
ATTDEF
  5
13C
330
129
100
AcDbEntity
  8
AM_6
100
AcDbText
 10
3.024333333333333
 20
-4.718750000000001
 30
0.0
 40
0.5
  1
0.1960
100
AcDbAttributeDefinition
  3

  2
KDM
 70
     8
280
     0
  0
ATTDEF
  5
13D
330
129
100
AcDbEntity
  8
AM_6
100
AcDbText
 10
3.024333333333333
 20
-5.218750000000001
 30
0.0
 40
0.5
  1
4.83
100
AcDbAttributeDefinition
  3

  2
AL
 70
     8
280
     0
  0
ATTDEF
  5
13E
330
129
100
AcDbEntity
  8
AM_6
100
AcDbText
 10
3.024333333333333
 20
-5.718750000000001
 30
0.0
 40
0.5
  1
0.50
100
AcDbAttributeDefinition
  3

  2
BL
 70
     8
280
     0
  0
ATTDEF
  5
13F
330
129
100
AcDbEntity
  8
AM_6
100
AcDbText
 10
3.024333333333333
 20
-6.218750000000001
 30
0.0
 40
0.5
  1
0.07
100
AcDbAttributeDefinition
  3

  2
CL
 70
     8
280
     0
  0
ATTDEF
  5
140
330
129
100
AcDbEntity
  8
AM_6
100
AcDbText
 10
3.024333333333333
 20
-6.718750000000001
 30
0.0
 40
0.5
  1
0.50
100
AcDbAttributeDefinition
  3

  2
DL
 70
     8
280
     0
  0
ATTDEF
  5
141
330
129
100
AcDbEntity
  8
AM_6
100
AcDbText
 10
3.024333333333333
 20
-7.218750000000001
 30
0.0
 40
0.5
  1
baldor
100
AcDbAttributeDefinition
  3

  2
COMPANY
 70
     8
280
     0
  0
LINE
  5
142
330
129
100
AcDbEntity
  8
AM_9
100
AcDbLine
 10
-2.405666666666667
 20
1.790056501403958
 30
0.0
 11
-2.475666666666667
 21
1.790056501403958
 31
0.0
  0
LINE
  5
143
330
129
100
AcDbEntity
  8
AM_9
100
AcDbLine
 10
-1.975666666666667
 20
1.741497371164798
 30
0.0
 11
-2.405666666666667
 21
1.741497371164797
 31
0.0
  0
LINE
  5
144
330
129
100
AcDbEntity
  8
AM_9
100
AcDbLine
 10
-1.975666666666667
 20
1.651648206459369
 30
0.0
 11
-1.975666666666667
 21
1.837168229256069
 31
0.0
  0
LINE
  5
145
330
129
100
AcDbEntity
  8
AM_9
100
AcDbLine
 10
-1.975666666666667
 20
1.651648206459369
 30
0.0
 11
-2.475666666666667
 21
1.651648206459369
 31
0.0
  0
LINE
  5
146
330
129
100
AcDbEntity
  8
AM_9
100
AcDbLine
 10
-2.405666666666667
 20
1.83716822925607
 30
0.0
 11
-1.975666666666667
 21
1.837168229256069
 31
0.0
  0
LINE
  5
147
330
129
100
AcDbEntity
  8
AM_9
100
AcDbLine
 10
-1.975666666666667
 20
1.747319064550641
 30
0.0
 11
-2.475666666666667
 21
1.747319064550641
 31
0.0
  0
LINE
  5
148
330
129
100
AcDbEntity
  8
AM_9
100
AcDbLine
 10
-2.405666666666667
 20
1.885727359495231
 30
0.0
 11
-2.475666666666667
 21
1.885727359495231
 31
0.0
  0
LINE
  5
149
330
129
100
AcDbEntity
  8
AM_9
100
AcDbLine
 10
-2.405666666666667
 20
2.414930555555555
 30
0.0
 11
-2.475666666666667
 21
2.414930555555555
 31
0.0
  0
LINE
  5
14A
330
129
100
AcDbEntity
  8
AM_9
100
AcDbLine
 10
-2.405666666666667
 20
2.539972467743204
 30
0.0
 11
-2.475666666666667
 21
2.539972467743204
 31
0.0
  0
LINE
  5
14B
330
129
100
AcDbEntity
  8
AM_9
100
AcDbLine
 10
-2.405666666666667
 20
-2.414930555555555
 30
0.0
 11
-2.475666666666667
 21
-2.414930555555555
 31
0.0
  0
LINE
  5
14C
330
129
100
AcDbEntity
  8
AM_9
100
AcDbLine
 10
-2.475666666666667
 20
-2.539972467743204
 30
0.0
 11
-2.405666666666667
 21
-2.539972467743204
 31
0.0
  0
LINE
  5
14D
330
129
100
AcDbEntity
  8
AM_9
100
AcDbLine
 10
-2.405666666666667
 20
1.989319890498972
 30
0.0
 11
-2.475666666666667
 21
1.989319890498972
 31
0.0
  0
LINE
  5
14E
330
129
100
AcDbEntity
  8
AM_9
100
AcDbLine
 10
-2.405666666666667
 20
-1.989319890498972
 30
0.0
 11
-2.475666666666667
 21
-1.989319890498972
 31
0.0
  0
LINE
  5
14F
330
129
100
AcDbEntity
  8
AM_9
100
AcDbLine
 10
-2.405666666666667
 20
-1.495049932169421
 30
0.0
 11
-2.475666666666667
 21
-1.495049932169421
 31
0.0
  0
LINE
  5
150
330
129
100
AcDbEntity
  8
AM_9
100
AcDbLine
 10
-2.405666666666667
 20
1.495049932169422
 30
0.0
 11
-2.475666666666667
 21
1.495049932169424
 31
0.0
  0
LINE
  5
151
330
129
100
AcDbEntity
  8
AM_9
100
AcDbLine
 10
-2.405666666666667
 20
1.318273236872785
 30
0.0
 11
-2.475666666666667
 21
1.318273236872785
 31
0.0
  0
LINE
  5
152
330
129
100
AcDbEntity
  8
AM_9
100
AcDbLine
 10
-2.405666666666667
 20
-1.318273236872784
 30
0.0
 11
-2.475666666666667
 21
-1.318273236872784
 31
0.0
  0
LINE
  5
153
330
129
100
AcDbEntity
  8
AM_9
100
AcDbLine
 10
-2.405666666666667
 20
1.796002119576249
 30
0.0
 11
-2.475666666666667
 21
1.796002119576249
 31
0.0
  0
LINE
  5
154
330
129
100
AcDbEntity
  8
AM_9
100
AcDbLine
 10
-2.405666666666667
 20
1.619225424279612
 30
0.0
 11
-2.475666666666667
 21
1.619225424279612
 31
0.0
  0
LINE
  5
155
330
129
100
AcDbEntity
  8
AM_9
100
AcDbLine
 10
-2.405666666666667
 20
1.832643410377362
 30
0.0
 11
-2.475666666666667
 21
1.832643410377362
 31
0.0
  0
LINE
  5
156
330
129
100
AcDbEntity
  8
AM_9
100
AcDbLine
 10
-2.405666666666667
 20
-1.61922542427961
 30
0.0
 11
-2.475666666666667
 21
-1.61922542427961
 31
0.0
  0
LINE
  5
157
330
129
100
AcDbEntity
  8
AM_9
100
AcDbLine
 10
-2.405666666666667
 20
-1.796002119576242
 30
0.0
 11
-2.475666666666667
 21
-1.796002119576242
 31
0.0
  0
LINE
  5
158
330
129
100
AcDbEntity
  8
AM_9
100
AcDbLine
 10
-2.475666666666667
 20
-1.832643410377361
 30
0.0
 11
-2.405666666666667
 21
-1.832643410377361
 31
0.0
  0
LINE
  5
159
330
129
100
AcDbEntity
  8
AM_9
100
AcDbLine
 10
-2.405666666666667
 20
0.1250000000000009
 30
0.0
 11
-2.475666666666667
 21
0.1250000000000009
 31
0.0
  0
LINE
  5
15A
330
129
100
AcDbEntity
  8
AM_9
100
AcDbLine
 10
-2.405666666666667
 20
-0.1249999999999991
 30
0.0
 11
-2.475666666666667
 21
-0.1249999999999991
 31
0.0
  0
LINE
  5
15B
330
129
100
AcDbEntity
  8
AM_4
100
AcDbLine
 10
-2.405666666666667
 20
2.781249999999999
 30
0.0
 11
-2.475666666666667
 21
2.781249999999999
 31
0.0
  0
LINE
  5
15C
330
129
100
AcDbEntity
  8
AM_4
100
AcDbLine
 10
-2.475666666666667
 20
-2.781249999999999
 30
0.0
 11
-2.405666666666667
 21
-2.781249999999999
 31
0.0
  0
LINE
  5
15D
330
129
100
AcDbEntity
  8
AM_4
100
AcDbLine
 10
-2.475666666666667
 20
2.781249999999999
 30
0.0
 11
-2.475666666666667
 21
-2.781249999999999
 31
0.0
  0
LINE
  5
15E
330
129
100
AcDbEntity
  8
AM_4
100
AcDbLine
 10
-2.405666666666667
 20
2.781249999999999
 30
0.0
 11
-2.405666666666667
 21
-2.781249999999999
 31
0.0
  0
ENDBLK
  5
12C
330
129
100
AcDbEntity
  8
0
100
AcDbBlockEnd
  0
BLOCK
  5
161
330
15F
100
AcDbEntity
  8
0
100
AcDbBlockBegin
  2
6_070905I_0_in_069549_2
 70
     2
 10
0.0
 20
0.0
 30
0.0
  3
6_070905I_0_in_069549_2
  1

  0
ATTDEF
  5
163
330
15F
100
AcDbEntity
  8
AM_6
100
AcDbText
 10
6.978125
 20
3.5433
 30
0.0
 40
0.5
  1
Imperial Insert -Inch
100
AcDbAttributeDefinition
  3

  2
NN
 70
     8
280
     0
  0
ATTDEF
  5
164
330
15F
100
AcDbEntity
  8
AM_6
100
AcDbText
 10
6.978125
 20
3.0433
 30
0.0
 40
0.5
  1
Imperial Bearings
100
AcDbAttributeDefinition
  3

  2
NT
 70
     8
280
     0
  0
ATTDEF
  5
165
330
15F
100
AcDbEntity
  8
AM_6
100
AcDbText
 10
6.978125
 20
2.5433
 30
0.0
 40
0.5
  1
070905I
100
AcDbAttributeDefinition
  3

  2
NB
 70
     8
280
     0
  0
ATTDEF
  5
166
330
15F
100
AcDbEntity
  8
AM_6
100
AcDbText
 10
6.978125
 20
2.0433
 30
0.0
 40
0.5
  1
$PN.I
100
AcDbAttributeDefinition
  3

  2
NBSYN
 70
     8
280
     0
  0
ATTDEF
  5
167
330
15F
100
AcDbEntity
  8
AM_6
100
AcDbText
 10
6.978125
 20
1.5433
 30
0.0
 40
0.5
  1
070905
100
AcDbAttributeDefinition
  3

  2
LINA
 70
     8
280
     0
  0
ATTDEF
  5
168
330
15F
100
AcDbEntity
  8
AM_6
100
AcDbText
 10
6.978125
 20
1.0433
 30
0.0
 40
0.5
  1
3-11/16
100
AcDbAttributeDefinition
  3

  2
SS
 70
     8
280
     0
  0
ATTDEF
  5
169
330
15F
100
AcDbEntity
  8
AM_6
100
AcDbText
 10
6.978125
 20
0.5432999999999999
 30
0.0
 40
0.5
  1
3.687500
100
AcDbAttributeDefinition
  3

  2
SS1
 70
     8
280
     0
  0
ATTDEF
  5
16A
330
15F
100
AcDbEntity
  8
AM_6
100
AcDbText
 10
6.978125
 20
0.0432999999999999
 30
0.0
 40
0.5
  1
070905
100
AcDbAttributeDefinition
  3

  2
PN
 70
     8
280
     0
  0
ATTDEF
  5
16B
330
15F
100
AcDbEntity
  8
AM_6
100
AcDbText
 10
6.978125
 20
-0.4567000000000001
 30
0.0
 40
0.5
  1
INS-IP-311R
100
AcDbAttributeDefinition
  3

  2
DESCRIPTION
 70
     8
280
     0
  0
ATTDEF
  5
16C
330
15F
100
AcDbEntity
  8
AM_6
100
AcDbText
 10
6.978125
 20
-0.9567000000000001
 30
0.0
 40
0.5
  1
Contact Seal
100
AcDbAttributeDefinition
  3

  2
ST
 70
     8
280
     0
  0
ATTDEF
  5
16D
330
15F
100
AcDbEntity
  8
AM_6
100
AcDbText
 10
6.978125
 20
-1.4567
 30
0.0
 40
0.5
  1
7.0866
100
AcDbAttributeDefinition
  3

  2
A
 70
     8
280
     0
  0
ATTDEF
  5
16E
330
15F
100
AcDbEntity
  8
AM_6
100
AcDbText
 10
6.978125
 20
-1.9567
 30
0.0
 40
0.5
  1
1-7/8
100
AcDbAttributeDefinition
  3

  2
B
 70
     8
280
     0
  0
ATTDEF
  5
16F
330
15F
100
AcDbEntity
  8
AM_6
100
AcDbText
 10
6.978125
 20
-2.4567
 30
0.0
 40
0.5
  1
4-45/64
100
AcDbAttributeDefinition
  3

  2
C
 70
     8
280
     0
  0
ATTDEF
  5
170
330
15F
100
AcDbEntity
  8
AM_6
100
AcDbText
 10
6.978125
 20
-2.9567
 30
0.0
 40
0.5
  1
1.646
100
AcDbAttributeDefinition
  3

  2
D
 70
     8
280
     0
  0
ATTDEF
  5
171
330
15F
100
AcDbEntity
  8
AM_6
100
AcDbText
 10
6.978125
 20
-3.4567
 30
0.0
 40
0.5
  1
5-9/16
100
AcDbAttributeDefinition
  3

  2
E
 70
     8
280
     0
  0
ATTDEF
  5
172
330
15F
100
AcDbEntity
  8
AM_6
100
AcDbText
 10
6.978125
 20
-3.9567
 30
0.0
 40
0.5
  1
0.2500
100
AcDbAttributeDefinition
  3

  2
NDM
 70
     8
280
     0
  0
ATTDEF
  5
173
330
15F
100
AcDbEntity
  8
AM_6
100
AcDbText
 10
6.978125
 20
-4.4567
 30
0.0
 40
0.5
  1
0.132
100
AcDbAttributeDefinition
  3

  2
H
 70
     8
280
     0
  0
ATTDEF
  5
174
330
15F
100
AcDbEntity
  8
AM_6
100
AcDbText
 10
6.978125
 20
-4.9567
 30
0.0
 40
0.5
  1
0.1960
100
AcDbAttributeDefinition
  3

  2
KDM
 70
     8
280
     0
  0
ATTDEF
  5
175
330
15F
100
AcDbEntity
  8
AM_6
100
AcDbText
 10
6.978125
 20
-5.4567
 30
0.0
 40
0.5
  1
4.83
100
AcDbAttributeDefinition
  3

  2
AL
 70
     8
280
     0
  0
ATTDEF
  5
176
330
15F
100
AcDbEntity
  8
AM_6
100
AcDbText
 10
6.978125
 20
-5.9567
 30
0.0
 40
0.5
  1
0.50
100
AcDbAttributeDefinition
  3

  2
BL
 70
     8
280
     0
  0
ATTDEF
  5
177
330
15F
100
AcDbEntity
  8
AM_6
100
AcDbText
 10
6.978125
 20
-6.4567
 30
0.0
 40
0.5
  1
0.07
100
AcDbAttributeDefinition
  3

  2
CL
 70
     8
280
     0
  0
ATTDEF
  5
178
330
15F
100
AcDbEntity
  8
AM_6
100
AcDbText
 10
6.978125
 20
-6.9567
 30
0.0
 40
0.5
  1
0.50
100
AcDbAttributeDefinition
  3

  2
DL
 70
     8
280
     0
  0
ATTDEF
  5
179
330
15F
100
AcDbEntity
  8
AM_6
100
AcDbText
 10
6.978125
 20
-7.4567
 30
0.0
 40
0.5
  1
0.8000
100
AcDbAttributeDefinition
  3

  2
LL
 70
     8
280
     0
  0
ATTDEF
  5
17A
330
15F
100
AcDbEntity
  8
AM_6
100
AcDbText
 10
6.978125
 20
-7.9567
 30
0.0
 40
0.5
  1
0.025
100
AcDbAttributeDefinition
  3

  2
Y
 70
     8
280
     0
  0
ATTDEF
  5
17B
330
15F
100
AcDbEntity
  8
AM_6
100
AcDbText
 10
6.978125
 20
-8.4567
 30
0.0
 40
0.5
  1
0.025000
100
AcDbAttributeDefinition
  3

  2
Y1
 70
     8
280
     0
  0
ATTDEF
  5
17C
330
15F
100
AcDbEntity
  8
AM_6
100
AcDbText
 10
6.978125
 20
-8.9567
 30
0.0
 40
0.5
  1
4-1/2
100
AcDbAttributeDefinition
  3

  2
Z
 70
     8
280
     0
  0
ATTDEF
  5
17D
330
15F
100
AcDbEntity
  8
AM_6
100
AcDbText
 10
6.978125
 20
-9.4567
 30
0.0
 40
0.5
  1
4.500000
100
AcDbAttributeDefinition
  3

  2
Z1
 70
     8
280
     0
  0
ATTDEF
  5
17E
330
15F
100
AcDbEntity
  8
AM_6
100
AcDbText
 10
6.978125
 20
-9.9567
 30
0.0
 40
0.5
  1
baldor
100
AcDbAttributeDefinition
  3

  2
COMPANY
 70
     8
280
     0
  0
LINE
  5
17F
330
15F
100
AcDbEntity
  8
AM_9
100
AcDbLine
 10
1.244625
 20
1.841909064192482
 30
0.0
 11
-2.405666666666666
 21
1.841909064192482
 31
0.0
  0
LINE
  5
180
330
15F
100
AcDbEntity
  8
AM_9
100
AcDbLine
 10
1.244625
 20
1.746238206101209
 30
0.0
 11
-2.405666666666666
 21
1.746238206101209
 31
0.0
  0
LINE
  5
181
330
15F
100
AcDbEntity
  8
AM_9
100
AcDbLine
 10
-1.565666666666667
 20
2.414930555555555
 30
0.0
 11
-1.611341501782949
 21
2.512880555555555
 31
0.0
  0
LINE
  5
182
330
15F
100
AcDbEntity
  8
AM_9
100
AcDbLine
 10
-1.611341501782949
 20
2.316980555555556
 30
0.0
 11
-1.565666666666667
 21
2.414930555555555
 31
0.0
  0
LINE
  5
183
330
15F
100
AcDbEntity
  8
AM_9
100
AcDbLine
 10
-1.565666666666662
 20
-2.414930555555555
 30
0.0
 11
-1.611341501782954
 21
-2.316980555555556
 31
0.0
  0
LINE
  5
184
330
15F
100
AcDbEntity
  8
AM_9
100
AcDbLine
 10
-1.611341501782954
 20
-2.512880555555555
 30
0.0
 11
-1.565666666666662
 21
-2.414930555555555
 31
0.0
  0
LINE
  5
185
330
15F
100
AcDbEntity
  8
AM_9
100
AcDbLine
 10
-2.378616666666664
 20
-2.512880555555555
 30
0.0
 11
-1.611341501782954
 21
-2.512880555555555
 31
0.0
  0
LINE
  5
186
330
15F
100
AcDbEntity
  8
AM_9
100
AcDbLine
 10
-1.611341501782954
 20
-2.316980555555556
 30
0.0
 11
-2.378616666666664
 21
-2.316980555555556
 31
0.0
  0
LINE
  5
187
330
15F
100
AcDbEntity
  8
AM_9
100
AcDbLine
 10
-1.611341501782954
 20
-2.316980555555556
 30
0.0
 11
-1.611341501782954
 21
-2.512880555555555
 31
0.0
  0
LINE
  5
188
330
15F
100
AcDbEntity
  8
AM_9
100
AcDbLine
 10
-1.611341501782949
 20
2.316980555555556
 30
0.0
 11
-1.611341501782949
 21
2.512880555555555
 31
0.0
  0
LINE
  5
189
330
15F
100
AcDbEntity
  8
AM_9
100
AcDbLine
 10
-1.611341501782949
 20
2.512880555555555
 30
0.0
 11
-2.378616666666667
 21
2.512880555555555
 31
0.0
  0
LINE
  5
18A
330
15F
100
AcDbEntity
  8
AM_9
100
AcDbLine
 10
-2.378616666666667
 20
2.316980555555556
 30
0.0
 11
-1.611341501782949
 21
2.316980555555556
 31
0.0
  0
LINE
  5
18B
330
15F
100
AcDbEntity
  8
AM_9
100
AcDbLine
 10
-2.378616666666667
 20
2.316980555555556
 30
0.0
 11
-2.378616666666667
 21
2.512880555555555
 31
0.0
  0
LINE
  5
18C
330
15F
100
AcDbEntity
  8
AM_9
100
AcDbLine
 10
-2.378616666666667
 20
2.512880555555555
 30
0.0
 11
-2.405666666666667
 21
2.539930555555555
 31
0.0
  0
LINE
  5
18D
330
15F
100
AcDbEntity
  8
AM_9
100
AcDbLine
 10
-2.405666666666667
 20
2.289930555555555
 30
0.0
 11
-2.378616666666667
 21
2.316980555555556
 31
0.0
  0
LINE
  5
18E
330
15F
100
AcDbEntity
  8
AM_9
100
AcDbLine
 10
-2.378616666666664
 20
-2.316980555555556
 30
0.0
 11
-2.405666666666683
 21
-2.289930555555555
 31
0.0
  0
LINE
  5
18F
330
15F
100
AcDbEntity
  8
AM_9
100
AcDbLine
 10
-2.405666666666683
 20
-2.539930555555555
 30
0.0
 11
-2.378616666666664
 21
-2.512880555555555
 31
0.0
  0
LINE
  5
190
330
15F
100
AcDbEntity
  8
AM_9
100
AcDbLine
 10
-2.378616666666664
 20
-2.316980555555556
 30
0.0
 11
-2.378616666666664
 21
-2.512880555555555
 31
0.0
  0
LINE
  5
191
330
15F
100
AcDbEntity
  8
AM_9
100
AcDbLine
 10
1.244625
 20
1.747319064550642
 30
0.0
 11
-2.75
 21
1.747319064550642
 31
0.0
  0
LINE
  5
192
330
15F
100
AcDbEntity
  8
AM_9
100
AcDbLine
 10
-2.75
 20
1.651648206459369
 30
0.0
 11
1.244625
 21
1.651648206459369
 31
0.0
  0
LINE
  5
193
330
15F
100
AcDbEntity
  8
AM_9
100
AcDbLine
 10
1.244625
 20
1.84375
 30
0.0
 11
-2.75
 21
1.84375
 31
0.0
  0
LINE
  5
194
330
15F
100
AcDbEntity
  8
AM_9
100
AcDbLine
 10
-2.75
 20
-1.84375
 30
0.0
 11
1.244625
 21
-1.84375
 31
0.0
  0
LINE
  5
195
330
15F
100
AcDbEntity
  8
AM_9
100
AcDbLine
 10
-1.905666666666667
 20
-1.530886181268876
 30
0.0
 11
-2.405666666666667
 21
-1.530886181268876
 31
0.0
  0
LINE
  5
196
330
15F
100
AcDbEntity
  8
AM_9
100
AcDbLine
 10
-1.905666666666667
 20
-1.884439571862149
 30
0.0
 11
-2.25
 21
-1.884439571862149
 31
0.0
  0
LINE
  5
197
330
15F
100
AcDbEntity
  8
AM_9
100
AcDbLine
 10
-1.905666666666667
 20
1.530886181268875
 30
0.0
 11
-2.405666666666667
 21
1.530886181268875
 31
0.0
  0
LINE
  5
198
330
15F
100
AcDbEntity
  8
AM_9
100
AcDbLine
 10
-1.905666666666667
 20
1.884439571862148
 30
0.0
 11
-2.024999999999999
 21
1.884439571862148
 31
0.0
  0
LINE
  5
199
330
15F
100
AcDbEntity
  8
AM_9
100
AcDbLine
 10
1.953125
 20
1.940789473684211
 30
0.0
 11
1.244625
 21
1.940789473684211
 31
0.0
  0
LINE
  5
19A
330
15F
100
AcDbEntity
  8
AM_9
100
AcDbLine
 10
1.244625
 20
-1.940789473684211
 30
0.0
 11
1.953125
 21
-1.940789473684211
 31
0.0
  0
LINE
  5
19B
330
15F
100
AcDbEntity
  8
AM_9
100
AcDbLine
 10
-2.75
 20
1.83716822925607
 30
0.0
 11
-2.405666666666667
 21
1.83716822925607
 31
0.0
  0
LINE
  5
19C
330
15F
100
AcDbEntity
  8
AM_9
100
AcDbLine
 10
-2.405666666666667
 20
1.741497371164797
 30
0.0
 11
-2.75
 21
1.741497371164797
 31
0.0
  0
LINE
  5
19D
330
15F
100
AcDbEntity
  8
AM_9
100
AcDbLine
 10
-2.405666666666667
 20
1.940789473684211
 30
0.0
 11
-2.475666666666667
 21
1.940789473684211
 31
0.0
  0
LINE
  5
19E
330
15F
100
AcDbEntity
  8
AM_9
100
AcDbLine
 10
-2.475666666666667
 20
-1.940789473684211
 30
0.0
 11
-2.405666666666667
 21
-1.940789473684211
 31
0.0
  0
LINE
  5
19F
330
15F
100
AcDbEntity
  8
AM_9
100
AcDbLine
 10
-1.905666666666667
 20
2.147852520535789
 30
0.0
 11
-1.905666666666667
 21
1.530886181268875
 31
0.0
  0
LINE
  5
1A0
330
15F
100
AcDbEntity
  8
AM_9
100
AcDbLine
 10
1.953125
 20
-2.25
 30
0.0
 11
1.953125
 21
2.25
 31
0.0
  0
LINE
  5
1A1
330
15F
100
AcDbEntity
  8
AM_9
100
AcDbLine
 10
1.978124999999999
 20
2.25
 30
0.0
 11
1.953125
 21
2.25
 31
0.0
  0
LINE
  5
1A2
330
15F
100
AcDbEntity
  8
AM_9
100
AcDbLine
 10
1.953125
 20
-2.25
 30
0.0
 11
1.978124999999999
 21
-2.25
 31
0.0
  0
LINE
  5
1A3
330
15F
100
AcDbEntity
  8
AM_9
100
AcDbLine
 10
1.920432692307692
 20
2.5
 30
0.0
 11
1.619625
 21
2.5
 31
0.0
  0
LINE
  5
1A4
330
15F
100
AcDbEntity
  8
AM_9
100
AcDbLine
 10
1.619625
 20
-2.5
 30
0.0
 11
1.920432692307692
 21
-2.5
 31
0.0
  0
LINE
  5
1A5
330
15F
100
AcDbEntity
  8
AM_9
100
AcDbLine
 10
1.978125
 20
-2.442307692307693
 30
0.0
 11
1.978125
 21
2.442307692307693
 31
0.0
  0
ARC
  5
1A6
330
15F
100
AcDbEntity
  8
AM_9
100
AcDbCircle
 10
1.920432692307692
 20
2.442307692307692
 30
0.0
 40
0.0576923076923086
100
AcDbArc
 50
0.0
 51
90.0
  0
ARC
  5
1A7
330
15F
100
AcDbEntity
  8
AM_9
100
AcDbCircle
 10
1.920432692307692
 20
-2.442307692307692
 30
0.0
 40
0.0576923076923084
100
AcDbArc
 50
270.0
 51
0.0
  0
LINE
  5
1A8
330
15F
100
AcDbEntity
  8
AM_9
100
AcDbLine
 10
1.920432692307692
 20
-2.5
 30
0.0
 11
1.920432692307692
 21
2.5
 31
0.0
  0
LINE
  5
1A9
330
15F
100
AcDbEntity
  8
AM_9
100
AcDbLine
 10
-2.137011743616918
 20
-1.788563597301525
 30
0.0
 11
-1.905666666666667
 21
-1.794299129942517
 31
0.0
  0
LINE
  5
1AA
330
15F
100
AcDbEntity
  8
AM_9
100
AcDbLine
 10
-1.905666666666667
 20
-1.530886181268876
 30
0.0
 11
-1.905666666666667
 21
-2.147852520535789
 31
0.0
  0
LINE
  5
1AB
330
15F
100
AcDbEntity
  8
AM_9
100
AcDbLine
 10
-1.905666666666667
 20
-2.147852520535789
 30
0.0
 11
-2.250000002301748
 21
-2.139315721780618
 31
0.0
  0
LINE
  5
1AC
330
15F
100
AcDbEntity
  8
AM_9
100
AcDbLine
 10
-2.02500000246163
 20
2.144894012027597
 30
0.0
 11
-1.905666666666667
 21
2.147852520535789
 31
0.0
  0
LINE
  5
1AD
330
15F
100
AcDbEntity
  8
AM_9
100
AcDbLine
 10
-1.905666666666667
 20
1.794299129942516
 30
0.0
 11
-2.025000002461629
 21
1.791340621434324
 31
0.0
  0
LINE
  5
1AE
330
15F
100
AcDbEntity
  8
AM_9
100
AcDbLine
 10
-2.25
 20
-2.786685999784218
 30
0.0
 11
-0.630375
 21
-2.843244551072289
 31
0.0
  0
LINE
  5
1AF
330
15F
100
AcDbEntity
  8
AM_9
100
AcDbLine
 10
-0.630375
 20
2.843244551072289
 30
0.0
 11
-2.025
 21
2.794543172919862
 31
0.0
  0
LINE
  5
1B0
330
15F
100
AcDbEntity
  8
AM_9
100
AcDbLine
 10
1.619625
 20
-3.069058622134927
 30
0.0
 11
1.619625
 21
3.069058622134927
 31
0.0
  0
ARC
  5
1B1
330
15F
100
AcDbEntity
  8
AM_9
100
AcDbCircle
 10
1.519624999999998
 20
3.069058622134926
 30
0.0
 40
0.1000000000000023
100
AcDbArc
 50
0.0
 51
59.99999999999936
  0
ARC
  5
1B2
330
15F
100
AcDbEntity
  8
AM_9
100
AcDbCircle
 10
1.519624999999998
 20
-3.069058622134926
 30
0.0
 40
0.1000000000000022
100
AcDbArc
 50
300.0000000000006
 51
0.0
  0
LINE
  5
1B3
330
15F
100
AcDbEntity
  8
AM_9
100
AcDbLine
 10
1.569625
 20
3.155661162513371
 30
0.0
 11
1.244625
 21
3.3433
 31
0.0
  0
LINE
  5
1B4
330
15F
100
AcDbEntity
  8
AM_9
100
AcDbLine
 10
1.244625
 20
-3.3433
 30
0.0
 11
1.569625
 21
-3.155661162513371
 31
0.0
  0
LINE
  5
1B5
330
15F
100
AcDbEntity
  8
AM_9
100
AcDbLine
 10
1.569625
 20
-3.155661162513371
 30
0.0
 11
1.569625
 21
3.155661162513371
 31
0.0
  0
LINE
  5
1B6
330
15F
100
AcDbEntity
  8
AM_9
100
AcDbLine
 10
0.3612515877365273
 20
3.44955
 30
0.0
 11
0.2529984122634729
 21
3.44955
 31
0.0
  0
LINE
  5
1B7
330
15F
100
AcDbEntity
  8
AM_9
100
AcDbLine
 10
0.2529984122634729
 20
-3.44955
 30
0.0
 11
0.3612515877365273
 21
-3.44955
 31
0.0
  0
LINE
  5
1B8
330
15F
100
AcDbEntity
  8
AM_9
100
AcDbLine
 10
0.3612515877365273
 20
-3.44955
 30
0.0
 11
0.4153781754730551
 21
-3.5433
 31
0.0
  0
LINE
  5
1B9
330
15F
100
AcDbEntity
  8
AM_9
100
AcDbLine
 10
0.4153781754730551
 20
3.5433
 30
0.0
 11
0.3612515877365273
 21
3.44955
 31
0.0
  0
LINE
  5
1BA
330
15F
100
AcDbEntity
  8
AM_9
100
AcDbLine
 10
0.3612515877365273
 20
-3.44955
 30
0.0
 11
0.3612515877365273
 21
3.44955
 31
0.0
  0
LINE
  5
1BB
330
15F
100
AcDbEntity
  8
AM_9
100
AcDbLine
 10
0.198871824526945
 20
3.5433
 30
0.0
 11
-0.5803749999999991
 21
3.5433
 31
0.0
  0
LINE
  5
1BC
330
15F
100
AcDbEntity
  8
AM_9
100
AcDbLine
 10
-0.5803749999999991
 20
-3.5433
 30
0.0
 11
0.198871824526945
 21
-3.5433
 31
0.0
  0
LINE
  5
1BD
330
15F
100
AcDbEntity
  8
AM_9
100
AcDbLine
 10
0.2529984122634729
 20
3.44955
 30
0.0
 11
0.198871824526945
 21
3.5433
 31
0.0
  0
LINE
  5
1BE
330
15F
100
AcDbEntity
  8
AM_9
100
AcDbLine
 10
0.198871824526945
 20
-3.5433
 30
0.0
 11
0.2529984122634729
 21
-3.44955
 31
0.0
  0
LINE
  5
1BF
330
15F
100
AcDbEntity
  8
AM_9
100
AcDbLine
 10
0.2529984122634729
 20
-3.44955
 30
0.0
 11
0.2529984122634729
 21
3.44955
 31
0.0
  0
LINE
  5
1C0
330
15F
100
AcDbEntity
  8
AM_9
100
AcDbLine
 10
0.198871824526945
 20
-3.5433
 30
0.0
 11
0.198871824526945
 21
3.5433
 31
0.0
  0
LINE
  5
1C1
330
15F
100
AcDbEntity
  8
AM_9
100
AcDbLine
 10
1.244625
 20
-3.4933
 30
0.0
 11
1.244625
 21
3.4933
 31
0.0
  0
ARC
  5
1C2
330
15F
100
AcDbEntity
  8
AM_9
100
AcDbCircle
 10
1.194625
 20
3.493299999999999
 30
0.0
 40
0.0500000000000005
100
AcDbArc
 50
0.0
 51
90.0
  0
ARC
  5
1C3
330
15F
100
AcDbEntity
  8
AM_9
100
AcDbCircle
 10
1.194625
 20
-3.493299999999999
 30
0.0
 40
0.0500000000000007
100
AcDbArc
 50
270.0
 51
0.0
  0
LINE
  5
1C4
330
15F
100
AcDbEntity
  8
AM_9
100
AcDbLine
 10
-0.630375
 20
-3.493300000000001
 30
0.0
 11
-0.630375
 21
3.493300000000001
 31
0.0
  0
ARC
  5
1C5
330
15F
100
AcDbEntity
  8
AM_9
100
AcDbCircle
 10
-0.5803749999999981
 20
3.493299999999998
 30
0.0
 40
0.050000000000002
100
AcDbArc
 50
90.0
 51
180.0
  0
ARC
  5
1C6
330
15F
100
AcDbEntity
  8
AM_9
100
AcDbCircle
 10
-0.5803749999999981
 20
-3.493299999999998
 30
0.0
 40
0.0500000000000019
100
AcDbArc
 50
180.0
 51
270.0
  0
LINE
  5
1C7
330
15F
100
AcDbEntity
  8
AM_9
100
AcDbLine
 10
-0.5803749999999991
 20
-3.5433
 30
0.0
 11
-0.5803749999999991
 21
3.5433
 31
0.0
  0
LINE
  5
1C8
330
15F
100
AcDbEntity
  8
AM_9
100
AcDbLine
 10
1.194625
 20
3.5433
 30
0.0
 11
0.4153781754730551
 21
3.5433
 31
0.0
  0
LINE
  5
1C9
330
15F
100
AcDbEntity
  8
AM_9
100
AcDbLine
 10
0.4153781754730551
 20
-3.5433
 30
0.0
 11
1.194625
 21
-3.5433
 31
0.0
  0
LINE
  5
1CA
330
15F
100
AcDbEntity
  8
AM_9
100
AcDbLine
 10
1.194625
 20
-3.5433
 30
0.0
 11
1.194625
 21
3.5433
 31
0.0
  0
LINE
  5
1CB
330
15F
100
AcDbEntity
  8
AM_9
100
AcDbLine
 10
0.4153781754730551
 20
-3.5433
 30
0.0
 11
0.4153781754730551
 21
3.5433
 31
0.0
  0
LINE
  5
1CC
330
15F
100
AcDbEntity
  8
AM_5
100
AcDbLine
 10
-1.645666666666667
 20
2.512880555555555
 30
0.0
 11
-1.645666666666667
 21
2.539930555555555
 31
0.0
  0
LINE
  5
1CD
330
15F
100
AcDbEntity
  8
AM_5
100
AcDbLine
 10
-1.645666666666667
 20
2.539930555555555
 30
0.0
 11
-1.630049341885087
 21
2.512880555555555
 31
0.0
  0
LINE
  5
1CE
330
15F
100
AcDbEntity
  8
AM_5
100
AcDbLine
 10
-1.645666666666667
 20
2.316980555555555
 30
0.0
 11
-1.645666666666667
 21
2.289930555555555
 31
0.0
  0
LINE
  5
1CF
330
15F
100
AcDbEntity
  8
AM_5
100
AcDbLine
 10
-1.645666666666667
 20
2.289930555555555
 30
0.0
 11
-1.630049341885087
 21
2.316980555555556
 31
0.0
  0
LINE
  5
1D0
330
15F
100
AcDbEntity
  8
AM_5
100
AcDbLine
 10
-1.645666666666687
 20
-2.512880555555555
 30
0.0
 11
-1.645666666666687
 21
-2.539930555555555
 31
0.0
  0
LINE
  5
1D1
330
15F
100
AcDbEntity
  8
AM_5
100
AcDbLine
 10
-1.645666666666687
 20
-2.539930555555555
 30
0.0
 11
-1.630049341885106
 21
-2.512880555555555
 31
0.0
  0
LINE
  5
1D2
330
15F
100
AcDbEntity
  8
AM_5
100
AcDbLine
 10
-1.645666666666687
 20
-2.316980555555555
 30
0.0
 11
-1.645666666666687
 21
-2.289930555555555
 31
0.0
  0
LINE
  5
1D3
330
15F
100
AcDbEntity
  8
AM_5
100
AcDbLine
 10
-1.645666666666687
 20
-2.289930555555555
 30
0.0
 11
-1.630049341885106
 21
-2.316980555555556
 31
0.0
  0
LINE
  5
1D6
330
15F
100
AcDbEntity
  8
AM_7
100
AcDbLine
 10
-1.523666666666667
 20
2.414930555555555
 30
0.0
 11
-2.654266666666667
 21
2.414930555555555
 31
0.0
  0
LINE
  5
1D7
330
15F
100
AcDbEntity
  8
AM_7
100
AcDbLine
 10
-1.523666666666661
 20
-2.414930555555555
 30
0.0
 11
-2.654266666666667
 21
-2.414930555555555
 31
0.0
  0
ARC
  5
1D8
330
15F
100
AcDbEntity
  8
AM_4
100
AcDbCircle
 10
-2.355666666666667
 20
-2.73296556125965
 30
0.0
 40
0.0500000000000003
100
AcDbArc
 50
180.0
 51
268.0000000000001
  0
ARC
  5
1D9
330
15F
100
AcDbEntity
  8
AM_4
100
AcDbCircle
 10
-2.355666666666667
 20
2.73296556125965
 30
0.0
 40
0.0500000000000003
100
AcDbArc
 50
91.99999999999997
 51
180.0
  0
LWPOLYLINE
  5
1DA
330
15F
100
AcDbEntity
  8
AM_4
100
AcDbPolyline
 90
        6
 70
     0
 43
0.0
 10
-2.357411641501792
 20
-2.136652684401853
 10
-2.373798890176766
 20
-2.134257803231375
 10
-2.38814924865749
 20
-2.128162669148618
 10
-2.398871508438446
 20
-2.119042286506945
 10
-2.404764060913803
 20
-2.107888383254296
 10
-2.405666666666667
 20
-2.101172803044632
  0
LWPOLYLINE
  5
1DB
330
15F
100
AcDbEntity
  8
AM_4
100
AcDbPolyline
 90
        6
 70
     0
 43
0.0
 10
-2.405666666666667
 20
2.101172803044632
 10
-2.405121249552766
 20
2.106402560521313
 10
-2.399859169704142
 20
2.117780018141493
 10
-2.389570136382742
 20
2.127266852350878
 10
-2.375455918800179
 20
2.133775567744502
 10
-2.357411641501792
 20
2.136652684401852
  0
LINE
  5
1DC
330
15F
100
AcDbEntity
  8
AM_4
100
AcDbLine
 10
-2.25
 20
-1.884439571862149
 30
0.0
 11
-2.405666666666667
 21
-1.884439571862149
 31
0.0
  0
LINE
  5
1DD
330
15F
100
AcDbEntity
  8
AM_4
100
AcDbLine
 10
-2.024999999999999
 20
1.884439571862148
 30
0.0
 11
-2.405666666666667
 21
1.884439571862148
 31
0.0
  0
LINE
  5
1DE
330
15F
100
AcDbEntity
  8
AM_4
100
AcDbLine
 10
-2.475666666666667
 20
1.940789473684211
 30
0.0
 11
-2.75
 21
1.940789473684211
 31
0.0
  0
LINE
  5
1DF
330
15F
100
AcDbEntity
  8
AM_4
100
AcDbLine
 10
-2.75
 20
-1.940789473684211
 30
0.0
 11
-2.475666666666667
 21
-1.940789473684211
 31
0.0
  0
LINE
  5
1E0
330
15F
100
AcDbEntity
  8
AM_4
100
AcDbLine
 10
-2.75
 20
-1.940789473684211
 30
0.0
 11
-2.75
 21
1.940789473684211
 31
0.0
  0
LWPOLYLINE
  5
1E1
330
15F
100
AcDbEntity
  8
AM_4
100
AcDbPolyline
 90
        6
 70
     0
 43
0.0
 10
-2.357411641501792
 20
1.783099293808579
 10
-2.373798890176766
 20
1.780704412638101
 10
-2.388149248657491
 20
1.774609278555344
 10
-2.398871508438446
 20
1.765488895913672
 10
-2.404764060913803
 20
1.754334992661022
 10
-2.405666666666667
 20
1.747619412451358
  0
LWPOLYLINE
  5
1E2
330
15F
100
AcDbEntity
  8
AM_4
100
AcDbPolyline
 90
        6
 70
     0
 43
0.0
 10
-2.405666666666667
 20
-1.747619412451359
 10
-2.405121249552766
 20
-1.75284916992804
 10
-2.399859169704142
 20
-1.76422662754822
 10
-2.389570136382742
 20
-1.773713461757605
 10
-2.375455918800178
 20
-1.780222177151229
 10
-2.357411641501792
 20
-1.783099293808579
  0
LINE
  5
1E3
330
15F
100
AcDbEntity
  8
AM_4
100
AcDbLine
 10
-2.357411641501792
 20
-1.783099293808579
 30
0.0
 11
-2.357411641501792
 21
1.783099293808579
 31
0.0
  0
LINE
  5
1E4
330
15F
100
AcDbEntity
  8
AM_4
100
AcDbLine
 10
-2.357411641501792
 20
-1.783099293808579
 30
0.0
 11
-2.137011743616918
 21
-1.788563597301525
 31
0.0
  0
LINE
  5
1E5
330
15F
100
AcDbEntity
  8
AM_4
100
AcDbLine
 10
-2.250000002301748
 20
-2.139315721780618
 30
0.0
 11
-2.357411641501792
 21
-2.136652684401853
 31
0.0
  0
LINE
  5
1E6
330
15F
100
AcDbEntity
  8
AM_4
100
AcDbLine
 10
-2.357411641501792
 20
2.136652684401852
 30
0.0
 11
-2.357411641501792
 21
2.782935102610605
 31
0.0
  0
LINE
  5
1E7
330
15F
100
AcDbEntity
  8
AM_4
100
AcDbLine
 10
-2.357411641501792
 20
2.136652684401852
 30
0.0
 11
-2.02500000246163
 21
2.144894012027597
 31
0.0
  0
LINE
  5
1E8
330
15F
100
AcDbEntity
  8
AM_4
100
AcDbLine
 10
-2.025000002461629
 20
1.791340621434324
 30
0.0
 11
-2.357411641501792
 21
1.783099293808579
 31
0.0
  0
LINE
  5
1E9
330
15F
100
AcDbEntity
  8
AM_4
100
AcDbLine
 10
-2.357411641501792
 20
-2.782935102610605
 30
0.0
 11
-2.25
 21
-2.786685999784218
 31
0.0
  0
LINE
  5
1EA
330
15F
100
AcDbEntity
  8
AM_4
100
AcDbLine
 10
-2.025
 20
2.794543172919862
 30
0.0
 11
-2.357411641501792
 21
2.782935102610605
 31
0.0
  0
LINE
  5
1EB
330
15F
100
AcDbEntity
  8
AM_4
100
AcDbLine
 10
-2.357411641501792
 20
-2.782935102610605
 30
0.0
 11
-2.357411641501792
 21
-2.136652684401853
 31
0.0
  0
ENDBLK
  5
162
330
15F
100
AcDbEntity
  8
0
100
AcDbBlockEnd
  0
BLOCK
  5
1EE
330
1EC
100
AcDbEntity
  8
0
100
AcDbBlockBegin
  2
7_069549H_0_in_069549_2
 70
     2
 10
0.0
 20
0.0
 30
0.0
  3
7_069549H_0_in_069549_2
  1

  0
ATTDEF
  5
1F0
330
1EC
100
AcDbEntity
  8
AM_6
100
AcDbText
 10
7.475
 20
4.1875
 30
0.0
 40
0.5
  1
P4B-IP -(Contact Seal)-Housing -Inch
100
AcDbAttributeDefinition
  3

  2
NN
 70
     8
280
     0
  0
ATTDEF
  5
1F1
330
1EC
100
AcDbEntity
  8
AM_6
100
AcDbText
 10
7.475
 20
3.6875
 30
0.0
 40
0.5
  1
Imperial 4 Bolt Piliow Block Bearings
100
AcDbAttributeDefinition
  3

  2
NT
 70
     8
280
     0
  0
ATTDEF
  5
1F2
330
1EC
100
AcDbEntity
  8
AM_6
100
AcDbText
 10
7.475
 20
3.1875
 30
0.0
 40
0.5
  1
069549H
100
AcDbAttributeDefinition
  3

  2
NB
 70
     8
280
     0
  0
ATTDEF
  5
1F3
330
1EC
100
AcDbEntity
  8
AM_6
100
AcDbText
 10
7.475
 20
2.6875
 30
0.0
 40
0.5
  1
$PN.H
100
AcDbAttributeDefinition
  3

  2
NBSYN
 70
     8
280
     0
  0
ATTDEF
  5
1F4
330
1EC
100
AcDbEntity
  8
AM_6
100
AcDbText
 10
7.475
 20
2.1875
 30
0.0
 40
0.5
  1
069549
100
AcDbAttributeDefinition
  3

  2
LINA
 70
     8
280
     0
  0
ATTDEF
  5
1F5
330
1EC
100
AcDbEntity
  8
AM_6
100
AcDbText
 10
7.475
 20
1.6875
 30
0.0
 40
0.5
  1
3-11/16
100
AcDbAttributeDefinition
  3

  2
SS
 70
     8
280
     0
  0
ATTDEF
  5
1F6
330
1EC
100
AcDbEntity
  8
AM_6
100
AcDbText
 10
7.475
 20
1.1875
 30
0.0
 40
0.5
  1
069549
100
AcDbAttributeDefinition
  3

  2
PN
 70
     8
280
     0
  0
ATTDEF
  5
1F7
330
1EC
100
AcDbEntity
  8
AM_6
100
AcDbText
 10
7.475
 20
0.6875
 30
0.0
 40
0.5
  1
P4B-IP-311RE
100
AcDbAttributeDefinition
  3

  2
DESCRIPTION
 70
     8
280
     0
  0
ATTDEF
  5
1F8
330
1EC
100
AcDbEntity
  8
AM_6
100
AcDbText
 10
7.475
 20
0.1875
 30
0.0
 40
0.5
  1
Expansion Type
100
AcDbAttributeDefinition
  3

  2
EF
 70
     8
280
     0
  0
ATTDEF
  5
1F9
330
1EC
100
AcDbEntity
  8
AM_6
100
AcDbText
 10
7.475
 20
-0.3125
 30
0.0
 40
0.5
  1
Contact  Seal
100
AcDbAttributeDefinition
  3

  2
ST
 70
     8
280
     0
  0
ATTDEF
  5
1FA
330
1EC
100
AcDbEntity
  8
AM_6
100
AcDbText
 10
7.475
 20
-0.8125
 30
0.0
 40
0.5
  1
4-45/64
100
AcDbAttributeDefinition
  3

  2
A
 70
     8
280
     0
  0
ATTDEF
  5
1FB
330
1EC
100
AcDbEntity
  8
AM_6
100
AcDbText
 10
7.475
 20
-1.3125
 30
0.0
 40
0.5
  1
15-1/4
100
AcDbAttributeDefinition
  3

  2
B
 70
     8
280
     0
  0
ATTDEF
  5
1FC
330
1EC
100
AcDbEntity
  8
AM_6
100
AcDbText
 10
7.475
 20
-1.8125
 30
0.0
 40
0.5
  1
4-1/2
100
AcDbAttributeDefinition
  3

  2
C
 70
     8
280
     0
  0
ATTDEF
  5
1FD
330
1EC
100
AcDbEntity
  8
AM_6
100
AcDbText
 10
7.475
 20
-2.3125
 30
0.0
 40
0.5
  1
12-1/8
100
AcDbAttributeDefinition
  3

  2
DMIN
 70
     8
280
     0
  0
ATTDEF
  5
1FE
330
1EC
100
AcDbEntity
  8
AM_6
100
AcDbText
 10
7.475
 20
-2.8125
 30
0.0
 40
0.5
  1
12-7/8
100
AcDbAttributeDefinition
  3

  2
DMAX
 70
     8
280
     0
  0
ATTDEF
  5
1FF
330
1EC
100
AcDbEntity
  8
AM_6
100
AcDbText
 10
7.475
 20
-3.3125
 30
0.0
 40
0.5
  1
2-1/4
100
AcDbAttributeDefinition
  3

  2
E
 70
     8
280
     0
  0
ATTDEF
  5
200
330
1EC
100
AcDbEntity
  8
AM_6
100
AcDbText
 10
7.475
 20
-3.8125
 30
0.0
 40
0.5
  1
3/4
100
AcDbAttributeDefinition
  3

  2
F
 70
     8
280
     0
  0
ATTDEF
  5
201
330
1EC
100
AcDbEntity
  8
AM_6
100
AcDbText
 10
7.475
 20
-4.3125
 30
0.0
 40
0.5
  1
1-1/4
100
AcDbAttributeDefinition
  3

  2
G
 70
     8
280
     0
  0
ATTDEF
  5
202
330
1EC
100
AcDbEntity
  8
AM_6
100
AcDbText
 10
7.475
 20
-4.8125
 30
0.0
 40
0.5
  1
2-7/16
100
AcDbAttributeDefinition
  3

  2
H
 70
     8
280
     0
  0
ATTDEF
  5
203
330
1EC
100
AcDbEntity
  8
AM_6
100
AcDbText
 10
7.475
 20
-5.3125
 30
0.0
 40
0.5
  1
8-7/16
100
AcDbAttributeDefinition
  3

  2
J
 70
     8
280
     0
  0
ATTDEF
  5
204
330
1EC
100
AcDbEntity
  8
AM_6
100
AcDbText
 10
7.475
 20
-5.8125
 30
0.0
 40
0.5
  1
5-9/16
100
AcDbAttributeDefinition
  3

  2
L
 70
     8
280
     0
  0
ATTDEF
  5
205
330
1EC
100
AcDbEntity
  8
AM_6
100
AcDbText
 10
7.475
 20
-6.3125
 30
0.0
 40
0.5
  1
4-1/4
100
AcDbAttributeDefinition
  3

  2
M
 70
     8
280
     0
  0
ATTDEF
  5
206
330
1EC
100
AcDbEntity
  8
AM_6
100
AcDbText
 10
7.475
 20
-6.8125
 30
0.0
 40
0.5
  1
1-41/64
100
AcDbAttributeDefinition
  3

  2
R
 70
     8
280
     0
  0
ATTDEF
  5
207
330
1EC
100
AcDbEntity
  8
AM_6
100
AcDbText
 10
7.475
 20
-7.3125
 30
0.0
 40
0.5
  1
3-1/16
100
AcDbAttributeDefinition
  3

  2
S
 70
     8
280
     0
  0
ATTDEF
  5
208
330
1EC
100
AcDbEntity
  8
AM_6
100
AcDbText
 10
7.475
 20
-7.8125
 30
0.0
 40
0.5
  1
5/16
100
AcDbAttributeDefinition
  3

  2
X
 70
     8
280
     0
  0
ATTDEF
  5
209
330
1EC
100
AcDbEntity
  8
AM_6
100
AcDbText
 10
7.475
 20
-8.3125
 30
0.0
 40
0.5
  1
0.025
100
AcDbAttributeDefinition
  3

  2
Y
 70
     8
280
     0
  0
ATTDEF
  5
20A
330
1EC
100
AcDbEntity
  8
AM_6
100
AcDbText
 10
7.475
 20
-8.8125
 30
0.0
 40
0.5
  1
4-1/2
100
AcDbAttributeDefinition
  3

  2
Z
 70
     8
280
     0
  0
ATTDEF
  5
20B
330
1EC
100
AcDbEntity
  8
AM_6
100
AcDbText
 10
7.475
 20
-9.3125
 30
0.0
 40
0.5
  1
baldor
100
AcDbAttributeDefinition
  3

  2
COMPANY
 70
     8
280
     0
  0
LWPOLYLINE
  5
20C
330
1EC
100
AcDbEntity
  8
AM_9
100
AcDbPolyline
 90
        4
 70
     0
 43
0.0
 10
-0.4805161836138689
 20
3.555396384004233
 10
-0.4874830448569855
 20
3.569614625325845
 10
-0.4968503438454642
 20
3.598184187320278
 10
-0.4999999999999998
 20
3.626481378347335
  0
LWPOLYLINE
  5
20D
330
1EC
100
AcDbEntity
  8
AM_9
100
AcDbPolyline
 90
       18
 70
     0
 43
0.0
 10
0.4918431411083341
 20
3.580671577876405
 10
0.4722100304966804
 20
3.541501220636702
 10
0.4381473152055138
 20
3.500081129716497
 10
0.3919255617591974
 20
3.461262684727917
 10
0.3343014950860686
 20
3.42628933531259
 10
0.2672732295998501
 20
3.396684659234818
 10
0.1923480215842526
 20
3.373663311656961
 10
0.1119322582080752
 20
3.358186656299602
 10
0.0563282561065045
 20
3.352466344674599
 10
-0.0000000000000002
 20
3.350537069313411
 10
-0.083598874860891
 20
3.354819681217672
 10
-0.1648331951321649
 20
3.367341369924782
 10
-0.241336307776807
 20
3.387682291962699
 10
-0.3110736893685451
 20
3.414876342364629
 10
-0.3722581266909342
 20
3.448078418938959
 10
-0.4229837376089781
 20
3.485814697174359
 10
-0.4617641419921307
 20
3.526857842640653
 10
-0.4805161836138689
 20
3.555396384004233
  0
LWPOLYLINE
  5
20E
330
1EC
100
AcDbEntity
  8
AM_9
100
AcDbPolyline
 90
        3
 70
     0
 43
0.0
 10
0.4999999999999995
 20
3.626481378347338
 10
0.4929518653891655
 20
3.584074510590386
 10
0.4918431411083341
 20
3.580671577876405
  0
ELLIPSE
  5
20F
330
1EC
100
AcDbEntity
  8
AM_9
100
AcDbEllipse
 10
0.0000000000000067
 20
3.626481378347351
 30
0.0
 11
0.5000000000000064
 21
0.0
 31
0.0
210
0.0
220
0.0
230
1.0
 40
0.5000000000000033
 41
2.854877314083935
 42
3.429844597319742
  0
ELLIPSE
  5
210
330
1EC
100
AcDbEntity
  8
AM_9
100
AcDbEllipse
 10
-0.0000000000000001
 20
3.71308391872578
 30
0.0
 11
-0.4
 21
4.898587196589413E-17
 31
0.0
210
0.0
220
0.0
230
1.0
 40
0.4999999999999993
 41
0.0
 42
6.283185307179586
  0
LINE
  5
211
330
1EC
100
AcDbEntity
  8
AM_9
100
AcDbLine
 10
-0.4999943692798777
 20
3.627982134234667
 30
0.0
 11
-0.4999999894473856
 21
3.626416408772627
 31
0.0
  0
LWPOLYLINE
  5
212
330
1EC
100
AcDbEntity
  8
AM_9
100
AcDbPolyline
 90
       39
 70
     0
 43
0.0
 10
0.4999535412131999
 20
3.630792081976509
 10
0.4996188460539315
 20
3.638825235864069
 10
0.4961908473917416
 20
3.665399642174164
 10
0.4893446382218155
 20
3.691227246057632
 10
0.4792082669990625
 20
3.7162182946056
 10
0.4658391615692639
 20
3.740332768363979
 10
0.449220357671435
 20
3.763550013066135
 10
0.4292832440224216
 20
3.785830064315799
 10
0.4059692870271284
 20
3.807071063908225
 10
0.3793211639560479
 20
3.827086334536951
 10
0.3495517889383267
 20
3.845629036277151
 10
0.317028496657846
 20
3.862460579741088
 10
0.2822190115469392
 20
3.877397289560824
 10
0.245537802465441
 20
3.890357393995637
 10
0.2073043390949172
 20
3.901326602205937
 10
0.1677987131002928
 20
3.910308525552738
 10
0.1272807371426283
 20
3.917310261925413
 10
0.0860029481499984
 20
3.922337263718816
 10
0.0442171607995733
 20
3.925392766508655
 10
0.0021765971884185
 20
3.926478746346935
 10
-0.0398645819569409
 20
3.925596904669521
 10
-0.0816448149369546
 20
3.922749777332073
 10
-0.1229043253419413
 20
3.917941227491986
 10
-0.1633997167881256
 20
3.911173005298246
 10
-0.2028953866774863
 20
3.902441925373183
 10
-0.2411638230511194
 20
3.891735920977199
 10
-0.2779830267358612
 20
3.879029367859505
 10
-0.3131287577985052
 20
3.864279119162389
 10
-0.346358295340589
 20
3.847425045980298
 10
-0.3773826824188635
 20
3.828403304815645
 10
-0.4058017031401722
 20
3.807209499925876
 10
-0.4310853114417428
 20
3.78399875815369
 10
-0.4506618454456133
 20
3.761737807565087
 10
-0.4669356642934279
 20
3.738584477808348
 10
-0.4799302608882044
 20
3.714695519532412
 10
-0.4905544770350865
 20
3.687498064008678
 10
-0.4971668783975108
 20
3.660070781185751
 10
-0.4999012391799955
 20
3.632766140285289
 10
-0.4999943692798777
 20
3.627982134234667
  0
LINE
  5
213
330
1EC
100
AcDbEntity
  8
AM_9
100
AcDbLine
 10
0.4999999381840721
 20
3.626638624551112
 30
0.0
 11
0.4999535412131999
 21
3.630792081976509
 31
0.0
  0
LWPOLYLINE
  5
214
330
1EC
100
AcDbEntity
  8
AM_9
100
AcDbPolyline
 90
        4
 70
     0
 43
0.0
 10
0.4887957063326743
 20
3.677963425475592
 10
0.4928055719315962
 20
3.667842398375365
 10
0.4999999496989329
 20
3.626593512639605
 10
0.4999999999999995
 20
3.626481378347338
  0
LWPOLYLINE
  5
215
330
1EC
100
AcDbEntity
  8
AM_9
100
AcDbPolyline
 90
       17
 70
     0
 43
0.0
 10
-0.4783432328093342
 20
3.697069840393311
 10
-0.4507514083413121
 20
3.729829652810845
 10
-0.4082536655516681
 20
3.76214610229532
 10
-0.3543921398185769
 20
3.789950452406099
 10
-0.2900912497322042
 20
3.812887162286962
 10
-0.2175804511145843
 20
3.830552518438942
 10
-0.1387637957763404
 20
3.84270396334037
 10
-0.0559811335737928
 20
3.849291567116888
 10
0.027908422659238
 20
3.850213350913743
 10
0.1110072828857443
 20
3.84558109238274
 10
0.1906827606674687
 20
3.835409437450307
 10
0.2650231791237845
 20
3.819837112055347
 10
0.332182739848955
 20
3.798834099445219
 10
0.3900376188170466
 20
3.772768233129988
 10
0.4370499547808364
 20
3.741759713294204
 10
0.4717137652796743
 20
3.706532730805505
 10
0.4887957063326743
 20
3.677963425475592
  0
LWPOLYLINE
  5
216
330
1EC
100
AcDbEntity
  8
AM_9
100
AcDbPolyline
 90
        4
 70
     0
 43
0.0
 10
-0.4999999999999998
 20
3.626481378347335
 10
-0.4968332994569552
 20
3.654247081296697
 10
-0.4804623973086055
 20
3.693608910994959
 10
-0.4783432328093342
 20
3.697069840393311
  0
ELLIPSE
  5
217
330
1EC
100
AcDbEntity
  8
AM_9
100
AcDbEllipse
 10
-0.0000000000000095
 20
3.626481378347382
 30
0.0
 11
0.500000000000009
 21
0.0
 31
0.0
210
0.0
220
0.0
230
1.0
 40
0.4999999999999848
 41
3.429844597319882
 42
9.138062621263625
  0
LINE
  5
218
330
1EC
100
AcDbEntity
  8
AM_9
100
AcDbLine
 10
-1.5625
 20
-4.071504443998558
 30
0.0
 11
1.5625
 21
-4.071504443998558
 31
0.0
  0
LINE
  5
219
330
1EC
100
AcDbEntity
  8
AM_9
100
AcDbLine
 10
-1.5625
 20
-2.937994732279816
 30
0.0
 11
1.5625
 21
-2.937994732279816
 31
0.0
  0
LINE
  5
21A
330
1EC
100
AcDbEntity
  8
AM_9
100
AcDbLine
 10
-2.025
 20
-3.5433
 30
0.0
 11
2.024999999999999
 21
-3.5433
 31
0.0
  0
LINE
  5
21B
330
1EC
100
AcDbEntity
  8
AM_9
100
AcDbLine
 10
2.024999999999999
 20
3.5433
 30
0.0
 11
-2.025
 21
3.5433
 31
0.0
  0
LINE
  5
21C
330
1EC
100
AcDbEntity
  8
AM_9
100
AcDbLine
 10
2.025
 20
-1.68054316641624
 30
0.0
 11
2.025
 21
-4.25
 31
0.0
  0
LINE
  5
21D
330
1EC
100
AcDbEntity
  8
AM_9
100
AcDbLine
 10
-2.024999999999999
 20
-1.68054316641624
 30
0.0
 11
-2.024999999999999
 21
-4.25
 31
0.0
  0
LINE
  5
21E
330
1EC
100
AcDbEntity
  8
AM_9
100
AcDbLine
 10
1.5625
 20
-2.7875
 30
0.0
 11
-1.5625
 21
-2.7875
 31
0.0
  0
LINE
  5
21F
330
1EC
100
AcDbEntity
  8
AM_9
100
AcDbLine
 10
-1.124999999999998
 20
-2.7875
 30
0.0
 11
-1.124999999999998
 21
-4.25
 31
0.0
  0
LINE
  5
220
330
1EC
100
AcDbEntity
  8
AM_9
100
AcDbLine
 10
-1.5625
 20
-4.25
 30
0.0
 11
-1.5625
 21
-1.8125
 31
0.0
  0
LINE
  5
221
330
1EC
100
AcDbEntity
  8
AM_9
100
AcDbLine
 10
-0.6874999999999996
 20
-1.8125
 30
0.0
 11
-0.6874999999999996
 21
-2.7875
 31
0.0
  0
LINE
  5
222
330
1EC
100
AcDbEntity
  8
AM_9
100
AcDbLine
 10
1.5625
 20
-4.25
 30
0.0
 11
1.5625
 21
-1.8125
 31
0.0
  0
LINE
  5
223
330
1EC
100
AcDbEntity
  8
AM_9
100
AcDbLine
 10
1.125
 20
-2.7875
 30
0.0
 11
1.125
 21
-4.25
 31
0.0
  0
LINE
  5
224
330
1EC
100
AcDbEntity
  8
AM_9
100
AcDbLine
 10
0.6875000000000003
 20
-1.8125
 30
0.0
 11
0.6875000000000003
 21
-2.7875
 31
0.0
  0
LINE
  5
225
330
1EC
100
AcDbEntity
  8
AM_7
100
AcDbLine
 10
2.475
 20
0.0
 30
0.0
 11
-2.98640625
 21
0.0
 31
0.0
  0
LINE
  5
226
330
1EC
100
AcDbEntity
  8
AM_4
100
AcDbLine
 10
-2.025
 20
4.1875
 30
0.0
 11
2.024999999999999
 21
4.1875
 31
0.0
  0
LINE
  5
227
330
1EC
100
AcDbEntity
  8
AM_4
100
AcDbLine
 10
-2.025
 20
4.065625000000001
 30
0.0
 11
2.024999999999999
 21
4.065625
 31
0.0
  0
LINE
  5
228
330
1EC
100
AcDbEntity
  8
AM_4
100
AcDbLine
 10
1.35
 20
0.6371064961998119
 30
0.0
 11
-1.35
 21
0.6371064961998119
 31
0.0
  0
LINE
  5
229
330
1EC
100
AcDbEntity
  8
AM_4
100
AcDbLine
 10
-2.025
 20
4.017481678863016
 30
0.0
 11
2.024999999999999
 21
4.017481678863016
 31
0.0
  0
LINE
  5
22A
330
1EC
100
AcDbEntity
  8
AM_4
100
AcDbLine
 10
-1.35
 20
-1.690625
 30
0.0
 11
1.35
 21
-1.690625
 31
0.0
  0
LINE
  5
22B
330
1EC
100
AcDbEntity
  8
AM_4
100
AcDbLine
 10
-2.024999999999999
 20
0.4921843881906892
 30
0.0
 11
-1.35
 21
0.4921843881906894
 31
0.0
  0
LINE
  5
22C
330
1EC
100
AcDbEntity
  8
AM_4
100
AcDbLine
 10
1.35
 20
0.4921843881906894
 30
0.0
 11
2.025
 21
0.4921843881906892
 31
0.0
  0
LWPOLYLINE
  5
22D
330
1EC
100
AcDbEntity
  8
AM_4
100
AcDbPolyline
 90
       14
 70
     0
 43
0.0
 10
-2.241601824652128
 20
-1.8125
 10
-2.220357612357386
 20
-1.811572457659863
 10
-2.199275081345814
 20
-1.808796889796726
 10
-2.178514682408388
 20
-1.80419442015796
 10
-2.158234414716496
 20
-1.797800076316565
 10
-2.138588623352832
 20
-1.789662523090183
 10
-2.119726824652127
 20
-1.779843692172457
 10
-2.10179256829156
 20
-1.768418310795442
 10
-2.084922344791033
 20
-1.755473333010251
 10
-2.069244546737906
 20
-1.741107277914221
 10
-2.054878491641876
 20
-1.725429479861094
 10
-2.041933513856685
 20
-1.708559256360567
 10
-2.03050813247967
 20
-1.690625
 10
-2.024999999999999
 20
-1.68054316641624
  0
LINE
  5
22E
330
1EC
100
AcDbEntity
  8
AM_4
100
AcDbLine
 10
-1.35
 20
0.6371064961998119
 30
0.0
 11
-1.35
 21
-1.8125
 31
0.0
  0
LINE
  5
22F
330
1EC
100
AcDbEntity
  8
AM_4
100
AcDbLine
 10
-2.024999999999999
 20
-1.597399539014085
 30
0.0
 11
-1.35
 21
-1.597399539014085
 31
0.0
  0
LINE
  5
230
330
1EC
100
AcDbEntity
  8
AM_4
100
AcDbLine
 10
-2.024999999999999
 20
-1.68054316641624
 30
0.0
 11
-2.025
 21
4.1875
 31
0.0
  0
LWPOLYLINE
  5
231
330
1EC
100
AcDbEntity
  8
AM_4
100
AcDbPolyline
 90
       14
 70
     0
 43
0.0
 10
2.025
 20
-1.68054316641624
 10
2.0355676517898
 20
-1.6989958525748
 10
2.047703348041918
 20
-1.716457289150671
 10
2.06131472878014
 20
-1.732794584068005
 10
2.076298203178273
 20
-1.747883400647753
 10
2.092539737948878
 20
-1.761608903884868
 10
2.109915725205443
 20
-1.773866634412029
 10
2.128293923193039
 20
-1.784563303498503
 10
2.147534462727919
 20
-1.793617503033719
 10
2.167490911686469
 20
-1.800960325092138
 10
2.188011389442081
 20
-1.806535886364178
 10
2.20893972276843
 20
-1.810301753461942
 10
2.23011663441203
 20
-1.812229265862925
 10
2.241601824652129
 20
-1.8125
  0
LINE
  5
232
330
1EC
100
AcDbEntity
  8
AM_4
100
AcDbLine
 10
1.35
 20
-1.597399539014085
 30
0.0
 11
2.025
 21
-1.597399539014085
 31
0.0
  0
LINE
  5
233
330
1EC
100
AcDbEntity
  8
AM_4
100
AcDbLine
 10
1.35
 20
0.6371064961998119
 30
0.0
 11
1.35
 21
-1.8125
 31
0.0
  0
LINE
  5
234
330
1EC
100
AcDbEntity
  8
AM_4
100
AcDbLine
 10
2.024999999999999
 20
4.1875
 30
0.0
 11
2.025
 21
-1.68054316641624
 31
0.0
  0
LINE
  5
235
330
1EC
100
AcDbEntity
  8
AM_4
100
AcDbLine
 10
2.25
 20
-1.8125
 30
0.0
 11
2.25
 21
-4.25
 31
0.0
  0
LINE
  5
236
330
1EC
100
AcDbEntity
  8
AM_4
100
AcDbLine
 10
1.8
 20
-2.056250000000002
 30
0.0
 11
1.8
 21
-4.25
 31
0.0
  0
LINE
  5
237
330
1EC
100
AcDbEntity
  8
AM_4
100
AcDbLine
 10
-1.799999999999999
 20
-2.056250000000003
 30
0.0
 11
1.8
 21
-2.056250000000002
 31
0.0
  0
LWPOLYLINE
  5
238
330
1EC
100
AcDbEntity
  8
AM_4
100
AcDbPolyline
 90
       19
 70
     0
 43
0.0
 10
1.8
 20
-2.056249989103528
 10
1.800927543289828
 20
-2.035005776850251
 10
1.803703112095427
 20
-2.013923245962756
 10
1.808305582662255
 20
-1.993162847231077
 10
1.814699927410249
 20
-1.972882579825034
 10
1.822837481514866
 20
-1.953236788825147
 10
1.83265631327578
 20
-1.934374990563378
 10
1.84408169545452
 20
-1.916440734713565
 10
1.857026673993868
 20
-1.899570511791724
 10
1.871392729790751
 20
-1.883892714380809
 10
1.88707052848609
 20
-1.869526659985631
 10
1.903940752565303
 20
-1.856581682954598
 10
1.921875009436625
 20
-1.845156302379307
 10
1.940736808576265
 20
-1.835337472304768
 10
1.960382600303706
 20
-1.827199919956622
 10
1.980662868281448
 20
-1.820805577021825
 10
2.00142326742462
 20
-1.816203108311122
 10
2.02250579856027
 20
-1.813427541390447
 10
2.043750000000003
 20
-1.8125
  0
LINE
  5
239
330
1EC
100
AcDbEntity
  8
AM_4
100
AcDbLine
 10
-1.799999999999999
 20
-2.056250000000003
 30
0.0
 11
-1.799999999999999
 21
-4.25
 31
0.0
  0
LWPOLYLINE
  5
23A
330
1EC
100
AcDbEntity
  8
AM_4
100
AcDbPolyline
 90
       19
 70
     0
 43
0.0
 10
-2.043750000000002
 20
-1.8125
 10
-2.02250578770526
 20
-1.813427542340137
 10
-2.001423256693687
 20
-1.816203110203274
 10
-1.980662857756262
 20
-1.82080557984204
 10
-1.960382590064369
 20
-1.827199923683435
 10
-1.940736798700705
 20
-1.835337476909817
 10
-1.921875000000001
 20
-1.845156307827543
 10
-1.903940743639433
 20
-1.856581689204559
 10
-1.887070520138906
 20
-1.869526666989749
 10
-1.871392722085779
 20
-1.88389272208578
 10
-1.857026666989749
 20
-1.899570520138907
 10
-1.844081689204558
 20
-1.916440743639433
 10
-1.832656307827543
 20
-1.934375000000001
 10
-1.822837476909816
 20
-1.953236798700706
 10
-1.814699923683434
 20
-1.97288259006437
 10
-1.808305579842039
 20
-1.993162857756262
 10
-1.803703110203273
 20
-2.013923256693688
 10
-1.800927542340136
 20
-2.035005787705261
 10
-1.799999999999999
 20
-2.056250000000002
  0
LINE
  5
23B
330
1EC
100
AcDbEntity
  8
AM_4
100
AcDbLine
 10
-2.25
 20
-1.8125
 30
0.0
 11
2.25
 21
-1.8125
 31
0.0
  0
LINE
  5
23C
330
1EC
100
AcDbEntity
  8
AM_4
100
AcDbLine
 10
-2.25
 20
-1.8125
 30
0.0
 11
-2.25
 21
-4.25
 31
0.0
  0
LINE
  5
23D
330
1EC
100
AcDbEntity
  8
AM_4
100
AcDbLine
 10
2.25
 20
-4.25
 30
0.0
 11
-2.25
 21
-4.25
 31
0.0
  0
ENDBLK
  5
1EF
330
1EC
100
AcDbEntity
  8
0
100
AcDbBlockEnd
  0
ENDSEC
  0
SECTION
  2
ENTITIES
  0
INSERT
  5
6F
330
1F
100
AcDbEntity
  8
0
100
AcDbBlockReference
  2
1_069549_2
 10
0.0
 20
0.0
 30
0.0
  0
POINT
  5
23F
330
1F
100
AcDbEntity
  8
ConnectionPoints
100
AcDbPoint
 10
-2.475666666666667
 20
-2.414930555555555
 30
0.0000000000000002
  0
POINT
  5
240
330
1F
100
AcDbEntity
  8
ConnectionPoints
100
AcDbPoint
 10
-2.475666666666667
 20
2.414930555555555
 30
0.0000000000000002
  0
POINT
  5
241
330
1F
100
AcDbEntity
  8
ConnectionPoints
100
AcDbPoint
 10
-2.405666666666667
 20
0.0
 30
0.0000000000000001
  0
POINT
  5
242
330
1F
100
AcDbEntity
  8
ConnectionPoints
100
AcDbPoint
 10
-2.75
 20
0.0
 30
0.0000000000000002
  0
POINT
  5
243
330
1F
100
AcDbEntity
  8
ConnectionPoints
100
AcDbPoint
 10
-2.604666666666667
 20
0.0
 30
0.0000000000000002
  0
POINT
  5
244
330
1F
100
AcDbEntity
  8
ConnectionPoints
100
AcDbPoint
 10
-2.405666666666667
 20
2.414930555555555
 30
0.0000000000000001
  0
POINT
  5
245
330
1F
100
AcDbEntity
  8
ConnectionPoints
100
AcDbPoint
 10
-2.618
 20
2.414930555555555
 30
0.0000000000000002
  0
POINT
  5
246
330
1F
100
AcDbEntity
  8
ConnectionPoints
100
AcDbPoint
 10
-2.405666666666667
 20
-2.414930555555555
 30
0.0000000000000001
  0
POINT
  5
247
330
1F
100
AcDbEntity
  8
ConnectionPoints
100
AcDbPoint
 10
-2.618
 20
-2.414930555555555
 30
0.0000000000000002
  0
POINT
  5
248
330
1F
100
AcDbEntity
  8
ConnectionPoints
100
AcDbPoint
 10
-2.405666666666667
 20
0.0
 30
0.0000000000000001
  0
POINT
  5
249
330
1F
100
AcDbEntity
  8
ConnectionPoints
100
AcDbPoint
 10
-0.0000000000000001
 20
3.71308391872578
 30
-2.143749999999999
  0
POINT
  5
24A
330
1F
100
AcDbEntity
  8
ConnectionPoints
100
AcDbPoint
 10
-2.75
 20
0.0
 30
0.0000000000000002
  0
POINT
  5
24B
330
1F
100
AcDbEntity
  8
ConnectionPoints
100
AcDbPoint
 10
-3.0625
 20
0.0
 30
0.0000000000000002
  0
ENDSEC
  0
SECTION
  2
OBJECTS
  0
DICTIONARY
  5
C
330
0
100
AcDbDictionary
281
     1
  3
ACAD_DETAILVIEWSTYLE
350
253
  3
ACAD_GROUP
350
D
  3
ACAD_LAYOUT
350
1A
  3
ACAD_MATERIAL
350
43
  3
ACAD_MLEADERSTYLE
350
6B
  3
ACAD_MLINESTYLE
350
17
  3
ACAD_PLOTSETTINGS
350
19
  3
ACAD_PLOTSTYLENAME
350
E
  3
ACAD_SCALELIST
350
47
  3
ACAD_SECTIONVIEWSTYLE
350
254
  3
ACAD_TABLESTYLE
350
69
  3
ACAD_VISUALSTYLE
350
2A
  3
ACDB_RECOMPOSE_DATA
350
250
  3
AcDbVariableDictionary
350
24C
  0
SUN
  5
6D
330
29
100
AcDbSun
 90
        1
290
     0
 63
     7
421
 16777215
 40
1.0
291
     1
 91
  2455826
 92
 54000000
292
     0
 70
     2
 71
   256
280
     1
  0
DICTIONARY
  5
253
102
{ACAD_REACTORS
330
C
102
}
330
C
100
AcDbDictionary
281
     1
  0
DICTIONARY
  5
D
102
{ACAD_REACTORS
330
C
102
}
330
C
100
AcDbDictionary
281
     1
  0
DICTIONARY
  5
1A
102
{ACAD_REACTORS
330
C
102
}
330
C
100
AcDbDictionary
281
     1
  3
Layout1
350
1E
  3
Layout2
350
26
  3
Model
350
22
  0
DICTIONARY
  5
43
102
{ACAD_REACTORS
330
C
102
}
330
C
100
AcDbDictionary
281
     1
  3
ByBlock
350
45
  3
ByLayer
350
44
  3
Global
350
46
  0
DICTIONARY
  5
6B
102
{ACAD_REACTORS
330
C
102
}
330
C
100
AcDbDictionary
281
     1
  3
Standard
350
6C
  0
DICTIONARY
  5
17
102
{ACAD_REACTORS
330
C
102
}
330
C
100
AcDbDictionary
281
     1
  3
Standard
350
18
  0
DICTIONARY
  5
19
102
{ACAD_REACTORS
330
C
102
}
330
C
100
AcDbDictionary
281
     1
  0
ACDBDICTIONARYWDFLT
  5
E
102
{ACAD_REACTORS
330
C
102
}
330
C
100
AcDbDictionary
281
     1
  3
Normal
350
F
100
AcDbDictionaryWithDefault
340
F
  0
DICTIONARY
  5
47
102
{ACAD_REACTORS
330
C
102
}
330
C
100
AcDbDictionary
281
     1
  3
A0
350
48
  3
A1
350
49
  3
A2
350
4A
  3
A3
350
4B
  3
A4
350
4C
  3
A5
350
4D
  3
A6
350
4E
  3
A7
350
4F
  3
A8
350
50
  3
A9
350
51
  3
B0
350
52
  3
B1
350
53
  3
B2
350
54
  3
B3
350
55
  3
B4
350
56
  3
B5
350
57
  3
B6
350
58
  3
B7
350
59
  3
B8
350
5A
  3
B9
350
5B
  3
C0
350
5C
  3
C1
350
5D
  3
C2
350
5E
  3
C3
350
5F
  3
C4
350
60
  3
C5
350
61
  3
C6
350
62
  3
C7
350
63
  3
C8
350
64
  3
C9
350
65
  3
D0
350
66
  3
D1
350
67
  3
D2
350
68
  0
DICTIONARY
  5
254
102
{ACAD_REACTORS
330
C
102
}
330
C
100
AcDbDictionary
281
     1
  0
DICTIONARY
  5
69
102
{ACAD_REACTORS
330
C
102
}
330
C
100
AcDbDictionary
281
     1
  3
Standard
350
6A
  0
DICTIONARY
  5
2A
102
{ACAD_REACTORS
330
C
102
}
330
C
100
AcDbDictionary
281
     1
  3
2dWireframe
350
2F
  3
Basic
350
32
  3
Brighten
350
36
  3
ColorChange
350
3A
  3
Conceptual
350
34
  3
Dim
350
35
  3
EdgeColorOff
350
3D
  3
Facepattern
350
39
  3
Flat
350
2B
  3
FlatWithEdges
350
2C
  3
Gouraud
350
2D
  3
GouraudWithEdges
350
2E
  3
Hidden
350
31
  3
JitterOff
350
3B
  3
Linepattern
350
38
  3
OverhangOff
350
3C
  3
Realistic
350
33
  3
Shaded
350
42
  3
Shaded with edges
350
41
  3
Shades of Gray
350
3E
  3
Sketchy
350
3F
  3
Thicken
350
37
  3
Wireframe
350
30
  3
X-Ray
350
40
  0
XRECORD
  5
250
102
{ACAD_REACTORS
330
C
102
}
330
C
100
AcDbXrecord
280
     1
 90
        1
330
6A
  0
DICTIONARY
  5
24C
102
{ACAD_REACTORS
330
C
102
}
330
C
100
AcDbDictionary
281
     1
  3
CANNOSCALE
350
24D
  3
CMLEADERSTYLE
350
252
  3
CTABLESTYLE
350
251
  0
LAYOUT
  5
1E
102
{ACAD_REACTORS
330
1A
102
}
330
1A
100
AcDbPlotSettings
  1

  2
none_device
  4

  6

 40
0.0
 41
0.0
 42
0.0
 43
0.0
 44
0.0
 45
0.0
 46
0.0
 47
0.0
 48
0.0
 49
0.0
140
0.0
141
0.0
142
1.0
143
1.0
 70
   688
 72
     0
 73
     0
 74
     5
  7

 75
    16
 76
     0
 77
     2
 78
   300
147
1.0
148
0.0
149
0.0
100
AcDbLayout
  1
Layout1
 70
     1
 71
     1
 10
0.0
 20
0.0
 11
12.0
 21
9.0
 12
0.0
 22
0.0
 32
0.0
 14
1.000000000000000E+20
 24
1.000000000000000E+20
 34
1.000000000000000E+20
 15
-1.000000000000000E+20
 25
-1.000000000000000E+20
 35
-1.000000000000000E+20
146
0.0
 13
0.0
 23
0.0
 33
0.0
 16
1.0
 26
0.0
 36
0.0
 17
0.0
 27
1.0
 37
0.0
 76
     0
330
1B
  0
LAYOUT
  5
26
102
{ACAD_REACTORS
330
1A
102
}
330
1A
100
AcDbPlotSettings
  1

  2
none_device
  4

  6

 40
0.0
 41
0.0
 42
0.0
 43
0.0
 44
0.0
 45
0.0
 46
0.0
 47
0.0
 48
0.0
 49
0.0
140
0.0
141
0.0
142
1.0
143
1.0
 70
   688
 72
     0
 73
     0
 74
     5
  7

 75
    16
 76
     0
 77
     2
 78
   300
147
1.0
148
0.0
149
0.0
100
AcDbLayout
  1
Layout2
 70
     1
 71
     2
 10
0.0
 20
0.0
 11
0.0
 21
0.0
 12
0.0
 22
0.0
 32
0.0
 14
0.0
 24
0.0
 34
0.0
 15
0.0
 25
0.0
 35
0.0
146
0.0
 13
0.0
 23
0.0
 33
0.0
 16
1.0
 26
0.0
 36
0.0
 17
0.0
 27
1.0
 37
0.0
 76
     0
330
23
  0
LAYOUT
  5
22
102
{ACAD_REACTORS
330
1A
102
}
330
1A
100
AcDbPlotSettings
  1

  2
none_device
  4
Letter_(8.50_x_11.00_Inches)
  6

 40
6.35
 41
6.35
 42
6.35000508
 43
6.35000508
 44
215.9
 45
279.4
 46
0.0
 47
0.0
 48
0.0
 49
0.0
140
0.0
141
0.0
142
1.0
143
1.0
 70
  1712
 72
     0
 73
     0
 74
     0
  7

 75
     0
 76
     0
 77
     2
 78
   300
147
1.0
148
0.0
149
0.0
100
AcDbLayout
  1
Model
 70
     1
 71
     0
 10
0.0
 20
0.0
 11
12.0
 21
9.0
 12
0.0
 22
0.0
 32
0.0
 14
1.000000000000000E+20
 24
1.000000000000000E+20
 34
1.000000000000000E+20
 15
-1.000000000000000E+20
 25
-1.000000000000000E+20
 35
-1.000000000000000E+20
146
0.0
 13
0.0
 23
0.0
 33
0.0
 16
1.0
 26
0.0
 36
0.0
 17
0.0
 27
1.0
 37
0.0
 76
     0
330
1F
331
29
  0
MATERIAL
  5
45
102
{ACAD_REACTORS
330
43
102
}
330
43
100
AcDbMaterial
  1
ByBlock
 72
     1
 94
      127
  0
MATERIAL
  5
44
102
{ACAD_REACTORS
330
43
102
}
330
43
100
AcDbMaterial
  1
ByLayer
 72
     1
 94
      127
  0
MATERIAL
  5
46
102
{ACAD_REACTORS
330
43
102
}
330
43
100
AcDbMaterial
  1
Global
 72
     1
 94
      127
  0
MLEADERSTYLE
  5
6C
102
{ACAD_REACTORS
330
6B
102
}
330
6B
100
AcDbMLeaderStyle
179
     2
170
     2
171
     1
172
     0
 90
        2
 40
0.0
 41
0.0
173
     1
 91
-1056964608
340
14
 92
       -2
290
     1
 42
0.09
291
     1
 43
0.36
  3
Standard
341
0
 44
0.18
300

342
11
174
     1
178
     6
175
     1
176
     0
 93
-1056964608
 45
0.18
292
     0
297
     0
 46
0.18
343
0
 94
-1056964608
 47
1.0
 49
1.0
140
1.0
293
     1
141
0.0
294
     1
177
     0
142
1.0
295
     0
296
     0
143
0.125
271
     0
272
     9
273
     9
298
     0
  0
MLINESTYLE
  5
18
102
{ACAD_REACTORS
330
17
102
}
330
17
100
AcDbMlineStyle
  2
Standard
 70
     0
  3

 62
   256
 51
90.0
 52
90.0
 71
     2
 49
0.5
 62
   256
  6
BYLAYER
 49
-0.5
 62
   256
  6
BYLAYER
  0
ACDBPLACEHOLDER
  5
F
102
{ACAD_REACTORS
330
E
102
}
330
E
  0
SCALE
  5
48
102
{ACAD_REACTORS
330
47
102
}
330
47
100
AcDbScale
 70
     0
300
1:1
140
1.0
141
1.0
290
     1
  0
SCALE
  5
49
102
{ACAD_REACTORS
330
47
102
}
330
47
100
AcDbScale
 70
     0
300
1:2
140
1.0
141
2.0
290
     0
  0
SCALE
  5
4A
102
{ACAD_REACTORS
330
47
102
}
330
47
100
AcDbScale
 70
     0
300
1:4
140
1.0
141
4.0
290
     0
  0
SCALE
  5
4B
102
{ACAD_REACTORS
330
47
102
}
330
47
100
AcDbScale
 70
     0
300
1:5
140
1.0
141
5.0
290
     0
  0
SCALE
  5
4C
102
{ACAD_REACTORS
330
47
102
}
330
47
100
AcDbScale
 70
     0
300
1:8
140
1.0
141
8.0
290
     0
  0
SCALE
  5
4D
102
{ACAD_REACTORS
330
47
102
}
330
47
100
AcDbScale
 70
     0
300
1:10
140
1.0
141
10.0
290
     0
  0
SCALE
  5
4E
102
{ACAD_REACTORS
330
47
102
}
330
47
100
AcDbScale
 70
     0
300
1:16
140
1.0
141
16.0
290
     0
  0
SCALE
  5
4F
102
{ACAD_REACTORS
330
47
102
}
330
47
100
AcDbScale
 70
     0
300
1:20
140
1.0
141
20.0
290
     0
  0
SCALE
  5
50
102
{ACAD_REACTORS
330
47
102
}
330
47
100
AcDbScale
 70
     0
300
1:30
140
1.0
141
30.0
290
     0
  0
SCALE
  5
51
102
{ACAD_REACTORS
330
47
102
}
330
47
100
AcDbScale
 70
     0
300
1:40
140
1.0
141
40.0
290
     0
  0
SCALE
  5
52
102
{ACAD_REACTORS
330
47
102
}
330
47
100
AcDbScale
 70
     0
300
1:50
140
1.0
141
50.0
290
     0
  0
SCALE
  5
53
102
{ACAD_REACTORS
330
47
102
}
330
47
100
AcDbScale
 70
     0
300
1:100
140
1.0
141
100.0
290
     0
  0
SCALE
  5
54
102
{ACAD_REACTORS
330
47
102
}
330
47
100
AcDbScale
 70
     0
300
2:1
140
2.0
141
1.0
290
     0
  0
SCALE
  5
55
102
{ACAD_REACTORS
330
47
102
}
330
47
100
AcDbScale
 70
     0
300
4:1
140
4.0
141
1.0
290
     0
  0
SCALE
  5
56
102
{ACAD_REACTORS
330
47
102
}
330
47
100
AcDbScale
 70
     0
300
8:1
140
8.0
141
1.0
290
     0
  0
SCALE
  5
57
102
{ACAD_REACTORS
330
47
102
}
330
47
100
AcDbScale
 70
     0
300
10:1
140
10.0
141
1.0
290
     0
  0
SCALE
  5
58
102
{ACAD_REACTORS
330
47
102
}
330
47
100
AcDbScale
 70
     0
300
100:1
140
100.0
141
1.0
290
     0
  0
SCALE
  5
59
102
{ACAD_REACTORS
330
47
102
}
330
47
100
AcDbScale
 70
     0
300
1/128" = 1'-0"
140
0.0078125
141
12.0
290
     0
  0
SCALE
  5
5A
102
{ACAD_REACTORS
330
47
102
}
330
47
100
AcDbScale
 70
     0
300
1/64" = 1'-0"
140
0.015625
141
12.0
290
     0
  0
SCALE
  5
5B
102
{ACAD_REACTORS
330
47
102
}
330
47
100
AcDbScale
 70
     0
300
1/32" = 1'-0"
140
0.03125
141
12.0
290
     0
  0
SCALE
  5
5C
102
{ACAD_REACTORS
330
47
102
}
330
47
100
AcDbScale
 70
     0
300
1/16" = 1'-0"
140
0.0625
141
12.0
290
     0
  0
SCALE
  5
5D
102
{ACAD_REACTORS
330
47
102
}
330
47
100
AcDbScale
 70
     0
300
3/32" = 1'-0"
140
0.09375
141
12.0
290
     0
  0
SCALE
  5
5E
102
{ACAD_REACTORS
330
47
102
}
330
47
100
AcDbScale
 70
     0
300
1/8" = 1'-0"
140
0.125
141
12.0
290
     0
  0
SCALE
  5
5F
102
{ACAD_REACTORS
330
47
102
}
330
47
100
AcDbScale
 70
     0
300
3/16" = 1'-0"
140
0.1875
141
12.0
290
     0
  0
SCALE
  5
60
102
{ACAD_REACTORS
330
47
102
}
330
47
100
AcDbScale
 70
     0
300
1/4" = 1'-0"
140
0.25
141
12.0
290
     0
  0
SCALE
  5
61
102
{ACAD_REACTORS
330
47
102
}
330
47
100
AcDbScale
 70
     0
300
3/8" = 1'-0"
140
0.375
141
12.0
290
     0
  0
SCALE
  5
62
102
{ACAD_REACTORS
330
47
102
}
330
47
100
AcDbScale
 70
     0
300
1/2" = 1'-0"
140
0.5
141
12.0
290
     0
  0
SCALE
  5
63
102
{ACAD_REACTORS
330
47
102
}
330
47
100
AcDbScale
 70
     0
300
3/4" = 1'-0"
140
0.75
141
12.0
290
     0
  0
SCALE
  5
64
102
{ACAD_REACTORS
330
47
102
}
330
47
100
AcDbScale
 70
     0
300
1" = 1'-0"
140
1.0
141
12.0
290
     0
  0
SCALE
  5
65
102
{ACAD_REACTORS
330
47
102
}
330
47
100
AcDbScale
 70
     0
300
1-1/2" = 1'-0"
140
1.5
141
12.0
290
     0
  0
SCALE
  5
66
102
{ACAD_REACTORS
330
47
102
}
330
47
100
AcDbScale
 70
     0
300
3" = 1'-0"
140
3.0
141
12.0
290
     0
  0
SCALE
  5
67
102
{ACAD_REACTORS
330
47
102
}
330
47
100
AcDbScale
 70
     0
300
6" = 1'-0"
140
6.0
141
12.0
290
     0
  0
SCALE
  5
68
102
{ACAD_REACTORS
330
47
102
}
330
47
100
AcDbScale
 70
     0
300
1'-0" = 1'-0"
140
12.0
141
12.0
290
     0
  0
TABLESTYLE
  5
6A
102
{ACAD_REACTORS
330
69
102
}
102
{ACAD_XDICTIONARY
360
24E
102
}
330
69
100
AcDbTableStyle
  3
Standard
 70
     0
 71
     0
 40
0.06
 41
0.06
280
     0
281
     0
  7
Standard
140
0.18
170
     2
 62
     0
 63
   257
283
     0
 90
        4
 91
        0
  1

274
    -2
284
     1
 64
     0
275
    -2
285
     1
 65
     0
276
    -2
286
     1
 66
     0
277
    -2
287
     1
 67
     0
278
    -2
288
     1
 68
     0
279
    -2
289
     1
 69
     0
  7
Standard
140
0.25
170
     5
 62
     0
 63
   257
283
     0
 90
        4
 91
        0
  1

274
    -2
284
     1
 64
     0
275
    -2
285
     1
 65
     0
276
    -2
286
     1
 66
     0
277
    -2
287
     1
 67
     0
278
    -2
288
     1
 68
     0
279
    -2
289
     1
 69
     0
  7
Standard
140
0.18
170
     5
 62
     0
 63
   257
283
     0
 90
        4
 91
        0
  1

274
    -2
284
     1
 64
     0
275
    -2
285
     1
 65
     0
276
    -2
286
     1
 66
     0
277
    -2
287
     1
 67
     0
278
    -2
288
     1
 68
     0
279
    -2
289
     1
 69
     0
  0
VISUALSTYLE
  5
2F
102
{ACAD_REACTORS
330
2A
102
}
330
2A
100
AcDbVisualStyle
  2
2dWireframe
 70
     4
177
     3
291
     0
 70
    58
 90
        0
176
     1
 90
        2
176
     1
 90
        0
176
     1
 90
        0
176
     1
 40
0.6
176
     1
 40
30.0
176
     1
 62
     7
420
 16777215
176
     1
 90
        1
176
     1
 90
        4
176
     1
 62
     7
176
     1
 62
   257
176
     1
 90
        1
176
     1
 90
        1
176
     1
 40
1.0
176
     1
 90
        0
176
     1
 62
   257
176
     1
 40
1.0
176
     1
 90
        1
176
     1
 90
        6
176
     1
 90
        2
176
     1
 62
     7
176
     1
 90
        5
176
     1
 90
        0
176
     1
 90
        0
176
     1
290
     0
176
     1
 90
        1
176
     1
 40
0.0
176
     1
 90
        0
176
     1
290
     1
176
     1
290
     1
176
     1
290
     0
176
     1
290
     0
176
     1
290
     0
176
     1
290
     0
176
     1
290
     0
176
     1
290
     0
176
     1
290
     0
176
     1
 90
       50
176
     1
 40
0.0
176
     1
 40
1.0
176
     1
 90
        0
176
     1
 62
    18
420
        0
176
     1
 90
       50
176
     1
 90
        3
176
     1
 62
     5
420
      255
176
     1
290
     0
176
     1
 90
       50
176
     1
 90
       50
176
     1
 90
       50
176
     1
290
     0
176
     1
 90
       50
176
     1
 62
   256
176
     0
 40
1.0
176
     0
 90
        2
176
     1
  1
strokes_ogs.tif
176
     1
290
     0
176
     1
 40
1.0
176
     1
 40
1.0
176
     1
  0
VISUALSTYLE
  5
32
102
{ACAD_REACTORS
330
2A
102
}
330
2A
100
AcDbVisualStyle
  2
Basic
 70
     7
177
     3
291
     1
 70
    58
 90
        1
176
     1
 90
        0
176
     1
 90
        1
176
     1
 90
        0
176
     1
 40
0.6
176
     1
 40
30.0
176
     1
 62
     7
420
 16777215
176
     1
 90
        0
176
     1
 90
        4
176
     1
 62
     7
176
     1
 62
   257
176
     1
 90
        1
176
     1
 90
        1
176
     1
 40
1.0
176
     1
 90
        8
176
     1
 62
     7
176
     1
 40
1.0
176
     1
 90
        1
176
     1
 90
        6
176
     1
 90
        2
176
     1
 62
     7
176
     1
 90
        5
176
     1
 90
        0
176
     1
 90
        0
176
     1
290
     0
176
     1
 90
        1
176
     1
 40
0.0
176
     1
 90
        0
176
     1
290
     0
176
     1
290
     1
176
     1
290
     1
176
     1
290
     0
176
     1
290
     0
176
     1
290
     0
176
     1
290
     0
176
     1
290
     0
176
     1
290
     0
176
     1
 90
       50
176
     1
 40
0.0
176
     1
 40
1.0
176
     1
 90
        0
176
     1
 62
    18
420
        0
176
     1
 90
       50
176
     1
 90
        3
176
     1
 62
     5
420
      255
176
     1
290
     0
176
     1
 90
       50
176
     1
 90
       50
176
     1
 90
       50
176
     1
290
     0
176
     1
 90
       50
176
     1
 62
   256
176
     0
 40
1.0
176
     0
 90
        2
176
     1
  1
strokes_ogs.tif
176
     1
290
     0
176
     1
 40
1.0
176
     1
 40
1.0
176
     1
  0
VISUALSTYLE
  5
36
102
{ACAD_REACTORS
330
2A
102
}
330
2A
100
AcDbVisualStyle
  2
Brighten
 70
    12
177
     3
291
     1
 70
    58
 90
        2
176
     1
 90
        2
176
     1
 90
        0
176
     1
 90
        0
176
     1
 40
0.6
176
     1
 40
30.0
176
     1
 62
     7
420
 16777215
176
     1
 90
        1
176
     1
 90
        4
176
     1
 62
     7
176
     1
 62
   257
176
     1
 90
        1
176
     1
 90
        1
176
     1
 40
1.0
176
     1
 90
        8
176
     1
 62
     7
176
     1
 40
1.0
176
     1
 90
        1
176
     1
 90
        6
176
     1
 90
        2
176
     1
 62
     7
176
     1
 90
        5
176
     1
 90
        0
176
     1
 90
        0
176
     1
290
     0
176
     1
 90
        1
176
     1
 40
50.0
176
     1
 90
        0
176
     1
290
     0
176
     1
290
     1
176
     1
290
     1
176
     1
290
     0
176
     1
290
     0
176
     1
290
     0
176
     1
290
     0
176
     1
290
     0
176
     1
290
     0
176
     1
 90
       50
176
     1
 40
0.0
176
     1
 40
1.0
176
     1
 90
        0
176
     1
 62
    18
420
        0
176
     1
 90
       50
176
     1
 90
        3
176
     1
 62
     5
420
      255
176
     1
290
     0
176
     1
 90
       50
176
     1
 90
       50
176
     1
 90
       50
176
     1
290
     0
176
     1
 90
       50
176
     1
 62
   256
176
     0
 40
1.0
176
     0
 90
        2
176
     1
  1
strokes_ogs.tif
176
     1
290
     0
176
     1
 40
1.0
176
     1
 40
1.0
176
     1
  0
VISUALSTYLE
  5
3A
102
{ACAD_REACTORS
330
2A
102
}
330
2A
100
AcDbVisualStyle
  2
ColorChange
 70
    16
177
     3
291
     1
 70
    58
 90
        2
176
     1
 90
        2
176
     1
 90
        3
176
     1
 90
        0
176
     1
 40
0.6
176
     1
 40
30.0
176
     1
 62
     8
420
  8421504
176
     1
 90
        1
176
     1
 90
        4
176
     1
 62
     7
176
     1
 62
   257
176
     1
 90
        1
176
     1
 90
        1
176
     1
 40
1.0
176
     1
 90
        8
176
     1
 62
     8
420
  8421504
176
     1
 40
1.0
176
     1
 90
        1
176
     1
 90
        6
176
     1
 90
        2
176
     1
 62
     7
176
     1
 90
        5
176
     1
 90
        0
176
     1
 90
        0
176
     1
290
     0
176
     1
 90
        1
176
     1
 40
0.0
176
     1
 90
        0
176
     1
290
     0
176
     1
290
     1
176
     1
290
     1
176
     1
290
     0
176
     1
290
     0
176
     1
290
     0
176
     1
290
     0
176
     1
290
     0
176
     1
290
     0
176
     1
 90
       50
176
     1
 40
0.0
176
     1
 40
1.0
176
     1
 90
        0
176
     1
 62
    18
420
        0
176
     1
 90
       50
176
     1
 90
        3
176
     1
 62
     5
420
      255
176
     1
290
     0
176
     1
 90
       50
176
     1
 90
       50
176
     1
 90
       50
176
     1
290
     0
176
     1
 90
       50
176
     1
 62
   256
176
     0
 40
1.0
176
     0
 90
        2
176
     1
  1
strokes_ogs.tif
176
     1
290
     0
176
     1
 40
1.0
176
     1
 40
1.0
176
     1
  0
VISUALSTYLE
  5
34
102
{ACAD_REACTORS
330
2A
102
}
330
2A
100
AcDbVisualStyle
  2
Conceptual
 70
     9
177
     3
291
     0
 70
    58
 90
        3
176
     1
 90
        2
176
     1
 90
        0
176
     1
 90
        0
176
     1
 40
0.6
176
     1
 40
30.0
176
     1
 62
     7
420
 16777215
176
     1
 90
        2
176
     1
 90
        2
176
     1
 62
     7
176
     1
 62
   257
176
     1
 90
        1
176
     1
 90
        1
176
     1
 40
179.0
176
     1
 90
        8
176
     1
 62
     7
176
     1
 40
1.0
176
     1
 90
        1
176
     1
 90
        6
176
     1
 90
        2
176
     1
 62
     7
176
     1
 90
        3
176
     1
 90
        0
176
     1
 90
        0
176
     1
290
     0
176
     1
 90
        1
176
     1
 40
0.0
176
     1
 90
        0
176
     1
290
     0
176
     1
290
     1
176
     1
290
     1
176
     1
290
     0
176
     1
290
     0
176
     1
290
     0
176
     1
290
     0
176
     1
290
     0
176
     1
290
     0
176
     1
 90
       50
176
     1
 40
0.0
176
     1
 40
1.0
176
     1
 90
        0
176
     1
 62
    18
420
        0
176
     1
 90
       50
176
     1
 90
        3
176
     1
 62
     5
420
      255
176
     1
290
     0
176
     1
 90
       50
176
     1
 90
       50
176
     1
 90
       50
176
     1
290
     0
176
     1
 90
       50
176
     1
 62
   256
176
     0
 40
1.0
176
     0
 90
        2
176
     1
  1
strokes_ogs.tif
176
     1
290
     0
176
     1
 40
1.0
176
     1
 40
1.0
176
     1
  0
VISUALSTYLE
  5
35
102
{ACAD_REACTORS
330
2A
102
}
330
2A
100
AcDbVisualStyle
  2
Dim
 70
    11
177
     3
291
     1
 70
    58
 90
        2
176
     1
 90
        2
176
     1
 90
        0
176
     1
 90
        0
176
     1
 40
0.6
176
     1
 40
30.0
176
     1
 62
     7
420
 16777215
176
     1
 90
        1
176
     1
 90
        4
176
     1
 62
     7
176
     1
 62
   257
176
     1
 90
        1
176
     1
 90
        1
176
     1
 40
1.0
176
     1
 90
        8
176
     1
 62
     7
176
     1
 40
1.0
176
     1
 90
        1
176
     1
 90
        6
176
     1
 90
        2
176
     1
 62
     7
176
     1
 90
        5
176
     1
 90
        0
176
     1
 90
        0
176
     1
290
     0
176
     1
 90
        1
176
     1
 40
-50.0
176
     1
 90
        0
176
     1
290
     0
176
     1
290
     1
176
     1
290
     1
176
     1
290
     0
176
     1
290
     0
176
     1
290
     0
176
     1
290
     0
176
     1
290
     0
176
     1
290
     0
176
     1
 90
       50
176
     1
 40
0.0
176
     1
 40
1.0
176
     1
 90
        0
176
     1
 62
    18
420
        0
176
     1
 90
       50
176
     1
 90
        3
176
     1
 62
     5
420
      255
176
     1
290
     0
176
     1
 90
       50
176
     1
 90
       50
176
     1
 90
       50
176
     1
290
     0
176
     1
 90
       50
176
     1
 62
   256
176
     0
 40
1.0
176
     0
 90
        2
176
     1
  1
strokes_ogs.tif
176
     1
290
     0
176
     1
 40
1.0
176
     1
 40
1.0
176
     1
  0
VISUALSTYLE
  5
3D
102
{ACAD_REACTORS
330
2A
102
}
330
2A
100
AcDbVisualStyle
  2
EdgeColorOff
 70
    22
177
     3
291
     1
 70
    58
 90
        2
176
     0
 90
        2
176
     0
 90
        0
176
     0
 90
        0
176
     0
 40
0.6
176
     0
 40
30.0
176
     0
 62
     7
420
 16777215
176
     0
 90
        1
176
     0
 90
        4
176
     0
 62
     7
176
     0
 62
   257
176
     0
 90
        1
176
     0
 90
        1
176
     0
 40
1.0
176
     0
 90
        8
176
     2
 62
     7
176
     0
 40
1.0
176
     0
 90
        1
176
     0
 90
        6
176
     0
 90
        2
176
     0
 62
     7
176
     0
 90
        5
176
     0
 90
        0
176
     0
 90
        0
176
     0
290
     0
176
     0
 90
        1
176
     0
 40
0.0
176
     0
 90
        0
176
     0
290
     0
176
     0
290
     1
176
     0
290
     1
176
     0
290
     0
176
     0
290
     0
176
     0
290
     0
176
     0
290
     0
176
     0
290
     0
176
     0
290
     0
176
     0
 90
       50
176
     0
 40
0.0
176
     0
 40
1.0
176
     0
 90
        0
176
     0
 62
    18
420
        0
176
     0
 90
       50
176
     0
 90
        3
176
     0
 62
     5
420
      255
176
     0
290
     0
176
     0
 90
       50
176
     0
 90
       50
176
     0
 90
       50
176
     0
290
     0
176
     0
 90
       50
176
     0
 62
   256
176
     0
 40
1.0
176
     0
 90
        2
176
     0
  1
strokes_ogs.tif
176
     0
290
     0
176
     0
 40
1.0
176
     0
 40
1.0
176
     0
  0
VISUALSTYLE
  5
39
102
{ACAD_REACTORS
330
2A
102
}
330
2A
100
AcDbVisualStyle
  2
Facepattern
 70
    15
177
     3
291
     1
 70
    58
 90
        2
176
     1
 90
        2
176
     1
 90
        0
176
     1
 90
        0
176
     1
 40
0.6
176
     1
 40
30.0
176
     1
 62
     7
420
 16777215
176
     1
 90
        1
176
     1
 90
        4
176
     1
 62
     7
176
     1
 62
   257
176
     1
 90
        1
176
     1
 90
        1
176
     1
 40
1.0
176
     1
 90
        8
176
     1
 62
     7
176
     1
 40
1.0
176
     1
 90
        1
176
     1
 90
        6
176
     1
 90
        2
176
     1
 62
     7
176
     1
 90
        5
176
     1
 90
        0
176
     1
 90
        0
176
     1
290
     0
176
     1
 90
        1
176
     1
 40
0.0
176
     1
 90
        0
176
     1
290
     0
176
     1
290
     1
176
     1
290
     1
176
     1
290
     0
176
     1
290
     0
176
     1
290
     0
176
     1
290
     0
176
     1
290
     0
176
     1
290
     0
176
     1
 90
       50
176
     1
 40
0.0
176
     1
 40
1.0
176
     1
 90
        0
176
     1
 62
    18
420
        0
176
     1
 90
       50
176
     1
 90
        3
176
     1
 62
     5
420
      255
176
     1
290
     0
176
     1
 90
       50
176
     1
 90
       50
176
     1
 90
       50
176
     1
290
     0
176
     1
 90
       50
176
     1
 62
   256
176
     0
 40
1.0
176
     0
 90
        2
176
     1
  1
strokes_ogs.tif
176
     1
290
     0
176
     1
 40
1.0
176
     1
 40
1.0
176
     1
  0
VISUALSTYLE
  5
2B
102
{ACAD_REACTORS
330
2A
102
}
330
2A
100
AcDbVisualStyle
  2
Flat
 70
     0
177
     3
291
     1
 70
    58
 90
        2
176
     1
 90
        1
176
     1
 90
        1
176
     1
 90
        2
176
     1
 40
0.6
176
     1
 40
30.0
176
     1
 62
     7
420
 16777215
176
     1
 90
        0
176
     1
 90
        0
176
     1
 62
     7
176
     1
 62
   257
176
     1
 90
        1
176
     1
 90
        1
176
     1
 40
1.0
176
     1
 90
        8
176
     1
 62
     7
176
     1
 40
1.0
176
     1
 90
        1
176
     1
 90
        6
176
     1
 90
        2
176
     1
 62
     7
176
     1
 90
        5
176
     1
 90
        0
176
     1
 90
        0
176
     1
290
     0
176
     1
 90
       13
176
     1
 40
0.0
176
     1
 90
        0
176
     1
290
     0
176
     1
290
     1
176
     1
290
     1
176
     1
290
     0
176
     1
290
     0
176
     1
290
     0
176
     1
290
     0
176
     1
290
     0
176
     1
290
     0
176
     1
 90
       50
176
     1
 40
0.0
176
     1
 40
1.0
176
     1
 90
        0
176
     1
 62
    18
420
        0
176
     1
 90
       50
176
     1
 90
        3
176
     1
 62
     5
420
      255
176
     1
290
     0
176
     1
 90
       50
176
     1
 90
       50
176
     1
 90
       50
176
     1
290
     0
176
     1
 90
       50
176
     1
 62
   256
176
     0
 40
1.0
176
     0
 90
        2
176
     1
  1
strokes_ogs.tif
176
     1
290
     0
176
     1
 40
1.0
176
     1
 40
1.0
176
     1
  0
VISUALSTYLE
  5
2C
102
{ACAD_REACTORS
330
2A
102
}
330
2A
100
AcDbVisualStyle
  2
FlatWithEdges
 70
     1
177
     3
291
     1
 70
    58
 90
        2
176
     1
 90
        1
176
     1
 90
        1
176
     1
 90
        2
176
     1
 40
0.6
176
     1
 40
30.0
176
     1
 62
     7
420
 16777215
176
     1
 90
        1
176
     1
 90
        0
176
     1
 62
     7
176
     1
 62
   257
176
     1
 90
        1
176
     1
 90
        1
176
     1
 40
1.0
176
     1
 90
        0
176
     1
 62
   257
176
     1
 40
1.0
176
     1
 90
        1
176
     1
 90
        6
176
     1
 90
        2
176
     1
 62
     7
176
     1
 90
        5
176
     1
 90
        0
176
     1
 90
        0
176
     1
290
     0
176
     1
 90
       13
176
     1
 40
0.0
176
     1
 90
        0
176
     1
290
     0
176
     1
290
     1
176
     1
290
     1
176
     1
290
     0
176
     1
290
     0
176
     1
290
     0
176
     1
290
     0
176
     1
290
     0
176
     1
290
     0
176
     1
 90
       50
176
     1
 40
0.0
176
     1
 40
1.0
176
     1
 90
        0
176
     1
 62
    18
420
        0
176
     1
 90
       50
176
     1
 90
        3
176
     1
 62
     5
420
      255
176
     1
290
     0
176
     1
 90
       50
176
     1
 90
       50
176
     1
 90
       50
176
     1
290
     0
176
     1
 90
       50
176
     1
 62
   256
176
     0
 40
1.0
176
     0
 90
        2
176
     1
  1
strokes_ogs.tif
176
     1
290
     0
176
     1
 40
1.0
176
     1
 40
1.0
176
     1
  0
VISUALSTYLE
  5
2D
102
{ACAD_REACTORS
330
2A
102
}
330
2A
100
AcDbVisualStyle
  2
Gouraud
 70
     2
177
     3
291
     1
 70
    58
 90
        2
176
     1
 90
        2
176
     1
 90
        1
176
     1
 90
        2
176
     1
 40
0.6
176
     1
 40
30.0
176
     1
 62
     7
420
 16777215
176
     1
 90
        0
176
     1
 90
        0
176
     1
 62
     7
176
     1
 62
   257
176
     1
 90
        1
176
     1
 90
        1
176
     1
 40
1.0
176
     1
 90
        0
176
     1
 62
     7
176
     1
 40
1.0
176
     1
 90
        1
176
     1
 90
        6
176
     1
 90
        2
176
     1
 62
     7
176
     1
 90
        5
176
     1
 90
        0
176
     1
 90
        0
176
     1
290
     0
176
     1
 90
       13
176
     1
 40
0.0
176
     1
 90
        0
176
     1
290
     0
176
     1
290
     1
176
     1
290
     1
176
     1
290
     0
176
     1
290
     0
176
     1
290
     0
176
     1
290
     0
176
     1
290
     0
176
     1
290
     0
176
     1
 90
       50
176
     1
 40
0.0
176
     1
 40
1.0
176
     1
 90
        0
176
     1
 62
    18
420
        0
176
     1
 90
       50
176
     1
 90
        3
176
     1
 62
     5
420
      255
176
     1
290
     0
176
     1
 90
       50
176
     1
 90
       50
176
     1
 90
       50
176
     1
290
     0
176
     1
 90
       50
176
     1
 62
   256
176
     0
 40
1.0
176
     0
 90
        2
176
     1
  1
strokes_ogs.tif
176
     1
290
     0
176
     1
 40
1.0
176
     1
 40
1.0
176
     1
  0
VISUALSTYLE
  5
2E
102
{ACAD_REACTORS
330
2A
102
}
330
2A
100
AcDbVisualStyle
  2
GouraudWithEdges
 70
     3
177
     3
291
     1
 70
    58
 90
        2
176
     1
 90
        2
176
     1
 90
        1
176
     1
 90
        2
176
     1
 40
0.6
176
     1
 40
30.0
176
     1
 62
     7
420
 16777215
176
     1
 90
        1
176
     1
 90
        0
176
     1
 62
     7
176
     1
 62
   257
176
     1
 90
        1
176
     1
 90
        1
176
     1
 40
1.0
176
     1
 90
        0
176
     1
 62
   257
176
     1
 40
1.0
176
     1
 90
        1
176
     1
 90
        6
176
     1
 90
        2
176
     1
 62
     7
176
     1
 90
        5
176
     1
 90
        0
176
     1
 90
        0
176
     1
290
     0
176
     1
 90
       13
176
     1
 40
0.0
176
     1
 90
        0
176
     1
290
     0
176
     1
290
     1
176
     1
290
     1
176
     1
290
     0
176
     1
290
     0
176
     1
290
     0
176
     1
290
     0
176
     1
290
     0
176
     1
290
     0
176
     1
 90
       50
176
     1
 40
0.0
176
     1
 40
1.0
176
     1
 90
        0
176
     1
 62
    18
420
        0
176
     1
 90
       50
176
     1
 90
        3
176
     1
 62
     5
420
      255
176
     1
290
     0
176
     1
 90
       50
176
     1
 90
       50
176
     1
 90
       50
176
     1
290
     0
176
     1
 90
       50
176
     1
 62
   256
176
     0
 40
1.0
176
     0
 90
        2
176
     1
  1
strokes_ogs.tif
176
     1
290
     0
176
     1
 40
1.0
176
     1
 40
1.0
176
     1
  0
VISUALSTYLE
  5
31
102
{ACAD_REACTORS
330
2A
102
}
330
2A
100
AcDbVisualStyle
  2
Hidden
 70
     6
177
     3
291
     0
 70
    58
 90
        1
176
     1
 90
        2
176
     1
 90
        2
176
     1
 90
        0
176
     1
 40
0.6
176
     1
 40
30.0
176
     1
 62
     7
420
 16777215
176
     1
 90
        2
176
     1
 90
        2
176
     1
 62
     7
176
     1
 62
   257
176
     1
 90
        2
176
     1
 90
        1
176
     1
 40
40.0
176
     1
 90
        0
176
     1
 62
   257
176
     1
 40
1.0
176
     1
 90
        1
176
     1
 90
        6
176
     1
 90
        2
176
     1
 62
     7
176
     1
 90
        3
176
     1
 90
        0
176
     1
 90
        0
176
     1
290
     0
176
     1
 90
        1
176
     1
 40
0.0
176
     1
 90
        0
176
     1
290
     0
176
     1
290
     1
176
     1
290
     1
176
     1
290
     0
176
     1
290
     0
176
     1
290
     0
176
     1
290
     0
176
     1
290
     0
176
     1
290
     0
176
     1
 90
       50
176
     1
 40
0.0
176
     1
 40
1.0
176
     1
 90
        0
176
     1
 62
    18
420
        0
176
     1
 90
       50
176
     1
 90
        3
176
     1
 62
     5
420
      255
176
     1
290
     0
176
     1
 90
       50
176
     1
 90
       50
176
     1
 90
       50
176
     1
290
     0
176
     1
 90
       50
176
     1
 62
   256
176
     0
 40
1.0
176
     0
 90
        2
176
     1
  1
strokes_ogs.tif
176
     1
290
     0
176
     1
 40
1.0
176
     1
 40
1.0
176
     1
  0
VISUALSTYLE
  5
3B
102
{ACAD_REACTORS
330
2A
102
}
330
2A
100
AcDbVisualStyle
  2
JitterOff
 70
    20
177
     3
291
     1
 70
    58
 90
        2
176
     0
 90
        2
176
     0
 90
        0
176
     0
 90
        0
176
     0
 40
0.6
176
     0
 40
30.0
176
     0
 62
     7
420
 16777215
176
     0
 90
        1
176
     0
 90
        4
176
     0
 62
     7
176
     0
 62
   257
176
     0
 90
        1
176
     0
 90
        1
176
     0
 40
1.0
176
     0
 90
       10
176
     2
 62
     7
176
     0
 40
1.0
176
     0
 90
        1
176
     0
 90
        6
176
     0
 90
        2
176
     0
 62
     7
176
     0
 90
        5
176
     0
 90
        0
176
     0
 90
        0
176
     0
290
     0
176
     0
 90
        1
176
     0
 40
0.0
176
     0
 90
        0
176
     0
290
     0
176
     0
290
     1
176
     0
290
     1
176
     0
290
     0
176
     0
290
     0
176
     0
290
     0
176
     0
290
     0
176
     0
290
     0
176
     0
290
     0
176
     0
 90
       50
176
     0
 40
0.0
176
     0
 40
1.0
176
     0
 90
        0
176
     0
 62
    18
420
        0
176
     0
 90
       50
176
     0
 90
        3
176
     0
 62
     5
420
      255
176
     0
290
     0
176
     0
 90
       50
176
     0
 90
       50
176
     0
 90
       50
176
     0
290
     0
176
     0
 90
       50
176
     0
 62
   256
176
     0
 40
1.0
176
     0
 90
        2
176
     0
  1
strokes_ogs.tif
176
     0
290
     0
176
     0
 40
1.0
176
     0
 40
1.0
176
     0
  0
VISUALSTYLE
  5
38
102
{ACAD_REACTORS
330
2A
102
}
330
2A
100
AcDbVisualStyle
  2
Linepattern
 70
    14
177
     3
291
     1
 70
    58
 90
        2
176
     1
 90
        2
176
     1
 90
        0
176
     1
 90
        0
176
     1
 40
0.6
176
     1
 40
30.0
176
     1
 62
     7
420
 16777215
176
     1
 90
        1
176
     1
 90
        4
176
     1
 62
     7
176
     1
 62
   257
176
     1
 90
        7
176
     1
 90
        7
176
     1
 40
1.0
176
     1
 90
        8
176
     1
 62
     7
176
     1
 40
1.0
176
     1
 90
        1
176
     1
 90
        6
176
     1
 90
        2
176
     1
 62
     7
176
     1
 90
        5
176
     1
 90
        0
176
     1
 90
        0
176
     1
290
     0
176
     1
 90
        1
176
     1
 40
0.0
176
     1
 90
        0
176
     1
290
     0
176
     1
290
     1
176
     1
290
     1
176
     1
290
     0
176
     1
290
     0
176
     1
290
     0
176
     1
290
     0
176
     1
290
     0
176
     1
290
     0
176
     1
 90
       50
176
     1
 40
0.0
176
     1
 40
1.0
176
     1
 90
        0
176
     1
 62
    18
420
        0
176
     1
 90
       50
176
     1
 90
        3
176
     1
 62
     5
420
      255
176
     1
290
     0
176
     1
 90
       50
176
     1
 90
       50
176
     1
 90
       50
176
     1
290
     0
176
     1
 90
       50
176
     1
 62
   256
176
     0
 40
1.0
176
     0
 90
        2
176
     1
  1
strokes_ogs.tif
176
     1
290
     0
176
     1
 40
1.0
176
     1
 40
1.0
176
     1
  0
VISUALSTYLE
  5
3C
102
{ACAD_REACTORS
330
2A
102
}
330
2A
100
AcDbVisualStyle
  2
OverhangOff
 70
    21
177
     3
291
     1
 70
    58
 90
        2
176
     0
 90
        2
176
     0
 90
        0
176
     0
 90
        0
176
     0
 40
0.6
176
     0
 40
30.0
176
     0
 62
     7
420
 16777215
176
     0
 90
        1
176
     0
 90
        4
176
     0
 62
     7
176
     0
 62
   257
176
     0
 90
        1
176
     0
 90
        1
176
     0
 40
1.0
176
     0
 90
        9
176
     2
 62
     7
176
     0
 40
1.0
176
     0
 90
        1
176
     0
 90
        6
176
     0
 90
        2
176
     0
 62
     7
176
     0
 90
        5
176
     0
 90
        0
176
     0
 90
        0
176
     0
290
     0
176
     0
 90
        1
176
     0
 40
0.0
176
     0
 90
        0
176
     0
290
     0
176
     0
290
     1
176
     0
290
     1
176
     0
290
     0
176
     0
290
     0
176
     0
290
     0
176
     0
290
     0
176
     0
290
     0
176
     0
290
     0
176
     0
 90
       50
176
     0
 40
0.0
176
     0
 40
1.0
176
     0
 90
        0
176
     0
 62
    18
420
        0
176
     0
 90
       50
176
     0
 90
        3
176
     0
 62
     5
420
      255
176
     0
290
     0
176
     0
 90
       50
176
     0
 90
       50
176
     0
 90
       50
176
     0
290
     0
176
     0
 90
       50
176
     0
 62
   256
176
     0
 40
1.0
176
     0
 90
        2
176
     0
  1
strokes_ogs.tif
176
     0
290
     0
176
     0
 40
1.0
176
     0
 40
1.0
176
     0
  0
VISUALSTYLE
  5
33
102
{ACAD_REACTORS
330
2A
102
}
330
2A
100
AcDbVisualStyle
  2
Realistic
 70
     8
177
     3
291
     0
 70
    58
 90
        2
176
     1
 90
        3
176
     1
 90
        0
176
     1
 90
        2
176
     1
 40
0.6
176
     1
 40
30.0
176
     1
 62
     7
420
 16777215
176
     1
 90
        0
176
     1
 90
        0
176
     1
 62
     7
176
     1
 62
   257
176
     1
 90
        1
176
     1
 90
        1
176
     1
 40
1.0
176
     1
 90
        8
176
     1
 62
   257
176
     1
 40
1.0
176
     1
 90
        1
176
     1
 90
        6
176
     1
 90
        2
176
     1
 62
     7
176
     1
 90
        3
176
     1
 90
        0
176
     1
 90
        0
176
     1
290
     0
176
     1
 90
       13
176
     1
 40
0.0
176
     1
 90
        0
176
     1
290
     0
176
     1
290
     1
176
     1
290
     1
176
     1
290
     0
176
     1
290
     0
176
     1
290
     0
176
     1
290
     0
176
     1
290
     0
176
     1
290
     0
176
     1
 90
       50
176
     1
 40
0.0
176
     1
 40
1.0
176
     1
 90
        0
176
     1
 62
    18
420
        0
176
     1
 90
       50
176
     1
 90
        3
176
     1
 62
     5
420
      255
176
     1
290
     0
176
     1
 90
       50
176
     1
 90
       50
176
     1
 90
       50
176
     1
290
     0
176
     1
 90
       50
176
     1
 62
   256
176
     0
 40
1.0
176
     0
 90
        2
176
     1
  1
strokes_ogs.tif
176
     1
290
     0
176
     1
 40
1.0
176
     1
 40
1.0
176
     1
  0
VISUALSTYLE
  5
42
102
{ACAD_REACTORS
330
2A
102
}
330
2A
100
AcDbVisualStyle
  2
Shaded
 70
    27
177
     3
291
     0
 70
    58
 90
        2
176
     1
 90
        2
176
     1
 90
        1
176
     1
 90
        2
176
     1
 40
0.6
176
     1
 40
30.0
176
     1
 62
     7
420
 16777215
176
     1
 90
        0
176
     1
 90
        4
176
     1
 62
     7
176
     1
 62
   257
176
     1
 90
        1
176
     1
 90
        1
176
     1
 40
1.0
176
     1
 90
        8
176
     1
 62
   257
176
     1
 40
1.0
176
     1
 90
        1
176
     1
 90
        6
176
     1
 90
        2
176
     1
 62
     8
420
  7895160
176
     1
 90
        3
176
     1
 90
        0
176
     1
 90
        0
176
     1
290
     0
176
     1
 90
        5
176
     1
 40
0.0
176
     1
 90
        0
176
     1
290
     0
176
     1
290
     1
176
     1
290
     1
176
     1
290
     0
176
     1
290
     0
176
     1
290
     0
176
     1
290
     0
176
     1
290
     0
176
     1
290
     0
176
     1
 90
       50
176
     1
 40
0.0
176
     1
 40
1.0
176
     1
 90
        0
176
     1
 62
    18
420
        0
176
     1
 90
       50
176
     1
 90
        3
176
     1
 62
     5
420
      255
176
     1
290
     0
176
     1
 90
       50
176
     1
 90
       50
176
     1
 90
       50
176
     1
290
     0
176
     1
 90
       50
176
     1
 62
   256
176
     0
 40
1.0
176
     0
 90
        2
176
     1
  1
strokes_ogs.tif
176
     1
290
     0
176
     1
 40
1.0
176
     1
 40
1.0
176
     1
  0
VISUALSTYLE
  5
41
102
{ACAD_REACTORS
330
2A
102
}
330
2A
100
AcDbVisualStyle
  2
Shaded with edges
 70
    26
177
     3
291
     0
 70
    58
 90
        2
176
     1
 90
        2
176
     1
 90
        1
176
     1
 90
        2
176
     1
 40
0.6
176
     1
 40
30.0
176
     1
 62
     7
420
 16777215
176
     1
 90
        1
176
     1
 90
       10
176
     1
 62
     7
176
     1
 62
   257
176
     1
 90
        2
176
     1
 90
        1
176
     1
 40
1.0
176
     1
 90
        8
176
     1
 62
   257
176
     1
 40
1.0
176
     1
 90
        1
176
     1
 90
        6
176
     1
 90
        2
176
     1
 62
     7
176
     1
 90
        3
176
     1
 90
        0
176
     1
 90
        0
176
     1
290
     0
176
     1
 90
        5
176
     1
 40
0.0
176
     1
 90
        0
176
     1
290
     0
176
     1
290
     1
176
     1
290
     1
176
     1
290
     0
176
     1
290
     0
176
     1
290
     0
176
     1
290
     0
176
     1
290
     0
176
     1
290
     0
176
     1
 90
       50
176
     1
 40
0.0
176
     1
 40
1.0
176
     1
 90
        0
176
     1
 62
    18
420
        0
176
     1
 90
       50
176
     1
 90
        3
176
     1
 62
     5
420
      255
176
     1
290
     0
176
     1
 90
       50
176
     1
 90
       50
176
     1
 90
       50
176
     1
290
     0
176
     1
 90
       50
176
     1
 62
   256
176
     0
 40
1.0
176
     0
 90
        2
176
     1
  1
strokes_ogs.tif
176
     1
290
     0
176
     1
 40
1.0
176
     1
 40
1.0
176
     1
  0
VISUALSTYLE
  5
3E
102
{ACAD_REACTORS
330
2A
102
}
330
2A
100
AcDbVisualStyle
  2
Shades of Gray
 70
    23
177
     3
291
     0
 70
    58
 90
        2
176
     1
 90
        2
176
     1
 90
        3
176
     1
 90
        0
176
     1
 40
0.6
176
     1
 40
30.0
176
     1
 62
     7
420
 16777215
176
     1
 90
        2
176
     1
 90
        2
176
     1
 62
     7
176
     1
 62
     7
176
     1
 90
        1
176
     1
 90
        1
176
     1
 40
40.0
176
     1
 90
        8
176
     1
 62
     7
176
     1
 40
1.0
176
     1
 90
        1
176
     1
 90
        6
176
     1
 90
        2
176
     1
 62
     7
176
     1
 90
        3
176
     1
 90
        0
176
     1
 90
        0
176
     1
290
     0
176
     1
 90
        1
176
     1
 40
0.0
176
     1
 90
        0
176
     1
290
     0
176
     1
290
     1
176
     1
290
     1
176
     1
290
     0
176
     1
290
     0
176
     1
290
     0
176
     1
290
     0
176
     1
290
     0
176
     1
290
     0
176
     1
 90
       50
176
     1
 40
0.0
176
     1
 40
1.0
176
     1
 90
        0
176
     1
 62
    18
420
        0
176
     1
 90
       50
176
     1
 90
        3
176
     1
 62
     5
420
      255
176
     1
290
     0
176
     1
 90
       50
176
     1
 90
       50
176
     1
 90
       50
176
     1
290
     0
176
     1
 90
       50
176
     1
 62
   256
176
     0
 40
1.0
176
     0
 90
        2
176
     1
  1
strokes_ogs.tif
176
     1
290
     0
176
     1
 40
1.0
176
     1
 40
1.0
176
     1
  0
VISUALSTYLE
  5
3F
102
{ACAD_REACTORS
330
2A
102
}
330
2A
100
AcDbVisualStyle
  2
Sketchy
 70
    24
177
     3
291
     0
 70
    58
 90
        1
176
     1
 90
        2
176
     1
 90
        2
176
     1
 90
        0
176
     1
 40
0.6
176
     1
 40
30.0
176
     1
 62
     7
420
 16777215
176
     1
 90
        2
176
     1
 90
        2
176
     1
 62
     7
176
     1
 62
     7
176
     1
 90
        1
176
     1
 90
        1
176
     1
 40
40.0
176
     1
 90
       11
176
     1
 62
     7
176
     1
 40
1.0
176
     1
 90
        1
176
     1
 90
        6
176
     1
 90
        2
176
     1
 62
     7
176
     1
 90
        6
176
     1
 90
        0
176
     1
 90
        0
176
     1
290
     0
176
     1
 90
        1
176
     1
 40
0.0
176
     1
 90
        0
176
     1
290
     0
176
     1
290
     1
176
     1
290
     1
176
     1
290
     0
176
     1
290
     0
176
     1
290
     0
176
     1
290
     0
176
     1
290
     0
176
     1
290
     0
176
     1
 90
       50
176
     1
 40
0.0
176
     1
 40
1.0
176
     1
 90
        0
176
     1
 62
    18
420
        0
176
     1
 90
       50
176
     1
 90
        3
176
     1
 62
     5
420
      255
176
     1
290
     0
176
     1
 90
       50
176
     1
 90
       50
176
     1
 90
       50
176
     1
290
     0
176
     1
 90
       50
176
     1
 62
   256
176
     0
 40
1.0
176
     0
 90
        2
176
     1
  1
strokes_ogs.tif
176
     1
290
     0
176
     1
 40
1.0
176
     1
 40
1.0
176
     1
  0
VISUALSTYLE
  5
37
102
{ACAD_REACTORS
330
2A
102
}
330
2A
100
AcDbVisualStyle
  2
Thicken
 70
    13
177
     3
291
     1
 70
    58
 90
        2
176
     1
 90
        2
176
     1
 90
        0
176
     1
 90
        0
176
     1
 40
0.6
176
     1
 40
30.0
176
     1
 62
     7
420
 16777215
176
     1
 90
        1
176
     1
 90
        4
176
     1
 62
     7
176
     1
 62
   257
176
     1
 90
        1
176
     1
 90
        1
176
     1
 40
1.0
176
     1
 90
       12
176
     1
 62
     7
176
     1
 40
1.0
176
     1
 90
        1
176
     1
 90
        6
176
     1
 90
        2
176
     1
 62
     7
176
     1
 90
        5
176
     1
 90
        0
176
     1
 90
        0
176
     1
290
     0
176
     1
 90
        1
176
     1
 40
0.0
176
     1
 90
        0
176
     1
290
     0
176
     1
290
     1
176
     1
290
     1
176
     1
290
     0
176
     1
290
     0
176
     1
290
     0
176
     1
290
     0
176
     1
290
     0
176
     1
290
     0
176
     1
 90
       50
176
     1
 40
0.0
176
     1
 40
1.0
176
     1
 90
        0
176
     1
 62
    18
420
        0
176
     1
 90
       50
176
     1
 90
        3
176
     1
 62
     5
420
      255
176
     1
290
     0
176
     1
 90
       50
176
     1
 90
       50
176
     1
 90
       50
176
     1
290
     0
176
     1
 90
       50
176
     1
 62
   256
176
     0
 40
1.0
176
     0
 90
        2
176
     1
  1
strokes_ogs.tif
176
     1
290
     0
176
     1
 40
1.0
176
     1
 40
1.0
176
     1
  0
VISUALSTYLE
  5
30
102
{ACAD_REACTORS
330
2A
102
}
330
2A
100
AcDbVisualStyle
  2
Wireframe
 70
     5
177
     3
291
     0
 70
    58
 90
        0
176
     1
 90
        2
176
     1
 90
        0
176
     1
 90
        0
176
     1
 40
0.6
176
     1
 40
30.0
176
     1
 62
     7
420
 16777215
176
     1
 90
        1
176
     1
 90
        4
176
     1
 62
     7
176
     1
 62
   257
176
     1
 90
        1
176
     1
 90
        1
176
     1
 40
1.0
176
     1
 90
        0
176
     1
 62
   257
176
     1
 40
1.0
176
     1
 90
        1
176
     1
 90
        6
176
     1
 90
        2
176
     1
 62
     7
176
     1
 90
        3
176
     1
 90
        0
176
     1
 90
        0
176
     1
290
     0
176
     1
 90
        1
176
     1
 40
0.0
176
     1
 90
        0
176
     1
290
     0
176
     1
290
     1
176
     1
290
     1
176
     1
290
     0
176
     1
290
     0
176
     1
290
     0
176
     1
290
     0
176
     1
290
     0
176
     1
290
     0
176
     1
 90
       50
176
     1
 40
0.0
176
     1
 40
1.0
176
     1
 90
        0
176
     1
 62
    18
420
        0
176
     1
 90
       50
176
     1
 90
        3
176
     1
 62
     5
420
      255
176
     1
290
     0
176
     1
 90
       50
176
     1
 90
       50
176
     1
 90
       50
176
     1
290
     0
176
     1
 90
       50
176
     1
 62
   256
176
     0
 40
1.0
176
     0
 90
        2
176
     1
  1
strokes_ogs.tif
176
     1
290
     0
176
     1
 40
1.0
176
     1
 40
1.0
176
     1
  0
VISUALSTYLE
  5
40
102
{ACAD_REACTORS
330
2A
102
}
330
2A
100
AcDbVisualStyle
  2
X-Ray
 70
    25
177
     3
291
     0
 70
    58
 90
        2
176
     1
 90
        2
176
     1
 90
        1
176
     1
 90
        1
176
     1
 40
0.5
176
     1
 40
30.0
176
     1
 62
     7
420
 16777215
176
     1
 90
        1
176
     1
 90
        0
176
     1
 62
     7
176
     1
 62
   257
176
     1
 90
        1
176
     1
 90
        1
176
     1
 40
1.0
176
     1
 90
        8
176
     1
 62
     7
176
     1
 40
1.0
176
     1
 90
        1
176
     1
 90
        6
176
     1
 90
        2
176
     1
 62
     7
176
     1
 90
        3
176
     1
 90
        0
176
     1
 90
        0
176
     1
290
     0
176
     1
 90
       13
176
     1
 40
0.0
176
     1
 90
        0
176
     1
290
     0
176
     1
290
     1
176
     1
290
     1
176
     1
290
     0
176
     1
290
     0
176
     1
290
     0
176
     1
290
     0
176
     1
290
     0
176
     1
290
     0
176
     1
 90
       50
176
     1
 40
0.0
176
     1
 40
1.0
176
     1
 90
        0
176
     1
 62
    18
420
        0
176
     1
 90
       50
176
     1
 90
        3
176
     1
 62
     5
420
      255
176
     1
290
     0
176
     1
 90
       50
176
     1
 90
       50
176
     1
 90
       50
176
     1
290
     0
176
     1
 90
       50
176
     1
 62
   256
176
     0
 40
1.0
176
     0
 90
        2
176
     1
  1
strokes_ogs.tif
176
     1
290
     0
176
     1
 40
1.0
176
     1
 40
1.0
176
     1
  0
DICTIONARYVAR
  5
24D
102
{ACAD_REACTORS
330
24C
102
}
330
24C
100
DictionaryVariables
280
     0
  1
1:1
  0
DICTIONARYVAR
  5
252
102
{ACAD_REACTORS
330
24C
102
}
330
24C
100
DictionaryVariables
280
     0
  1
Standard
  0
DICTIONARYVAR
  5
251
102
{ACAD_REACTORS
330
24C
102
}
330
24C
100
DictionaryVariables
280
     0
  1
Standard
  0
DICTIONARY
  5
24E
330
6A
100
AcDbDictionary
280
     1
281
     1
  3
ACAD_ROUNDTRIP_2008_TABLESTYLE_CELLSTYLEMAP
360
24F
  0
CELLSTYLEMAP
  5
24F
102
{ACAD_REACTORS
330
24E
102
}
330
24E
100
AcDbCellStyleMap
 90
        3
300
CELLSTYLE
  1
TABLEFORMAT_BEGIN
 90
        5
170
     1
 91
        0
 92
    32768
 62
   257
 93
        1
300
CONTENTFORMAT
  1
CONTENTFORMAT_BEGIN
 90
        0
 91
        0
 92
        4
 93
        0
300

 40
0.0
140
1.0
 94
        5
 62
     0
340
11
144
0.25
309
CONTENTFORMAT_END
171
     1
301
MARGIN
  1
CELLMARGIN_BEGIN
 40
0.06
 40
0.06
 40
0.06
 40
0.06
 40
0.06
 40
0.06
309
CELLMARGIN_END
 94
        6
 95
        1
302
GRIDFORMAT
  1
GRIDFORMAT_BEGIN
 90
        0
 91
        1
 62
     0
 92
       -2
340
14
 93
        0
 40
0.045
309
GRIDFORMAT_END
 95
        2
302
GRIDFORMAT
  1
GRIDFORMAT_BEGIN
 90
        0
 91
        1
 62
     0
 92
       -2
340
14
 93
        0
 40
0.045
309
GRIDFORMAT_END
 95
        4
302
GRIDFORMAT
  1
GRIDFORMAT_BEGIN
 90
        0
 91
        1
 62
     0
 92
       -2
340
14
 93
        0
 40
0.045
309
GRIDFORMAT_END
 95
        8
302
GRIDFORMAT
  1
GRIDFORMAT_BEGIN
 90
        0
 91
        1
 62
     0
 92
       -2
340
14
 93
        0
 40
0.045
309
GRIDFORMAT_END
 95
       16
302
GRIDFORMAT
  1
GRIDFORMAT_BEGIN
 90
        0
 91
        1
 62
     0
 92
       -2
340
14
 93
        0
 40
0.045
309
GRIDFORMAT_END
 95
       32
302
GRIDFORMAT
  1
GRIDFORMAT_BEGIN
 90
        0
 91
        1
 62
     0
 92
       -2
340
14
 93
        0
 40
0.045
309
GRIDFORMAT_END
309
TABLEFORMAT_END
  1
CELLSTYLE_BEGIN
 90
        1
 91
        1
300
_TITLE
309
CELLSTYLE_END
300
CELLSTYLE
  1
TABLEFORMAT_BEGIN
 90
        5
170
     1
 91
        0
 92
        0
 62
   257
 93
        1
300
CONTENTFORMAT
  1
CONTENTFORMAT_BEGIN
 90
        0
 91
        0
 92
        4
 93
        0
300

 40
0.0
140
1.0
 94
        5
 62
     0
340
11
144
0.18
309
CONTENTFORMAT_END
171
     1
301
MARGIN
  1
CELLMARGIN_BEGIN
 40
0.06
 40
0.06
 40
0.06
 40
0.06
 40
0.06
 40
0.06
309
CELLMARGIN_END
 94
        6
 95
        1
302
GRIDFORMAT
  1
GRIDFORMAT_BEGIN
 90
        0
 91
        1
 62
     0
 92
       -2
340
14
 93
        0
 40
0.045
309
GRIDFORMAT_END
 95
        2
302
GRIDFORMAT
  1
GRIDFORMAT_BEGIN
 90
        0
 91
        1
 62
     0
 92
       -2
340
14
 93
        0
 40
0.045
309
GRIDFORMAT_END
 95
        4
302
GRIDFORMAT
  1
GRIDFORMAT_BEGIN
 90
        0
 91
        1
 62
     0
 92
       -2
340
14
 93
        0
 40
0.045
309
GRIDFORMAT_END
 95
        8
302
GRIDFORMAT
  1
GRIDFORMAT_BEGIN
 90
        0
 91
        1
 62
     0
 92
       -2
340
14
 93
        0
 40
0.045
309
GRIDFORMAT_END
 95
       16
302
GRIDFORMAT
  1
GRIDFORMAT_BEGIN
 90
        0
 91
        1
 62
     0
 92
       -2
340
14
 93
        0
 40
0.045
309
GRIDFORMAT_END
 95
       32
302
GRIDFORMAT
  1
GRIDFORMAT_BEGIN
 90
        0
 91
        1
 62
     0
 92
       -2
340
14
 93
        0
 40
0.045
309
GRIDFORMAT_END
309
TABLEFORMAT_END
  1
CELLSTYLE_BEGIN
 90
        2
 91
        1
300
_HEADER
309
CELLSTYLE_END
300
CELLSTYLE
  1
TABLEFORMAT_BEGIN
 90
        5
170
     1
 91
        0
 92
        0
 62
   257
 93
        1
300
CONTENTFORMAT
  1
CONTENTFORMAT_BEGIN
 90
        0
 91
        0
 92
        4
 93
        0
300

 40
0.0
140
1.0
 94
        2
 62
     0
340
11
144
0.18
309
CONTENTFORMAT_END
171
     1
301
MARGIN
  1
CELLMARGIN_BEGIN
 40
0.06
 40
0.06
 40
0.06
 40
0.06
 40
0.06
 40
0.06
309
CELLMARGIN_END
 94
        6
 95
        1
302
GRIDFORMAT
  1
GRIDFORMAT_BEGIN
 90
        0
 91
        1
 62
     0
 92
       -2
340
14
 93
        0
 40
0.045
309
GRIDFORMAT_END
 95
        2
302
GRIDFORMAT
  1
GRIDFORMAT_BEGIN
 90
        0
 91
        1
 62
     0
 92
       -2
340
14
 93
        0
 40
0.045
309
GRIDFORMAT_END
 95
        4
302
GRIDFORMAT
  1
GRIDFORMAT_BEGIN
 90
        0
 91
        1
 62
     0
 92
       -2
340
14
 93
        0
 40
0.045
309
GRIDFORMAT_END
 95
        8
302
GRIDFORMAT
  1
GRIDFORMAT_BEGIN
 90
        0
 91
        1
 62
     0
 92
       -2
340
14
 93
        0
 40
0.045
309
GRIDFORMAT_END
 95
       16
302
GRIDFORMAT
  1
GRIDFORMAT_BEGIN
 90
        0
 91
        1
 62
     0
 92
       -2
340
14
 93
        0
 40
0.045
309
GRIDFORMAT_END
 95
       32
302
GRIDFORMAT
  1
GRIDFORMAT_BEGIN
 90
        0
 91
        1
 62
     0
 92
       -2
340
14
 93
        0
 40
0.045
309
GRIDFORMAT_END
309
TABLEFORMAT_END
  1
CELLSTYLE_BEGIN
 90
        3
 91
        2
300
_DATA
309
CELLSTYLE_END
  0
ENDSEC
  0
EOF