0
SECTION
  2
HEADER
  9
$ACADVER
  1
AC1027
  9
$ACADMAINTVER
 70
     8
  9
$DWGCODEPAGE
  3
ANSI_1252
  9
$REQUIREDVERSIONS
160
                 0
  9
$COMMENTS
  1
File was created by Cadenas
  9
$CUSTOMPROPERTYTAG
  1
NN
  9
$CUSTOMPROPERTY
  1
Imperial -IP Pillow Block 2-1/8 thru 3-1/2  4-Bolt Inch Bore (Contact Seal)
  9
$CUSTOMPROPERTYTAG
  1
NT
  9
$CUSTOMPROPERTY
  1
Imperial 4 Bolt Piliow Block Bearings
  9
$CUSTOMPROPERTYTAG
  1
NB
  9
$CUSTOMPROPERTY
  1
069542
  9
$CUSTOMPROPERTYTAG
  1
NBSYN
  9
$CUSTOMPROPERTY
  1
$PN.
  9
$CUSTOMPROPERTYTAG
  1
LINA
  9
$CUSTOMPROPERTY
  1
069542
  9
$CUSTOMPROPERTYTAG
  1
SS
  9
$CUSTOMPROPERTY
  1
2-3/4
  9
$CUSTOMPROPERTYTAG
  1
PN
  9
$CUSTOMPROPERTY
  1
069542
  9
$CUSTOMPROPERTYTAG
  1
DESCRIPTION
  9
$CUSTOMPROPERTY
  1
P4B-IP-212RE
  9
$CUSTOMPROPERTYTAG
  1
EF
  9
$CUSTOMPROPERTY
  1
Expansion Type
  9
$CUSTOMPROPERTYTAG
  1
ST
  9
$CUSTOMPROPERTY
  1
Contact  Seal
  9
$CUSTOMPROPERTYTAG
  1
A
  9
$CUSTOMPROPERTY
  1
3-1/2
  9
$CUSTOMPROPERTYTAG
  1
B
  9
$CUSTOMPROPERTY
  1
10-7/16
  9
$CUSTOMPROPERTYTAG
  1
C
  9
$CUSTOMPROPERTY
  1
3-3/4
  9
$CUSTOMPROPERTYTAG
  1
DMIN
  9
$CUSTOMPROPERTY
  1
7-15/16
  9
$CUSTOMPROPERTYTAG
  1
DMAX
  9
$CUSTOMPROPERTY
  1
8-5/16
  9
$CUSTOMPROPERTYTAG
  1
E
  9
$CUSTOMPROPERTY
  1
1-7/8
  9
$CUSTOMPROPERTYTAG
  1
F
  9
$CUSTOMPROPERTY
  1
5/8
  9
$CUSTOMPROPERTYTAG
  1
G
  9
$CUSTOMPROPERTY
  1
15/16
  9
$CUSTOMPROPERTYTAG
  1
H
  9
$CUSTOMPROPERTY
  1
1-7/8
  9
$CUSTOMPROPERTYTAG
  1
J
  9
$CUSTOMPROPERTY
  1
6-7/16
  9
$CUSTOMPROPERTYTAG
  1
L
  9
$CUSTOMPROPERTY
  1
4-9/32
  9
$CUSTOMPROPERTYTAG
  1
M
  9
$CUSTOMPROPERTY
  1
3-1/4
  9
$CUSTOMPROPERTYTAG
  1
R
  9
$CUSTOMPROPERTY
  1
1-3/32
  9
$CUSTOMPROPERTYTAG
  1
S
  9
$CUSTOMPROPERTY
  1
2-13/32
  9
$CUSTOMPROPERTYTAG
  1
X
  9
$CUSTOMPROPERTY
  1
1/4
  9
$CUSTOMPROPERTYTAG
  1
Y
  9
$CUSTOMPROPERTY
  1
0.025
  9
$CUSTOMPROPERTYTAG
  1
Z
  9
$CUSTOMPROPERTY
  1
3-15/32
  9
$CUSTOMPROPERTYTAG
  1
COMPANY
  9
$CUSTOMPROPERTY
  1
baldor
  9
$INSBASE
 10
0.0
 20
0.0
 30
0.0
  9
$EXTMIN
 10
1.000000000000000E+20
 20
1.000000000000000E+20
 30
1.000000000000000E+20
  9
$EXTMAX
 10
-1.000000000000000E+20
 20
-1.000000000000000E+20
 30
-1.000000000000000E+20
  9
$LIMMIN
 10
0.0
 20
0.0
  9
$LIMMAX
 10
12.0
 20
9.0
  9
$ORTHOMODE
 70
     0
  9
$REGENMODE
 70
     1
  9
$FILLMODE
 70
     1
  9
$QTEXTMODE
 70
     0
  9
$MIRRTEXT
 70
     1
  9
$LTSCALE
 40
1.0
  9
$ATTMODE
 70
     1
  9
$TEXTSIZE
 40
0.2
  9
$TRACEWID
 40
0.05
  9
$TEXTSTYLE
  7
Standard
  9
$CLAYER
  8
0
  9
$CELTYPE
  6
ByLayer
  9
$CECOLOR
 62
   256
  9
$CELTSCALE
 40
1.0
  9
$DISPSILH
 70
     0
  9
$DIMSCALE
 40
1.0
  9
$DIMASZ
 40
0.18
  9
$DIMEXO
 40
0.0625
  9
$DIMDLI
 40
0.38
  9
$DIMRND
 40
0.0
  9
$DIMDLE
 40
0.0
  9
$DIMEXE
 40
0.18
  9
$DIMTP
 40
0.0
  9
$DIMTM
 40
0.0
  9
$DIMTXT
 40
0.18
  9
$DIMCEN
 40
0.09
  9
$DIMTSZ
 40
0.0
  9
$DIMTOL
 70
     0
  9
$DIMLIM
 70
     0
  9
$DIMTIH
 70
     1
  9
$DIMTOH
 70
     1
  9
$DIMSE1
 70
     0
  9
$DIMSE2
 70
     0
  9
$DIMTAD
 70
     0
  9
$DIMZIN
 70
     0
  9
$DIMBLK
  1

  9
$DIMASO
 70
     1
  9
$DIMSHO
 70
     1
  9
$DIMPOST
  1

  9
$DIMAPOST
  1

  9
$DIMALT
 70
     0
  9
$DIMALTD
 70
     2
  9
$DIMALTF
 40
25.4
  9
$DIMLFAC
 40
1.0
  9
$DIMTOFL
 70
     0
  9
$DIMTVP
 40
0.0
  9
$DIMTIX
 70
     0
  9
$DIMSOXD
 70
     0
  9
$DIMSAH
 70
     0
  9
$DIMBLK1
  1

  9
$DIMBLK2
  1

  9
$DIMSTYLE
  2
Standard
  9
$DIMCLRD
 70
     0
  9
$DIMCLRE
 70
     0
  9
$DIMCLRT
 70
     0
  9
$DIMTFAC
 40
1.0
  9
$DIMGAP
 40
0.09
  9
$DIMJUST
 70
     0
  9
$DIMSD1
 70
     0
  9
$DIMSD2
 70
     0
  9
$DIMTOLJ
 70
     1
  9
$DIMTZIN
 70
     0
  9
$DIMALTZ
 70
     0
  9
$DIMALTTZ
 70
     0
  9
$DIMUPT
 70
     0
  9
$DIMDEC
 70
     4
  9
$DIMTDEC
 70
     4
  9
$DIMALTU
 70
     2
  9
$DIMALTTD
 70
     2
  9
$DIMTXSTY
  7
Standard
  9
$DIMAUNIT
 70
     0
  9
$DIMADEC
 70
     0
  9
$DIMALTRND
 40
0.0
  9
$DIMAZIN
 70
     0
  9
$DIMDSEP
 70
    46
  9
$DIMATFIT
 70
     3
  9
$DIMFRAC
 70
     0
  9
$DIMLDRBLK
  1

  9
$DIMLUNIT
 70
     2
  9
$DIMLWD
 70
    -2
  9
$DIMLWE
 70
    -2
  9
$DIMTMOVE
 70
     0
  9
$DIMFXL
 40
1.0
  9
$DIMFXLON
 70
     0
  9
$DIMJOGANG
 40
0.7853981633974483
  9
$DIMTFILL
 70
     0
  9
$DIMTFILLCLR
 70
     0
  9
$DIMARCSYM
 70
     0
  9
$DIMLTYPE
  6

  9
$DIMLTEX1
  6

  9
$DIMLTEX2
  6

  9
$DIMTXTDIRECTION
 70
     0
  9
$LUNITS
 70
     2
  9
$LUPREC
 70
     4
  9
$SKETCHINC
 40
0.1
  9
$FILLETRAD
 40
0.5
  9
$AUNITS
 70
     0
  9
$AUPREC
 70
     0
  9
$MENU
  1
.
  9
$ELEVATION
 40
0.0
  9
$PELEVATION
 40
0.0
  9
$THICKNESS
 40
0.0
  9
$LIMCHECK
 70
     0
  9
$CHAMFERA
 40
0.0
  9
$CHAMFERB
 40
0.0
  9
$CHAMFERC
 40
0.0
  9
$CHAMFERD
 40
0.0
  9
$SKPOLY
 70
     0
  9
$TDCREATE
 40
2458168.987822037
  9
$TDUCREATE
 40
2458168.94615537
  9
$TDUPDATE
 40
2458168.987822222
  9
$TDUUPDATE
 40
2458168.946155556
  9
$TDINDWG
 40
0.0000000116
  9
$TDUSRTIMER
 40
0.0000000116
  9
$USRTIMER
 70
     1
  9
$ANGBASE
 50
0.0
  9
$ANGDIR
 70
     0
  9
$PDMODE
 70
     0
  9
$PDSIZE
 40
0.0
  9
$PLINEWID
 40
0.0
  9
$SPLFRAME
 70
     0
  9
$SPLINETYPE
 70
     6
  9
$SPLINESEGS
 70
     8
  9
$HANDSEED
  5
260
  9
$SURFTAB1
 70
     6
  9
$SURFTAB2
 70
     6
  9
$SURFTYPE
 70
     6
  9
$SURFU
 70
     6
  9
$SURFV
 70
     6
  9
$UCSBASE
  2

  9
$UCSNAME
  2

  9
$UCSORG
 10
0.0
 20
0.0
 30
0.0
  9
$UCSXDIR
 10
1.0
 20
0.0
 30
0.0
  9
$UCSYDIR
 10
0.0
 20
1.0
 30
0.0
  9
$UCSORTHOREF
  2

  9
$UCSORTHOVIEW
 70
     0
  9
$UCSORGTOP
 10
0.0
 20
0.0
 30
0.0
  9
$UCSORGBOTTOM
 10
0.0
 20
0.0
 30
0.0
  9
$UCSORGLEFT
 10
0.0
 20
0.0
 30
0.0
  9
$UCSORGRIGHT
 10
0.0
 20
0.0
 30
0.0
  9
$UCSORGFRONT
 10
0.0
 20
0.0
 30
0.0
  9
$UCSORGBACK
 10
0.0
 20
0.0
 30
0.0
  9
$PUCSBASE
  2

  9
$PUCSNAME
  2

  9
$PUCSORG
 10
0.0
 20
0.0
 30
0.0
  9
$PUCSXDIR
 10
1.0
 20
0.0
 30
0.0
  9
$PUCSYDIR
 10
0.0
 20
1.0
 30
0.0
  9
$PUCSORTHOREF
  2

  9
$PUCSORTHOVIEW
 70
     0
  9
$PUCSORGTOP
 10
0.0
 20
0.0
 30
0.0
  9
$PUCSORGBOTTOM
 10
0.0
 20
0.0
 30
0.0
  9
$PUCSORGLEFT
 10
0.0
 20
0.0
 30
0.0
  9
$PUCSORGRIGHT
 10
0.0
 20
0.0
 30
0.0
  9
$PUCSORGFRONT
 10
0.0
 20
0.0
 30
0.0
  9
$PUCSORGBACK
 10
0.0
 20
0.0
 30
0.0
  9
$USERI1
 70
     0
  9
$USERI2
 70
     0
  9
$USERI3
 70
     0
  9
$USERI4
 70
     0
  9
$USERI5
 70
     0
  9
$USERR1
 40
0.0
  9
$USERR2
 40
0.0
  9
$USERR3
 40
0.0
  9
$USERR4
 40
0.0
  9
$USERR5
 40
0.0
  9
$WORLDVIEW
 70
     1
  9
$SHADEDGE
 70
     3
  9
$SHADEDIF
 70
    70
  9
$TILEMODE
 70
     1
  9
$MAXACTVP
 70
    64
  9
$PINSBASE
 10
0.0
 20
0.0
 30
0.0
  9
$PLIMCHECK
 70
     0
  9
$PEXTMIN
 10
1.000000000000000E+20
 20
1.000000000000000E+20
 30
1.000000000000000E+20
  9
$PEXTMAX
 10
-1.000000000000000E+20
 20
-1.000000000000000E+20
 30
-1.000000000000000E+20
  9
$PLIMMIN
 10
0.0
 20
0.0
  9
$PLIMMAX
 10
12.0
 20
9.0
  9
$UNITMODE
 70
     0
  9
$VISRETAIN
 70
     1
  9
$PLINEGEN
 70
     0
  9
$PSLTSCALE
 70
     1
  9
$TREEDEPTH
 70
  3020
  9
$CMLSTYLE
  2
Standard
  9
$CMLJUST
 70
     0
  9
$CMLSCALE
 40
1.0
  9
$PROXYGRAPHICS
 70
     1
  9
$MEASUREMENT
 70
     0
  9
$CELWEIGHT
370
    -1
  9
$ENDCAPS
280
     0
  9
$JOINSTYLE
280
     0
  9
$LWDISPLAY
290
     0
  9
$INSUNITS
 70
     1
  9
$HYPERLINKBASE
  1

  9
$STYLESHEET
  1

  9
$XEDIT
290
     1
  9
$CEPSNTYPE
380
     0
  9
$PSTYLEMODE
290
     1
  9
$FINGERPRINTGUID
  2
{C79E3587-E496-462D-AE47-53C223E4C42E}
  9
$VERSIONGUID
  2
{FAEB1C32-E019-11D5-929B-00C0DF256EC4}
  9
$EXTNAMES
290
     1
  9
$PSVPSCALE
 40
0.0
  9
$OLESTARTUP
290
     0
  9
$SORTENTS
280
   127
  9
$INDEXCTL
280
     0
  9
$HIDETEXT
280
     1
  9
$XCLIPFRAME
280
     2
  9
$HALOGAP
280
     0
  9
$OBSCOLOR
 70
   257
  9
$OBSLTYPE
280
     0
  9
$INTERSECTIONDISPLAY
280
     0
  9
$INTERSECTIONCOLOR
 70
   257
  9
$DIMASSOC
280
     2
  9
$PROJECTNAME
  1

  9
$CAMERADISPLAY
290
     0
  9
$LENSLENGTH
 40
50.0
  9
$CAMERAHEIGHT
 40
0.0
  9
$STEPSPERSEC
 40
2.0
  9
$STEPSIZE
 40
6.0
  9
$3DDWFPREC
 40
2.0
  9
$PSOLWIDTH
 40
0.25
  9
$PSOLHEIGHT
 40
4.0
  9
$LOFTANG1
 40
1.570796326794897
  9
$LOFTANG2
 40
1.570796326794897
  9
$LOFTMAG1
 40
0.0
  9
$LOFTMAG2
 40
0.0
  9
$LOFTPARAM
 70
     7
  9
$LOFTNORMALS
280
     1
  9
$LATITUDE
 40
37.795
  9
$LONGITUDE
 40
-122.394
  9
$NORTHDIRECTION
 40
0.0
  9
$TIMEZONE
 70
 -8000
  9
$LIGHTGLYPHDISPLAY
280
     1
  9
$TILEMODELIGHTSYNCH
280
     1
  9
$CMATERIAL
347
44
  9
$SOLIDHIST
280
     0
  9
$SHOWHIST
280
     1
  9
$DWFFRAME
280
     2
  9
$DGNFRAME
280
     2
  9
$REALWORLDSCALE
290
     1
  9
$INTERFERECOLOR
 62
   256
  9
$CSHADOW
280
     0
  9
$SHADOWPLANELOCATION
 40
0.0
  0
ENDSEC
  0
SECTION
  2
CLASSES
  0
CLASS
  1
ACDBDICTIONARYWDFLT
  2
AcDbDictionaryWithDefault
  3
ObjectDBX Classes
 90
        0
 91
        4
280
     0
281
     0
  0
CLASS
  1
VISUALSTYLE
  2
AcDbVisualStyle
  3
ObjectDBX Classes
 90
     4095
 91
        4
280
     0
281
     0
  0
CLASS
  1
MATERIAL
  2
AcDbMaterial
  3
ObjectDBX Classes
 90
     1153
 91
        4
280
     0
281
     0
  0
CLASS
  1
SCALE
  2
AcDbScale
  3
ObjectDBX Classes
 90
     1153
 91
        4
280
     0
281
     0
  0
CLASS
  1
TABLESTYLE
  2
AcDbTableStyle
  3
ObjectDBX Classes
 90
     4095
 91
        4
280
     0
281
     0
  0
CLASS
  1
MLEADERSTYLE
  2
AcDbMLeaderStyle
  3
ACDB_MLEADERSTYLE_CLASS
 90
     4095
 91
        4
280
     0
281
     0
  0
CLASS
  1
SUN
  2
AcDbSun
  3
SCENEOE
 90
     1153
 91
        4
280
     0
281
     0
  0
CLASS
  1
DICTIONARYVAR
  2
AcDbDictionaryVar
  3
ObjectDBX Classes
 90
        0
 91
        4
280
     0
281
     0
  0
CLASS
  1
CELLSTYLEMAP
  2
AcDbCellStyleMap
  3
ObjectDBX Classes
 90
     1152
 91
        4
280
     0
281
     0
  0
ENDSEC
  0
SECTION
  2
TABLES
  0
TABLE
  2
VPORT
  5
8
330
0
100
AcDbSymbolTable
 70
     1
  0
VPORT
  5
29
330
8
100
AcDbSymbolTableRecord
100
AcDbViewportTableRecord
  2
*Active
 70
     0
 10
0.0
 20
0.0
 11
1.0
 21
1.0
 12
0.0
 22
-0.171875
 13
0.0
 23
0.0
 14
0.5
 24
0.5
 15
0.5
 25
0.5
 16
0.0
 26
0.0
 36
1.0
 17
0.0
 27
0.0
 37
0.0
 40
4.558125
 41
2.335664335664335
 42
50.0
 43
0.0
 44
0.0
 50
0.0
 51
0.0
 71
     0
 72
   100
 73
     1
 74
     3
 75
     0
 76
     0
 77
     0
 78
     0
281
     0
 65
     1
110
0.0
120
0.0
130
0.0
111
1.0
121
0.0
131
0.0
112
0.0
122
1.0
132
0.0
 79
     0
146
0.0
348
2F
 60
     3
 61
     5
292
     1
282
     1
141
0.0
142
0.0
 63
   250
361
6D
  0
ENDTAB
  0
TABLE
  2
LTYPE
  5
5
330
0
100
AcDbSymbolTable
 70
     3
  0
LTYPE
  5
14
330
5
100
AcDbSymbolTableRecord
100
AcDbLinetypeTableRecord
  2
ByBlock
 70
     0
  3

 72
    65
 73
     0
 40
0.0
  0
LTYPE
  5
15
330
5
100
AcDbSymbolTableRecord
100
AcDbLinetypeTableRecord
  2
ByLayer
 70
     0
  3

 72
    65
 73
     0
 40
0.0
  0
LTYPE
  5
16
330
5
100
AcDbSymbolTableRecord
100
AcDbLinetypeTableRecord
  2
Continuous
 70
     0
  3
Solid line
 72
    65
 73
     0
 40
0.0
  0
LTYPE
  5
9B
330
5
100
AcDbSymbolTableRecord
100
AcDbLinetypeTableRecord
  2
Dashed
 70
     0
  3

 72
    65
 73
     2
 40
2.0
 49
1.0
 74
     0
 49
-1.0
 74
     0
  0
LTYPE
  5
1FB
330
5
100
AcDbSymbolTableRecord
100
AcDbLinetypeTableRecord
  2
Center
 70
     0
  3

 72
    65
 73
     4
 40
1.5
 49
0.45
 74
     0
 49
-0.5
 74
     0
 49
0.05
 74
     0
 49
-0.5
 74
     0
  0
ENDTAB
  0
TABLE
  2
LAYER
  5
2
330
0
100
AcDbSymbolTable
 70
     7
  0
LAYER
  5
10
330
2
100
AcDbSymbolTableRecord
100
AcDbLayerTableRecord
  2
0
 70
     0
 62
     7
  6
Continuous
370
    -3
390
F
347
46
348
0
  0
LAYER
  5
72
330
2
100
AcDbSymbolTableRecord
100
AcDbLayerTableRecord
  2
AM_6
 70
     0
 62
    -2
  6
Continuous
370
    35
390
F
347
46
348
0
  0
LAYER
  5
9C
330
2
100
AcDbSymbolTableRecord
100
AcDbLayerTableRecord
  2
AM_9
 70
     0
 62
     6
  6
Dashed
370
    25
390
F
347
46
348
0
  0
LAYER
  5
BA
330
2
100
AcDbSymbolTableRecord
100
AcDbLayerTableRecord
  2
AM_4
 70
     0
 62
     7
  6
Continuous
370
    50
390
F
347
46
348
0
  0
LAYER
  5
ED
330
2
100
AcDbSymbolTableRecord
100
AcDbLayerTableRecord
  2
AM_5
 70
     0
 62
     3
  6
Continuous
370
    25
390
F
347
46
348
0
  0
LAYER
  5
1FC
330
2
100
AcDbSymbolTableRecord
100
AcDbLayerTableRecord
  2
AM_7
 70
     0
 62
     7
  6
Center
370
    25
390
F
347
46
348
0
  0
LAYER
  5
249
330
2
100
AcDbSymbolTableRecord
100
AcDbLayerTableRecord
  2
ConnectionPoints
 70
     0
 62
     7
  6
Continuous
370
    50
390
F
347
46
348
0
  0
ENDTAB
  0
TABLE
  2
STYLE
  5
3
330
0
100
AcDbSymbolTable
 70
     1
  0
STYLE
  5
11
330
3
100
AcDbSymbolTableRecord
100
AcDbTextStyleTableRecord
  2
Standard
 70
     0
 40
0.0
 41
1.0
 50
0.0
 71
     0
 42
0.2
  3
txt
  4

  0
ENDTAB
  0
TABLE
  2
VIEW
  5
6
330
0
100
AcDbSymbolTable
 70
     0
  0
ENDTAB
  0
TABLE
  2
UCS
  5
7
330
0
100
AcDbSymbolTable
 70
     0
  0
ENDTAB
  0
TABLE
  2
APPID
  5
9
330
0
100
AcDbSymbolTable
 70
     1
  0
APPID
  5
12
330
9
100
AcDbSymbolTableRecord
100
AcDbRegAppTableRecord
  2
ACAD
 70
     0
  0
ENDTAB
  0
TABLE
  2
DIMSTYLE
  5
A
330
0
100
AcDbSymbolTable
 70
     1
100
AcDbDimStyleTable
  0
DIMSTYLE
105
27
330
A
100
AcDbSymbolTableRecord
100
AcDbDimStyleTableRecord
  2
Standard
 70
     0
178
     0
340
11
  0
ENDTAB
  0
TABLE
  2
BLOCK_RECORD
  5
1
330
0
100
AcDbSymbolTable
 70
     8
  0
BLOCK_RECORD
  5
1F
330
1
100
AcDbSymbolTableRecord
100
AcDbBlockTableRecord
  2
*Model_Space
340
22
 70
     0
280
     1
281
     0
  0
BLOCK_RECORD
  5
1B
330
1
100
AcDbSymbolTableRecord
100
AcDbBlockTableRecord
  2
*Paper_Space
340
1E
 70
     0
280
     1
281
     0
  0
BLOCK_RECORD
  5
23
330
1
100
AcDbSymbolTableRecord
100
AcDbBlockTableRecord
  2
*Paper_Space0
340
26
 70
     0
280
     1
281
     0
  0
BLOCK_RECORD
  5
6E
330
1
100
AcDbSymbolTableRecord
100
AcDbBlockTableRecord
  2
1_069542_4
340
0
102
{BLKREFS
331
6F
102
}
 70
     0
280
     1
281
     0
  0
BLOCK_RECORD
  5
8F
330
1
100
AcDbSymbolTableRecord
100
AcDbBlockTableRecord
  2
2_405015E_Inch_0_in_069542_4
340
0
102
{BLKREFS
331
90
102
}
 70
     0
280
     1
281
     0
  0
BLOCK_RECORD
  5
DD
330
1
100
AcDbSymbolTableRecord
100
AcDbBlockTableRecord
  2
3_ASME_B18_3_10_1_0_in_069542_4
340
0
102
{BLKREFS
331
DE
102
}
 70
     0
280
     1
281
     0
  0
BLOCK_RECORD
  5
F0
330
1
100
AcDbSymbolTableRecord
100
AcDbBlockTableRecord
  2
4_ASME_B18_3_10_2_0_in_069542_4
340
0
102
{BLKREFS
331
F1
102
}
 70
     0
280
     1
281
     0
  0
BLOCK_RECORD
  5
112
330
1
100
AcDbSymbolTableRecord
100
AcDbBlockTableRecord
  2
5_070898LW_0_in_069542_4
340
0
102
{BLKREFS
331
113
102
}
 70
     0
280
     1
281
     0
  0
BLOCK_RECORD
  5
148
330
1
100
AcDbSymbolTableRecord
100
AcDbBlockTableRecord
  2
6_070898I_0_in_069542_4
340
0
102
{BLKREFS
331
149
102
}
 70
     0
280
     1
281
     0
  0
BLOCK_RECORD
  5
1C8
330
1
100
AcDbSymbolTableRecord
100
AcDbBlockTableRecord
  2
7_069542H_0_in_069542_4
340
0
102
{BLKREFS
331
1C9
102
}
 70
     0
280
     1
281
     0
  0
ENDTAB
  0
ENDSEC
  0
SECTION
  2
BLOCKS
  0
BLOCK
  5
20
330
1F
100
AcDbEntity
  8
0
100
AcDbBlockBegin
  2
*Model_Space
 70
     0
 10
0.0
 20
0.0
 30
0.0
  3
*Model_Space
  1

  0
ENDBLK
  5
21
330
1F
100
AcDbEntity
  8
0
100
AcDbBlockEnd
  0
BLOCK
  5
1C
330
1B
100
AcDbEntity
 67
     1
  8
0
100
AcDbBlockBegin
  2
*Paper_Space
 70
     0
 10
0.0
 20
0.0
 30
0.0
  3
*Paper_Space
  1

  0
ENDBLK
  5
1D
330
1B
100
AcDbEntity
 67
     1
  8
0
100
AcDbBlockEnd
  0
BLOCK
  5
24
330
23
100
AcDbEntity
  8
0
100
AcDbBlockBegin
  2
*Paper_Space0
 70
     0
 10
0.0
 20
0.0
 30
0.0
  3
*Paper_Space0
  1

  0
ENDBLK
  5
25
330
23
100
AcDbEntity
  8
0
100
AcDbBlockEnd
  0
BLOCK
  5
70
330
6E
100
AcDbEntity
  8
0
100
AcDbBlockBegin
  2
1_069542_4
 70
     2
 10
0.0
 20
0.0
 30
0.0
  3
1_069542_4
  1

  0
ATTDEF
  5
73
330
6E
100
AcDbEntity
  8
AM_6
100
AcDbText
 10
10.21875
 20
2.0625
 30
0.0
 40
0.5
  1
Imperial -IP Pillow Block 2-1/8 thru 3-1/2  4-Bolt Inch Bore (Contact Seal)
100
AcDbAttributeDefinition
  3

  2
NN
 70
     8
280
     0
  0
ATTDEF
  5
74
330
6E
100
AcDbEntity
  8
AM_6
100
AcDbText
 10
10.21875
 20
1.5625
 30
0.0
 40
0.5
  1
Imperial 4 Bolt Piliow Block Bearings
100
AcDbAttributeDefinition
  3

  2
NT
 70
     8
280
     0
  0
ATTDEF
  5
75
330
6E
100
AcDbEntity
  8
AM_6
100
AcDbText
 10
10.21875
 20
1.0625
 30
0.0
 40
0.5
  1
069542
100
AcDbAttributeDefinition
  3

  2
NB
 70
     8
280
     0
  0
ATTDEF
  5
76
330
6E
100
AcDbEntity
  8
AM_6
100
AcDbText
 10
10.21875
 20
0.5625
 30
0.0
 40
0.5
  1
$PN.
100
AcDbAttributeDefinition
  3

  2
NBSYN
 70
     8
280
     0
  0
ATTDEF
  5
77
330
6E
100
AcDbEntity
  8
AM_6
100
AcDbText
 10
10.21875
 20
0.0625
 30
0.0
 40
0.5
  1
069542
100
AcDbAttributeDefinition
  3

  2
LINA
 70
     8
280
     0
  0
ATTDEF
  5
78
330
6E
100
AcDbEntity
  8
AM_6
100
AcDbText
 10
10.21875
 20
-0.4375
 30
0.0
 40
0.5
  1
2-3/4
100
AcDbAttributeDefinition
  3

  2
SS
 70
     8
280
     0
  0
ATTDEF
  5
79
330
6E
100
AcDbEntity
  8
AM_6
100
AcDbText
 10
10.21875
 20
-0.9375
 30
0.0
 40
0.5
  1
069542
100
AcDbAttributeDefinition
  3

  2
PN
 70
     8
280
     0
  0
ATTDEF
  5
7A
330
6E
100
AcDbEntity
  8
AM_6
100
AcDbText
 10
10.21875
 20
-1.4375
 30
0.0
 40
0.5
  1
P4B-IP-212RE
100
AcDbAttributeDefinition
  3

  2
DESCRIPTION
 70
     8
280
     0
  0
ATTDEF
  5
7B
330
6E
100
AcDbEntity
  8
AM_6
100
AcDbText
 10
10.21875
 20
-1.9375
 30
0.0
 40
0.5
  1
Expansion Type
100
AcDbAttributeDefinition
  3

  2
EF
 70
     8
280
     0
  0
ATTDEF
  5
7C
330
6E
100
AcDbEntity
  8
AM_6
100
AcDbText
 10
10.21875
 20
-2.4375
 30
0.0
 40
0.5
  1
Contact  Seal
100
AcDbAttributeDefinition
  3

  2
ST
 70
     8
280
     0
  0
ATTDEF
  5
7D
330
6E
100
AcDbEntity
  8
AM_6
100
AcDbText
 10
10.21875
 20
-2.9375
 30
0.0
 40
0.5
  1
3-1/2
100
AcDbAttributeDefinition
  3

  2
A
 70
     8
280
     0
  0
ATTDEF
  5
7E
330
6E
100
AcDbEntity
  8
AM_6
100
AcDbText
 10
10.21875
 20
-3.4375
 30
0.0
 40
0.5
  1
10-7/16
100
AcDbAttributeDefinition
  3

  2
B
 70
     8
280
     0
  0
ATTDEF
  5
7F
330
6E
100
AcDbEntity
  8
AM_6
100
AcDbText
 10
10.21875
 20
-3.9375
 30
0.0
 40
0.5
  1
3-3/4
100
AcDbAttributeDefinition
  3

  2
C
 70
     8
280
     0
  0
ATTDEF
  5
80
330
6E
100
AcDbEntity
  8
AM_6
100
AcDbText
 10
10.21875
 20
-4.4375
 30
0.0
 40
0.5
  1
7-15/16
100
AcDbAttributeDefinition
  3

  2
DMIN
 70
     8
280
     0
  0
ATTDEF
  5
81
330
6E
100
AcDbEntity
  8
AM_6
100
AcDbText
 10
10.21875
 20
-4.9375
 30
0.0
 40
0.5
  1
8-5/16
100
AcDbAttributeDefinition
  3

  2
DMAX
 70
     8
280
     0
  0
ATTDEF
  5
82
330
6E
100
AcDbEntity
  8
AM_6
100
AcDbText
 10
10.21875
 20
-5.4375
 30
0.0
 40
0.5
  1
1-7/8
100
AcDbAttributeDefinition
  3

  2
E
 70
     8
280
     0
  0
ATTDEF
  5
83
330
6E
100
AcDbEntity
  8
AM_6
100
AcDbText
 10
10.21875
 20
-5.9375
 30
0.0
 40
0.5
  1
5/8
100
AcDbAttributeDefinition
  3

  2
F
 70
     8
280
     0
  0
ATTDEF
  5
84
330
6E
100
AcDbEntity
  8
AM_6
100
AcDbText
 10
10.21875
 20
-6.4375
 30
0.0
 40
0.5
  1
15/16
100
AcDbAttributeDefinition
  3

  2
G
 70
     8
280
     0
  0
ATTDEF
  5
85
330
6E
100
AcDbEntity
  8
AM_6
100
AcDbText
 10
10.21875
 20
-6.9375
 30
0.0
 40
0.5
  1
1-7/8
100
AcDbAttributeDefinition
  3

  2
H
 70
     8
280
     0
  0
ATTDEF
  5
86
330
6E
100
AcDbEntity
  8
AM_6
100
AcDbText
 10
10.21875
 20
-7.4375
 30
0.0
 40
0.5
  1
6-7/16
100
AcDbAttributeDefinition
  3

  2
J
 70
     8
280
     0
  0
ATTDEF
  5
87
330
6E
100
AcDbEntity
  8
AM_6
100
AcDbText
 10
10.21875
 20
-7.9375
 30
0.0
 40
0.5
  1
4-9/32
100
AcDbAttributeDefinition
  3

  2
L
 70
     8
280
     0
  0
ATTDEF
  5
88
330
6E
100
AcDbEntity
  8
AM_6
100
AcDbText
 10
10.21875
 20
-8.4375
 30
0.0
 40
0.5
  1
3-1/4
100
AcDbAttributeDefinition
  3

  2
M
 70
     8
280
     0
  0
ATTDEF
  5
89
330
6E
100
AcDbEntity
  8
AM_6
100
AcDbText
 10
10.21875
 20
-8.9375
 30
0.0
 40
0.5
  1
1-3/32
100
AcDbAttributeDefinition
  3

  2
R
 70
     8
280
     0
  0
ATTDEF
  5
8A
330
6E
100
AcDbEntity
  8
AM_6
100
AcDbText
 10
10.21875
 20
-9.4375
 30
0.0
 40
0.5
  1
2-13/32
100
AcDbAttributeDefinition
  3

  2
S
 70
     8
280
     0
  0
ATTDEF
  5
8B
330
6E
100
AcDbEntity
  8
AM_6
100
AcDbText
 10
10.21875
 20
-9.9375
 30
0.0
 40
0.5
  1
1/4
100
AcDbAttributeDefinition
  3

  2
X
 70
     8
280
     0
  0
ATTDEF
  5
8C
330
6E
100
AcDbEntity
  8
AM_6
100
AcDbText
 10
10.21875
 20
-10.4375
 30
0.0
 40
0.5
  1
0.025
100
AcDbAttributeDefinition
  3

  2
Y
 70
     8
280
     0
  0
ATTDEF
  5
8D
330
6E
100
AcDbEntity
  8
AM_6
100
AcDbText
 10
10.21875
 20
-10.9375
 30
0.0
 40
0.5
  1
3-15/32
100
AcDbAttributeDefinition
  3

  2
Z
 70
     8
280
     0
  0
ATTDEF
  5
8E
330
6E
100
AcDbEntity
  8
AM_6
100
AcDbText
 10
10.21875
 20
-11.4375
 30
0.0
 40
0.5
  1
baldor
100
AcDbAttributeDefinition
  3

  2
COMPANY
 70
     8
280
     0
  0
INSERT
  5
90
330
6E
100
AcDbEntity
  8
0
100
AcDbBlockReference
  2
2_405015E_Inch_0_in_069542_4
 10
0.0
 20
0.0
 30
0.0
  0
INSERT
  5
DE
330
6E
100
AcDbEntity
  8
0
100
AcDbBlockReference
  2
3_ASME_B18_3_10_1_0_in_069542_4
 10
0.0
 20
0.0
 30
0.0
  0
INSERT
  5
F1
330
6E
100
AcDbEntity
  8
0
100
AcDbBlockReference
  2
4_ASME_B18_3_10_2_0_in_069542_4
 10
0.0
 20
0.0
 30
0.0
  0
INSERT
  5
113
330
6E
100
AcDbEntity
  8
0
100
AcDbBlockReference
  2
5_070898LW_0_in_069542_4
 10
0.0
 20
0.0
 30
0.0
  0
INSERT
  5
149
330
6E
100
AcDbEntity
  8
0
100
AcDbBlockReference
  2
6_070898I_0_in_069542_4
 10
0.0
 20
0.0
 30
0.0
  0
INSERT
  5
1C9
330
6E
100
AcDbEntity
  8
0
100
AcDbBlockReference
  2
7_069542H_0_in_069542_4
 10
0.0
 20
0.0
 30
0.0
  0
ENDBLK
  5
71
330
6E
100
AcDbEntity
  8
0
100
AcDbBlockEnd
  0
BLOCK
  5
91
330
8F
100
AcDbEntity
  8
0
100
AcDbBlockBegin
  2
2_405015E_Inch_0_in_069542_4
 70
     2
 10
0.0
 20
0.0
 30
0.0
  3
2_405015E_Inch_0_in_069542_4
  1

  0
ATTDEF
  5
93
330
8F
100
AcDbEntity
  8
AM_6
100
AcDbText
 10
3.642400533277436
 20
0.2525907427704614
 30
0.0
 40
0.5
  1
405015E -Inch
100
AcDbAttributeDefinition
  3

  2
NN
 70
     8
280
     0
  0
ATTDEF
  5
94
330
8F
100
AcDbEntity
  8
AM_6
100
AcDbText
 10
3.642400533277436
 20
-0.2474092572295386
 30
0.0
 40
0.5
  1
Grease Fitting
100
AcDbAttributeDefinition
  3

  2
NT
 70
     8
280
     0
  0
ATTDEF
  5
95
330
8F
100
AcDbEntity
  8
AM_6
100
AcDbText
 10
3.642400533277436
 20
-0.7474092572295385
 30
0.0
 40
0.5
  1
405015E-Inch
100
AcDbAttributeDefinition
  3

  2
NB
 70
     8
280
     0
  0
ATTDEF
  5
96
330
8F
100
AcDbEntity
  8
AM_6
100
AcDbText
 10
3.642400533277436
 20
-1.247409257229539
 30
0.0
 40
0.5
  1
$MN.-Inch
100
AcDbAttributeDefinition
  3

  2
NBSYN
 70
     8
280
     0
  0
ATTDEF
  5
97
330
8F
100
AcDbEntity
  8
AM_6
100
AcDbText
 10
3.642400533277436
 20
-1.747409257229539
 30
0.0
 40
0.5
  1
405015E
100
AcDbAttributeDefinition
  3

  2
LINA
 70
     8
280
     0
  0
ATTDEF
  5
98
330
8F
100
AcDbEntity
  8
AM_6
100
AcDbText
 10
3.642400533277436
 20
-2.247409257229538
 30
0.0
 40
0.5
  1
405015E
100
AcDbAttributeDefinition
  3

  2
MN
 70
     8
280
     0
  0
ATTDEF
  5
99
330
8F
100
AcDbEntity
  8
AM_6
100
AcDbText
 10
3.642400533277436
 20
-2.747409257229538
 30
0.0
 40
0.5
  1
1/8 x 27PTF
100
AcDbAttributeDefinition
  3

  2
T
 70
     8
280
     0
  0
ATTDEF
  5
9A
330
8F
100
AcDbEntity
  8
AM_6
100
AcDbText
 10
3.642400533277436
 20
-3.247409257229538
 30
0.0
 40
0.5
  1
baldor
100
AcDbAttributeDefinition
  3

  2
COMPANY
 70
     8
280
     0
  0
ELLIPSE
  5
9D
330
8F
100
AcDbEntity
  8
AM_9
100
AcDbEllipse
 10
-1.51125
 20
0.0000000000000002
 30
0.0
 11
-2.974107518188895E-17
 21
-0.161902872472269
 31
0.0
210
0.0
220
0.0
230
1.0
 40
0.8660254037844383
 41
0.0
 42
6.283185307179586
  0
LWPOLYLINE
  5
9E
330
8F
100
AcDbEntity
  8
AM_9
100
AcDbPolyline
 90
        3
 70
     0
 43
0.0
 10
-1.837726856926153
 20
0.1262953713852308
 10
-1.78725250203231
 20
0.1577272497321278
 10
-1.738471528538923
 20
0.1894430570778461
  0
LWPOLYLINE
  5
9F
330
8F
100
AcDbEntity
  8
AM_9
100
AcDbPolyline
 90
        3
 70
     0
 43
0.0
 10
-1.833380402754846
 20
0.024773798008004
 10
-1.834389747470363
 20
0.0631476856926155
 10
-1.837726856926153
 20
0.1262953713852308
  0
LINE
  5
A0
330
8F
100
AcDbEntity
  8
AM_9
100
AcDbLine
 10
-1.833193057077846
 20
0.0000000000000002
 30
0.0
 11
-1.833380402754846
 21
0.024773798008004
 31
0.0
  0
LWPOLYLINE
  5
A1
330
8F
100
AcDbEntity
  8
AM_9
100
AcDbPolyline
 90
        3
 70
     0
 43
0.0
 10
-1.738471528538923
 20
-0.1894430570778458
 10
-1.787028983200902
 20
-0.1578692142315381
 10
-1.837726856926153
 20
-0.1262953713852305
  0
LINE
  5
A2
330
8F
100
AcDbEntity
  8
AM_9
100
AcDbLine
 10
-1.833378429345362
 20
-0.02464256141651
 30
0.0
 11
-1.833193057077846
 21
0.0000000000000002
 31
0.0
  0
LWPOLYLINE
  5
A3
330
8F
100
AcDbEntity
  8
AM_9
100
AcDbPolyline
 90
        3
 70
     0
 43
0.0
 10
-1.837726856926153
 20
-0.1262953713852305
 10
-1.835934263336768
 20
-0.0967996321117976
 10
-1.833378429345362
 20
-0.02464256141651
  0
LINE
  5
A4
330
8F
100
AcDbEntity
  8
AM_9
100
AcDbLine
 10
-1.878659257229539
 20
-0.1262953713852305
 30
0.0
 11
-1.837726856926153
 21
-0.1262953713852305
 31
0.0
  0
LINE
  5
A5
330
8F
100
AcDbEntity
  8
AM_9
100
AcDbLine
 10
-1.878659257229539
 20
0.1262953713852308
 30
0.0
 11
-1.837726856926153
 21
0.1262953713852308
 31
0.0
  0
LWPOLYLINE
  5
A6
330
8F
100
AcDbEntity
  8
AM_9
100
AcDbPolyline
 90
        3
 70
     0
 43
0.0
 10
-1.880918054366515
 20
0.0878491423263091
 10
-1.881985794603036
 20
0.0634316146914369
 10
-1.883193057077846
 20
0.0000000000000002
  0
LINE
  5
A7
330
8F
100
AcDbEntity
  8
AM_9
100
AcDbLine
 10
-1.883193057077846
 20
0.0000000000000002
 30
0.0
 11
-1.880918769770169
 21
-0.0878348125932894
 31
0.0
  0
LWPOLYLINE
  5
A8
330
8F
100
AcDbEntity
  8
AM_9
100
AcDbPolyline
 90
        3
 70
     0
 43
0.0
 10
-1.648283799848307
 20
-0.2525907427704611
 10
-1.692105079995155
 20
-0.2211588644235641
 10
-1.738471528538923
 20
-0.1894430570778458
  0
LWPOLYLINE
  5
A9
330
8F
100
AcDbEntity
  8
AM_9
100
AcDbPolyline
 90
        3
 70
     0
 43
0.0
 10
-1.738471528538923
 20
0.1894430570778461
 10
-1.692307454661979
 20
0.2210168999241537
 10
-1.648283799848307
 20
0.2525907427704614
  0
LINE
  5
AA
330
8F
100
AcDbEntity
  8
AM_9
100
AcDbLine
 10
-1.520296710626154
 20
0.1983264404626881
 30
0.0
 11
-1.63410489783229
 21
0.2054502516015136
 31
0.0
  0
LINE
  5
AB
330
8F
100
AcDbEntity
  8
AM_9
100
AcDbLine
 10
-1.63410489783229
 20
-0.2054502516015133
 30
0.0
 11
-1.520296710626154
 21
-0.1983264404626878
 31
0.0
  0
ELLIPSE
  5
AC
330
8F
100
AcDbEntity
  8
AM_9
100
AcDbEllipse
 10
-1.693749999999996
 20
0.0000000000000004
 30
0.0
 11
1.339457436567417E-17
 21
0.21875
 31
0.0
210
0.0
220
0.0
230
1.0
 40
0.8660254037844574
 41
1.032970329615022
 42
2.108622323974772
  0
ELLIPSE
  5
AD
330
8F
100
AcDbEntity
  8
AM_9
100
AcDbEllipse
 10
-1.693750000000002
 20
0.0000000000000002
 30
0.0
 11
1.308841266588722E-17
 21
0.2137499999999981
 31
0.0
210
0.0
220
0.0
230
1.0
 40
0.8660254037844395
 41
0.986286852235323
 42
2.155305801354471
  0
ELLIPSE
  5
AE
330
8F
100
AcDbEntity
  8
AM_9
100
AcDbEllipse
 10
-1.702909099270441
 20
0.0000000000000002
 30
0.0
 11
1.056466380484817E-17
 21
0.1725340532830152
 31
0.0
210
0.0
220
0.0
230
1.0
 40
0.8660254037844375
 41
0.6732704101474569
 42
2.468322243442338
  0
LINE
  5
AF
330
8F
100
AcDbEntity
  8
AM_9
100
AcDbLine
 10
-1.81375
 20
-0.0703562363973514
 30
0.0
 11
-1.806510904853149
 21
-0.0796165180238019
 31
0.0
  0
LINE
  5
B0
330
8F
100
AcDbEntity
  8
AM_9
100
AcDbLine
 10
-1.806510904853149
 20
0.0796165180238022
 30
0.0
 11
-1.81375
 21
0.0703562363973518
 31
0.0
  0
ELLIPSE
  5
B1
330
8F
100
AcDbEntity
  8
AM_9
100
AcDbEllipse
 10
-1.730126560809288
 20
-0.0000000000000005
 30
0.0
 11
7.275632189644469E-18
 21
0.1188200907348967
 31
0.0
210
0.0
220
0.0
230
1.0
 40
0.8660254037844327
 41
0.0521714424106374
 42
3.089421211179158
  0
LINE
  5
B2
330
8F
100
AcDbEntity
  8
AM_9
100
AcDbLine
 10
-1.74625
 20
0.1050000000000002
 30
0.0
 11
-1.76125
 21
0.1050000000000002
 31
0.0
  0
LINE
  5
B3
330
8F
100
AcDbEntity
  8
AM_9
100
AcDbLine
 10
-1.76125
 20
-0.1049999999999998
 30
0.0
 11
-1.74625
 21
-0.1049999999999998
 31
0.0
  0
ELLIPSE
  5
B4
330
8F
100
AcDbEntity
  8
AM_9
100
AcDbEllipse
 10
-1.76125
 20
-0.0000000000000001
 30
0.0
 11
6.429395695523592E-18
 21
0.1049999999999998
 31
0.0
210
0.0
220
0.0
230
1.0
 40
0.8660254037844425
 41
5.23598775598299
 42
10.47197551196598
  0
ELLIPSE
  5
B5
330
8F
100
AcDbEntity
  8
AM_9
100
AcDbEllipse
 10
-1.746249999999997
 20
0.0000000000000016
 30
0.0
 11
6.429395695523518E-18
 21
0.1049999999999986
 31
0.0
210
0.0
220
0.0
230
1.0
 40
0.8660254037844312
 41
5.858105981271302
 42
9.84985728667765
  0
ELLIPSE
  5
B6
330
8F
100
AcDbEntity
  8
AM_9
100
AcDbEllipse
 10
-1.79125
 20
0.0000000000000002
 30
0.0
 11
8.266365894244665E-18
 21
0.1350000000000005
 31
0.0
210
0.0
220
0.0
230
1.0
 40
0.8660254037844362
 41
0.7751090107151235
 42
2.36648364287467
  0
ELLIPSE
  5
B7
330
8F
100
AcDbEntity
  8
AM_9
100
AcDbEllipse
 10
-1.64375
 20
-0.0000000000000001
 30
0.0
 11
1.339457436567418E-17
 21
0.21875
 31
0.0
210
0.0
220
0.0
230
1.0
 40
0.8660254037844388
 41
0.0
 42
6.283185307179586
  0
ELLIPSE
  5
B8
330
8F
100
AcDbEntity
  8
AM_9
100
AcDbEllipse
 10
-1.64375
 20
0.0000000000000001
 30
0.0
 11
1.259867011763638E-17
 21
0.2057518972230697
 31
0.0
210
0.0
220
0.0
230
1.0
 40
0.8660254037844317
 41
0.0
 42
6.283185307179586
  0
ELLIPSE
  5
B9
330
8F
100
AcDbEntity
  8
AM_9
100
AcDbEllipse
 10
-1.529607377154473
 20
0.0000000000000002
 30
0.0
 11
1.216182204459294E-17
 21
0.1986176267812153
 31
0.0
210
0.0
220
0.0
230
1.0
 40
0.8660254037844427
 41
0.0
 42
6.283185307179586
  0
LWPOLYLINE
  5
BB
330
8F
100
AcDbEntity
  8
AM_4
100
AcDbPolyline
 90
        3
 70
     0
 43
0.0
 10
-1.788471528538923
 20
0.1894430570778461
 10
-1.834635602415867
 20
0.1578692142315385
 10
-1.878659257229539
 20
0.1262953713852308
  0
LINE
  5
BC
330
8F
100
AcDbEntity
  8
AM_4
100
AcDbLine
 10
-1.878659257229539
 20
0.1262953713852308
 30
0.0
 11
-1.880918054366515
 21
0.0878491423263091
 31
0.0
  0
LWPOLYLINE
  5
BD
330
8F
100
AcDbEntity
  8
AM_4
100
AcDbPolyline
 90
        3
 70
     0
 43
0.0
 10
-1.878659257229539
 20
-0.1262953713852305
 10
-1.83483797708269
 20
-0.1577272497321274
 10
-1.788471528538923
 20
-0.1894430570778458
  0
LINE
  5
BE
330
8F
100
AcDbEntity
  8
AM_4
100
AcDbLine
 10
-1.880918769770169
 20
-0.0878348125932894
 30
0.0
 11
-1.878659257229539
 21
-0.1262953713852305
 31
0.0
  0
LWPOLYLINE
  5
BF
330
8F
100
AcDbEntity
  8
AM_4
100
AcDbPolyline
 90
        3
 70
     0
 43
0.0
 10
-1.788471528538923
 20
-0.1894430570778458
 10
-1.739914073876944
 20
-0.2210168999241534
 10
-1.689216200151693
 20
-0.2525907427704611
  0
LWPOLYLINE
  5
C0
330
8F
100
AcDbEntity
  8
AM_4
100
AcDbPolyline
 90
        3
 70
     0
 43
0.0
 10
-1.689216200151693
 20
0.2525907427704614
 10
-1.739690555045535
 20
0.2211588644235645
 10
-1.788471528538923
 20
0.1894430570778461
  0
LWPOLYLINE
  5
C1
330
8F
100
AcDbEntity
  8
AM_4
100
AcDbPolyline
 90
        3
 70
     0
 43
0.0
 10
-1.504306942922154
 20
0.0000000000000002
 10
-1.503110252529637
 20
0.0631476856926155
 10
-1.499773143073847
 20
0.1262953713852308
  0
LWPOLYLINE
  5
C2
330
8F
100
AcDbEntity
  8
AM_4
100
AcDbPolyline
 90
        3
 70
     0
 43
0.0
 10
-1.454306942922154
 20
0.0000000000000002
 10
-1.457048149181076
 20
-0.0967996321117976
 10
-1.458840742770461
 20
-0.1262953713852305
  0
LWPOLYLINE
  5
C3
330
8F
100
AcDbEntity
  8
AM_4
100
AcDbPolyline
 90
        3
 70
     0
 43
0.0
 10
-1.458840742770461
 20
0.1262953713852308
 10
-1.455514205396964
 20
0.0634316146914369
 10
-1.454306942922154
 20
0.0000000000000002
  0
LINE
  5
C4
330
8F
100
AcDbEntity
  8
AM_4
100
AcDbLine
 10
-1.689216200151693
 20
0.2525907427704614
 30
0.0
 11
-1.648283799848307
 21
0.2525907427704614
 31
0.0
  0
LWPOLYLINE
  5
C5
330
8F
100
AcDbEntity
  8
AM_4
100
AcDbPolyline
 90
        3
 70
     0
 43
0.0
 10
-1.599028471461077
 20
0.1894430570778461
 10
-1.645192545338021
 20
0.2210168999241537
 10
-1.689216200151693
 20
0.2525907427704614
  0
LWPOLYLINE
  5
C6
330
8F
100
AcDbEntity
  8
AM_4
100
AcDbPolyline
 90
        3
 70
     0
 43
0.0
 10
-1.499773143073847
 20
0.1262953713852308
 10
-1.550247497967689
 20
0.1577272497321277
 10
-1.599028471461077
 20
0.1894430570778461
  0
LINE
  5
C7
330
8F
100
AcDbEntity
  8
AM_4
100
AcDbLine
 10
-1.499773143073847
 20
0.1262953713852308
 30
0.0
 11
-1.458840742770461
 21
0.1262953713852308
 31
0.0
  0
LWPOLYLINE
  5
C8
330
8F
100
AcDbEntity
  8
AM_4
100
AcDbPolyline
 90
        3
 70
     0
 43
0.0
 10
-1.549028471461077
 20
0.1894430570778461
 10
-1.502864397584133
 20
0.1578692142315385
 10
-1.458840742770461
 20
0.1262953713852308
  0
LWPOLYLINE
  5
C9
330
8F
100
AcDbEntity
  8
AM_4
100
AcDbPolyline
 90
        3
 70
     0
 43
0.0
 10
-1.648283799848307
 20
0.2525907427704614
 10
-1.597809444954465
 20
0.2211588644235644
 10
-1.549028471461077
 20
0.1894430570778461
  0
ELLIPSE
  5
CA
330
8F
100
AcDbEntity
  8
AM_4
100
AcDbEllipse
 10
-1.693750000000001
 20
0.0000000000000006
 30
0.0
 11
1.339457436567424E-17
 21
0.2187500000000011
 31
0.0
210
0.0
220
0.0
230
1.0
 40
0.8660254037844378
 41
2.108622323974776
 42
7.316155636794607
  0
LWPOLYLINE
  5
CB
330
8F
100
AcDbEntity
  8
AM_4
100
AcDbPolyline
 90
        3
 70
     0
 43
0.0
 10
-1.499773143073847
 20
-0.1262953713852305
 10
-1.501565736663232
 20
-0.0967996321117976
 10
-1.504306942922154
 20
0.0000000000000002
  0
LINE
  5
CC
330
8F
100
AcDbEntity
  8
AM_4
100
AcDbLine
 10
-1.499773143073847
 20
-0.1262953713852305
 30
0.0
 11
-1.458840742770461
 21
-0.1262953713852305
 31
0.0
  0
LWPOLYLINE
  5
CD
330
8F
100
AcDbEntity
  8
AM_4
100
AcDbPolyline
 90
        3
 70
     0
 43
0.0
 10
-1.599028471461077
 20
-0.1894430570778458
 10
-1.550471016799098
 20
-0.1578692142315382
 10
-1.499773143073847
 20
-0.1262953713852305
  0
LWPOLYLINE
  5
CE
330
8F
100
AcDbEntity
  8
AM_4
100
AcDbPolyline
 90
        3
 70
     0
 43
0.0
 10
-1.689216200151693
 20
-0.2525907427704611
 10
-1.645394920004845
 20
-0.2211588644235641
 10
-1.599028471461077
 20
-0.1894430570778458
  0
LINE
  5
CF
330
8F
100
AcDbEntity
  8
AM_4
100
AcDbLine
 10
-1.689216200151693
 20
-0.2525907427704611
 30
0.0
 11
-1.648283799848307
 21
-0.2525907427704611
 31
0.0
  0
LWPOLYLINE
  5
D0
330
8F
100
AcDbEntity
  8
AM_4
100
AcDbPolyline
 90
        3
 70
     0
 43
0.0
 10
-1.549028471461077
 20
-0.1894430570778458
 10
-1.597585926123056
 20
-0.2210168999241534
 10
-1.648283799848307
 20
-0.2525907427704611
  0
LWPOLYLINE
  5
D1
330
8F
100
AcDbEntity
  8
AM_4
100
AcDbPolyline
 90
        3
 70
     0
 43
0.0
 10
-1.458840742770461
 20
-0.1262953713852305
 10
-1.50266202291731
 20
-0.1577272497321274
 10
-1.549028471461077
 20
-0.1894430570778458
  0
ELLIPSE
  5
D2
330
8F
100
AcDbEntity
  8
AM_4
100
AcDbEllipse
 10
-1.69375
 20
0.0000000000000002
 30
0.0
 11
1.308841266588734E-17
 21
0.21375
 31
0.0
210
0.0
220
0.0
230
1.0
 40
0.8660254037844388
 41
2.155305801354466
 42
7.269472159414914
  0
ELLIPSE
  5
D3
330
8F
100
AcDbEntity
  8
AM_4
100
AcDbEllipse
 10
-1.702909099270441
 20
0.0000000000000003
 30
0.0
 11
1.056466380484818E-17
 21
0.1725340532830154
 31
0.0
210
0.0
220
0.0
230
1.0
 40
0.8660254037844392
 41
2.468322243442333
 42
6.956455717327046
  0
ELLIPSE
  5
D4
330
8F
100
AcDbEntity
  8
AM_4
100
AcDbEllipse
 10
-1.730126560809277
 20
0.0000000000000408
 30
0.0
 11
7.275632189642029E-18
 21
0.1188200907348569
 31
0.0
210
0.0
220
0.0
230
1.0
 40
0.8660254037844671
 41
3.089421211179073
 42
6.335356749590343
  0
ELLIPSE
  5
D5
330
8F
100
AcDbEntity
  8
AM_4
100
AcDbEllipse
 10
-1.74625
 20
0.0000000000000001
 30
0.0
 11
6.429395695523610E-18
 21
0.1050000000000001
 31
0.0
210
0.0
220
0.0
230
1.0
 40
0.8660254037844378
 41
3.566671979498089
 42
5.858105981271289
  0
LINE
  5
D6
330
8F
100
AcDbEntity
  8
AM_4
100
AcDbLine
 10
-1.6825
 20
0.0525000000000003
 30
0.0
 11
-1.69
 21
0.0675000000000004
 31
0.0
  0
LINE
  5
D7
330
8F
100
AcDbEntity
  8
AM_4
100
AcDbLine
 10
-1.69
 20
-0.0675
 30
0.0
 11
-1.6825
 21
-0.0524999999999999
 31
0.0
  0
ELLIPSE
  5
D8
330
8F
100
AcDbEntity
  8
AM_4
100
AcDbEllipse
 10
-1.761250000000002
 20
0.0000000000000003
 30
0.0
 11
6.429395695523610E-18
 21
0.1050000000000001
 31
0.0
210
0.0
220
0.0
230
1.0
 40
0.8660254037844528
 41
4.18879020478639
 42
5.235987755982985
  0
ELLIPSE
  5
D9
330
8F
100
AcDbEntity
  8
AM_4
100
AcDbEllipse
 10
-1.791249999999999
 20
-0.0000000000000014
 30
0.0
 11
8.266365894244736E-18
 21
0.1350000000000017
 31
0.0
210
0.0
220
0.0
230
1.0
 40
0.8660254037844387
 41
2.366483642874658
 42
7.058294317894704
  0
LINE
  5
DA
330
8F
100
AcDbEntity
  8
AM_4
100
AcDbLine
 10
-1.893476847792107
 20
-0.0733474205218686
 30
0.0
 11
-1.873065310731619
 21
-0.0964365416902989
 31
0.0
  0
LINE
  5
DB
330
8F
100
AcDbEntity
  8
AM_4
100
AcDbLine
 10
-1.873065310731619
 20
0.0964365416902993
 30
0.0
 11
-1.893476847792107
 21
0.0733474205218689
 31
0.0
  0
ELLIPSE
  5
DC
330
8F
100
AcDbEntity
  8
AM_4
100
AcDbEllipse
 10
-1.831250000000001
 20
-0.0000000000000001
 30
0.0
 11
6.287208197282211E-18
 21
0.1026779019331878
 31
0.0
210
0.0
220
0.0
230
1.0
 40
0.8660254037844355
 41
0.0
 42
6.283185307179586
  0
ENDBLK
  5
92
330
8F
100
AcDbEntity
  8
0
100
AcDbBlockEnd
  0
BLOCK
  5
DF
330
DD
100
AcDbEntity
  8
0
100
AcDbBlockBegin
  2
3_ASME_B18_3_10_1_0_in_069542_4
 70
     2
 10
0.0
 20
0.0
 30
0.0
  3
3_ASME_B18_3_10_1_0_in_069542_4
  1

  0
ATTDEF
  5
E1
330
DD
100
AcDbEntity
  8
AM_6
100
AcDbText
 10
5.095
 20
-1.873083333333333
 30
0.0
 40
0.5
  1
ANSI/ASME B18.3-1998
100
AcDbAttributeDefinition
  3

  2
NN
 70
     8
280
     0
  0
ATTDEF
  5
E2
330
DD
100
AcDbEntity
  8
AM_6
100
AcDbText
 10
5.095
 20
-2.373083333333334
 30
0.0
 40
0.5
  1
Socket Button Head Cap Screws
100
AcDbAttributeDefinition
  3

  2
NT
 70
     8
280
     0
  0
ATTDEF
  5
E3
330
DD
100
AcDbEntity
  8
AM_6
100
AcDbText
 10
5.095
 20
-2.873083333333334
 30
0.0
 40
0.5
  1
ASME B18.3-10
100
AcDbAttributeDefinition
  3

  2
NB
 70
     8
280
     0
  0
ATTDEF
  5
E4
330
DD
100
AcDbEntity
  8
AM_6
100
AcDbText
 10
5.095
 20
-3.373083333333334
 30
0.0
 40
0.5
  1
ASME B18.3-$NS.
100
AcDbAttributeDefinition
  3

  2
NBSYN
 70
     8
280
     0
  0
ATTDEF
  5
E5
330
DD
100
AcDbEntity
  8
AM_6
100
AcDbText
 10
5.095
 20
-3.873083333333334
 30
0.0
 40
0.5
  1
ASME B18.3-10
100
AcDbAttributeDefinition
  3

  2
LINA
 70
     8
280
     0
  0
ATTDEF
  5
E6
330
DD
100
AcDbEntity
  8
AM_6
100
AcDbText
 10
5.095
 20
-4.373083333333334
 30
0.0
 40
0.5
  1
10
100
AcDbAttributeDefinition
  3

  2
NS
 70
     8
280
     0
  0
ATTDEF
  5
E7
330
DD
100
AcDbEntity
  8
AM_6
100
AcDbText
 10
5.095
 20
-4.873083333333334
 30
0.0
 40
0.5
  1
0.361
100
AcDbAttributeDefinition
  3

  2
A
 70
     8
280
     0
  0
ATTDEF
  5
E8
330
DD
100
AcDbEntity
  8
AM_6
100
AcDbText
 10
5.095
 20
-5.373083333333334
 30
0.0
 40
0.5
  1
0.101
100
AcDbAttributeDefinition
  3

  2
H
 70
     8
280
     0
  0
ATTDEF
  5
E9
330
DD
100
AcDbEntity
  8
AM_6
100
AcDbText
 10
5.095
 20
-5.873083333333334
 30
0.0
 40
0.5
  1
0.800
100
AcDbAttributeDefinition
  3

  2
L
 70
     8
280
     0
  0
ATTDEF
  5
EA
330
DD
100
AcDbEntity
  8
AM_6
100
AcDbText
 10
5.095
 20
-6.373083333333334
 30
0.0
 40
0.5
  1
0.020
100
AcDbAttributeDefinition
  3

  2
S
 70
     8
280
     0
  0
ATTDEF
  5
EB
330
DD
100
AcDbEntity
  8
AM_6
100
AcDbText
 10
5.095
 20
-6.873083333333334
 30
0.0
 40
0.5
  1
0.125000
100
AcDbAttributeDefinition
  3

  2
J
 70
     8
280
     0
  0
ATTDEF
  5
EC
330
DD
100
AcDbEntity
  8
AM_6
100
AcDbText
 10
5.095
 20
-7.373083333333334
 30
0.0
 40
0.5
  1
baldor
100
AcDbAttributeDefinition
  3

  2
COMPANY
 70
     8
280
     0
  0
LINE
  5
EE
330
DD
100
AcDbEntity
  8
AM_5
100
AcDbLine
 10
0.095
 20
-1.873083333333333
 30
0.0
 11
-0.095
 21
-1.873083333333333
 31
0.0
  0
LINE
  5
EF
330
DD
100
AcDbEntity
  8
AM_5
100
AcDbLine
 10
0.0764
 20
-1.873083333333333
 30
0.0
 11
0.095
 21
-1.905299478354115
 31
0.0
  0
ENDBLK
  5
E0
330
DD
100
AcDbEntity
  8
0
100
AcDbBlockEnd
  0
BLOCK
  5
F2
330
F0
100
AcDbEntity
  8
0
100
AcDbBlockBegin
  2
4_ASME_B18_3_10_2_0_in_069542_4
 70
     2
 10
0.0
 20
0.0
 30
0.0
  3
4_ASME_B18_3_10_2_0_in_069542_4
  1

  0
ATTDEF
  5
F4
330
F0
100
AcDbEntity
  8
AM_6
100
AcDbText
 10
5.1805
 20
-1.153083333333333
 30
0.0
 40
0.5
  1
ANSI/ASME B18.3-1998
100
AcDbAttributeDefinition
  3

  2
NN
 70
     8
280
     0
  0
ATTDEF
  5
F5
330
F0
100
AcDbEntity
  8
AM_6
100
AcDbText
 10
5.1805
 20
-1.653083333333333
 30
0.0
 40
0.5
  1
Socket Button Head Cap Screws
100
AcDbAttributeDefinition
  3

  2
NT
 70
     8
280
     0
  0
ATTDEF
  5
F6
330
F0
100
AcDbEntity
  8
AM_6
100
AcDbText
 10
5.1805
 20
-2.153083333333333
 30
0.0
 40
0.5
  1
ASME B18.3-10
100
AcDbAttributeDefinition
  3

  2
NB
 70
     8
280
     0
  0
ATTDEF
  5
F7
330
F0
100
AcDbEntity
  8
AM_6
100
AcDbText
 10
5.1805
 20
-2.653083333333333
 30
0.0
 40
0.5
  1
ASME B18.3-$NS.
100
AcDbAttributeDefinition
  3

  2
NBSYN
 70
     8
280
     0
  0
ATTDEF
  5
F8
330
F0
100
AcDbEntity
  8
AM_6
100
AcDbText
 10
5.1805
 20
-3.153083333333333
 30
0.0
 40
0.5
  1
ASME B18.3-10
100
AcDbAttributeDefinition
  3

  2
LINA
 70
     8
280
     0
  0
ATTDEF
  5
F9
330
F0
100
AcDbEntity
  8
AM_6
100
AcDbText
 10
5.1805
 20
-3.653083333333333
 30
0.0
 40
0.5
  1
10
100
AcDbAttributeDefinition
  3

  2
NS
 70
     8
280
     0
  0
ATTDEF
  5
FA
330
F0
100
AcDbEntity
  8
AM_6
100
AcDbText
 10
5.1805
 20
-4.153083333333333
 30
0.0
 40
0.5
  1
0.361
100
AcDbAttributeDefinition
  3

  2
A
 70
     8
280
     0
  0
ATTDEF
  5
FB
330
F0
100
AcDbEntity
  8
AM_6
100
AcDbText
 10
5.1805
 20
-4.653083333333333
 30
0.0
 40
0.5
  1
0.101
100
AcDbAttributeDefinition
  3

  2
H
 70
     8
280
     0
  0
ATTDEF
  5
FC
330
F0
100
AcDbEntity
  8
AM_6
100
AcDbText
 10
5.1805
 20
-5.153083333333333
 30
0.0
 40
0.5
  1
0.800
100
AcDbAttributeDefinition
  3

  2
L
 70
     8
280
     0
  0
ATTDEF
  5
FD
330
F0
100
AcDbEntity
  8
AM_6
100
AcDbText
 10
5.1805
 20
-5.653083333333333
 30
0.0
 40
0.5
  1
0.020
100
AcDbAttributeDefinition
  3

  2
S
 70
     8
280
     0
  0
ATTDEF
  5
FE
330
F0
100
AcDbEntity
  8
AM_6
100
AcDbText
 10
5.1805
 20
-6.153083333333333
 30
0.0
 40
0.5
  1
0.125000
100
AcDbAttributeDefinition
  3

  2
J
 70
     8
280
     0
  0
ATTDEF
  5
FF
330
F0
100
AcDbEntity
  8
AM_6
100
AcDbText
 10
5.1805
 20
-6.653083333333333
 30
0.0
 40
0.5
  1
baldor
100
AcDbAttributeDefinition
  3

  2
COMPANY
 70
     8
280
     0
  0
LINE
  5
100
330
F0
100
AcDbEntity
  8
AM_9
100
AcDbLine
 10
0.0625
 20
-1.993083333333334
 30
0.0
 11
0.0625
 21
-2.054083333333333
 31
0.0
  0
LINE
  5
101
330
F0
100
AcDbEntity
  8
AM_9
100
AcDbLine
 10
-0.0625
 20
-1.993083333333334
 30
0.0
 11
-0.0625
 21
-2.054083333333333
 31
0.0
  0
LINE
  5
102
330
F0
100
AcDbEntity
  8
AM_9
100
AcDbLine
 10
0.0
 20
-1.993083333333334
 30
0.0
 11
0.0
 21
-2.054083333333333
 31
0.0
  0
LINE
  5
103
330
F0
100
AcDbEntity
  8
AM_9
100
AcDbLine
 10
-0.0625
 20
-1.993083333333334
 30
0.0
 11
0.0625
 21
-1.993083333333334
 31
0.0
  0
LINE
  5
104
330
F0
100
AcDbEntity
  8
AM_9
100
AcDbLine
 10
0.095
 20
-1.953083333333333
 30
0.0
 11
0.095
 21
-1.171683333333333
 31
0.0
  0
LINE
  5
105
330
F0
100
AcDbEntity
  8
AM_9
100
AcDbLine
 10
-0.095
 20
-1.171683333333333
 30
0.0
 11
-0.095
 21
-1.953083333333333
 31
0.0
  0
LINE
  5
106
330
F0
100
AcDbEntity
  8
AM_9
100
AcDbLine
 10
-0.0764
 20
-1.153083333333333
 30
0.0
 11
-0.095
 21
-1.171683333333333
 31
0.0
  0
LINE
  5
107
330
F0
100
AcDbEntity
  8
AM_9
100
AcDbLine
 10
0.095
 20
-1.171683333333333
 30
0.0
 11
0.0764
 21
-1.153083333333333
 31
0.0
  0
LINE
  5
108
330
F0
100
AcDbEntity
  8
AM_9
100
AcDbLine
 10
-0.0764
 20
-1.153083333333333
 30
0.0
 11
0.0764
 21
-1.153083333333333
 31
0.0
  0
LINE
  5
109
330
F0
100
AcDbEntity
  8
AM_9
100
AcDbLine
 10
-0.095
 20
-1.171683333333333
 30
0.0
 11
0.095
 21
-1.171683333333333
 31
0.0
  0
LINE
  5
10A
330
F0
100
AcDbEntity
  8
AM_5
100
AcDbLine
 10
-0.0950000001699732
 20
-1.873083333333333
 30
0.0
 11
0.0950000001699735
 21
-1.873083333333333
 31
0.0
  0
LINE
  5
10B
330
F0
100
AcDbEntity
  8
AM_5
100
AcDbLine
 10
-0.0764
 20
-1.873083333333333
 30
0.0
 11
-0.0950000053517355
 21
-1.905299487623592
 31
0.0
  0
LINE
  5
10C
330
F0
100
AcDbEntity
  8
AM_4
100
AcDbLine
 10
-0.0994999941850903
 20
-2.054083333333333
 30
0.0
 11
0.0995
 21
-2.054083333333333
 31
0.0
  0
ARC
  5
10D
330
F0
100
AcDbEntity
  8
AM_4
100
AcDbCircle
 10
0.0995000000000002
 20
-1.973083333333334
 30
0.0
 40
0.0809999999999997
100
AcDbArc
 50
270.0
 51
0.0
  0
ARC
  5
10E
330
F0
100
AcDbEntity
  8
AM_4
100
AcDbCircle
 10
-0.0995000000000002
 20
-1.973083333333334
 30
0.0
 40
0.0809999999999997
100
AcDbArc
 50
180.0
 51
270.0
  0
LINE
  5
10F
330
F0
100
AcDbEntity
  8
AM_4
100
AcDbLine
 10
0.1805
 20
-1.973083333333333
 30
0.0
 11
0.1805
 21
-1.953083333333333
 31
0.0
  0
LINE
  5
110
330
F0
100
AcDbEntity
  8
AM_4
100
AcDbLine
 10
-0.1805
 20
-1.953083333333333
 30
0.0
 11
-0.1805
 21
-1.973083333333333
 31
0.0
  0
LINE
  5
111
330
F0
100
AcDbEntity
  8
AM_4
100
AcDbLine
 10
-0.1805
 20
-1.973083333333333
 30
0.0
 11
0.1805
 21
-1.973083333333333
 31
0.0
  0
ENDBLK
  5
F3
330
F0
100
AcDbEntity
  8
0
100
AcDbBlockEnd
  0
BLOCK
  5
114
330
112
100
AcDbEntity
  8
0
100
AcDbBlockBegin
  2
5_070898LW_0_in_069542_4
 70
     2
 10
0.0
 20
0.0
 30
0.0
  3
5_070898LW_0_in_069542_4
  1

  0
ATTDEF
  5
116
330
112
100
AcDbEntity
  8
AM_6
100
AcDbText
 10
7.140625
 20
-1.513083333333333
 30
0.0
 40
0.5
  1
Imperial Insert Lockwasher -Inch
100
AcDbAttributeDefinition
  3

  2
NN
 70
     8
280
     0
  0
ATTDEF
  5
117
330
112
100
AcDbEntity
  8
AM_6
100
AcDbText
 10
7.140625
 20
-2.013083333333333
 30
0.0
 40
0.5
  1
Imperial Bearings
100
AcDbAttributeDefinition
  3

  2
NT
 70
     8
280
     0
  0
ATTDEF
  5
118
330
112
100
AcDbEntity
  8
AM_6
100
AcDbText
 10
7.140625
 20
-2.513083333333333
 30
0.0
 40
0.5
  1
070898LW
100
AcDbAttributeDefinition
  3

  2
NB
 70
     8
280
     0
  0
ATTDEF
  5
119
330
112
100
AcDbEntity
  8
AM_6
100
AcDbText
 10
7.140625
 20
-3.013083333333333
 30
0.0
 40
0.5
  1
$PN.LW
100
AcDbAttributeDefinition
  3

  2
NBSYN
 70
     8
280
     0
  0
ATTDEF
  5
11A
330
112
100
AcDbEntity
  8
AM_6
100
AcDbText
 10
7.140625
 20
-3.513083333333333
 30
0.0
 40
0.5
  1
070898
100
AcDbAttributeDefinition
  3

  2
LINA
 70
     8
280
     0
  0
ATTDEF
  5
11B
330
112
100
AcDbEntity
  8
AM_6
100
AcDbText
 10
7.140625
 20
-4.013083333333333
 30
0.0
 40
0.5
  1
2-3/4
100
AcDbAttributeDefinition
  3

  2
SS
 70
     8
280
     0
  0
ATTDEF
  5
11C
330
112
100
AcDbEntity
  8
AM_6
100
AcDbText
 10
7.140625
 20
-4.513083333333333
 30
0.0
 40
0.5
  1
2.750000
100
AcDbAttributeDefinition
  3

  2
SS1
 70
     8
280
     0
  0
ATTDEF
  5
11D
330
112
100
AcDbEntity
  8
AM_6
100
AcDbText
 10
7.140625
 20
-5.013083333333333
 30
0.0
 40
0.5
  1
070898
100
AcDbAttributeDefinition
  3

  2
PN
 70
     8
280
     0
  0
ATTDEF
  5
11E
330
112
100
AcDbEntity
  8
AM_6
100
AcDbText
 10
7.140625
 20
-5.513083333333333
 30
0.0
 40
0.5
  1
INS-IP-212R
100
AcDbAttributeDefinition
  3

  2
DESCRIPTION
 70
     8
280
     0
  0
ATTDEF
  5
11F
330
112
100
AcDbEntity
  8
AM_6
100
AcDbText
 10
7.140625
 20
-6.013083333333333
 30
0.0
 40
0.5
  1
5.1181
100
AcDbAttributeDefinition
  3

  2
A
 70
     8
280
     0
  0
ATTDEF
  5
120
330
112
100
AcDbEntity
  8
AM_6
100
AcDbText
 10
7.140625
 20
-6.513083333333333
 30
0.0
 40
0.5
  1
1-9/32
100
AcDbAttributeDefinition
  3

  2
B
 70
     8
280
     0
  0
ATTDEF
  5
121
330
112
100
AcDbEntity
  8
AM_6
100
AcDbText
 10
7.140625
 20
-7.013083333333333
 30
0.0
 40
0.5
  1
3-1/2
100
AcDbAttributeDefinition
  3

  2
C
 70
     8
280
     0
  0
ATTDEF
  5
122
330
112
100
AcDbEntity
  8
AM_6
100
AcDbText
 10
7.140625
 20
-7.513083333333333
 30
0.0
 40
0.5
  1
1.219
100
AcDbAttributeDefinition
  3

  2
D
 70
     8
280
     0
  0
ATTDEF
  5
123
330
112
100
AcDbEntity
  8
AM_6
100
AcDbText
 10
7.140625
 20
-8.013083333333334
 30
0.0
 40
0.5
  1
4-9/32
100
AcDbAttributeDefinition
  3

  2
E
 70
     8
280
     0
  0
ATTDEF
  5
124
330
112
100
AcDbEntity
  8
AM_6
100
AcDbText
 10
7.140625
 20
-8.513083333333334
 30
0.0
 40
0.5
  1
0.1900
100
AcDbAttributeDefinition
  3

  2
NDM
 70
     8
280
     0
  0
ATTDEF
  5
125
330
112
100
AcDbEntity
  8
AM_6
100
AcDbText
 10
7.140625
 20
-9.013083333333334
 30
0.0
 40
0.5
  1
0.1450
100
AcDbAttributeDefinition
  3

  2
KDM
 70
     8
280
     0
  0
ATTDEF
  5
126
330
112
100
AcDbEntity
  8
AM_6
100
AcDbText
 10
7.140625
 20
-9.513083333333334
 30
0.0
 40
0.5
  1
3.74
100
AcDbAttributeDefinition
  3

  2
AL
 70
     8
280
     0
  0
ATTDEF
  5
127
330
112
100
AcDbEntity
  8
AM_6
100
AcDbText
 10
7.140625
 20
-10.01308333333333
 30
0.0
 40
0.5
  1
0.50
100
AcDbAttributeDefinition
  3

  2
BL
 70
     8
280
     0
  0
ATTDEF
  5
128
330
112
100
AcDbEntity
  8
AM_6
100
AcDbText
 10
7.140625
 20
-10.51308333333333
 30
0.0
 40
0.5
  1
0.07
100
AcDbAttributeDefinition
  3

  2
CL
 70
     8
280
     0
  0
ATTDEF
  5
129
330
112
100
AcDbEntity
  8
AM_6
100
AcDbText
 10
7.140625
 20
-11.01308333333333
 30
0.0
 40
0.5
  1
0.44
100
AcDbAttributeDefinition
  3

  2
DL
 70
     8
280
     0
  0
ATTDEF
  5
12A
330
112
100
AcDbEntity
  8
AM_6
100
AcDbText
 10
7.140625
 20
-11.51308333333333
 30
0.0
 40
0.5
  1
baldor
100
AcDbAttributeDefinition
  3

  2
COMPANY
 70
     8
280
     0
  0
LINE
  5
12B
330
112
100
AcDbEntity
  8
AM_9
100
AcDbLine
 10
-1.834201388888889
 20
-1.883083333333333
 30
0.0
 11
-1.834201388888889
 21
-1.953083333333333
 31
0.0
  0
LINE
  5
12C
330
112
100
AcDbEntity
  8
AM_9
100
AcDbLine
 10
-1.929233282008483
 20
-1.883083333333333
 30
0.0
 11
-1.929233282008483
 21
-1.953083333333333
 31
0.0
  0
LINE
  5
12D
330
112
100
AcDbEntity
  8
AM_9
100
AcDbLine
 10
1.834201388888889
 20
-1.883083333333333
 30
0.0
 11
1.834201388888889
 21
-1.953083333333333
 31
0.0
  0
LINE
  5
12E
330
112
100
AcDbEntity
  8
AM_9
100
AcDbLine
 10
1.929233282008483
 20
-1.953083333333333
 30
0.0
 11
1.929233282008483
 21
-1.883083333333333
 31
0.0
  0
LINE
  5
12F
330
112
100
AcDbEntity
  8
AM_9
100
AcDbLine
 10
-1.483447698608528
 20
-1.883083333333333
 30
0.0
 11
-1.483447698608528
 21
-1.953083333333333
 31
0.0
  0
LINE
  5
130
330
112
100
AcDbEntity
  8
AM_9
100
AcDbLine
 10
1.483447698608528
 20
-1.883083333333333
 30
0.0
 11
1.483447698608528
 21
-1.953083333333333
 31
0.0
  0
LINE
  5
131
330
112
100
AcDbEntity
  8
AM_9
100
AcDbLine
 10
-1.11613107143439
 20
-1.883083333333333
 30
0.0
 11
-1.11613107143439
 21
-1.953083333333333
 31
0.0
  0
LINE
  5
132
330
112
100
AcDbEntity
  8
AM_9
100
AcDbLine
 10
1.11613107143439
 20
-1.883083333333333
 30
0.0
 11
1.11613107143439
 21
-1.953083333333333
 31
0.0
  0
LINE
  5
133
330
112
100
AcDbEntity
  8
AM_9
100
AcDbLine
 10
-0.6394958122885666
 20
-1.513083333333333
 30
0.0
 11
-0.6394958122885666
 21
-1.953083333333333
 31
0.0
  0
LINE
  5
134
330
112
100
AcDbEntity
  8
AM_9
100
AcDbLine
 10
-0.6823238618419788
 20
-1.883083333333333
 30
0.0
 11
-0.6823238618419788
 21
-1.953083333333333
 31
0.0
  0
LINE
  5
135
330
112
100
AcDbEntity
  8
AM_9
100
AcDbLine
 10
0.981780783008946
 20
-1.883083333333333
 30
0.0
 11
0.9817807830089451
 21
-1.953083333333333
 31
0.0
  0
LINE
  5
136
330
112
100
AcDbEntity
  8
AM_9
100
AcDbLine
 10
-0.9817807830089463
 20
-1.883083333333333
 30
0.0
 11
-0.9817807830089463
 21
-1.953083333333333
 31
0.0
  0
LINE
  5
137
330
112
100
AcDbEntity
  8
AM_9
100
AcDbLine
 10
-0.4513539787141572
 20
-1.883083333333333
 30
0.0
 11
-0.4513539787141572
 21
-1.953083333333333
 31
0.0
  0
LINE
  5
138
330
112
100
AcDbEntity
  8
AM_9
100
AcDbLine
 10
-0.4085259291607449
 20
-1.513083333333333
 30
0.0
 11
-0.6672993698979254
 21
-1.513083333333333
 31
0.0
  0
LINE
  5
139
330
112
100
AcDbEntity
  8
AM_9
100
AcDbLine
 10
-0.4085259291607449
 20
-1.513083333333333
 30
0.0
 11
-0.4085259291607449
 21
-1.953083333333333
 31
0.0
  0
LINE
  5
13A
330
112
100
AcDbEntity
  8
AM_9
100
AcDbLine
 10
-1.364151384357839
 20
-1.883083333333333
 30
0.0
 11
-1.364151384357839
 21
-1.953083333333333
 31
0.0
  0
LINE
  5
13B
330
112
100
AcDbEntity
  8
AM_9
100
AcDbLine
 10
-1.229801095932405
 20
-1.883083333333333
 30
0.0
 11
-1.229801095932405
 21
-1.953083333333333
 31
0.0
  0
LINE
  5
13C
330
112
100
AcDbEntity
  8
AM_9
100
AcDbLine
 10
-1.391998793553742
 20
-1.883083333333333
 30
0.0
 11
-1.391998793553742
 21
-1.953083333333333
 31
0.0
  0
LINE
  5
13D
330
112
100
AcDbEntity
  8
AM_9
100
AcDbLine
 10
1.229801095932395
 20
-1.883083333333333
 30
0.0
 11
1.229801095932395
 21
-1.953083333333333
 31
0.0
  0
LINE
  5
13E
330
112
100
AcDbEntity
  8
AM_9
100
AcDbLine
 10
1.364151384357839
 20
-1.883083333333333
 30
0.0
 11
1.364151384357839
 21
-1.953083333333333
 31
0.0
  0
LINE
  5
13F
330
112
100
AcDbEntity
  8
AM_9
100
AcDbLine
 10
1.391998793553742
 20
-1.953083333333333
 30
0.0
 11
1.391998793553742
 21
-1.883083333333333
 31
0.0
  0
LINE
  5
140
330
112
100
AcDbEntity
  8
AM_9
100
AcDbLine
 10
-0.436329486770104
 20
-1.883083333333333
 30
0.0
 11
-0.436329486770104
 21
-1.513083333333333
 31
0.0
  0
LINE
  5
141
330
112
100
AcDbEntity
  8
AM_9
100
AcDbLine
 10
-0.6672993698979254
 20
-1.513083333333333
 30
0.0
 11
-0.6672993698979254
 21
-1.883083333333333
 31
0.0
  0
LINE
  5
142
330
112
100
AcDbEntity
  8
AM_9
100
AcDbLine
 10
-0.0950000000000002
 20
-1.883083333333333
 30
0.0
 11
-0.0950000000000002
 21
-1.953083333333333
 31
0.0
  0
LINE
  5
143
330
112
100
AcDbEntity
  8
AM_9
100
AcDbLine
 10
0.0949999999999995
 20
-1.883083333333333
 30
0.0
 11
0.0949999999999995
 21
-1.953083333333333
 31
0.0
  0
LINE
  5
144
330
112
100
AcDbEntity
  8
AM_4
100
AcDbLine
 10
-2.140625
 20
-1.883083333333333
 30
0.0
 11
-2.140625
 21
-1.953083333333333
 31
0.0
  0
LINE
  5
145
330
112
100
AcDbEntity
  8
AM_4
100
AcDbLine
 10
2.140625
 20
-1.953083333333333
 30
0.0
 11
2.140625
 21
-1.883083333333333
 31
0.0
  0
LINE
  5
146
330
112
100
AcDbEntity
  8
AM_4
100
AcDbLine
 10
-2.140625
 20
-1.953083333333333
 30
0.0
 11
2.140625
 21
-1.953083333333333
 31
0.0
  0
LINE
  5
147
330
112
100
AcDbEntity
  8
AM_4
100
AcDbLine
 10
-2.140625
 20
-1.883083333333333
 30
0.0
 11
2.140625
 21
-1.883083333333333
 31
0.0
  0
ENDBLK
  5
115
330
112
100
AcDbEntity
  8
0
100
AcDbBlockEnd
  0
BLOCK
  5
14A
330
148
100
AcDbEntity
  8
0
100
AcDbBlockBegin
  2
6_070898I_0_in_069542_4
 70
     2
 10
0.0
 20
0.0
 30
0.0
  3
6_070898I_0_in_069542_4
  1

  0
ATTDEF
  5
14C
330
148
100
AcDbEntity
  8
AM_6
100
AcDbText
 10
7.559050000000001
 20
1.36875
 30
0.0
 40
0.5
  1
Imperial Insert -Inch
100
AcDbAttributeDefinition
  3

  2
NN
 70
     8
280
     0
  0
ATTDEF
  5
14D
330
148
100
AcDbEntity
  8
AM_6
100
AcDbText
 10
7.559050000000001
 20
0.8687499999999997
 30
0.0
 40
0.5
  1
Imperial Bearings
100
AcDbAttributeDefinition
  3

  2
NT
 70
     8
280
     0
  0
ATTDEF
  5
14E
330
148
100
AcDbEntity
  8
AM_6
100
AcDbText
 10
7.559050000000001
 20
0.3687499999999997
 30
0.0
 40
0.5
  1
070898I
100
AcDbAttributeDefinition
  3

  2
NB
 70
     8
280
     0
  0
ATTDEF
  5
14F
330
148
100
AcDbEntity
  8
AM_6
100
AcDbText
 10
7.559050000000001
 20
-0.1312500000000003
 30
0.0
 40
0.5
  1
$PN.I
100
AcDbAttributeDefinition
  3

  2
NBSYN
 70
     8
280
     0
  0
ATTDEF
  5
150
330
148
100
AcDbEntity
  8
AM_6
100
AcDbText
 10
7.559050000000001
 20
-0.6312500000000003
 30
0.0
 40
0.5
  1
070898
100
AcDbAttributeDefinition
  3

  2
LINA
 70
     8
280
     0
  0
ATTDEF
  5
151
330
148
100
AcDbEntity
  8
AM_6
100
AcDbText
 10
7.559050000000001
 20
-1.13125
 30
0.0
 40
0.5
  1
2-3/4
100
AcDbAttributeDefinition
  3

  2
SS
 70
     8
280
     0
  0
ATTDEF
  5
152
330
148
100
AcDbEntity
  8
AM_6
100
AcDbText
 10
7.559050000000001
 20
-1.63125
 30
0.0
 40
0.5
  1
2.750000
100
AcDbAttributeDefinition
  3

  2
SS1
 70
     8
280
     0
  0
ATTDEF
  5
153
330
148
100
AcDbEntity
  8
AM_6
100
AcDbText
 10
7.559050000000001
 20
-2.131250000000001
 30
0.0
 40
0.5
  1
070898
100
AcDbAttributeDefinition
  3

  2
PN
 70
     8
280
     0
  0
ATTDEF
  5
154
330
148
100
AcDbEntity
  8
AM_6
100
AcDbText
 10
7.559050000000001
 20
-2.631250000000001
 30
0.0
 40
0.5
  1
INS-IP-212R
100
AcDbAttributeDefinition
  3

  2
DESCRIPTION
 70
     8
280
     0
  0
ATTDEF
  5
155
330
148
100
AcDbEntity
  8
AM_6
100
AcDbText
 10
7.559050000000001
 20
-3.131250000000001
 30
0.0
 40
0.5
  1
Contact Seal
100
AcDbAttributeDefinition
  3

  2
ST
 70
     8
280
     0
  0
ATTDEF
  5
156
330
148
100
AcDbEntity
  8
AM_6
100
AcDbText
 10
7.559050000000001
 20
-3.631250000000001
 30
0.0
 40
0.5
  1
5.1181
100
AcDbAttributeDefinition
  3

  2
A
 70
     8
280
     0
  0
ATTDEF
  5
157
330
148
100
AcDbEntity
  8
AM_6
100
AcDbText
 10
7.559050000000001
 20
-4.131250000000001
 30
0.0
 40
0.5
  1
1-9/32
100
AcDbAttributeDefinition
  3

  2
B
 70
     8
280
     0
  0
ATTDEF
  5
158
330
148
100
AcDbEntity
  8
AM_6
100
AcDbText
 10
7.559050000000001
 20
-4.631250000000001
 30
0.0
 40
0.5
  1
3-1/2
100
AcDbAttributeDefinition
  3

  2
C
 70
     8
280
     0
  0
ATTDEF
  5
159
330
148
100
AcDbEntity
  8
AM_6
100
AcDbText
 10
7.559050000000001
 20
-5.131250000000001
 30
0.0
 40
0.5
  1
1.219
100
AcDbAttributeDefinition
  3

  2
D
 70
     8
280
     0
  0
ATTDEF
  5
15A
330
148
100
AcDbEntity
  8
AM_6
100
AcDbText
 10
7.559050000000001
 20
-5.631250000000001
 30
0.0
 40
0.5
  1
4-9/32
100
AcDbAttributeDefinition
  3

  2
E
 70
     8
280
     0
  0
ATTDEF
  5
15B
330
148
100
AcDbEntity
  8
AM_6
100
AcDbText
 10
7.559050000000001
 20
-6.131250000000001
 30
0.0
 40
0.5
  1
0.1900
100
AcDbAttributeDefinition
  3

  2
NDM
 70
     8
280
     0
  0
ATTDEF
  5
15C
330
148
100
AcDbEntity
  8
AM_6
100
AcDbText
 10
7.559050000000001
 20
-6.631250000000001
 30
0.0
 40
0.5
  1
0.101
100
AcDbAttributeDefinition
  3

  2
H
 70
     8
280
     0
  0
ATTDEF
  5
15D
330
148
100
AcDbEntity
  8
AM_6
100
AcDbText
 10
7.559050000000001
 20
-7.131250000000001
 30
0.0
 40
0.5
  1
0.1450
100
AcDbAttributeDefinition
  3

  2
KDM
 70
     8
280
     0
  0
ATTDEF
  5
15E
330
148
100
AcDbEntity
  8
AM_6
100
AcDbText
 10
7.559050000000001
 20
-7.631250000000001
 30
0.0
 40
0.5
  1
3.74
100
AcDbAttributeDefinition
  3

  2
AL
 70
     8
280
     0
  0
ATTDEF
  5
15F
330
148
100
AcDbEntity
  8
AM_6
100
AcDbText
 10
7.559050000000001
 20
-8.131250000000001
 30
0.0
 40
0.5
  1
0.50
100
AcDbAttributeDefinition
  3

  2
BL
 70
     8
280
     0
  0
ATTDEF
  5
160
330
148
100
AcDbEntity
  8
AM_6
100
AcDbText
 10
7.559050000000001
 20
-8.631250000000001
 30
0.0
 40
0.5
  1
0.07
100
AcDbAttributeDefinition
  3

  2
CL
 70
     8
280
     0
  0
ATTDEF
  5
161
330
148
100
AcDbEntity
  8
AM_6
100
AcDbText
 10
7.559050000000001
 20
-9.131250000000001
 30
0.0
 40
0.5
  1
0.44
100
AcDbAttributeDefinition
  3

  2
DL
 70
     8
280
     0
  0
ATTDEF
  5
162
330
148
100
AcDbEntity
  8
AM_6
100
AcDbText
 10
7.559050000000001
 20
-9.631250000000001
 30
0.0
 40
0.5
  1
0.8000
100
AcDbAttributeDefinition
  3

  2
LL
 70
     8
280
     0
  0
ATTDEF
  5
163
330
148
100
AcDbEntity
  8
AM_6
100
AcDbText
 10
7.559050000000001
 20
-10.13125
 30
0.0
 40
0.5
  1
0.025
100
AcDbAttributeDefinition
  3

  2
Y
 70
     8
280
     0
  0
ATTDEF
  5
164
330
148
100
AcDbEntity
  8
AM_6
100
AcDbText
 10
7.559050000000001
 20
-10.63125
 30
0.0
 40
0.5
  1
0.025000
100
AcDbAttributeDefinition
  3

  2
Y1
 70
     8
280
     0
  0
ATTDEF
  5
165
330
148
100
AcDbEntity
  8
AM_6
100
AcDbText
 10
7.559050000000001
 20
-11.13125
 30
0.0
 40
0.5
  1
3-15/32
100
AcDbAttributeDefinition
  3

  2
Z
 70
     8
280
     0
  0
ATTDEF
  5
166
330
148
100
AcDbEntity
  8
AM_6
100
AcDbText
 10
7.559050000000001
 20
-11.63125
 30
0.0
 40
0.5
  1
3.468750
100
AcDbAttributeDefinition
  3

  2
Z1
 70
     8
280
     0
  0
ATTDEF
  5
167
330
148
100
AcDbEntity
  8
AM_6
100
AcDbText
 10
7.559050000000001
 20
-12.13125
 30
0.0
 40
0.5
  1
baldor
100
AcDbAttributeDefinition
  3

  2
COMPANY
 70
     8
280
     0
  0
LINE
  5
168
330
148
100
AcDbEntity
  8
AM_9
100
AcDbLine
 10
-0.6687662713922112
 20
0.7653749999999998
 30
0.0
 11
-0.6687662713922112
 21
-1.883083333333334
 31
0.0
  0
LINE
  5
169
330
148
100
AcDbEntity
  8
AM_9
100
AcDbLine
 10
-0.4085259291607451
 20
0.7653749999999998
 30
0.0
 11
-0.4085259291607446
 21
-2.15625
 31
0.0
  0
LINE
  5
16A
330
148
100
AcDbEntity
  8
AM_9
100
AcDbLine
 10
-0.6394958122885668
 20
-1.953083333333333
 30
0.0
 11
-0.6394958122885666
 21
0.7653749999999998
 31
0.0
  0
LINE
  5
16B
330
148
100
AcDbEntity
  8
AM_9
100
AcDbLine
 10
-1.375
 20
0.7653749999999996
 30
0.0
 11
-1.375
 21
-2.15625
 31
0.0
  0
LINE
  5
16C
330
148
100
AcDbEntity
  8
AM_9
100
AcDbLine
 10
1.375
 20
-2.15625
 30
0.0
 11
1.375
 21
0.7653749999999996
 31
0.0
  0
LINE
  5
16D
330
148
100
AcDbEntity
  8
AM_9
100
AcDbLine
 10
-0.4377963882643895
 20
0.7653749999999998
 30
0.0
 11
-0.4377963882643895
 21
-1.883083333333334
 31
0.0
  0
LINE
  5
16E
330
148
100
AcDbEntity
  8
AM_9
100
AcDbLine
 10
-1.447368421052632
 20
1.34375
 30
0.0
 11
-1.447368421052632
 21
0.7653749999999996
 31
0.0
  0
LINE
  5
16F
330
148
100
AcDbEntity
  8
AM_9
100
AcDbLine
 10
1.447368421052632
 20
0.7653749999999996
 30
0.0
 11
1.447368421052632
 21
1.34375
 31
0.0
  0
LINE
  5
170
330
148
100
AcDbEntity
  8
AM_9
100
AcDbLine
 10
-0.4363294867701039
 20
-1.953083333333333
 30
0.0
 11
-0.4363294867701039
 21
-1.883083333333333
 31
0.0
  0
LINE
  5
171
330
148
100
AcDbEntity
  8
AM_9
100
AcDbLine
 10
-0.6672993698979256
 20
-1.883083333333333
 30
0.0
 11
-0.6672993698979255
 21
-1.953083333333333
 31
0.0
  0
LINE
  5
172
330
148
100
AcDbEntity
  8
AM_9
100
AcDbLine
 10
-1.447368421052632
 20
-1.883083333333333
 30
0.0
 11
-1.447368421052632
 21
-1.953083333333333
 31
0.0
  0
LINE
  5
173
330
148
100
AcDbEntity
  8
AM_9
100
AcDbLine
 10
1.447368421052632
 20
-1.953083333333333
 30
0.0
 11
1.447368421052632
 21
-1.883083333333333
 31
0.0
  0
LINE
  5
174
330
148
100
AcDbEntity
  8
AM_9
100
AcDbLine
 10
1.145512985522207
 20
-1.443083333333333
 30
0.0
 11
1.145512985522207
 21
-1.883083333333333
 31
0.0
  0
LINE
  5
175
330
148
100
AcDbEntity
  8
AM_9
100
AcDbLine
 10
1.499066376115481
 20
-1.443083333333333
 30
0.0
 11
1.499066376115481
 21
-1.6875
 31
0.0
  0
LINE
  5
176
330
148
100
AcDbEntity
  8
AM_9
100
AcDbLine
 10
-1.145512985522207
 20
-1.443083333333333
 30
0.0
 11
-1.145512985522207
 21
-1.883083333333333
 31
0.0
  0
LINE
  5
177
330
148
100
AcDbEntity
  8
AM_9
100
AcDbLine
 10
-1.49906637611548
 20
-1.443083333333333
 30
0.0
 11
-1.49906637611548
 21
-1.6875
 31
0.0
  0
LINE
  5
178
330
148
100
AcDbEntity
  8
AM_9
100
AcDbLine
 10
1.145512985522207
 20
-1.443083333333333
 30
0.0
 11
1.691008097302049
 21
-1.443083333333333
 31
0.0
  0
LINE
  5
179
330
148
100
AcDbEntity
  8
AM_9
100
AcDbLine
 10
-1.691008097302049
 20
-1.443083333333333
 30
0.0
 11
-1.145512985522207
 21
-1.443083333333333
 31
0.0
  0
LINE
  5
17A
330
148
100
AcDbEntity
  8
AM_9
100
AcDbLine
 10
1.734375
 20
1.34375
 30
0.0
 11
-1.734375
 21
1.34375
 31
0.0
  0
LINE
  5
17B
330
148
100
AcDbEntity
  8
AM_9
100
AcDbLine
 10
-1.734375
 20
1.368749999999998
 30
0.0
 11
-1.734375
 21
1.34375
 31
0.0
  0
LINE
  5
17C
330
148
100
AcDbEntity
  8
AM_9
100
AcDbLine
 10
1.734375
 20
1.34375
 30
0.0
 11
1.734375
 21
1.368749999999998
 31
0.0
  0
LINE
  5
17D
330
148
100
AcDbEntity
  8
AM_9
100
AcDbLine
 10
-0.0724499999999999
 20
-1.076867323166663
 30
0.0
 11
-0.0724499999999999
 21
-1.860533333333333
 31
0.0
  0
LINE
  5
17E
330
148
100
AcDbEntity
  8
AM_9
100
AcDbLine
 10
0.0724499999999999
 20
-1.860533333333333
 30
0.0
 11
0.0724499999999999
 21
-1.076867323166663
 31
0.0
  0
LINE
  5
17F
330
148
100
AcDbEntity
  8
AM_9
100
AcDbLine
 10
0.0724499999999999
 20
-1.076867323166663
 30
0.0
 11
-0.0724499999999999
 21
-1.076867323166663
 31
0.0
  0
LINE
  5
180
330
148
100
AcDbEntity
  8
AM_9
100
AcDbLine
 10
0.0
 20
-1.043083333333333
 30
0.0
 11
-0.0724499999999999
 21
-1.076867323166663
 31
0.0
  0
LINE
  5
181
330
148
100
AcDbEntity
  8
AM_9
100
AcDbLine
 10
0.0724499999999999
 20
-1.076867323166663
 30
0.0
 11
0.0
 21
-1.043083333333333
 31
0.0
  0
LINE
  5
182
330
148
100
AcDbEntity
  8
AM_9
100
AcDbLine
 10
-1.927083333333333
 20
1.324278846153846
 30
0.0
 11
-1.927083333333333
 21
1.021625
 31
0.0
  0
LINE
  5
183
330
148
100
AcDbEntity
  8
AM_9
100
AcDbLine
 10
1.927083333333333
 20
1.021625
 30
0.0
 11
1.927083333333333
 21
1.324278846153846
 31
0.0
  0
LINE
  5
184
330
148
100
AcDbEntity
  8
AM_9
100
AcDbLine
 10
1.882612179487178
 20
1.36875
 30
0.0
 11
-1.882612179483249
 21
1.36875
 31
0.0
  0
LINE
  5
185
330
148
100
AcDbEntity
  8
AM_9
100
AcDbLine
 10
1.927083333333333
 20
1.324278846153846
 30
0.0
 11
-1.927083333333333
 21
1.324278846153846
 31
0.0
  0
ARC
  5
186
330
148
100
AcDbEntity
  8
AM_9
100
AcDbCircle
 10
-1.882612179487179
 20
1.324278846153845
 30
0.0
 40
0.0444711538461542
100
AcDbArc
 50
90.0
 51
180.0
  0
ARC
  5
187
330
148
100
AcDbEntity
  8
AM_9
100
AcDbCircle
 10
1.882612179487179
 20
1.324278846153845
 30
0.0
 40
0.044471153846154
100
AcDbArc
 50
0.0
 51
90.0
  0
LINE
  5
188
330
148
100
AcDbEntity
  8
AM_9
100
AcDbLine
 10
0.0724499999999999
 20
-1.860533333333333
 30
0.0
 11
-0.0724499999999999
 21
-1.860533333333333
 31
0.0
  0
LINE
  5
189
330
148
100
AcDbEntity
  8
AM_9
100
AcDbLine
 10
-0.0724499999999999
 20
-1.860533333333333
 30
0.0
 11
-0.0949999999999999
 21
-1.883083333333333
 31
0.0
  0
LINE
  5
18A
330
148
100
AcDbEntity
  8
AM_9
100
AcDbLine
 10
0.0949999999999999
 20
-1.883083333333333
 30
0.0
 11
0.0724499999999999
 21
-1.860533333333333
 31
0.0
  0
LINE
  5
18B
330
148
100
AcDbEntity
  8
AM_9
100
AcDbLine
 10
-1.684931633430467
 20
-1.687500004958746
 30
0.0
 11
-1.691008097302049
 21
-1.443083333333333
 31
0.0
  0
LINE
  5
18C
330
148
100
AcDbEntity
  8
AM_9
100
AcDbLine
 10
-1.337454706708775
 20
-1.443083333333333
 30
0.0
 11
-1.331378242837193
 21
-1.687500004958746
 31
0.0
  0
LINE
  5
18D
330
148
100
AcDbEntity
  8
AM_9
100
AcDbLine
 10
1.331378242837193
 20
-1.687500004958746
 30
0.0
 11
1.337454706708776
 21
-1.443083333333333
 31
0.0
  0
LINE
  5
18E
330
148
100
AcDbEntity
  8
AM_9
100
AcDbLine
 10
1.691008097302049
 20
-1.443083333333333
 30
0.0
 11
1.684931633430467
 21
-1.687500004958746
 31
0.0
  0
LINE
  5
18F
330
148
100
AcDbEntity
  8
AM_9
100
AcDbLine
 10
2.147454920499761
 20
-1.6875
 30
0.0
 11
2.18836896705553
 21
-0.5158750000000003
 31
0.0
  0
LINE
  5
190
330
148
100
AcDbEntity
  8
AM_9
100
AcDbLine
 10
-2.18836896705553
 20
-0.5158750000000003
 30
0.0
 11
-2.147454920499761
 21
-1.6875
 31
0.0
  0
LINE
  5
191
330
148
100
AcDbEntity
  8
AM_9
100
AcDbLine
 10
2.153368966601195
 20
1.021624999999999
 30
0.0
 11
-2.153368966598332
 21
1.021624999999999
 31
0.0
  0
ARC
  5
192
330
148
100
AcDbEntity
  8
AM_9
100
AcDbCircle
 10
-2.153368966601195
 20
0.9216249999999988
 30
0.0
 40
0.1000000000000005
100
AcDbArc
 50
90.0
 51
149.9999999999997
  0
ARC
  5
193
330
148
100
AcDbEntity
  8
AM_9
100
AcDbCircle
 10
2.153368966601195
 20
0.9216249999999988
 30
0.0
 40
0.1000000000000008
100
AcDbArc
 50
30.00000000000028
 51
90.0
  0
LINE
  5
194
330
148
100
AcDbEntity
  8
AM_9
100
AcDbLine
 10
2.239971506979639
 20
0.9716249999999996
 30
0.0
 11
-2.239971506979639
 21
0.9716249999999996
 31
0.0
  0
LINE
  5
195
330
148
100
AcDbEntity
  8
AM_9
100
AcDbLine
 10
-2.239971506979639
 20
0.9716249999999996
 30
0.0
 11
-2.35905
 21
0.7653749999999996
 31
0.0
  0
LINE
  5
196
330
148
100
AcDbEntity
  8
AM_9
100
AcDbLine
 10
2.35905
 20
0.7653749999999996
 30
0.0
 11
2.239971506979639
 21
0.9716249999999996
 31
0.0
  0
LINE
  5
197
330
148
100
AcDbEntity
  8
AM_9
100
AcDbLine
 10
-2.4949875
 20
0.1617365016199601
 30
0.0
 11
-2.4949875
 21
0.0877634983800393
 31
0.0
  0
LINE
  5
198
330
148
100
AcDbEntity
  8
AM_9
100
AcDbLine
 10
2.4949875
 20
0.0877634983800393
 30
0.0
 11
2.4949875
 21
0.1617365016199601
 31
0.0
  0
LINE
  5
199
330
148
100
AcDbEntity
  8
AM_9
100
AcDbLine
 10
-2.55905
 20
0.7153749999999999
 30
0.0
 11
-2.55905
 21
0.1987230032399202
 31
0.0
  0
LINE
  5
19A
330
148
100
AcDbEntity
  8
AM_9
100
AcDbLine
 10
2.55905
 20
0.1987230032399202
 30
0.0
 11
2.55905
 21
0.7153749999999999
 31
0.0
  0
LINE
  5
19B
330
148
100
AcDbEntity
  8
AM_9
100
AcDbLine
 10
2.55905
 20
0.1987230032399202
 30
0.0
 11
-2.55905
 21
0.1987230032399202
 31
0.0
  0
LINE
  5
19C
330
148
100
AcDbEntity
  8
AM_9
100
AcDbLine
 10
2.4949875
 20
0.1617365016199601
 30
0.0
 11
-2.4949875
 21
0.1617365016199601
 31
0.0
  0
LINE
  5
19D
330
148
100
AcDbEntity
  8
AM_9
100
AcDbLine
 10
2.4949875
 20
0.1617365016199601
 30
0.0
 11
2.55905
 21
0.1987230032399202
 31
0.0
  0
LINE
  5
19E
330
148
100
AcDbEntity
  8
AM_9
100
AcDbLine
 10
-2.55905
 20
0.1987230032399202
 30
0.0
 11
-2.4949875
 21
0.1617365016199601
 31
0.0
  0
LINE
  5
19F
330
148
100
AcDbEntity
  8
AM_9
100
AcDbLine
 10
2.50905
 20
0.7653749999999996
 30
0.0
 11
-2.509049999989238
 21
0.7653749999999996
 31
0.0
  0
LINE
  5
1A0
330
148
100
AcDbEntity
  8
AM_9
100
AcDbLine
 10
2.55905
 20
0.7153749999999999
 30
0.0
 11
-2.55905
 21
0.7153749999999999
 31
0.0
  0
ARC
  5
1A1
330
148
100
AcDbEntity
  8
AM_9
100
AcDbCircle
 10
-2.50905
 20
0.715374999999999
 30
0.0
 40
0.0500000000000005
100
AcDbArc
 50
90.0
 51
180.0
  0
ARC
  5
1A2
330
148
100
AcDbEntity
  8
AM_9
100
AcDbCircle
 10
2.50905
 20
0.715374999999999
 30
0.0
 40
0.0500000000000003
100
AcDbArc
 50
0.0
 51
90.0
  0
LINE
  5
1A3
330
148
100
AcDbEntity
  8
AM_9
100
AcDbLine
 10
2.4949875
 20
0.0877634983800393
 30
0.0
 11
-2.4949875
 21
0.0877634983800393
 31
0.0
  0
LINE
  5
1A4
330
148
100
AcDbEntity
  8
AM_9
100
AcDbLine
 10
-2.4949875
 20
0.0877634983800393
 30
0.0
 11
-2.55905
 21
0.0507769967600789
 31
0.0
  0
LINE
  5
1A5
330
148
100
AcDbEntity
  8
AM_9
100
AcDbLine
 10
2.55905
 20
0.0507769967600789
 30
0.0
 11
2.4949875
 21
0.0877634983800393
 31
0.0
  0
LINE
  5
1A6
330
148
100
AcDbEntity
  8
AM_9
100
AcDbLine
 10
2.50905
 20
-0.5158750000000003
 30
0.0
 11
-2.509049999989238
 21
-0.5158750000000003
 31
0.0
  0
ARC
  5
1A7
330
148
100
AcDbEntity
  8
AM_9
100
AcDbCircle
 10
-2.509050000000001
 20
-0.4658750000000008
 30
0.0
 40
0.0499999999999998
100
AcDbArc
 50
180.0
 51
270.0
  0
ARC
  5
1A8
330
148
100
AcDbEntity
  8
AM_9
100
AcDbCircle
 10
2.509050000000001
 20
-0.4658750000000008
 30
0.0
 40
0.0499999999999995
100
AcDbArc
 50
270.0
 51
0.0
  0
LINE
  5
1A9
330
148
100
AcDbEntity
  8
AM_9
100
AcDbLine
 10
2.55905
 20
0.0507769967600789
 30
0.0
 11
-2.55905
 21
0.0507769967600789
 31
0.0
  0
LINE
  5
1AA
330
148
100
AcDbEntity
  8
AM_9
100
AcDbLine
 10
2.55905
 20
-0.4658750000000003
 30
0.0
 11
-2.55905
 21
-0.4658750000000003
 31
0.0
  0
LINE
  5
1AB
330
148
100
AcDbEntity
  8
AM_9
100
AcDbLine
 10
-2.55905
 20
0.0507769967600789
 30
0.0
 11
-2.55905
 21
-0.4658750000000003
 31
0.0
  0
LINE
  5
1AC
330
148
100
AcDbEntity
  8
AM_9
100
AcDbLine
 10
2.55905
 20
-0.4658750000000003
 30
0.0
 11
2.55905
 21
0.0507769967600789
 31
0.0
  0
LINE
  5
1AD
330
148
100
AcDbEntity
  8
AM_5
100
AcDbLine
 10
0.0724499999999999
 20
-1.123083333333318
 30
0.0
 11
0.0949999999999999
 21
-1.123083333333318
 31
0.0
  0
LINE
  5
1AE
330
148
100
AcDbEntity
  8
AM_5
100
AcDbLine
 10
0.0949999999999999
 20
-1.123083333333318
 30
0.0
 11
0.0724499999999999
 21
-1.11006408476311
 31
0.0
  0
LINE
  5
1AF
330
148
100
AcDbEntity
  8
AM_5
100
AcDbLine
 10
-0.0724499999999999
 20
-1.123083333333318
 30
0.0
 11
-0.0949999999999999
 21
-1.123083333333318
 31
0.0
  0
LINE
  5
1B0
330
148
100
AcDbEntity
  8
AM_5
100
AcDbLine
 10
-0.0949999999999999
 20
-1.123083333333318
 30
0.0
 11
-0.0724499999999999
 21
-1.11006408476311
 31
0.0
  0
ARC
  5
1B1
330
148
100
AcDbEntity
  8
AM_4
100
AcDbCircle
 10
2.092340561259646
 20
-1.833083333333333
 30
0.0
 40
0.0500000000000003
100
AcDbArc
 50
270.0
 51
357.9999999999993
  0
ARC
  5
1B2
330
148
100
AcDbEntity
  8
AM_4
100
AcDbCircle
 10
-2.092340561259646
 20
-1.833083333333333
 30
0.0
 40
0.0500000000000003
100
AcDbArc
 50
182.0000000000006
 51
270.0
  0
LWPOLYLINE
  5
1B3
330
148
100
AcDbEntity
  8
AM_4
100
AcDbPolyline
 90
        6
 70
     0
 43
0.0
 10
1.68126873179059
 20
-1.834828308168458
 10
1.678876161346741
 20
-1.851182855520174
 10
1.672792404581568
 20
-1.865503833641606
 10
1.663682867646965
 20
-1.87622683994175
 10
1.652512800281862
 20
-1.882155870670556
 10
1.645685988665757
 20
-1.883083333333333
  0
LWPOLYLINE
  5
1B4
330
148
100
AcDbEntity
  8
AM_4
100
AcDbPolyline
 90
        6
 70
     0
 43
0.0
 10
-1.645685988665756
 20
-1.883083333333333
 10
-1.650856707133888
 20
-1.882553406027256
 10
-1.662310724868605
 20
-1.877299174789223
 10
-1.671858426813062
 20
-1.86698359551393
 10
-1.678393042311169
 20
-1.85284150615002
 10
-1.68126873179059
 20
-1.834828308168458
  0
LINE
  5
1B5
330
148
100
AcDbEntity
  8
AM_4
100
AcDbLine
 10
-0.6394958122885663
 20
-2.15625
 30
0.0
 11
-0.6394958122885668
 21
-1.953083333333333
 31
0.0
  0
LINE
  5
1B6
330
148
100
AcDbEntity
  8
AM_4
100
AcDbLine
 10
-0.4363294867701038
 20
-2.15625
 30
0.0
 11
-0.4363294867701039
 21
-1.953083333333333
 31
0.0
  0
LINE
  5
1B7
330
148
100
AcDbEntity
  8
AM_4
100
AcDbLine
 10
-0.6672993698979255
 20
-1.953083333333333
 30
0.0
 11
-0.6672993698979254
 21
-2.15625
 31
0.0
  0
LINE
  5
1B8
330
148
100
AcDbEntity
  8
AM_4
100
AcDbLine
 10
-1.447368421052632
 20
-1.953083333333333
 30
0.0
 11
-1.447368421052632
 21
-2.15625
 31
0.0
  0
LINE
  5
1B9
330
148
100
AcDbEntity
  8
AM_4
100
AcDbLine
 10
1.447368421052632
 20
-2.15625
 30
0.0
 11
1.447368421052632
 21
-1.953083333333333
 31
0.0
  0
LINE
  5
1BA
330
148
100
AcDbEntity
  8
AM_4
100
AcDbLine
 10
1.447368421052632
 20
-2.15625
 30
0.0
 11
-1.447368421052632
 21
-2.15625
 31
0.0
  0
LINE
  5
1BB
330
148
100
AcDbEntity
  8
AM_4
100
AcDbLine
 10
1.499066376115481
 20
-1.6875
 30
0.0
 11
1.499066376115481
 21
-1.883083333333333
 31
0.0
  0
LINE
  5
1BC
330
148
100
AcDbEntity
  8
AM_4
100
AcDbLine
 10
-1.49906637611548
 20
-1.6875
 30
0.0
 11
-1.49906637611548
 21
-1.883083333333333
 31
0.0
  0
LWPOLYLINE
  5
1BD
330
148
100
AcDbEntity
  8
AM_4
100
AcDbPolyline
 90
        6
 70
     0
 43
0.0
 10
1.292132598072483
 20
-1.883083333333333
 10
1.297303316540614
 20
-1.882553406027256
 10
1.308757334275332
 20
-1.877299174789223
 10
1.318305036219789
 20
-1.866983595513929
 10
1.324839651717896
 20
-1.85284150615002
 10
1.327715341197316
 20
-1.834828308168458
  0
LWPOLYLINE
  5
1BE
330
148
100
AcDbEntity
  8
AM_4
100
AcDbPolyline
 90
        6
 70
     0
 43
0.0
 10
-1.327715341197316
 20
-1.834828308168458
 10
-1.325322770753467
 20
-1.851182855520174
 10
-1.319239013988293
 20
-1.865503833641606
 10
-1.310129477053691
 20
-1.87622683994175
 10
-1.298959409688588
 20
-1.882155870670556
 10
-1.292132598072483
 20
-1.883083333333333
  0
LINE
  5
1BF
330
148
100
AcDbEntity
  8
AM_4
100
AcDbLine
 10
-1.68126873179059
 20
-1.834828308168458
 30
0.0
 11
-2.142310102610601
 21
-1.834828308168458
 31
0.0
  0
LINE
  5
1C0
330
148
100
AcDbEntity
  8
AM_4
100
AcDbLine
 10
-1.68126873179059
 20
-1.834828308168458
 30
0.0
 11
-1.684931633430467
 21
-1.687500004958746
 31
0.0
  0
LINE
  5
1C1
330
148
100
AcDbEntity
  8
AM_4
100
AcDbLine
 10
-1.331378242837193
 20
-1.687500004958746
 30
0.0
 11
-1.327715341197316
 21
-1.834828308168458
 31
0.0
  0
LINE
  5
1C2
330
148
100
AcDbEntity
  8
AM_4
100
AcDbLine
 10
1.327715341197316
 20
-1.834828308168458
 30
0.0
 11
-1.327715341197316
 21
-1.834828308168458
 31
0.0
  0
LINE
  5
1C3
330
148
100
AcDbEntity
  8
AM_4
100
AcDbLine
 10
1.327715341197316
 20
-1.834828308168458
 30
0.0
 11
1.331378242837193
 21
-1.687500004958746
 31
0.0
  0
LINE
  5
1C4
330
148
100
AcDbEntity
  8
AM_4
100
AcDbLine
 10
1.684931633430467
 20
-1.687500004958746
 30
0.0
 11
1.68126873179059
 21
-1.834828308168458
 31
0.0
  0
LINE
  5
1C5
330
148
100
AcDbEntity
  8
AM_4
100
AcDbLine
 10
2.142310102610601
 20
-1.834828308168458
 30
0.0
 11
2.147454920499761
 21
-1.6875
 31
0.0
  0
LINE
  5
1C6
330
148
100
AcDbEntity
  8
AM_4
100
AcDbLine
 10
-2.147454920499761
 20
-1.6875
 30
0.0
 11
-2.142310102610601
 21
-1.834828308168458
 31
0.0
  0
LINE
  5
1C7
330
148
100
AcDbEntity
  8
AM_4
100
AcDbLine
 10
2.142310102610601
 20
-1.834828308168458
 30
0.0
 11
1.68126873179059
 21
-1.834828308168458
 31
0.0
  0
ENDBLK
  5
14B
330
148
100
AcDbEntity
  8
0
100
AcDbBlockEnd
  0
BLOCK
  5
1CA
330
1C8
100
AcDbEntity
  8
0
100
AcDbBlockBegin
  2
7_069542H_0_in_069542_4
 70
     2
 10
0.0
 20
0.0
 30
0.0
  3
7_069542H_0_in_069542_4
  1

  0
ATTDEF
  5
1CC
330
1C8
100
AcDbEntity
  8
AM_6
100
AcDbText
 10
10.21875
 20
2.0625
 30
0.0
 40
0.5
  1
P4B-IP -(Contact Seal)-Housing -Inch
100
AcDbAttributeDefinition
  3

  2
NN
 70
     8
280
     0
  0
ATTDEF
  5
1CD
330
1C8
100
AcDbEntity
  8
AM_6
100
AcDbText
 10
10.21875
 20
1.5625
 30
0.0
 40
0.5
  1
Imperial 4 Bolt Piliow Block Bearings
100
AcDbAttributeDefinition
  3

  2
NT
 70
     8
280
     0
  0
ATTDEF
  5
1CE
330
1C8
100
AcDbEntity
  8
AM_6
100
AcDbText
 10
10.21875
 20
1.0625
 30
0.0
 40
0.5
  1
069542H
100
AcDbAttributeDefinition
  3

  2
NB
 70
     8
280
     0
  0
ATTDEF
  5
1CF
330
1C8
100
AcDbEntity
  8
AM_6
100
AcDbText
 10
10.21875
 20
0.5625
 30
0.0
 40
0.5
  1
$PN.H
100
AcDbAttributeDefinition
  3

  2
NBSYN
 70
     8
280
     0
  0
ATTDEF
  5
1D0
330
1C8
100
AcDbEntity
  8
AM_6
100
AcDbText
 10
10.21875
 20
0.0625
 30
0.0
 40
0.5
  1
069542
100
AcDbAttributeDefinition
  3

  2
LINA
 70
     8
280
     0
  0
ATTDEF
  5
1D1
330
1C8
100
AcDbEntity
  8
AM_6
100
AcDbText
 10
10.21875
 20
-0.4375
 30
0.0
 40
0.5
  1
2-3/4
100
AcDbAttributeDefinition
  3

  2
SS
 70
     8
280
     0
  0
ATTDEF
  5
1D2
330
1C8
100
AcDbEntity
  8
AM_6
100
AcDbText
 10
10.21875
 20
-0.9375
 30
0.0
 40
0.5
  1
069542
100
AcDbAttributeDefinition
  3

  2
PN
 70
     8
280
     0
  0
ATTDEF
  5
1D3
330
1C8
100
AcDbEntity
  8
AM_6
100
AcDbText
 10
10.21875
 20
-1.4375
 30
0.0
 40
0.5
  1
P4B-IP-212RE
100
AcDbAttributeDefinition
  3

  2
DESCRIPTION
 70
     8
280
     0
  0
ATTDEF
  5
1D4
330
1C8
100
AcDbEntity
  8
AM_6
100
AcDbText
 10
10.21875
 20
-1.9375
 30
0.0
 40
0.5
  1
Expansion Type
100
AcDbAttributeDefinition
  3

  2
EF
 70
     8
280
     0
  0
ATTDEF
  5
1D5
330
1C8
100
AcDbEntity
  8
AM_6
100
AcDbText
 10
10.21875
 20
-2.4375
 30
0.0
 40
0.5
  1
Contact  Seal
100
AcDbAttributeDefinition
  3

  2
ST
 70
     8
280
     0
  0
ATTDEF
  5
1D6
330
1C8
100
AcDbEntity
  8
AM_6
100
AcDbText
 10
10.21875
 20
-2.9375
 30
0.0
 40
0.5
  1
3-1/2
100
AcDbAttributeDefinition
  3

  2
A
 70
     8
280
     0
  0
ATTDEF
  5
1D7
330
1C8
100
AcDbEntity
  8
AM_6
100
AcDbText
 10
10.21875
 20
-3.4375
 30
0.0
 40
0.5
  1
10-7/16
100
AcDbAttributeDefinition
  3

  2
B
 70
     8
280
     0
  0
ATTDEF
  5
1D8
330
1C8
100
AcDbEntity
  8
AM_6
100
AcDbText
 10
10.21875
 20
-3.9375
 30
0.0
 40
0.5
  1
3-3/4
100
AcDbAttributeDefinition
  3

  2
C
 70
     8
280
     0
  0
ATTDEF
  5
1D9
330
1C8
100
AcDbEntity
  8
AM_6
100
AcDbText
 10
10.21875
 20
-4.4375
 30
0.0
 40
0.5
  1
7-15/16
100
AcDbAttributeDefinition
  3

  2
DMIN
 70
     8
280
     0
  0
ATTDEF
  5
1DA
330
1C8
100
AcDbEntity
  8
AM_6
100
AcDbText
 10
10.21875
 20
-4.9375
 30
0.0
 40
0.5
  1
8-5/16
100
AcDbAttributeDefinition
  3

  2
DMAX
 70
     8
280
     0
  0
ATTDEF
  5
1DB
330
1C8
100
AcDbEntity
  8
AM_6
100
AcDbText
 10
10.21875
 20
-5.4375
 30
0.0
 40
0.5
  1
1-7/8
100
AcDbAttributeDefinition
  3

  2
E
 70
     8
280
     0
  0
ATTDEF
  5
1DC
330
1C8
100
AcDbEntity
  8
AM_6
100
AcDbText
 10
10.21875
 20
-5.9375
 30
0.0
 40
0.5
  1
5/8
100
AcDbAttributeDefinition
  3

  2
F
 70
     8
280
     0
  0
ATTDEF
  5
1DD
330
1C8
100
AcDbEntity
  8
AM_6
100
AcDbText
 10
10.21875
 20
-6.4375
 30
0.0
 40
0.5
  1
15/16
100
AcDbAttributeDefinition
  3

  2
G
 70
     8
280
     0
  0
ATTDEF
  5
1DE
330
1C8
100
AcDbEntity
  8
AM_6
100
AcDbText
 10
10.21875
 20
-6.9375
 30
0.0
 40
0.5
  1
1-7/8
100
AcDbAttributeDefinition
  3

  2
H
 70
     8
280
     0
  0
ATTDEF
  5
1DF
330
1C8
100
AcDbEntity
  8
AM_6
100
AcDbText
 10
10.21875
 20
-7.4375
 30
0.0
 40
0.5
  1
6-7/16
100
AcDbAttributeDefinition
  3

  2
J
 70
     8
280
     0
  0
ATTDEF
  5
1E0
330
1C8
100
AcDbEntity
  8
AM_6
100
AcDbText
 10
10.21875
 20
-7.9375
 30
0.0
 40
0.5
  1
4-9/32
100
AcDbAttributeDefinition
  3

  2
L
 70
     8
280
     0
  0
ATTDEF
  5
1E1
330
1C8
100
AcDbEntity
  8
AM_6
100
AcDbText
 10
10.21875
 20
-8.4375
 30
0.0
 40
0.5
  1
3-1/4
100
AcDbAttributeDefinition
  3

  2
M
 70
     8
280
     0
  0
ATTDEF
  5
1E2
330
1C8
100
AcDbEntity
  8
AM_6
100
AcDbText
 10
10.21875
 20
-8.9375
 30
0.0
 40
0.5
  1
1-3/32
100
AcDbAttributeDefinition
  3

  2
R
 70
     8
280
     0
  0
ATTDEF
  5
1E3
330
1C8
100
AcDbEntity
  8
AM_6
100
AcDbText
 10
10.21875
 20
-9.4375
 30
0.0
 40
0.5
  1
2-13/32
100
AcDbAttributeDefinition
  3

  2
S
 70
     8
280
     0
  0
ATTDEF
  5
1E4
330
1C8
100
AcDbEntity
  8
AM_6
100
AcDbText
 10
10.21875
 20
-9.9375
 30
0.0
 40
0.5
  1
1/4
100
AcDbAttributeDefinition
  3

  2
X
 70
     8
280
     0
  0
ATTDEF
  5
1E5
330
1C8
100
AcDbEntity
  8
AM_6
100
AcDbText
 10
10.21875
 20
-10.4375
 30
0.0
 40
0.5
  1
0.025
100
AcDbAttributeDefinition
  3

  2
Y
 70
     8
280
     0
  0
ATTDEF
  5
1E6
330
1C8
100
AcDbEntity
  8
AM_6
100
AcDbText
 10
10.21875
 20
-10.9375
 30
0.0
 40
0.5
  1
3-15/32
100
AcDbAttributeDefinition
  3

  2
Z
 70
     8
280
     0
  0
ATTDEF
  5
1E7
330
1C8
100
AcDbEntity
  8
AM_6
100
AcDbText
 10
10.21875
 20
-11.4375
 30
0.0
 40
0.5
  1
baldor
100
AcDbAttributeDefinition
  3

  2
COMPANY
 70
     8
280
     0
  0
LINE
  5
1E8
330
1C8
100
AcDbEntity
  8
AM_9
100
AcDbLine
 10
0.9374999999999981
 20
-1.3125
 30
0.0
 11
0.9374999999999981
 21
1.3125
 31
0.0
  0
LINE
  5
1E9
330
1C8
100
AcDbEntity
  8
AM_9
100
AcDbLine
 10
-0.9375
 20
-1.3125
 30
0.0
 11
-0.9375
 21
1.3125
 31
0.0
  0
LINE
  5
1EA
330
1C8
100
AcDbEntity
  8
AM_9
100
AcDbLine
 10
-2.353448275862069
 20
-1.3125
 30
0.0
 11
-2.353448275862069
 21
1.3125
 31
0.0
  0
LINE
  5
1EB
330
1C8
100
AcDbEntity
  8
AM_9
100
AcDbLine
 10
2.353448275862069
 20
-1.3125
 30
0.0
 11
2.353448275862069
 21
1.3125
 31
0.0
  0
LINE
  5
1EC
330
1C8
100
AcDbEntity
  8
AM_9
100
AcDbLine
 10
4.53125
 20
-0.9375000000000008
 30
0.0
 11
4.53125
 21
0.9374999999999999
 31
0.0
  0
LINE
  5
1ED
330
1C8
100
AcDbEntity
  8
AM_9
100
AcDbLine
 10
2.625
 20
-1.3125
 30
0.0
 11
2.625
 21
1.3125
 31
0.0
  0
LINE
  5
1EE
330
1C8
100
AcDbEntity
  8
AM_9
100
AcDbLine
 10
-4.53125
 20
0.9374999999999999
 30
0.0
 11
-4.53125
 21
-0.9375000000000002
 31
0.0
  0
LINE
  5
1EF
330
1C8
100
AcDbEntity
  8
AM_9
100
AcDbLine
 10
-2.625000000000003
 20
-1.3125
 30
0.0
 11
-2.625000000000003
 21
1.3125
 31
0.0
  0
LINE
  5
1F0
330
1C8
100
AcDbEntity
  8
AM_9
100
AcDbLine
 10
-0.9375
 20
1.3125
 30
0.0
 11
-3.96875
 21
1.3125
 31
0.0
  0
LINE
  5
1F1
330
1C8
100
AcDbEntity
  8
AM_9
100
AcDbLine
 10
-0.9375
 20
-1.3125
 30
0.0
 11
-3.96875
 21
-1.3125
 31
0.0
  0
LINE
  5
1F2
330
1C8
100
AcDbEntity
  8
AM_9
100
AcDbLine
 10
3.96875
 20
1.3125
 30
0.0
 11
0.9374999999999981
 21
1.3125
 31
0.0
  0
LINE
  5
1F3
330
1C8
100
AcDbEntity
  8
AM_9
100
AcDbLine
 10
3.96875
 20
-1.3125
 30
0.0
 11
0.9374999999999981
 21
-1.3125
 31
0.0
  0
LINE
  5
1F4
330
1C8
100
AcDbEntity
  8
AM_9
100
AcDbLine
 10
2.55905
 20
-1.6875
 30
0.0
 11
2.55905
 21
1.6875
 31
0.0
  0
LINE
  5
1F5
330
1C8
100
AcDbEntity
  8
AM_9
100
AcDbLine
 10
-2.55905
 20
1.6875
 30
0.0
 11
-2.55905
 21
-1.6875
 31
0.0
  0
ELLIPSE
  5
1F6
330
1C8
100
AcDbEntity
  8
AM_9
100
AcDbEllipse
 10
-1.593749999998547
 20
-0.0000000000007845
 30
0.0
 11
3.061616997863580E-17
 21
0.4999999999992156
 31
0.0
210
0.0
220
0.0
230
1.0
 40
0.8660254037844292
 41
3.121254297619325
 42
3.141592653589793
  0
ELLIPSE
  5
1F7
330
1C8
100
AcDbEntity
  8
AM_9
100
AcDbEllipse
 10
-1.593749999999999
 20
0.0000000000000001
 30
0.0
 11
3.061616997868385E-17
 21
0.5000000000000004
 31
0.0
210
0.0
220
0.0
230
1.0
 40
0.8660254037844372
 41
0.0
 42
3.047619858975682
  0
LINE
  5
1F8
330
1C8
100
AcDbEntity
  8
AM_9
100
AcDbLine
 10
-1.599105986093339
 20
-0.4999617068442688
 30
0.0
 11
-1.593750000000023
 21
-0.5000000000000001
 31
0.0
  0
LWPOLYLINE
  5
1F9
330
1C8
100
AcDbEntity
  8
AM_9
100
AcDbPolyline
 90
       28
 70
     0
 43
0.0
 10
-1.596565858990974
 20
0.4999894215747328
 10
-1.640376448033736
 20
0.4970273599822476
 10
-1.686135079907453
 20
0.4882186293098627
 10
-1.730233180381512
 20
0.4737375920541557
 10
-1.773318018001215
 20
0.453068363259773
 10
-1.813949571717154
 20
0.4267824087478047
 10
-1.851455726163634
 20
0.3953693008974277
 10
-1.885860863949433
 20
0.358654413498365
 10
-1.91657872443642
 20
0.3173388736428975
 10
-1.943125358013607
 20
0.2721806674266931
 10
-1.965391200422367
 20
0.2232502028070673
 10
-1.98312350169715
 20
0.1712999814752262
 10
-1.996038242416388
 20
0.1173119633517982
 10
-2.004267472568261
 20
0.0590776645398743
 10
-2.007032734325098
 20
0.0000000000000002
 10
-2.004558563128309
 20
-0.055658930697789
 10
-1.997214224769055
 20
-0.1107874897400994
 10
-1.985116982094006
 20
-0.1643454046621503
 10
-1.968293757335572
 20
-0.2157828236371099
 10
-1.946905485557114
 20
-0.264680183527825
 10
-1.921283433753447
 20
-0.3101454843329225
 10
-1.891288294625276
 20
-0.3520263880158709
 10
-1.857350215623149
 20
-0.3896277567733529
 10
-1.820010883700197
 20
-0.422255848885656
 10
-1.779262802145663
 20
-0.4496621512923771
 10
-1.735649970972162
 20
-0.4714675898706149
 10
-1.689938936738661
 20
-0.4872462394161541
 10
-1.643750295423927
 20
-0.4966198776227922
  0
LINE
  5
1FA
330
1C8
100
AcDbEntity
  8
AM_9
100
AcDbLine
 10
-1.59375
 20
0.5000000000000003
 30
0.0
 11
-1.596565858990974
 21
0.4999894215747328
 31
0.0
  0
LINE
  5
1FD
330
1C8
100
AcDbEntity
  8
AM_7
100
AcDbLine
 10
0.0
 20
2.0625
 30
0.0
 11
0.0
 21
-2.3325
 31
0.0
  0
LINE
  5
1FE
330
1C8
100
AcDbEntity
  8
AM_7
100
AcDbLine
 10
-4.55
 20
0.9375
 30
0.0
 11
-3.574999999999999
 21
0.9374999999999998
 31
0.0
  0
LINE
  5
1FF
330
1C8
100
AcDbEntity
  8
AM_7
100
AcDbLine
 10
-3.968749999999999
 20
0.5437499999999997
 30
0.0
 11
-3.968749999999999
 21
1.33125
 31
0.0
  0
LINE
  5
200
330
1C8
100
AcDbEntity
  8
AM_7
100
AcDbLine
 10
-4.55
 20
-0.9375
 30
0.0
 11
-3.574999999999999
 21
-0.9375
 31
0.0
  0
LINE
  5
201
330
1C8
100
AcDbEntity
  8
AM_7
100
AcDbLine
 10
-4.15625
 20
-1.33125
 30
0.0
 11
-4.15625
 21
-0.54375
 31
0.0
  0
LINE
  5
202
330
1C8
100
AcDbEntity
  8
AM_7
100
AcDbLine
 10
-4.15625
 20
0.54375
 30
0.0
 11
-4.15625
 21
1.33125
 31
0.0
  0
LINE
  5
203
330
1C8
100
AcDbEntity
  8
AM_7
100
AcDbLine
 10
-3.968749999999999
 20
-1.33125
 30
0.0
 11
-3.968749999999999
 21
-0.54375
 31
0.0
  0
LINE
  5
204
330
1C8
100
AcDbEntity
  8
AM_7
100
AcDbLine
 10
3.575
 20
-0.9375
 30
0.0
 11
4.55
 21
-0.9375
 31
0.0
  0
LINE
  5
205
330
1C8
100
AcDbEntity
  8
AM_7
100
AcDbLine
 10
3.96875
 20
-1.33125
 30
0.0
 11
3.96875
 21
-0.54375
 31
0.0
  0
LINE
  5
206
330
1C8
100
AcDbEntity
  8
AM_7
100
AcDbLine
 10
4.15625
 20
-1.33125
 30
0.0
 11
4.15625
 21
-0.54375
 31
0.0
  0
LINE
  5
207
330
1C8
100
AcDbEntity
  8
AM_7
100
AcDbLine
 10
3.574999999999999
 20
0.9375
 30
0.0
 11
4.55
 21
0.9375
 31
0.0
  0
LINE
  5
208
330
1C8
100
AcDbEntity
  8
AM_7
100
AcDbLine
 10
4.15625
 20
0.54375
 30
0.0
 11
4.15625
 21
1.33125
 31
0.0
  0
LINE
  5
209
330
1C8
100
AcDbEntity
  8
AM_7
100
AcDbLine
 10
3.968749999999999
 20
0.54375
 30
0.0
 11
3.968749999999999
 21
1.33125
 31
0.0
  0
LINE
  5
20A
330
1C8
100
AcDbEntity
  8
AM_4
100
AcDbLine
 10
-5.21875
 20
-1.5
 30
0.0
 11
-4.84375
 21
-1.875
 31
0.0
  0
LINE
  5
20B
330
1C8
100
AcDbEntity
  8
AM_4
100
AcDbLine
 10
-4.84375
 20
1.875
 30
0.0
 11
-5.21875
 21
1.5
 31
0.0
  0
LINE
  5
20C
330
1C8
100
AcDbEntity
  8
AM_4
100
AcDbLine
 10
-5.21875
 20
-1.5
 30
0.0
 11
-5.21875
 21
1.5
 31
0.0
  0
LINE
  5
20D
330
1C8
100
AcDbEntity
  8
AM_4
100
AcDbLine
 10
-3.5625
 20
-1.875
 30
0.0
 11
-3.375
 21
-1.6875
 31
0.0
  0
LINE
  5
20E
330
1C8
100
AcDbEntity
  8
AM_4
100
AcDbLine
 10
-3.375
 20
1.6875
 30
0.0
 11
-3.5625
 21
1.875
 31
0.0
  0
LINE
  5
20F
330
1C8
100
AcDbEntity
  8
AM_4
100
AcDbLine
 10
-3.5625
 20
1.875
 30
0.0
 11
-4.84375
 21
1.875
 31
0.0
  0
ARC
  5
210
330
1C8
100
AcDbEntity
  8
AM_4
100
AcDbCircle
 10
-3.968749999999999
 20
-0.9375
 30
0.0
 40
0.375
100
AcDbArc
 50
270.0
 51
90.0
  0
LINE
  5
211
330
1C8
100
AcDbEntity
  8
AM_4
100
AcDbLine
 10
-3.96875
 20
-0.5624999999999999
 30
0.0
 11
-4.15625
 21
-0.5625000000000001
 31
0.0
  0
LINE
  5
212
330
1C8
100
AcDbEntity
  8
AM_4
100
AcDbLine
 10
-4.15625
 20
-1.3125
 30
0.0
 11
-3.96875
 21
-1.3125
 31
0.0
  0
ARC
  5
213
330
1C8
100
AcDbEntity
  8
AM_4
100
AcDbCircle
 10
-4.15625
 20
-0.9375
 30
0.0
 40
0.3749999999999999
100
AcDbArc
 50
90.0
 51
270.0
  0
LINE
  5
214
330
1C8
100
AcDbEntity
  8
AM_4
100
AcDbLine
 10
-3.96875
 20
1.3125
 30
0.0
 11
-4.15625
 21
1.3125
 31
0.0
  0
ARC
  5
215
330
1C8
100
AcDbEntity
  8
AM_4
100
AcDbCircle
 10
-3.968749999999999
 20
0.9374999999999999
 30
0.0
 40
0.375
100
AcDbArc
 50
270.0
 51
90.0
  0
LINE
  5
216
330
1C8
100
AcDbEntity
  8
AM_4
100
AcDbLine
 10
-4.15625
 20
0.5625
 30
0.0
 11
-3.96875
 21
0.5624999999999999
 31
0.0
  0
ARC
  5
217
330
1C8
100
AcDbEntity
  8
AM_4
100
AcDbCircle
 10
-4.15625
 20
0.9375
 30
0.0
 40
0.375
100
AcDbArc
 50
90.0
 51
270.0
  0
LINE
  5
218
330
1C8
100
AcDbEntity
  8
AM_4
100
AcDbLine
 10
-5.031249999999999
 20
-1.6875
 30
0.0
 11
-5.031249999999999
 21
1.6875
 31
0.0
  0
LINE
  5
219
330
1C8
100
AcDbEntity
  8
AM_4
100
AcDbLine
 10
-3.5625
 20
-1.875
 30
0.0
 11
-4.84375
 21
-1.875
 31
0.0
  0
LINE
  5
21A
330
1C8
100
AcDbEntity
  8
AM_4
100
AcDbLine
 10
3.5625
 20
1.875
 30
0.0
 11
3.375
 21
1.6875
 31
0.0
  0
LINE
  5
21B
330
1C8
100
AcDbEntity
  8
AM_4
100
AcDbLine
 10
3.375
 20
-1.6875
 30
0.0
 11
3.5625
 21
-1.875
 31
0.0
  0
LINE
  5
21C
330
1C8
100
AcDbEntity
  8
AM_4
100
AcDbLine
 10
4.843750000000001
 20
-1.875
 30
0.0
 11
5.21875
 21
-1.5
 31
0.0
  0
LINE
  5
21D
330
1C8
100
AcDbEntity
  8
AM_4
100
AcDbLine
 10
5.21875
 20
1.5
 30
0.0
 11
4.84375
 21
1.875
 31
0.0
  0
LINE
  5
21E
330
1C8
100
AcDbEntity
  8
AM_4
100
AcDbLine
 10
4.15625
 20
-0.5625000000000001
 30
0.0
 11
3.96875
 21
-0.5625000000000001
 31
0.0
  0
ARC
  5
21F
330
1C8
100
AcDbEntity
  8
AM_4
100
AcDbCircle
 10
4.15625
 20
-0.9375000000000001
 30
0.0
 40
0.3749999999999999
100
AcDbArc
 50
270.0
 51
90.0
  0
LINE
  5
220
330
1C8
100
AcDbEntity
  8
AM_4
100
AcDbLine
 10
3.96875
 20
-1.3125
 30
0.0
 11
4.15625
 21
-1.3125
 31
0.0
  0
ARC
  5
221
330
1C8
100
AcDbEntity
  8
AM_4
100
AcDbCircle
 10
3.96875
 20
-0.9375
 30
0.0
 40
0.3749999999999999
100
AcDbArc
 50
90.0
 51
270.0
  0
LINE
  5
222
330
1C8
100
AcDbEntity
  8
AM_4
100
AcDbLine
 10
4.843750000000001
 20
-1.875
 30
0.0
 11
3.5625
 21
-1.875
 31
0.0
  0
LINE
  5
223
330
1C8
100
AcDbEntity
  8
AM_4
100
AcDbLine
 10
4.84375
 20
1.875
 30
0.0
 11
3.5625
 21
1.875
 31
0.0
  0
LINE
  5
224
330
1C8
100
AcDbEntity
  8
AM_4
100
AcDbLine
 10
4.15625
 20
1.3125
 30
0.0
 11
3.96875
 21
1.3125
 31
0.0
  0
ARC
  5
225
330
1C8
100
AcDbEntity
  8
AM_4
100
AcDbCircle
 10
4.15625
 20
0.9375
 30
0.0
 40
0.3750000000000001
100
AcDbArc
 50
270.0
 51
90.0
  0
LINE
  5
226
330
1C8
100
AcDbEntity
  8
AM_4
100
AcDbLine
 10
3.96875
 20
0.5624999999999998
 30
0.0
 11
4.15625
 21
0.5624999999999999
 31
0.0
  0
ARC
  5
227
330
1C8
100
AcDbEntity
  8
AM_4
100
AcDbCircle
 10
3.968749999999999
 20
0.9374999999999999
 30
0.0
 40
0.3750000000000001
100
AcDbArc
 50
90.0
 51
270.0
  0
LINE
  5
228
330
1C8
100
AcDbEntity
  8
AM_4
100
AcDbLine
 10
5.21875
 20
-1.5
 30
0.0
 11
5.21875
 21
1.5
 31
0.0
  0
LINE
  5
229
330
1C8
100
AcDbEntity
  8
AM_4
100
AcDbLine
 10
5.031250000000001
 20
-1.687499999999999
 30
0.0
 11
5.031250000000001
 21
1.687499999999999
 31
0.0
  0
LINE
  5
22A
330
1C8
100
AcDbEntity
  8
AM_4
100
AcDbLine
 10
3.24375
 20
-1.125
 30
0.0
 11
3.24375
 21
1.125
 31
0.0
  0
LINE
  5
22B
330
1C8
100
AcDbEntity
  8
AM_4
100
AcDbLine
 10
-3.24375
 20
-1.125
 30
0.0
 11
-3.24375
 21
1.125
 31
0.0
  0
LINE
  5
22C
330
1C8
100
AcDbEntity
  8
AM_4
100
AcDbLine
 10
-3.541379818640917
 20
1.125
 30
0.0
 11
-3.541379818640917
 21
1.853879818640916
 31
0.0
  0
LINE
  5
22D
330
1C8
100
AcDbEntity
  8
AM_4
100
AcDbLine
 10
-3.541379818640917
 20
-1.853879818640916
 30
0.0
 11
-3.541379818640917
 21
-1.125
 31
0.0
  0
LINE
  5
22E
330
1C8
100
AcDbEntity
  8
AM_4
100
AcDbLine
 10
3.541379818640915
 20
1.125
 30
0.0
 11
3.541379818640915
 21
1.853879818640916
 31
0.0
  0
LINE
  5
22F
330
1C8
100
AcDbEntity
  8
AM_4
100
AcDbLine
 10
3.541379818640915
 20
-1.853879818640915
 30
0.0
 11
3.541379818640915
 21
-1.125
 31
0.0
  0
LINE
  5
230
330
1C8
100
AcDbEntity
  8
AM_4
100
AcDbLine
 10
-3.355210796374122
 20
1.125
 30
0.0
 11
-3.355210796374122
 21
1.6875
 31
0.0
  0
LINE
  5
231
330
1C8
100
AcDbEntity
  8
AM_4
100
AcDbLine
 10
-3.355210796374122
 20
-1.6875
 30
0.0
 11
-3.355210796374122
 21
-1.125
 31
0.0
  0
LINE
  5
232
330
1C8
100
AcDbEntity
  8
AM_4
100
AcDbLine
 10
3.355210796374122
 20
1.125
 30
0.0
 11
3.355210796374122
 21
1.6875
 31
0.0
  0
LINE
  5
233
330
1C8
100
AcDbEntity
  8
AM_4
100
AcDbLine
 10
3.355210796374122
 20
-1.6875
 30
0.0
 11
3.355210796374122
 21
-1.125
 31
0.0
  0
ELLIPSE
  5
234
330
1C8
100
AcDbEntity
  8
AM_4
100
AcDbEllipse
 10
-1.59375
 20
0.0000000000000001
 30
0.0
 11
3.061616997868384E-17
 21
0.5000000000000002
 31
0.0
210
0.0
220
0.0
230
1.0
 40
0.8660254037844397
 41
3.141592653589793
 42
6.283185307179586
  0
ELLIPSE
  5
235
330
1C8
100
AcDbEntity
  8
AM_4
100
AcDbEllipse
 10
-1.64375
 20
0.0000000000000002
 30
0.0
 11
-7.347880794884129E-17
 21
-0.4000000000000005
 31
0.0
210
0.0
220
0.0
230
1.0
 40
0.8660254037844388
 41
0.0
 42
6.283185307179586
  0
LWPOLYLINE
  5
236
330
1C8
100
AcDbEntity
  8
AM_4
100
AcDbPolyline
 90
       22
 70
     0
 43
0.0
 10
-2.040160161513775
 20
0.0000000000000002
 10
-2.039736357644318
 20
-0.0218180016667477
 10
-2.036930882572935
 20
-0.0601302851786387
 10
-2.031509298478252
 20
-0.098113061038709
 10
-2.023498560191904
 20
-0.1355363628191459
 10
-2.012940091922507
 20
-0.1721785844020772
 10
-1.999890270158776
 20
-0.2078210222229619
 10
-1.984420705537584
 20
-0.242248987461419
 10
-1.966618519032348
 20
-0.2752531117533997
 10
-1.946586535938579
 20
-0.3066308792016757
 10
-1.924443298336377
 20
-0.3361883956151316
 10
-1.900322783951616
 20
-0.3637423654805118
 10
-1.874373724918929
 20
-0.3891221954987509
 10
-1.846758450942285
 20
-0.4121720898915782
 10
-1.817651238927063
 20
-0.4327529618347122
 10
-1.78723622729084
 20
-0.4507439733770751
 10
-1.755705030790756
 20
-0.4660435438137313
 10
-1.723254249731096
 20
-0.47856973297773
 10
-1.690083088860573
 20
-0.488259997406099
 10
-1.656391280359029
 20
-0.4950704113160233
 10
-1.622377449283013
 20
-0.4989745184299969
 10
-1.592969017751398
 20
-0.499999237582819
  0
LWPOLYLINE
  5
237
330
1C8
100
AcDbEntity
  8
AM_4
100
AcDbPolyline
 90
       23
 70
     0
 43
0.0
 10
-1.594722629429904
 20
0.4999988174885703
 10
-1.601114161330101
 20
0.4999322067421549
 10
-1.63517658652687
 20
0.4978501034995431
 10
-1.668964634062594
 20
0.4928769307813364
 10
-1.702289466399478
 20
0.4850470157408495
 10
-1.734968148145181
 20
0.4744071658547921
 10
-1.766820973564391
 20
0.4610167000328197
 10
-1.797671338804713
 20
0.4449478307953889
 10
-1.827345923433756
 20
0.4262863104074239
 10
-1.855675271720537
 20
0.4051321609191989
 10
-1.882494793309474
 20
0.3816002882875437
 10
-1.90764612667221
 20
0.355820797466301
 10
-1.930978743290501
 20
0.3279388773636942
 10
-1.952351631207552
 20
0.2981142008081418
 10
-1.971634892200991
 20
0.2665198665551648
 10
-1.988711116014084
 20
0.2333409779831482
 10
-2.003476446915641
 20
0.1987729922908586
 10
-2.015841316549981
 20
0.1630199806363464
 10
-2.025730868026931
 20
0.1262929194295854
 10
-2.033085130622492
 20
0.088808097274895
 10
-2.037859020326148
 20
0.050785682716482
 10
-2.040022242012075
 20
0.0124484635511505
 10
-2.040160161513775
 20
0.0000000000000002
  0
LINE
  5
238
330
1C8
100
AcDbEntity
  8
AM_4
100
AcDbLine
 10
-3.149999999999999
 20
-1.125
 30
0.0
 11
-3.149999999999999
 21
1.125
 31
0.0
  0
LINE
  5
239
330
1C8
100
AcDbEntity
  8
AM_4
100
AcDbLine
 10
-3.149999999999999
 20
-1.125
 30
0.0
 11
-3.541379818640917
 21
-1.125
 31
0.0
  0
LINE
  5
23A
330
1C8
100
AcDbEntity
  8
AM_4
100
AcDbLine
 10
-3.164873378535481
 20
-1.6875
 30
0.0
 11
-3.164873378535481
 21
-1.125
 31
0.0
  0
LINE
  5
23B
330
1C8
100
AcDbEntity
  8
AM_4
100
AcDbLine
 10
-3.164873378535481
 20
1.125
 30
0.0
 11
-3.164873378535481
 21
1.6875
 31
0.0
  0
LINE
  5
23C
330
1C8
100
AcDbEntity
  8
AM_4
100
AcDbLine
 10
-3.149999999999999
 20
1.125
 30
0.0
 11
-3.541379818640917
 21
1.125
 31
0.0
  0
LWPOLYLINE
  5
23D
330
1C8
100
AcDbEntity
  8
AM_4
100
AcDbPolyline
 90
       30
 70
     0
 43
0.0
 10
-1.593750000000023
 20
-0.5000000000000001
 10
-1.545924061941803
 20
-0.4969711981068982
 10
-1.497826184477536
 20
-0.4877850298248804
 10
-1.450337015233379
 20
-0.4725817582668009
 10
-1.404377705081242
 20
-0.4516537731337738
 10
-1.36026851162039
 20
-0.4250078790549255
 10
-1.318645219588968
 20
-0.3930471638310525
 10
-1.280336738159793
 20
-0.3563599369611816
 10
-1.245465074613331
 20
-0.3147529892094464
 10
-1.21481529471502
 20
-0.2690373068723444
 10
-1.189041270407304
 20
-0.2200581364441758
 10
-1.16852527530019
 20
-0.1681790186552747
 10
-1.153479698717451
 20
-0.1139691874483932
 10
-1.144249000139083
 20
-0.0584635932934777
 10
-1.141056140391749
 20
-0.0027869579496905
 10
-1.143721862086742
 20
0.0531019965660642
 10
-1.152184858999509
 20
0.1081414116848096
 10
-1.166325954544845
 20
0.1614978530794215
 10
-1.185905612166114
 20
0.2130054928841816
 10
-1.210497699046113
 20
0.2617221835259685
 10
-1.240131653987241
 20
0.3075268365187733
 10
-1.274205450783087
 20
0.3496376786261675
 10
-1.312014742319611
 20
0.3872881290651891
 10
-1.353572926843005
 20
0.4203477874116786
 10
-1.39804576561302
 20
0.4482039238344971
 10
-1.444530649749002
 20
0.4703232688560046
 10
-1.492352029614879
 20
0.4863483742296609
 10
-1.541178975550422
 20
0.4963007617509964
 10
-1.590047141511376
 20
0.4999817322628418
 10
-1.59375
 20
0.5000000000000003
  0
LINE
  5
23E
330
1C8
100
AcDbEntity
  8
AM_4
100
AcDbLine
 10
3.164873378535481
 20
-1.6875
 30
0.0
 11
3.164873378535481
 21
-1.125
 31
0.0
  0
LINE
  5
23F
330
1C8
100
AcDbEntity
  8
AM_4
100
AcDbLine
 10
3.541379818640915
 20
-1.125
 30
0.0
 11
3.149999999999999
 21
-1.125
 31
0.0
  0
LINE
  5
240
330
1C8
100
AcDbEntity
  8
AM_4
100
AcDbLine
 10
3.149999999999999
 20
1.125
 30
0.0
 11
3.149999999999999
 21
-1.125
 31
0.0
  0
LINE
  5
241
330
1C8
100
AcDbEntity
  8
AM_4
100
AcDbLine
 10
3.541379818640915
 20
1.125
 30
0.0
 11
3.149999999999999
 21
1.125
 31
0.0
  0
LINE
  5
242
330
1C8
100
AcDbEntity
  8
AM_4
100
AcDbLine
 10
3.164873378535481
 20
1.125
 30
0.0
 11
3.164873378535481
 21
1.6875
 31
0.0
  0
LINE
  5
243
330
1C8
100
AcDbEntity
  8
AM_4
100
AcDbLine
 10
-0.8530166666666666
 20
-1.6875
 30
0.0
 11
-0.8530166666666666
 21
1.6875
 31
0.0
  0
LINE
  5
244
330
1C8
100
AcDbEntity
  8
AM_4
100
AcDbLine
 10
-3.375
 20
-1.6875
 30
0.0
 11
3.375
 21
-1.6875
 31
0.0
  0
LINE
  5
245
330
1C8
100
AcDbEntity
  8
AM_4
100
AcDbLine
 10
3.375
 20
1.6875
 30
0.0
 11
-3.375
 21
1.6875
 31
0.0
  0
LINE
  5
246
330
1C8
100
AcDbEntity
  8
AM_4
100
AcDbLine
 10
0.8530166666666666
 20
-1.6875
 30
0.0
 11
0.8530166666666666
 21
1.6875
 31
0.0
  0
LINE
  5
247
330
1C8
100
AcDbEntity
  8
AM_4
100
AcDbLine
 10
0.7592666666666674
 20
-1.6875
 30
0.0
 11
0.7592666666666674
 21
1.6875
 31
0.0
  0
LINE
  5
248
330
1C8
100
AcDbEntity
  8
AM_4
100
AcDbLine
 10
-0.7592666666666666
 20
-1.6875
 30
0.0
 11
-0.7592666666666666
 21
1.6875
 31
0.0
  0
ENDBLK
  5
1CB
330
1C8
100
AcDbEntity
  8
0
100
AcDbBlockEnd
  0
ENDSEC
  0
SECTION
  2
ENTITIES
  0
INSERT
  5
6F
330
1F
100
AcDbEntity
  8
0
100
AcDbBlockReference
  2
1_069542_4
 10
0.0
 20
0.0
 30
0.0
  0
POINT
  5
24A
330
1F
100
AcDbEntity
  8
ConnectionPoints
100
AcDbPoint
 10
0.0
 20
-1.953083333333334
 30
-1.834201388888889
  0
POINT
  5
24B
330
1F
100
AcDbEntity
  8
ConnectionPoints
100
AcDbPoint
 10
0.0
 20
-1.953083333333333
 30
1.834201388888889
  0
POINT
  5
24C
330
1F
100
AcDbEntity
  8
ConnectionPoints
100
AcDbPoint
 10
0.0
 20
-1.883083333333333
 30
0.0000000000000001
  0
POINT
  5
24D
330
1F
100
AcDbEntity
  8
ConnectionPoints
100
AcDbPoint
 10
0.0
 20
-2.15625
 30
0.0000000000000001
  0
POINT
  5
24E
330
1F
100
AcDbEntity
  8
ConnectionPoints
100
AcDbPoint
 10
0.0
 20
-2.082083333333333
 30
0.0000000000000001
  0
POINT
  5
24F
330
1F
100
AcDbEntity
  8
ConnectionPoints
100
AcDbPoint
 10
0.0
 20
-1.883083333333333
 30
1.834201388888889
  0
POINT
  5
250
330
1F
100
AcDbEntity
  8
ConnectionPoints
100
AcDbPoint
 10
0.0
 20
-2.05525
 30
1.834201388888889
  0
POINT
  5
251
330
1F
100
AcDbEntity
  8
ConnectionPoints
100
AcDbPoint
 10
0.0
 20
-1.883083333333333
 30
-1.834201388888889
  0
POINT
  5
252
330
1F
100
AcDbEntity
  8
ConnectionPoints
100
AcDbPoint
 10
0.0
 20
-2.05525
 30
-1.834201388888889
  0
POINT
  5
253
330
1F
100
AcDbEntity
  8
ConnectionPoints
100
AcDbPoint
 10
0.0
 20
-1.883083333333333
 30
0.0000000000000001
  0
POINT
  5
254
330
1F
100
AcDbEntity
  8
ConnectionPoints
100
AcDbPoint
 10
-1.64375
 20
0.0000000000000002
 30
2.847058514941343
  0
POINT
  5
255
330
1F
100
AcDbEntity
  8
ConnectionPoints
100
AcDbPoint
 10
0.0
 20
-2.15625
 30
0.0000000000000001
  0
POINT
  5
256
330
1F
100
AcDbEntity
  8
ConnectionPoints
100
AcDbPoint
 10
0.0
 20
-2.40625
 30
0.0000000000000001
  0
ENDSEC
  0
SECTION
  2
OBJECTS
  0
DICTIONARY
  5
C
330
0
100
AcDbDictionary
281
     1
  3
ACAD_DETAILVIEWSTYLE
350
25E
  3
ACAD_GROUP
350
D
  3
ACAD_LAYOUT
350
1A
  3
ACAD_MATERIAL
350
43
  3
ACAD_MLEADERSTYLE
350
6B
  3
ACAD_MLINESTYLE
350
17
  3
ACAD_PLOTSETTINGS
350
19
  3
ACAD_PLOTSTYLENAME
350
E
  3
ACAD_SCALELIST
350
47
  3
ACAD_SECTIONVIEWSTYLE
350
25F
  3
ACAD_TABLESTYLE
350
69
  3
ACAD_VISUALSTYLE
350
2A
  3
ACDB_RECOMPOSE_DATA
350
25B
  3
AcDbVariableDictionary
350
257
  0
SUN
  5
6D
330
29
100
AcDbSun
 90
        1
290
     0
 63
     7
421
 16777215
 40
1.0
291
     1
 91
  2455826
 92
 54000000
292
     0
 70
     2
 71
   256
280
     1
  0
DICTIONARY
  5
25E
102
{ACAD_REACTORS
330
C
102
}
330
C
100
AcDbDictionary
281
     1
  0
DICTIONARY
  5
D
102
{ACAD_REACTORS
330
C
102
}
330
C
100
AcDbDictionary
281
     1
  0
DICTIONARY
  5
1A
102
{ACAD_REACTORS
330
C
102
}
330
C
100
AcDbDictionary
281
     1
  3
Layout1
350
1E
  3
Layout2
350
26
  3
Model
350
22
  0
DICTIONARY
  5
43
102
{ACAD_REACTORS
330
C
102
}
330
C
100
AcDbDictionary
281
     1
  3
ByBlock
350
45
  3
ByLayer
350
44
  3
Global
350
46
  0
DICTIONARY
  5
6B
102
{ACAD_REACTORS
330
C
102
}
330
C
100
AcDbDictionary
281
     1
  3
Standard
350
6C
  0
DICTIONARY
  5
17
102
{ACAD_REACTORS
330
C
102
}
330
C
100
AcDbDictionary
281
     1
  3
Standard
350
18
  0
DICTIONARY
  5
19
102
{ACAD_REACTORS
330
C
102
}
330
C
100
AcDbDictionary
281
     1
  0
ACDBDICTIONARYWDFLT
  5
E
102
{ACAD_REACTORS
330
C
102
}
330
C
100
AcDbDictionary
281
     1
  3
Normal
350
F
100
AcDbDictionaryWithDefault
340
F
  0
DICTIONARY
  5
47
102
{ACAD_REACTORS
330
C
102
}
330
C
100
AcDbDictionary
281
     1
  3
A0
350
48
  3
A1
350
49
  3
A2
350
4A
  3
A3
350
4B
  3
A4
350
4C
  3
A5
350
4D
  3
A6
350
4E
  3
A7
350
4F
  3
A8
350
50
  3
A9
350
51
  3
B0
350
52
  3
B1
350
53
  3
B2
350
54
  3
B3
350
55
  3
B4
350
56
  3
B5
350
57
  3
B6
350
58
  3
B7
350
59
  3
B8
350
5A
  3
B9
350
5B
  3
C0
350
5C
  3
C1
350
5D
  3
C2
350
5E
  3
C3
350
5F
  3
C4
350
60
  3
C5
350
61
  3
C6
350
62
  3
C7
350
63
  3
C8
350
64
  3
C9
350
65
  3
D0
350
66
  3
D1
350
67
  3
D2
350
68
  0
DICTIONARY
  5
25F
102
{ACAD_REACTORS
330
C
102
}
330
C
100
AcDbDictionary
281
     1
  0
DICTIONARY
  5
69
102
{ACAD_REACTORS
330
C
102
}
330
C
100
AcDbDictionary
281
     1
  3
Standard
350
6A
  0
DICTIONARY
  5
2A
102
{ACAD_REACTORS
330
C
102
}
330
C
100
AcDbDictionary
281
     1
  3
2dWireframe
350
2F
  3
Basic
350
32
  3
Brighten
350
36
  3
ColorChange
350
3A
  3
Conceptual
350
34
  3
Dim
350
35
  3
EdgeColorOff
350
3D
  3
Facepattern
350
39
  3
Flat
350
2B
  3
FlatWithEdges
350
2C
  3
Gouraud
350
2D
  3
GouraudWithEdges
350
2E
  3
Hidden
350
31
  3
JitterOff
350
3B
  3
Linepattern
350
38
  3
OverhangOff
350
3C
  3
Realistic
350
33
  3
Shaded
350
42
  3
Shaded with edges
350
41
  3
Shades of Gray
350
3E
  3
Sketchy
350
3F
  3
Thicken
350
37
  3
Wireframe
350
30
  3
X-Ray
350
40
  0
XRECORD
  5
25B
102
{ACAD_REACTORS
330
C
102
}
330
C
100
AcDbXrecord
280
     1
 90
        1
330
6A
  0
DICTIONARY
  5
257
102
{ACAD_REACTORS
330
C
102
}
330
C
100
AcDbDictionary
281
     1
  3
CANNOSCALE
350
258
  3
CMLEADERSTYLE
350
25D
  3
CTABLESTYLE
350
25C
  0
LAYOUT
  5
1E
102
{ACAD_REACTORS
330
1A
102
}
330
1A
100
AcDbPlotSettings
  1

  2
none_device
  4

  6

 40
0.0
 41
0.0
 42
0.0
 43
0.0
 44
0.0
 45
0.0
 46
0.0
 47
0.0
 48
0.0
 49
0.0
140
0.0
141
0.0
142
1.0
143
1.0
 70
   688
 72
     0
 73
     0
 74
     5
  7

 75
    16
 76
     0
 77
     2
 78
   300
147
1.0
148
0.0
149
0.0
100
AcDbLayout
  1
Layout1
 70
     1
 71
     1
 10
0.0
 20
0.0
 11
12.0
 21
9.0
 12
0.0
 22
0.0
 32
0.0
 14
1.000000000000000E+20
 24
1.000000000000000E+20
 34
1.000000000000000E+20
 15
-1.000000000000000E+20
 25
-1.000000000000000E+20
 35
-1.000000000000000E+20
146
0.0
 13
0.0
 23
0.0
 33
0.0
 16
1.0
 26
0.0
 36
0.0
 17
0.0
 27
1.0
 37
0.0
 76
     0
330
1B
  0
LAYOUT
  5
26
102
{ACAD_REACTORS
330
1A
102
}
330
1A
100
AcDbPlotSettings
  1

  2
none_device
  4

  6

 40
0.0
 41
0.0
 42
0.0
 43
0.0
 44
0.0
 45
0.0
 46
0.0
 47
0.0
 48
0.0
 49
0.0
140
0.0
141
0.0
142
1.0
143
1.0
 70
   688
 72
     0
 73
     0
 74
     5
  7

 75
    16
 76
     0
 77
     2
 78
   300
147
1.0
148
0.0
149
0.0
100
AcDbLayout
  1
Layout2
 70
     1
 71
     2
 10
0.0
 20
0.0
 11
0.0
 21
0.0
 12
0.0
 22
0.0
 32
0.0
 14
0.0
 24
0.0
 34
0.0
 15
0.0
 25
0.0
 35
0.0
146
0.0
 13
0.0
 23
0.0
 33
0.0
 16
1.0
 26
0.0
 36
0.0
 17
0.0
 27
1.0
 37
0.0
 76
     0
330
23
  0
LAYOUT
  5
22
102
{ACAD_REACTORS
330
1A
102
}
330
1A
100
AcDbPlotSettings
  1

  2
none_device
  4
Letter_(8.50_x_11.00_Inches)
  6

 40
6.35
 41
6.35
 42
6.35000508
 43
6.35000508
 44
215.9
 45
279.4
 46
0.0
 47
0.0
 48
0.0
 49
0.0
140
0.0
141
0.0
142
1.0
143
1.0
 70
  1712
 72
     0
 73
     0
 74
     0
  7

 75
     0
 76
     0
 77
     2
 78
   300
147
1.0
148
0.0
149
0.0
100
AcDbLayout
  1
Model
 70
     1
 71
     0
 10
0.0
 20
0.0
 11
12.0
 21
9.0
 12
0.0
 22
0.0
 32
0.0
 14
1.000000000000000E+20
 24
1.000000000000000E+20
 34
1.000000000000000E+20
 15
-1.000000000000000E+20
 25
-1.000000000000000E+20
 35
-1.000000000000000E+20
146
0.0
 13
0.0
 23
0.0
 33
0.0
 16
1.0
 26
0.0
 36
0.0
 17
0.0
 27
1.0
 37
0.0
 76
     0
330
1F
331
29
  0
MATERIAL
  5
45
102
{ACAD_REACTORS
330
43
102
}
330
43
100
AcDbMaterial
  1
ByBlock
 72
     1
 94
      127
  0
MATERIAL
  5
44
102
{ACAD_REACTORS
330
43
102
}
330
43
100
AcDbMaterial
  1
ByLayer
 72
     1
 94
      127
  0
MATERIAL
  5
46
102
{ACAD_REACTORS
330
43
102
}
330
43
100
AcDbMaterial
  1
Global
 72
     1
 94
      127
  0
MLEADERSTYLE
  5
6C
102
{ACAD_REACTORS
330
6B
102
}
330
6B
100
AcDbMLeaderStyle
179
     2
170
     2
171
     1
172
     0
 90
        2
 40
0.0
 41
0.0
173
     1
 91
-1056964608
340
14
 92
       -2
290
     1
 42
0.09
291
     1
 43
0.36
  3
Standard
341
0
 44
0.18
300

342
11
174
     1
178
     6
175
     1
176
     0
 93
-1056964608
 45
0.18
292
     0
297
     0
 46
0.18
343
0
 94
-1056964608
 47
1.0
 49
1.0
140
1.0
293
     1
141
0.0
294
     1
177
     0
142
1.0
295
     0
296
     0
143
0.125
271
     0
272
     9
273
     9
298
     0
  0
MLINESTYLE
  5
18
102
{ACAD_REACTORS
330
17
102
}
330
17
100
AcDbMlineStyle
  2
Standard
 70
     0
  3

 62
   256
 51
90.0
 52
90.0
 71
     2
 49
0.5
 62
   256
  6
BYLAYER
 49
-0.5
 62
   256
  6
BYLAYER
  0
ACDBPLACEHOLDER
  5
F
102
{ACAD_REACTORS
330
E
102
}
330
E
  0
SCALE
  5
48
102
{ACAD_REACTORS
330
47
102
}
330
47
100
AcDbScale
 70
     0
300
1:1
140
1.0
141
1.0
290
     1
  0
SCALE
  5
49
102
{ACAD_REACTORS
330
47
102
}
330
47
100
AcDbScale
 70
     0
300
1:2
140
1.0
141
2.0
290
     0
  0
SCALE
  5
4A
102
{ACAD_REACTORS
330
47
102
}
330
47
100
AcDbScale
 70
     0
300
1:4
140
1.0
141
4.0
290
     0
  0
SCALE
  5
4B
102
{ACAD_REACTORS
330
47
102
}
330
47
100
AcDbScale
 70
     0
300
1:5
140
1.0
141
5.0
290
     0
  0
SCALE
  5
4C
102
{ACAD_REACTORS
330
47
102
}
330
47
100
AcDbScale
 70
     0
300
1:8
140
1.0
141
8.0
290
     0
  0
SCALE
  5
4D
102
{ACAD_REACTORS
330
47
102
}
330
47
100
AcDbScale
 70
     0
300
1:10
140
1.0
141
10.0
290
     0
  0
SCALE
  5
4E
102
{ACAD_REACTORS
330
47
102
}
330
47
100
AcDbScale
 70
     0
300
1:16
140
1.0
141
16.0
290
     0
  0
SCALE
  5
4F
102
{ACAD_REACTORS
330
47
102
}
330
47
100
AcDbScale
 70
     0
300
1:20
140
1.0
141
20.0
290
     0
  0
SCALE
  5
50
102
{ACAD_REACTORS
330
47
102
}
330
47
100
AcDbScale
 70
     0
300
1:30
140
1.0
141
30.0
290
     0
  0
SCALE
  5
51
102
{ACAD_REACTORS
330
47
102
}
330
47
100
AcDbScale
 70
     0
300
1:40
140
1.0
141
40.0
290
     0
  0
SCALE
  5
52
102
{ACAD_REACTORS
330
47
102
}
330
47
100
AcDbScale
 70
     0
300
1:50
140
1.0
141
50.0
290
     0
  0
SCALE
  5
53
102
{ACAD_REACTORS
330
47
102
}
330
47
100
AcDbScale
 70
     0
300
1:100
140
1.0
141
100.0
290
     0
  0
SCALE
  5
54
102
{ACAD_REACTORS
330
47
102
}
330
47
100
AcDbScale
 70
     0
300
2:1
140
2.0
141
1.0
290
     0
  0
SCALE
  5
55
102
{ACAD_REACTORS
330
47
102
}
330
47
100
AcDbScale
 70
     0
300
4:1
140
4.0
141
1.0
290
     0
  0
SCALE
  5
56
102
{ACAD_REACTORS
330
47
102
}
330
47
100
AcDbScale
 70
     0
300
8:1
140
8.0
141
1.0
290
     0
  0
SCALE
  5
57
102
{ACAD_REACTORS
330
47
102
}
330
47
100
AcDbScale
 70
     0
300
10:1
140
10.0
141
1.0
290
     0
  0
SCALE
  5
58
102
{ACAD_REACTORS
330
47
102
}
330
47
100
AcDbScale
 70
     0
300
100:1
140
100.0
141
1.0
290
     0
  0
SCALE
  5
59
102
{ACAD_REACTORS
330
47
102
}
330
47
100
AcDbScale
 70
     0
300
1/128" = 1'-0"
140
0.0078125
141
12.0
290
     0
  0
SCALE
  5
5A
102
{ACAD_REACTORS
330
47
102
}
330
47
100
AcDbScale
 70
     0
300
1/64" = 1'-0"
140
0.015625
141
12.0
290
     0
  0
SCALE
  5
5B
102
{ACAD_REACTORS
330
47
102
}
330
47
100
AcDbScale
 70
     0
300
1/32" = 1'-0"
140
0.03125
141
12.0
290
     0
  0
SCALE
  5
5C
102
{ACAD_REACTORS
330
47
102
}
330
47
100
AcDbScale
 70
     0
300
1/16" = 1'-0"
140
0.0625
141
12.0
290
     0
  0
SCALE
  5
5D
102
{ACAD_REACTORS
330
47
102
}
330
47
100
AcDbScale
 70
     0
300
3/32" = 1'-0"
140
0.09375
141
12.0
290
     0
  0
SCALE
  5
5E
102
{ACAD_REACTORS
330
47
102
}
330
47
100
AcDbScale
 70
     0
300
1/8" = 1'-0"
140
0.125
141
12.0
290
     0
  0
SCALE
  5
5F
102
{ACAD_REACTORS
330
47
102
}
330
47
100
AcDbScale
 70
     0
300
3/16" = 1'-0"
140
0.1875
141
12.0
290
     0
  0
SCALE
  5
60
102
{ACAD_REACTORS
330
47
102
}
330
47
100
AcDbScale
 70
     0
300
1/4" = 1'-0"
140
0.25
141
12.0
290
     0
  0
SCALE
  5
61
102
{ACAD_REACTORS
330
47
102
}
330
47
100
AcDbScale
 70
     0
300
3/8" = 1'-0"
140
0.375
141
12.0
290
     0
  0
SCALE
  5
62
102
{ACAD_REACTORS
330
47
102
}
330
47
100
AcDbScale
 70
     0
300
1/2" = 1'-0"
140
0.5
141
12.0
290
     0
  0
SCALE
  5
63
102
{ACAD_REACTORS
330
47
102
}
330
47
100
AcDbScale
 70
     0
300
3/4" = 1'-0"
140
0.75
141
12.0
290
     0
  0
SCALE
  5
64
102
{ACAD_REACTORS
330
47
102
}
330
47
100
AcDbScale
 70
     0
300
1" = 1'-0"
140
1.0
141
12.0
290
     0
  0
SCALE
  5
65
102
{ACAD_REACTORS
330
47
102
}
330
47
100
AcDbScale
 70
     0
300
1-1/2" = 1'-0"
140
1.5
141
12.0
290
     0
  0
SCALE
  5
66
102
{ACAD_REACTORS
330
47
102
}
330
47
100
AcDbScale
 70
     0
300
3" = 1'-0"
140
3.0
141
12.0
290
     0
  0
SCALE
  5
67
102
{ACAD_REACTORS
330
47
102
}
330
47
100
AcDbScale
 70
     0
300
6" = 1'-0"
140
6.0
141
12.0
290
     0
  0
SCALE
  5
68
102
{ACAD_REACTORS
330
47
102
}
330
47
100
AcDbScale
 70
     0
300
1'-0" = 1'-0"
140
12.0
141
12.0
290
     0
  0
TABLESTYLE
  5
6A
102
{ACAD_REACTORS
330
69
102
}
102
{ACAD_XDICTIONARY
360
259
102
}
330
69
100
AcDbTableStyle
  3
Standard
 70
     0
 71
     0
 40
0.06
 41
0.06
280
     0
281
     0
  7
Standard
140
0.18
170
     2
 62
     0
 63
   257
283
     0
 90
        4
 91
        0
  1

274
    -2
284
     1
 64
     0
275
    -2
285
     1
 65
     0
276
    -2
286
     1
 66
     0
277
    -2
287
     1
 67
     0
278
    -2
288
     1
 68
     0
279
    -2
289
     1
 69
     0
  7
Standard
140
0.25
170
     5
 62
     0
 63
   257
283
     0
 90
        4
 91
        0
  1

274
    -2
284
     1
 64
     0
275
    -2
285
     1
 65
     0
276
    -2
286
     1
 66
     0
277
    -2
287
     1
 67
     0
278
    -2
288
     1
 68
     0
279
    -2
289
     1
 69
     0
  7
Standard
140
0.18
170
     5
 62
     0
 63
   257
283
     0
 90
        4
 91
        0
  1

274
    -2
284
     1
 64
     0
275
    -2
285
     1
 65
     0
276
    -2
286
     1
 66
     0
277
    -2
287
     1
 67
     0
278
    -2
288
     1
 68
     0
279
    -2
289
     1
 69
     0
  0
VISUALSTYLE
  5
2F
102
{ACAD_REACTORS
330
2A
102
}
330
2A
100
AcDbVisualStyle
  2
2dWireframe
 70
     4
177
     3
291
     0
 70
    58
 90
        0
176
     1
 90
        2
176
     1
 90
        0
176
     1
 90
        0
176
     1
 40
0.6
176
     1
 40
30.0
176
     1
 62
     7
420
 16777215
176
     1
 90
        1
176
     1
 90
        4
176
     1
 62
     7
176
     1
 62
   257
176
     1
 90
        1
176
     1
 90
        1
176
     1
 40
1.0
176
     1
 90
        0
176
     1
 62
   257
176
     1
 40
1.0
176
     1
 90
        1
176
     1
 90
        6
176
     1
 90
        2
176
     1
 62
     7
176
     1
 90
        5
176
     1
 90
        0
176
     1
 90
        0
176
     1
290
     0
176
     1
 90
        1
176
     1
 40
0.0
176
     1
 90
        0
176
     1
290
     1
176
     1
290
     1
176
     1
290
     0
176
     1
290
     0
176
     1
290
     0
176
     1
290
     0
176
     1
290
     0
176
     1
290
     0
176
     1
290
     0
176
     1
 90
       50
176
     1
 40
0.0
176
     1
 40
1.0
176
     1
 90
        0
176
     1
 62
    18
420
        0
176
     1
 90
       50
176
     1
 90
        3
176
     1
 62
     5
420
      255
176
     1
290
     0
176
     1
 90
       50
176
     1
 90
       50
176
     1
 90
       50
176
     1
290
     0
176
     1
 90
       50
176
     1
 62
   256
176
     0
 40
1.0
176
     0
 90
        2
176
     1
  1
strokes_ogs.tif
176
     1
290
     0
176
     1
 40
1.0
176
     1
 40
1.0
176
     1
  0
VISUALSTYLE
  5
32
102
{ACAD_REACTORS
330
2A
102
}
330
2A
100
AcDbVisualStyle
  2
Basic
 70
     7
177
     3
291
     1
 70
    58
 90
        1
176
     1
 90
        0
176
     1
 90
        1
176
     1
 90
        0
176
     1
 40
0.6
176
     1
 40
30.0
176
     1
 62
     7
420
 16777215
176
     1
 90
        0
176
     1
 90
        4
176
     1
 62
     7
176
     1
 62
   257
176
     1
 90
        1
176
     1
 90
        1
176
     1
 40
1.0
176
     1
 90
        8
176
     1
 62
     7
176
     1
 40
1.0
176
     1
 90
        1
176
     1
 90
        6
176
     1
 90
        2
176
     1
 62
     7
176
     1
 90
        5
176
     1
 90
        0
176
     1
 90
        0
176
     1
290
     0
176
     1
 90
        1
176
     1
 40
0.0
176
     1
 90
        0
176
     1
290
     0
176
     1
290
     1
176
     1
290
     1
176
     1
290
     0
176
     1
290
     0
176
     1
290
     0
176
     1
290
     0
176
     1
290
     0
176
     1
290
     0
176
     1
 90
       50
176
     1
 40
0.0
176
     1
 40
1.0
176
     1
 90
        0
176
     1
 62
    18
420
        0
176
     1
 90
       50
176
     1
 90
        3
176
     1
 62
     5
420
      255
176
     1
290
     0
176
     1
 90
       50
176
     1
 90
       50
176
     1
 90
       50
176
     1
290
     0
176
     1
 90
       50
176
     1
 62
   256
176
     0
 40
1.0
176
     0
 90
        2
176
     1
  1
strokes_ogs.tif
176
     1
290
     0
176
     1
 40
1.0
176
     1
 40
1.0
176
     1
  0
VISUALSTYLE
  5
36
102
{ACAD_REACTORS
330
2A
102
}
330
2A
100
AcDbVisualStyle
  2
Brighten
 70
    12
177
     3
291
     1
 70
    58
 90
        2
176
     1
 90
        2
176
     1
 90
        0
176
     1
 90
        0
176
     1
 40
0.6
176
     1
 40
30.0
176
     1
 62
     7
420
 16777215
176
     1
 90
        1
176
     1
 90
        4
176
     1
 62
     7
176
     1
 62
   257
176
     1
 90
        1
176
     1
 90
        1
176
     1
 40
1.0
176
     1
 90
        8
176
     1
 62
     7
176
     1
 40
1.0
176
     1
 90
        1
176
     1
 90
        6
176
     1
 90
        2
176
     1
 62
     7
176
     1
 90
        5
176
     1
 90
        0
176
     1
 90
        0
176
     1
290
     0
176
     1
 90
        1
176
     1
 40
50.0
176
     1
 90
        0
176
     1
290
     0
176
     1
290
     1
176
     1
290
     1
176
     1
290
     0
176
     1
290
     0
176
     1
290
     0
176
     1
290
     0
176
     1
290
     0
176
     1
290
     0
176
     1
 90
       50
176
     1
 40
0.0
176
     1
 40
1.0
176
     1
 90
        0
176
     1
 62
    18
420
        0
176
     1
 90
       50
176
     1
 90
        3
176
     1
 62
     5
420
      255
176
     1
290
     0
176
     1
 90
       50
176
     1
 90
       50
176
     1
 90
       50
176
     1
290
     0
176
     1
 90
       50
176
     1
 62
   256
176
     0
 40
1.0
176
     0
 90
        2
176
     1
  1
strokes_ogs.tif
176
     1
290
     0
176
     1
 40
1.0
176
     1
 40
1.0
176
     1
  0
VISUALSTYLE
  5
3A
102
{ACAD_REACTORS
330
2A
102
}
330
2A
100
AcDbVisualStyle
  2
ColorChange
 70
    16
177
     3
291
     1
 70
    58
 90
        2
176
     1
 90
        2
176
     1
 90
        3
176
     1
 90
        0
176
     1
 40
0.6
176
     1
 40
30.0
176
     1
 62
     8
420
  8421504
176
     1
 90
        1
176
     1
 90
        4
176
     1
 62
     7
176
     1
 62
   257
176
     1
 90
        1
176
     1
 90
        1
176
     1
 40
1.0
176
     1
 90
        8
176
     1
 62
     8
420
  8421504
176
     1
 40
1.0
176
     1
 90
        1
176
     1
 90
        6
176
     1
 90
        2
176
     1
 62
     7
176
     1
 90
        5
176
     1
 90
        0
176
     1
 90
        0
176
     1
290
     0
176
     1
 90
        1
176
     1
 40
0.0
176
     1
 90
        0
176
     1
290
     0
176
     1
290
     1
176
     1
290
     1
176
     1
290
     0
176
     1
290
     0
176
     1
290
     0
176
     1
290
     0
176
     1
290
     0
176
     1
290
     0
176
     1
 90
       50
176
     1
 40
0.0
176
     1
 40
1.0
176
     1
 90
        0
176
     1
 62
    18
420
        0
176
     1
 90
       50
176
     1
 90
        3
176
     1
 62
     5
420
      255
176
     1
290
     0
176
     1
 90
       50
176
     1
 90
       50
176
     1
 90
       50
176
     1
290
     0
176
     1
 90
       50
176
     1
 62
   256
176
     0
 40
1.0
176
     0
 90
        2
176
     1
  1
strokes_ogs.tif
176
     1
290
     0
176
     1
 40
1.0
176
     1
 40
1.0
176
     1
  0
VISUALSTYLE
  5
34
102
{ACAD_REACTORS
330
2A
102
}
330
2A
100
AcDbVisualStyle
  2
Conceptual
 70
     9
177
     3
291
     0
 70
    58
 90
        3
176
     1
 90
        2
176
     1
 90
        0
176
     1
 90
        0
176
     1
 40
0.6
176
     1
 40
30.0
176
     1
 62
     7
420
 16777215
176
     1
 90
        2
176
     1
 90
        2
176
     1
 62
     7
176
     1
 62
   257
176
     1
 90
        1
176
     1
 90
        1
176
     1
 40
179.0
176
     1
 90
        8
176
     1
 62
     7
176
     1
 40
1.0
176
     1
 90
        1
176
     1
 90
        6
176
     1
 90
        2
176
     1
 62
     7
176
     1
 90
        3
176
     1
 90
        0
176
     1
 90
        0
176
     1
290
     0
176
     1
 90
        1
176
     1
 40
0.0
176
     1
 90
        0
176
     1
290
     0
176
     1
290
     1
176
     1
290
     1
176
     1
290
     0
176
     1
290
     0
176
     1
290
     0
176
     1
290
     0
176
     1
290
     0
176
     1
290
     0
176
     1
 90
       50
176
     1
 40
0.0
176
     1
 40
1.0
176
     1
 90
        0
176
     1
 62
    18
420
        0
176
     1
 90
       50
176
     1
 90
        3
176
     1
 62
     5
420
      255
176
     1
290
     0
176
     1
 90
       50
176
     1
 90
       50
176
     1
 90
       50
176
     1
290
     0
176
     1
 90
       50
176
     1
 62
   256
176
     0
 40
1.0
176
     0
 90
        2
176
     1
  1
strokes_ogs.tif
176
     1
290
     0
176
     1
 40
1.0
176
     1
 40
1.0
176
     1
  0
VISUALSTYLE
  5
35
102
{ACAD_REACTORS
330
2A
102
}
330
2A
100
AcDbVisualStyle
  2
Dim
 70
    11
177
     3
291
     1
 70
    58
 90
        2
176
     1
 90
        2
176
     1
 90
        0
176
     1
 90
        0
176
     1
 40
0.6
176
     1
 40
30.0
176
     1
 62
     7
420
 16777215
176
     1
 90
        1
176
     1
 90
        4
176
     1
 62
     7
176
     1
 62
   257
176
     1
 90
        1
176
     1
 90
        1
176
     1
 40
1.0
176
     1
 90
        8
176
     1
 62
     7
176
     1
 40
1.0
176
     1
 90
        1
176
     1
 90
        6
176
     1
 90
        2
176
     1
 62
     7
176
     1
 90
        5
176
     1
 90
        0
176
     1
 90
        0
176
     1
290
     0
176
     1
 90
        1
176
     1
 40
-50.0
176
     1
 90
        0
176
     1
290
     0
176
     1
290
     1
176
     1
290
     1
176
     1
290
     0
176
     1
290
     0
176
     1
290
     0
176
     1
290
     0
176
     1
290
     0
176
     1
290
     0
176
     1
 90
       50
176
     1
 40
0.0
176
     1
 40
1.0
176
     1
 90
        0
176
     1
 62
    18
420
        0
176
     1
 90
       50
176
     1
 90
        3
176
     1
 62
     5
420
      255
176
     1
290
     0
176
     1
 90
       50
176
     1
 90
       50
176
     1
 90
       50
176
     1
290
     0
176
     1
 90
       50
176
     1
 62
   256
176
     0
 40
1.0
176
     0
 90
        2
176
     1
  1
strokes_ogs.tif
176
     1
290
     0
176
     1
 40
1.0
176
     1
 40
1.0
176
     1
  0
VISUALSTYLE
  5
3D
102
{ACAD_REACTORS
330
2A
102
}
330
2A
100
AcDbVisualStyle
  2
EdgeColorOff
 70
    22
177
     3
291
     1
 70
    58
 90
        2
176
     0
 90
        2
176
     0
 90
        0
176
     0
 90
        0
176
     0
 40
0.6
176
     0
 40
30.0
176
     0
 62
     7
420
 16777215
176
     0
 90
        1
176
     0
 90
        4
176
     0
 62
     7
176
     0
 62
   257
176
     0
 90
        1
176
     0
 90
        1
176
     0
 40
1.0
176
     0
 90
        8
176
     2
 62
     7
176
     0
 40
1.0
176
     0
 90
        1
176
     0
 90
        6
176
     0
 90
        2
176
     0
 62
     7
176
     0
 90
        5
176
     0
 90
        0
176
     0
 90
        0
176
     0
290
     0
176
     0
 90
        1
176
     0
 40
0.0
176
     0
 90
        0
176
     0
290
     0
176
     0
290
     1
176
     0
290
     1
176
     0
290
     0
176
     0
290
     0
176
     0
290
     0
176
     0
290
     0
176
     0
290
     0
176
     0
290
     0
176
     0
 90
       50
176
     0
 40
0.0
176
     0
 40
1.0
176
     0
 90
        0
176
     0
 62
    18
420
        0
176
     0
 90
       50
176
     0
 90
        3
176
     0
 62
     5
420
      255
176
     0
290
     0
176
     0
 90
       50
176
     0
 90
       50
176
     0
 90
       50
176
     0
290
     0
176
     0
 90
       50
176
     0
 62
   256
176
     0
 40
1.0
176
     0
 90
        2
176
     0
  1
strokes_ogs.tif
176
     0
290
     0
176
     0
 40
1.0
176
     0
 40
1.0
176
     0
  0
VISUALSTYLE
  5
39
102
{ACAD_REACTORS
330
2A
102
}
330
2A
100
AcDbVisualStyle
  2
Facepattern
 70
    15
177
     3
291
     1
 70
    58
 90
        2
176
     1
 90
        2
176
     1
 90
        0
176
     1
 90
        0
176
     1
 40
0.6
176
     1
 40
30.0
176
     1
 62
     7
420
 16777215
176
     1
 90
        1
176
     1
 90
        4
176
     1
 62
     7
176
     1
 62
   257
176
     1
 90
        1
176
     1
 90
        1
176
     1
 40
1.0
176
     1
 90
        8
176
     1
 62
     7
176
     1
 40
1.0
176
     1
 90
        1
176
     1
 90
        6
176
     1
 90
        2
176
     1
 62
     7
176
     1
 90
        5
176
     1
 90
        0
176
     1
 90
        0
176
     1
290
     0
176
     1
 90
        1
176
     1
 40
0.0
176
     1
 90
        0
176
     1
290
     0
176
     1
290
     1
176
     1
290
     1
176
     1
290
     0
176
     1
290
     0
176
     1
290
     0
176
     1
290
     0
176
     1
290
     0
176
     1
290
     0
176
     1
 90
       50
176
     1
 40
0.0
176
     1
 40
1.0
176
     1
 90
        0
176
     1
 62
    18
420
        0
176
     1
 90
       50
176
     1
 90
        3
176
     1
 62
     5
420
      255
176
     1
290
     0
176
     1
 90
       50
176
     1
 90
       50
176
     1
 90
       50
176
     1
290
     0
176
     1
 90
       50
176
     1
 62
   256
176
     0
 40
1.0
176
     0
 90
        2
176
     1
  1
strokes_ogs.tif
176
     1
290
     0
176
     1
 40
1.0
176
     1
 40
1.0
176
     1
  0
VISUALSTYLE
  5
2B
102
{ACAD_REACTORS
330
2A
102
}
330
2A
100
AcDbVisualStyle
  2
Flat
 70
     0
177
     3
291
     1
 70
    58
 90
        2
176
     1
 90
        1
176
     1
 90
        1
176
     1
 90
        2
176
     1
 40
0.6
176
     1
 40
30.0
176
     1
 62
     7
420
 16777215
176
     1
 90
        0
176
     1
 90
        0
176
     1
 62
     7
176
     1
 62
   257
176
     1
 90
        1
176
     1
 90
        1
176
     1
 40
1.0
176
     1
 90
        8
176
     1
 62
     7
176
     1
 40
1.0
176
     1
 90
        1
176
     1
 90
        6
176
     1
 90
        2
176
     1
 62
     7
176
     1
 90
        5
176
     1
 90
        0
176
     1
 90
        0
176
     1
290
     0
176
     1
 90
       13
176
     1
 40
0.0
176
     1
 90
        0
176
     1
290
     0
176
     1
290
     1
176
     1
290
     1
176
     1
290
     0
176
     1
290
     0
176
     1
290
     0
176
     1
290
     0
176
     1
290
     0
176
     1
290
     0
176
     1
 90
       50
176
     1
 40
0.0
176
     1
 40
1.0
176
     1
 90
        0
176
     1
 62
    18
420
        0
176
     1
 90
       50
176
     1
 90
        3
176
     1
 62
     5
420
      255
176
     1
290
     0
176
     1
 90
       50
176
     1
 90
       50
176
     1
 90
       50
176
     1
290
     0
176
     1
 90
       50
176
     1
 62
   256
176
     0
 40
1.0
176
     0
 90
        2
176
     1
  1
strokes_ogs.tif
176
     1
290
     0
176
     1
 40
1.0
176
     1
 40
1.0
176
     1
  0
VISUALSTYLE
  5
2C
102
{ACAD_REACTORS
330
2A
102
}
330
2A
100
AcDbVisualStyle
  2
FlatWithEdges
 70
     1
177
     3
291
     1
 70
    58
 90
        2
176
     1
 90
        1
176
     1
 90
        1
176
     1
 90
        2
176
     1
 40
0.6
176
     1
 40
30.0
176
     1
 62
     7
420
 16777215
176
     1
 90
        1
176
     1
 90
        0
176
     1
 62
     7
176
     1
 62
   257
176
     1
 90
        1
176
     1
 90
        1
176
     1
 40
1.0
176
     1
 90
        0
176
     1
 62
   257
176
     1
 40
1.0
176
     1
 90
        1
176
     1
 90
        6
176
     1
 90
        2
176
     1
 62
     7
176
     1
 90
        5
176
     1
 90
        0
176
     1
 90
        0
176
     1
290
     0
176
     1
 90
       13
176
     1
 40
0.0
176
     1
 90
        0
176
     1
290
     0
176
     1
290
     1
176
     1
290
     1
176
     1
290
     0
176
     1
290
     0
176
     1
290
     0
176
     1
290
     0
176
     1
290
     0
176
     1
290
     0
176
     1
 90
       50
176
     1
 40
0.0
176
     1
 40
1.0
176
     1
 90
        0
176
     1
 62
    18
420
        0
176
     1
 90
       50
176
     1
 90
        3
176
     1
 62
     5
420
      255
176
     1
290
     0
176
     1
 90
       50
176
     1
 90
       50
176
     1
 90
       50
176
     1
290
     0
176
     1
 90
       50
176
     1
 62
   256
176
     0
 40
1.0
176
     0
 90
        2
176
     1
  1
strokes_ogs.tif
176
     1
290
     0
176
     1
 40
1.0
176
     1
 40
1.0
176
     1
  0
VISUALSTYLE
  5
2D
102
{ACAD_REACTORS
330
2A
102
}
330
2A
100
AcDbVisualStyle
  2
Gouraud
 70
     2
177
     3
291
     1
 70
    58
 90
        2
176
     1
 90
        2
176
     1
 90
        1
176
     1
 90
        2
176
     1
 40
0.6
176
     1
 40
30.0
176
     1
 62
     7
420
 16777215
176
     1
 90
        0
176
     1
 90
        0
176
     1
 62
     7
176
     1
 62
   257
176
     1
 90
        1
176
     1
 90
        1
176
     1
 40
1.0
176
     1
 90
        0
176
     1
 62
     7
176
     1
 40
1.0
176
     1
 90
        1
176
     1
 90
        6
176
     1
 90
        2
176
     1
 62
     7
176
     1
 90
        5
176
     1
 90
        0
176
     1
 90
        0
176
     1
290
     0
176
     1
 90
       13
176
     1
 40
0.0
176
     1
 90
        0
176
     1
290
     0
176
     1
290
     1
176
     1
290
     1
176
     1
290
     0
176
     1
290
     0
176
     1
290
     0
176
     1
290
     0
176
     1
290
     0
176
     1
290
     0
176
     1
 90
       50
176
     1
 40
0.0
176
     1
 40
1.0
176
     1
 90
        0
176
     1
 62
    18
420
        0
176
     1
 90
       50
176
     1
 90
        3
176
     1
 62
     5
420
      255
176
     1
290
     0
176
     1
 90
       50
176
     1
 90
       50
176
     1
 90
       50
176
     1
290
     0
176
     1
 90
       50
176
     1
 62
   256
176
     0
 40
1.0
176
     0
 90
        2
176
     1
  1
strokes_ogs.tif
176
     1
290
     0
176
     1
 40
1.0
176
     1
 40
1.0
176
     1
  0
VISUALSTYLE
  5
2E
102
{ACAD_REACTORS
330
2A
102
}
330
2A
100
AcDbVisualStyle
  2
GouraudWithEdges
 70
     3
177
     3
291
     1
 70
    58
 90
        2
176
     1
 90
        2
176
     1
 90
        1
176
     1
 90
        2
176
     1
 40
0.6
176
     1
 40
30.0
176
     1
 62
     7
420
 16777215
176
     1
 90
        1
176
     1
 90
        0
176
     1
 62
     7
176
     1
 62
   257
176
     1
 90
        1
176
     1
 90
        1
176
     1
 40
1.0
176
     1
 90
        0
176
     1
 62
   257
176
     1
 40
1.0
176
     1
 90
        1
176
     1
 90
        6
176
     1
 90
        2
176
     1
 62
     7
176
     1
 90
        5
176
     1
 90
        0
176
     1
 90
        0
176
     1
290
     0
176
     1
 90
       13
176
     1
 40
0.0
176
     1
 90
        0
176
     1
290
     0
176
     1
290
     1
176
     1
290
     1
176
     1
290
     0
176
     1
290
     0
176
     1
290
     0
176
     1
290
     0
176
     1
290
     0
176
     1
290
     0
176
     1
 90
       50
176
     1
 40
0.0
176
     1
 40
1.0
176
     1
 90
        0
176
     1
 62
    18
420
        0
176
     1
 90
       50
176
     1
 90
        3
176
     1
 62
     5
420
      255
176
     1
290
     0
176
     1
 90
       50
176
     1
 90
       50
176
     1
 90
       50
176
     1
290
     0
176
     1
 90
       50
176
     1
 62
   256
176
     0
 40
1.0
176
     0
 90
        2
176
     1
  1
strokes_ogs.tif
176
     1
290
     0
176
     1
 40
1.0
176
     1
 40
1.0
176
     1
  0
VISUALSTYLE
  5
31
102
{ACAD_REACTORS
330
2A
102
}
330
2A
100
AcDbVisualStyle
  2
Hidden
 70
     6
177
     3
291
     0
 70
    58
 90
        1
176
     1
 90
        2
176
     1
 90
        2
176
     1
 90
        0
176
     1
 40
0.6
176
     1
 40
30.0
176
     1
 62
     7
420
 16777215
176
     1
 90
        2
176
     1
 90
        2
176
     1
 62
     7
176
     1
 62
   257
176
     1
 90
        2
176
     1
 90
        1
176
     1
 40
40.0
176
     1
 90
        0
176
     1
 62
   257
176
     1
 40
1.0
176
     1
 90
        1
176
     1
 90
        6
176
     1
 90
        2
176
     1
 62
     7
176
     1
 90
        3
176
     1
 90
        0
176
     1
 90
        0
176
     1
290
     0
176
     1
 90
        1
176
     1
 40
0.0
176
     1
 90
        0
176
     1
290
     0
176
     1
290
     1
176
     1
290
     1
176
     1
290
     0
176
     1
290
     0
176
     1
290
     0
176
     1
290
     0
176
     1
290
     0
176
     1
290
     0
176
     1
 90
       50
176
     1
 40
0.0
176
     1
 40
1.0
176
     1
 90
        0
176
     1
 62
    18
420
        0
176
     1
 90
       50
176
     1
 90
        3
176
     1
 62
     5
420
      255
176
     1
290
     0
176
     1
 90
       50
176
     1
 90
       50
176
     1
 90
       50
176
     1
290
     0
176
     1
 90
       50
176
     1
 62
   256
176
     0
 40
1.0
176
     0
 90
        2
176
     1
  1
strokes_ogs.tif
176
     1
290
     0
176
     1
 40
1.0
176
     1
 40
1.0
176
     1
  0
VISUALSTYLE
  5
3B
102
{ACAD_REACTORS
330
2A
102
}
330
2A
100
AcDbVisualStyle
  2
JitterOff
 70
    20
177
     3
291
     1
 70
    58
 90
        2
176
     0
 90
        2
176
     0
 90
        0
176
     0
 90
        0
176
     0
 40
0.6
176
     0
 40
30.0
176
     0
 62
     7
420
 16777215
176
     0
 90
        1
176
     0
 90
        4
176
     0
 62
     7
176
     0
 62
   257
176
     0
 90
        1
176
     0
 90
        1
176
     0
 40
1.0
176
     0
 90
       10
176
     2
 62
     7
176
     0
 40
1.0
176
     0
 90
        1
176
     0
 90
        6
176
     0
 90
        2
176
     0
 62
     7
176
     0
 90
        5
176
     0
 90
        0
176
     0
 90
        0
176
     0
290
     0
176
     0
 90
        1
176
     0
 40
0.0
176
     0
 90
        0
176
     0
290
     0
176
     0
290
     1
176
     0
290
     1
176
     0
290
     0
176
     0
290
     0
176
     0
290
     0
176
     0
290
     0
176
     0
290
     0
176
     0
290
     0
176
     0
 90
       50
176
     0
 40
0.0
176
     0
 40
1.0
176
     0
 90
        0
176
     0
 62
    18
420
        0
176
     0
 90
       50
176
     0
 90
        3
176
     0
 62
     5
420
      255
176
     0
290
     0
176
     0
 90
       50
176
     0
 90
       50
176
     0
 90
       50
176
     0
290
     0
176
     0
 90
       50
176
     0
 62
   256
176
     0
 40
1.0
176
     0
 90
        2
176
     0
  1
strokes_ogs.tif
176
     0
290
     0
176
     0
 40
1.0
176
     0
 40
1.0
176
     0
  0
VISUALSTYLE
  5
38
102
{ACAD_REACTORS
330
2A
102
}
330
2A
100
AcDbVisualStyle
  2
Linepattern
 70
    14
177
     3
291
     1
 70
    58
 90
        2
176
     1
 90
        2
176
     1
 90
        0
176
     1
 90
        0
176
     1
 40
0.6
176
     1
 40
30.0
176
     1
 62
     7
420
 16777215
176
     1
 90
        1
176
     1
 90
        4
176
     1
 62
     7
176
     1
 62
   257
176
     1
 90
        7
176
     1
 90
        7
176
     1
 40
1.0
176
     1
 90
        8
176
     1
 62
     7
176
     1
 40
1.0
176
     1
 90
        1
176
     1
 90
        6
176
     1
 90
        2
176
     1
 62
     7
176
     1
 90
        5
176
     1
 90
        0
176
     1
 90
        0
176
     1
290
     0
176
     1
 90
        1
176
     1
 40
0.0
176
     1
 90
        0
176
     1
290
     0
176
     1
290
     1
176
     1
290
     1
176
     1
290
     0
176
     1
290
     0
176
     1
290
     0
176
     1
290
     0
176
     1
290
     0
176
     1
290
     0
176
     1
 90
       50
176
     1
 40
0.0
176
     1
 40
1.0
176
     1
 90
        0
176
     1
 62
    18
420
        0
176
     1
 90
       50
176
     1
 90
        3
176
     1
 62
     5
420
      255
176
     1
290
     0
176
     1
 90
       50
176
     1
 90
       50
176
     1
 90
       50
176
     1
290
     0
176
     1
 90
       50
176
     1
 62
   256
176
     0
 40
1.0
176
     0
 90
        2
176
     1
  1
strokes_ogs.tif
176
     1
290
     0
176
     1
 40
1.0
176
     1
 40
1.0
176
     1
  0
VISUALSTYLE
  5
3C
102
{ACAD_REACTORS
330
2A
102
}
330
2A
100
AcDbVisualStyle
  2
OverhangOff
 70
    21
177
     3
291
     1
 70
    58
 90
        2
176
     0
 90
        2
176
     0
 90
        0
176
     0
 90
        0
176
     0
 40
0.6
176
     0
 40
30.0
176
     0
 62
     7
420
 16777215
176
     0
 90
        1
176
     0
 90
        4
176
     0
 62
     7
176
     0
 62
   257
176
     0
 90
        1
176
     0
 90
        1
176
     0
 40
1.0
176
     0
 90
        9
176
     2
 62
     7
176
     0
 40
1.0
176
     0
 90
        1
176
     0
 90
        6
176
     0
 90
        2
176
     0
 62
     7
176
     0
 90
        5
176
     0
 90
        0
176
     0
 90
        0
176
     0
290
     0
176
     0
 90
        1
176
     0
 40
0.0
176
     0
 90
        0
176
     0
290
     0
176
     0
290
     1
176
     0
290
     1
176
     0
290
     0
176
     0
290
     0
176
     0
290
     0
176
     0
290
     0
176
     0
290
     0
176
     0
290
     0
176
     0
 90
       50
176
     0
 40
0.0
176
     0
 40
1.0
176
     0
 90
        0
176
     0
 62
    18
420
        0
176
     0
 90
       50
176
     0
 90
        3
176
     0
 62
     5
420
      255
176
     0
290
     0
176
     0
 90
       50
176
     0
 90
       50
176
     0
 90
       50
176
     0
290
     0
176
     0
 90
       50
176
     0
 62
   256
176
     0
 40
1.0
176
     0
 90
        2
176
     0
  1
strokes_ogs.tif
176
     0
290
     0
176
     0
 40
1.0
176
     0
 40
1.0
176
     0
  0
VISUALSTYLE
  5
33
102
{ACAD_REACTORS
330
2A
102
}
330
2A
100
AcDbVisualStyle
  2
Realistic
 70
     8
177
     3
291
     0
 70
    58
 90
        2
176
     1
 90
        3
176
     1
 90
        0
176
     1
 90
        2
176
     1
 40
0.6
176
     1
 40
30.0
176
     1
 62
     7
420
 16777215
176
     1
 90
        0
176
     1
 90
        0
176
     1
 62
     7
176
     1
 62
   257
176
     1
 90
        1
176
     1
 90
        1
176
     1
 40
1.0
176
     1
 90
        8
176
     1
 62
   257
176
     1
 40
1.0
176
     1
 90
        1
176
     1
 90
        6
176
     1
 90
        2
176
     1
 62
     7
176
     1
 90
        3
176
     1
 90
        0
176
     1
 90
        0
176
     1
290
     0
176
     1
 90
       13
176
     1
 40
0.0
176
     1
 90
        0
176
     1
290
     0
176
     1
290
     1
176
     1
290
     1
176
     1
290
     0
176
     1
290
     0
176
     1
290
     0
176
     1
290
     0
176
     1
290
     0
176
     1
290
     0
176
     1
 90
       50
176
     1
 40
0.0
176
     1
 40
1.0
176
     1
 90
        0
176
     1
 62
    18
420
        0
176
     1
 90
       50
176
     1
 90
        3
176
     1
 62
     5
420
      255
176
     1
290
     0
176
     1
 90
       50
176
     1
 90
       50
176
     1
 90
       50
176
     1
290
     0
176
     1
 90
       50
176
     1
 62
   256
176
     0
 40
1.0
176
     0
 90
        2
176
     1
  1
strokes_ogs.tif
176
     1
290
     0
176
     1
 40
1.0
176
     1
 40
1.0
176
     1
  0
VISUALSTYLE
  5
42
102
{ACAD_REACTORS
330
2A
102
}
330
2A
100
AcDbVisualStyle
  2
Shaded
 70
    27
177
     3
291
     0
 70
    58
 90
        2
176
     1
 90
        2
176
     1
 90
        1
176
     1
 90
        2
176
     1
 40
0.6
176
     1
 40
30.0
176
     1
 62
     7
420
 16777215
176
     1
 90
        0
176
     1
 90
        4
176
     1
 62
     7
176
     1
 62
   257
176
     1
 90
        1
176
     1
 90
        1
176
     1
 40
1.0
176
     1
 90
        8
176
     1
 62
   257
176
     1
 40
1.0
176
     1
 90
        1
176
     1
 90
        6
176
     1
 90
        2
176
     1
 62
     8
420
  7895160
176
     1
 90
        3
176
     1
 90
        0
176
     1
 90
        0
176
     1
290
     0
176
     1
 90
        5
176
     1
 40
0.0
176
     1
 90
        0
176
     1
290
     0
176
     1
290
     1
176
     1
290
     1
176
     1
290
     0
176
     1
290
     0
176
     1
290
     0
176
     1
290
     0
176
     1
290
     0
176
     1
290
     0
176
     1
 90
       50
176
     1
 40
0.0
176
     1
 40
1.0
176
     1
 90
        0
176
     1
 62
    18
420
        0
176
     1
 90
       50
176
     1
 90
        3
176
     1
 62
     5
420
      255
176
     1
290
     0
176
     1
 90
       50
176
     1
 90
       50
176
     1
 90
       50
176
     1
290
     0
176
     1
 90
       50
176
     1
 62
   256
176
     0
 40
1.0
176
     0
 90
        2
176
     1
  1
strokes_ogs.tif
176
     1
290
     0
176
     1
 40
1.0
176
     1
 40
1.0
176
     1
  0
VISUALSTYLE
  5
41
102
{ACAD_REACTORS
330
2A
102
}
330
2A
100
AcDbVisualStyle
  2
Shaded with edges
 70
    26
177
     3
291
     0
 70
    58
 90
        2
176
     1
 90
        2
176
     1
 90
        1
176
     1
 90
        2
176
     1
 40
0.6
176
     1
 40
30.0
176
     1
 62
     7
420
 16777215
176
     1
 90
        1
176
     1
 90
       10
176
     1
 62
     7
176
     1
 62
   257
176
     1
 90
        2
176
     1
 90
        1
176
     1
 40
1.0
176
     1
 90
        8
176
     1
 62
   257
176
     1
 40
1.0
176
     1
 90
        1
176
     1
 90
        6
176
     1
 90
        2
176
     1
 62
     7
176
     1
 90
        3
176
     1
 90
        0
176
     1
 90
        0
176
     1
290
     0
176
     1
 90
        5
176
     1
 40
0.0
176
     1
 90
        0
176
     1
290
     0
176
     1
290
     1
176
     1
290
     1
176
     1
290
     0
176
     1
290
     0
176
     1
290
     0
176
     1
290
     0
176
     1
290
     0
176
     1
290
     0
176
     1
 90
       50
176
     1
 40
0.0
176
     1
 40
1.0
176
     1
 90
        0
176
     1
 62
    18
420
        0
176
     1
 90
       50
176
     1
 90
        3
176
     1
 62
     5
420
      255
176
     1
290
     0
176
     1
 90
       50
176
     1
 90
       50
176
     1
 90
       50
176
     1
290
     0
176
     1
 90
       50
176
     1
 62
   256
176
     0
 40
1.0
176
     0
 90
        2
176
     1
  1
strokes_ogs.tif
176
     1
290
     0
176
     1
 40
1.0
176
     1
 40
1.0
176
     1
  0
VISUALSTYLE
  5
3E
102
{ACAD_REACTORS
330
2A
102
}
330
2A
100
AcDbVisualStyle
  2
Shades of Gray
 70
    23
177
     3
291
     0
 70
    58
 90
        2
176
     1
 90
        2
176
     1
 90
        3
176
     1
 90
        0
176
     1
 40
0.6
176
     1
 40
30.0
176
     1
 62
     7
420
 16777215
176
     1
 90
        2
176
     1
 90
        2
176
     1
 62
     7
176
     1
 62
     7
176
     1
 90
        1
176
     1
 90
        1
176
     1
 40
40.0
176
     1
 90
        8
176
     1
 62
     7
176
     1
 40
1.0
176
     1
 90
        1
176
     1
 90
        6
176
     1
 90
        2
176
     1
 62
     7
176
     1
 90
        3
176
     1
 90
        0
176
     1
 90
        0
176
     1
290
     0
176
     1
 90
        1
176
     1
 40
0.0
176
     1
 90
        0
176
     1
290
     0
176
     1
290
     1
176
     1
290
     1
176
     1
290
     0
176
     1
290
     0
176
     1
290
     0
176
     1
290
     0
176
     1
290
     0
176
     1
290
     0
176
     1
 90
       50
176
     1
 40
0.0
176
     1
 40
1.0
176
     1
 90
        0
176
     1
 62
    18
420
        0
176
     1
 90
       50
176
     1
 90
        3
176
     1
 62
     5
420
      255
176
     1
290
     0
176
     1
 90
       50
176
     1
 90
       50
176
     1
 90
       50
176
     1
290
     0
176
     1
 90
       50
176
     1
 62
   256
176
     0
 40
1.0
176
     0
 90
        2
176
     1
  1
strokes_ogs.tif
176
     1
290
     0
176
     1
 40
1.0
176
     1
 40
1.0
176
     1
  0
VISUALSTYLE
  5
3F
102
{ACAD_REACTORS
330
2A
102
}
330
2A
100
AcDbVisualStyle
  2
Sketchy
 70
    24
177
     3
291
     0
 70
    58
 90
        1
176
     1
 90
        2
176
     1
 90
        2
176
     1
 90
        0
176
     1
 40
0.6
176
     1
 40
30.0
176
     1
 62
     7
420
 16777215
176
     1
 90
        2
176
     1
 90
        2
176
     1
 62
     7
176
     1
 62
     7
176
     1
 90
        1
176
     1
 90
        1
176
     1
 40
40.0
176
     1
 90
       11
176
     1
 62
     7
176
     1
 40
1.0
176
     1
 90
        1
176
     1
 90
        6
176
     1
 90
        2
176
     1
 62
     7
176
     1
 90
        6
176
     1
 90
        0
176
     1
 90
        0
176
     1
290
     0
176
     1
 90
        1
176
     1
 40
0.0
176
     1
 90
        0
176
     1
290
     0
176
     1
290
     1
176
     1
290
     1
176
     1
290
     0
176
     1
290
     0
176
     1
290
     0
176
     1
290
     0
176
     1
290
     0
176
     1
290
     0
176
     1
 90
       50
176
     1
 40
0.0
176
     1
 40
1.0
176
     1
 90
        0
176
     1
 62
    18
420
        0
176
     1
 90
       50
176
     1
 90
        3
176
     1
 62
     5
420
      255
176
     1
290
     0
176
     1
 90
       50
176
     1
 90
       50
176
     1
 90
       50
176
     1
290
     0
176
     1
 90
       50
176
     1
 62
   256
176
     0
 40
1.0
176
     0
 90
        2
176
     1
  1
strokes_ogs.tif
176
     1
290
     0
176
     1
 40
1.0
176
     1
 40
1.0
176
     1
  0
VISUALSTYLE
  5
37
102
{ACAD_REACTORS
330
2A
102
}
330
2A
100
AcDbVisualStyle
  2
Thicken
 70
    13
177
     3
291
     1
 70
    58
 90
        2
176
     1
 90
        2
176
     1
 90
        0
176
     1
 90
        0
176
     1
 40
0.6
176
     1
 40
30.0
176
     1
 62
     7
420
 16777215
176
     1
 90
        1
176
     1
 90
        4
176
     1
 62
     7
176
     1
 62
   257
176
     1
 90
        1
176
     1
 90
        1
176
     1
 40
1.0
176
     1
 90
       12
176
     1
 62
     7
176
     1
 40
1.0
176
     1
 90
        1
176
     1
 90
        6
176
     1
 90
        2
176
     1
 62
     7
176
     1
 90
        5
176
     1
 90
        0
176
     1
 90
        0
176
     1
290
     0
176
     1
 90
        1
176
     1
 40
0.0
176
     1
 90
        0
176
     1
290
     0
176
     1
290
     1
176
     1
290
     1
176
     1
290
     0
176
     1
290
     0
176
     1
290
     0
176
     1
290
     0
176
     1
290
     0
176
     1
290
     0
176
     1
 90
       50
176
     1
 40
0.0
176
     1
 40
1.0
176
     1
 90
        0
176
     1
 62
    18
420
        0
176
     1
 90
       50
176
     1
 90
        3
176
     1
 62
     5
420
      255
176
     1
290
     0
176
     1
 90
       50
176
     1
 90
       50
176
     1
 90
       50
176
     1
290
     0
176
     1
 90
       50
176
     1
 62
   256
176
     0
 40
1.0
176
     0
 90
        2
176
     1
  1
strokes_ogs.tif
176
     1
290
     0
176
     1
 40
1.0
176
     1
 40
1.0
176
     1
  0
VISUALSTYLE
  5
30
102
{ACAD_REACTORS
330
2A
102
}
330
2A
100
AcDbVisualStyle
  2
Wireframe
 70
     5
177
     3
291
     0
 70
    58
 90
        0
176
     1
 90
        2
176
     1
 90
        0
176
     1
 90
        0
176
     1
 40
0.6
176
     1
 40
30.0
176
     1
 62
     7
420
 16777215
176
     1
 90
        1
176
     1
 90
        4
176
     1
 62
     7
176
     1
 62
   257
176
     1
 90
        1
176
     1
 90
        1
176
     1
 40
1.0
176
     1
 90
        0
176
     1
 62
   257
176
     1
 40
1.0
176
     1
 90
        1
176
     1
 90
        6
176
     1
 90
        2
176
     1
 62
     7
176
     1
 90
        3
176
     1
 90
        0
176
     1
 90
        0
176
     1
290
     0
176
     1
 90
        1
176
     1
 40
0.0
176
     1
 90
        0
176
     1
290
     0
176
     1
290
     1
176
     1
290
     1
176
     1
290
     0
176
     1
290
     0
176
     1
290
     0
176
     1
290
     0
176
     1
290
     0
176
     1
290
     0
176
     1
 90
       50
176
     1
 40
0.0
176
     1
 40
1.0
176
     1
 90
        0
176
     1
 62
    18
420
        0
176
     1
 90
       50
176
     1
 90
        3
176
     1
 62
     5
420
      255
176
     1
290
     0
176
     1
 90
       50
176
     1
 90
       50
176
     1
 90
       50
176
     1
290
     0
176
     1
 90
       50
176
     1
 62
   256
176
     0
 40
1.0
176
     0
 90
        2
176
     1
  1
strokes_ogs.tif
176
     1
290
     0
176
     1
 40
1.0
176
     1
 40
1.0
176
     1
  0
VISUALSTYLE
  5
40
102
{ACAD_REACTORS
330
2A
102
}
330
2A
100
AcDbVisualStyle
  2
X-Ray
 70
    25
177
     3
291
     0
 70
    58
 90
        2
176
     1
 90
        2
176
     1
 90
        1
176
     1
 90
        1
176
     1
 40
0.5
176
     1
 40
30.0
176
     1
 62
     7
420
 16777215
176
     1
 90
        1
176
     1
 90
        0
176
     1
 62
     7
176
     1
 62
   257
176
     1
 90
        1
176
     1
 90
        1
176
     1
 40
1.0
176
     1
 90
        8
176
     1
 62
     7
176
     1
 40
1.0
176
     1
 90
        1
176
     1
 90
        6
176
     1
 90
        2
176
     1
 62
     7
176
     1
 90
        3
176
     1
 90
        0
176
     1
 90
        0
176
     1
290
     0
176
     1
 90
       13
176
     1
 40
0.0
176
     1
 90
        0
176
     1
290
     0
176
     1
290
     1
176
     1
290
     1
176
     1
290
     0
176
     1
290
     0
176
     1
290
     0
176
     1
290
     0
176
     1
290
     0
176
     1
290
     0
176
     1
 90
       50
176
     1
 40
0.0
176
     1
 40
1.0
176
     1
 90
        0
176
     1
 62
    18
420
        0
176
     1
 90
       50
176
     1
 90
        3
176
     1
 62
     5
420
      255
176
     1
290
     0
176
     1
 90
       50
176
     1
 90
       50
176
     1
 90
       50
176
     1
290
     0
176
     1
 90
       50
176
     1
 62
   256
176
     0
 40
1.0
176
     0
 90
        2
176
     1
  1
strokes_ogs.tif
176
     1
290
     0
176
     1
 40
1.0
176
     1
 40
1.0
176
     1
  0
DICTIONARYVAR
  5
258
102
{ACAD_REACTORS
330
257
102
}
330
257
100
DictionaryVariables
280
     0
  1
1:1
  0
DICTIONARYVAR
  5
25D
102
{ACAD_REACTORS
330
257
102
}
330
257
100
DictionaryVariables
280
     0
  1
Standard
  0
DICTIONARYVAR
  5
25C
102
{ACAD_REACTORS
330
257
102
}
330
257
100
DictionaryVariables
280
     0
  1
Standard
  0
DICTIONARY
  5
259
330
6A
100
AcDbDictionary
280
     1
281
     1
  3
ACAD_ROUNDTRIP_2008_TABLESTYLE_CELLSTYLEMAP
360
25A
  0
CELLSTYLEMAP
  5
25A
102
{ACAD_REACTORS
330
259
102
}
330
259
100
AcDbCellStyleMap
 90
        3
300
CELLSTYLE
  1
TABLEFORMAT_BEGIN
 90
        5
170
     1
 91
        0
 92
    32768
 62
   257
 93
        1
300
CONTENTFORMAT
  1
CONTENTFORMAT_BEGIN
 90
        0
 91
        0
 92
        4
 93
        0
300

 40
0.0
140
1.0
 94
        5
 62
     0
340
11
144
0.25
309
CONTENTFORMAT_END
171
     1
301
MARGIN
  1
CELLMARGIN_BEGIN
 40
0.06
 40
0.06
 40
0.06
 40
0.06
 40
0.06
 40
0.06
309
CELLMARGIN_END
 94
        6
 95
        1
302
GRIDFORMAT
  1
GRIDFORMAT_BEGIN
 90
        0
 91
        1
 62
     0
 92
       -2
340
14
 93
        0
 40
0.045
309
GRIDFORMAT_END
 95
        2
302
GRIDFORMAT
  1
GRIDFORMAT_BEGIN
 90
        0
 91
        1
 62
     0
 92
       -2
340
14
 93
        0
 40
0.045
309
GRIDFORMAT_END
 95
        4
302
GRIDFORMAT
  1
GRIDFORMAT_BEGIN
 90
        0
 91
        1
 62
     0
 92
       -2
340
14
 93
        0
 40
0.045
309
GRIDFORMAT_END
 95
        8
302
GRIDFORMAT
  1
GRIDFORMAT_BEGIN
 90
        0
 91
        1
 62
     0
 92
       -2
340
14
 93
        0
 40
0.045
309
GRIDFORMAT_END
 95
       16
302
GRIDFORMAT
  1
GRIDFORMAT_BEGIN
 90
        0
 91
        1
 62
     0
 92
       -2
340
14
 93
        0
 40
0.045
309
GRIDFORMAT_END
 95
       32
302
GRIDFORMAT
  1
GRIDFORMAT_BEGIN
 90
        0
 91
        1
 62
     0
 92
       -2
340
14
 93
        0
 40
0.045
309
GRIDFORMAT_END
309
TABLEFORMAT_END
  1
CELLSTYLE_BEGIN
 90
        1
 91
        1
300
_TITLE
309
CELLSTYLE_END
300
CELLSTYLE
  1
TABLEFORMAT_BEGIN
 90
        5
170
     1
 91
        0
 92
        0
 62
   257
 93
        1
300
CONTENTFORMAT
  1
CONTENTFORMAT_BEGIN
 90
        0
 91
        0
 92
        4
 93
        0
300

 40
0.0
140
1.0
 94
        5
 62
     0
340
11
144
0.18
309
CONTENTFORMAT_END
171
     1
301
MARGIN
  1
CELLMARGIN_BEGIN
 40
0.06
 40
0.06
 40
0.06
 40
0.06
 40
0.06
 40
0.06
309
CELLMARGIN_END
 94
        6
 95
        1
302
GRIDFORMAT
  1
GRIDFORMAT_BEGIN
 90
        0
 91
        1
 62
     0
 92
       -2
340
14
 93
        0
 40
0.045
309
GRIDFORMAT_END
 95
        2
302
GRIDFORMAT
  1
GRIDFORMAT_BEGIN
 90
        0
 91
        1
 62
     0
 92
       -2
340
14
 93
        0
 40
0.045
309
GRIDFORMAT_END
 95
        4
302
GRIDFORMAT
  1
GRIDFORMAT_BEGIN
 90
        0
 91
        1
 62
     0
 92
       -2
340
14
 93
        0
 40
0.045
309
GRIDFORMAT_END
 95
        8
302
GRIDFORMAT
  1
GRIDFORMAT_BEGIN
 90
        0
 91
        1
 62
     0
 92
       -2
340
14
 93
        0
 40
0.045
309
GRIDFORMAT_END
 95
       16
302
GRIDFORMAT
  1
GRIDFORMAT_BEGIN
 90
        0
 91
        1
 62
     0
 92
       -2
340
14
 93
        0
 40
0.045
309
GRIDFORMAT_END
 95
       32
302
GRIDFORMAT
  1
GRIDFORMAT_BEGIN
 90
        0
 91
        1
 62
     0
 92
       -2
340
14
 93
        0
 40
0.045
309
GRIDFORMAT_END
309
TABLEFORMAT_END
  1
CELLSTYLE_BEGIN
 90
        2
 91
        1
300
_HEADER
309
CELLSTYLE_END
300
CELLSTYLE
  1
TABLEFORMAT_BEGIN
 90
        5
170
     1
 91
        0
 92
        0
 62
   257
 93
        1
300
CONTENTFORMAT
  1
CONTENTFORMAT_BEGIN
 90
        0
 91
        0
 92
        4
 93
        0
300

 40
0.0
140
1.0
 94
        2
 62
     0
340
11
144
0.18
309
CONTENTFORMAT_END
171
     1
301
MARGIN
  1
CELLMARGIN_BEGIN
 40
0.06
 40
0.06
 40
0.06
 40
0.06
 40
0.06
 40
0.06
309
CELLMARGIN_END
 94
        6
 95
        1
302
GRIDFORMAT
  1
GRIDFORMAT_BEGIN
 90
        0
 91
        1
 62
     0
 92
       -2
340
14
 93
        0
 40
0.045
309
GRIDFORMAT_END
 95
        2
302
GRIDFORMAT
  1
GRIDFORMAT_BEGIN
 90
        0
 91
        1
 62
     0
 92
       -2
340
14
 93
        0
 40
0.045
309
GRIDFORMAT_END
 95
        4
302
GRIDFORMAT
  1
GRIDFORMAT_BEGIN
 90
        0
 91
        1
 62
     0
 92
       -2
340
14
 93
        0
 40
0.045
309
GRIDFORMAT_END
 95
        8
302
GRIDFORMAT
  1
GRIDFORMAT_BEGIN
 90
        0
 91
        1
 62
     0
 92
       -2
340
14
 93
        0
 40
0.045
309
GRIDFORMAT_END
 95
       16
302
GRIDFORMAT
  1
GRIDFORMAT_BEGIN
 90
        0
 91
        1
 62
     0
 92
       -2
340
14
 93
        0
 40
0.045
309
GRIDFORMAT_END
 95
       32
302
GRIDFORMAT
  1
GRIDFORMAT_BEGIN
 90
        0
 91
        1
 62
     0
 92
       -2
340
14
 93
        0
 40
0.045
309
GRIDFORMAT_END
309
TABLEFORMAT_END
  1
CELLSTYLE_BEGIN
 90
        3
 91
        2
300
_DATA
309
CELLSTYLE_END
  0
ENDSEC
  0
EOF