0
SECTION
  2
HEADER
  9
$ACADVER
  1
AC1027
  9
$ACADMAINTVER
 70
     8
  9
$DWGCODEPAGE
  3
ANSI_1252
  9
$REQUIREDVERSIONS
160
                 0
  9
$COMMENTS
  1
File was created by Cadenas
  9
$CUSTOMPROPERTYTAG
  1
NN
  9
$CUSTOMPROPERTY
  1
Imperial -IP Pillow Block 1-1/8 thru 2-1/4  2-Bolt Inch Bore (Labyrinth Seal)
  9
$CUSTOMPROPERTYTAG
  1
NT
  9
$CUSTOMPROPERTY
  1
Imperial 2 Bolt Piliow Block Bearings
  9
$CUSTOMPROPERTYTAG
  1
NB
  9
$CUSTOMPROPERTY
  1
069500
  9
$CUSTOMPROPERTYTAG
  1
NBSYN
  9
$CUSTOMPROPERTY
  1
$PN.
  9
$CUSTOMPROPERTYTAG
  1
LINA
  9
$CUSTOMPROPERTY
  1
069500
  9
$CUSTOMPROPERTYTAG
  1
SS
  9
$CUSTOMPROPERTY
  1
2-1/2
  9
$CUSTOMPROPERTYTAG
  1
PN
  9
$CUSTOMPROPERTY
  1
069500
  9
$CUSTOMPROPERTYTAG
  1
DESCRIPTION
  9
$CUSTOMPROPERTY
  1
P2B-IP-208LE
  9
$CUSTOMPROPERTYTAG
  1
EF
  9
$CUSTOMPROPERTY
  1
Expansion Type
  9
$CUSTOMPROPERTYTAG
  1
ST
  9
$CUSTOMPROPERTY
  1
Labyrinth Seal
  9
$CUSTOMPROPERTYTAG
  1
A
  9
$CUSTOMPROPERTY
  1
3-27/64
  9
$CUSTOMPROPERTYTAG
  1
B
  9
$CUSTOMPROPERTY
  1
9-1/4
  9
$CUSTOMPROPERTYTAG
  1
C
  9
$CUSTOMPROPERTY
  1
2-55/64
  9
$CUSTOMPROPERTYTAG
  1
DMIN
  9
$CUSTOMPROPERTY
  1
6-15/16
  9
$CUSTOMPROPERTYTAG
  1
DMAX
  9
$CUSTOMPROPERTY
  1
7-5/16
  9
$CUSTOMPROPERTYTAG
  1
F
  9
$CUSTOMPROPERTY
  1
5/8
  9
$CUSTOMPROPERTYTAG
  1
G
  9
$CUSTOMPROPERTY
  1
61/64
  9
$CUSTOMPROPERTYTAG
  1
H
  9
$CUSTOMPROPERTY
  1
1-5/8
  9
$CUSTOMPROPERTYTAG
  1
J
  9
$CUSTOMPROPERTY
  1
5-19/32
  9
$CUSTOMPROPERTYTAG
  1
L
  9
$CUSTOMPROPERTY
  1
3-7/8
  9
$CUSTOMPROPERTYTAG
  1
M
  9
$CUSTOMPROPERTY
  1
2-3/4
  9
$CUSTOMPROPERTYTAG
  1
R
  9
$CUSTOMPROPERTY
  1
1-13/64
  9
$CUSTOMPROPERTYTAG
  1
S
  9
$CUSTOMPROPERTY
  1
2-7/32
  9
$CUSTOMPROPERTYTAG
  1
X
  9
$CUSTOMPROPERTY
  1
1/4
  9
$CUSTOMPROPERTYTAG
  1
Y
  9
$CUSTOMPROPERTY
  1
0.025
  9
$CUSTOMPROPERTYTAG
  1
Z
  9
$CUSTOMPROPERTY
  1
2-15/16
  9
$CUSTOMPROPERTYTAG
  1
COMPANY
  9
$CUSTOMPROPERTY
  1
baldor
  9
$INSBASE
 10
0.0
 20
0.0
 30
0.0
  9
$EXTMIN
 10
1.000000000000000E+20
 20
1.000000000000000E+20
 30
1.000000000000000E+20
  9
$EXTMAX
 10
-1.000000000000000E+20
 20
-1.000000000000000E+20
 30
-1.000000000000000E+20
  9
$LIMMIN
 10
0.0
 20
0.0
  9
$LIMMAX
 10
12.0
 20
9.0
  9
$ORTHOMODE
 70
     0
  9
$REGENMODE
 70
     1
  9
$FILLMODE
 70
     1
  9
$QTEXTMODE
 70
     0
  9
$MIRRTEXT
 70
     1
  9
$LTSCALE
 40
1.0
  9
$ATTMODE
 70
     1
  9
$TEXTSIZE
 40
0.2
  9
$TRACEWID
 40
0.05
  9
$TEXTSTYLE
  7
Standard
  9
$CLAYER
  8
0
  9
$CELTYPE
  6
ByLayer
  9
$CECOLOR
 62
   256
  9
$CELTSCALE
 40
1.0
  9
$DISPSILH
 70
     0
  9
$DIMSCALE
 40
1.0
  9
$DIMASZ
 40
0.18
  9
$DIMEXO
 40
0.0625
  9
$DIMDLI
 40
0.38
  9
$DIMRND
 40
0.0
  9
$DIMDLE
 40
0.0
  9
$DIMEXE
 40
0.18
  9
$DIMTP
 40
0.0
  9
$DIMTM
 40
0.0
  9
$DIMTXT
 40
0.18
  9
$DIMCEN
 40
0.09
  9
$DIMTSZ
 40
0.0
  9
$DIMTOL
 70
     0
  9
$DIMLIM
 70
     0
  9
$DIMTIH
 70
     1
  9
$DIMTOH
 70
     1
  9
$DIMSE1
 70
     0
  9
$DIMSE2
 70
     0
  9
$DIMTAD
 70
     0
  9
$DIMZIN
 70
     0
  9
$DIMBLK
  1

  9
$DIMASO
 70
     1
  9
$DIMSHO
 70
     1
  9
$DIMPOST
  1

  9
$DIMAPOST
  1

  9
$DIMALT
 70
     0
  9
$DIMALTD
 70
     2
  9
$DIMALTF
 40
25.4
  9
$DIMLFAC
 40
1.0
  9
$DIMTOFL
 70
     0
  9
$DIMTVP
 40
0.0
  9
$DIMTIX
 70
     0
  9
$DIMSOXD
 70
     0
  9
$DIMSAH
 70
     0
  9
$DIMBLK1
  1

  9
$DIMBLK2
  1

  9
$DIMSTYLE
  2
Standard
  9
$DIMCLRD
 70
     0
  9
$DIMCLRE
 70
     0
  9
$DIMCLRT
 70
     0
  9
$DIMTFAC
 40
1.0
  9
$DIMGAP
 40
0.09
  9
$DIMJUST
 70
     0
  9
$DIMSD1
 70
     0
  9
$DIMSD2
 70
     0
  9
$DIMTOLJ
 70
     1
  9
$DIMTZIN
 70
     0
  9
$DIMALTZ
 70
     0
  9
$DIMALTTZ
 70
     0
  9
$DIMUPT
 70
     0
  9
$DIMDEC
 70
     4
  9
$DIMTDEC
 70
     4
  9
$DIMALTU
 70
     2
  9
$DIMALTTD
 70
     2
  9
$DIMTXSTY
  7
Standard
  9
$DIMAUNIT
 70
     0
  9
$DIMADEC
 70
     0
  9
$DIMALTRND
 40
0.0
  9
$DIMAZIN
 70
     0
  9
$DIMDSEP
 70
    46
  9
$DIMATFIT
 70
     3
  9
$DIMFRAC
 70
     0
  9
$DIMLDRBLK
  1

  9
$DIMLUNIT
 70
     2
  9
$DIMLWD
 70
    -2
  9
$DIMLWE
 70
    -2
  9
$DIMTMOVE
 70
     0
  9
$DIMFXL
 40
1.0
  9
$DIMFXLON
 70
     0
  9
$DIMJOGANG
 40
0.7853981633974483
  9
$DIMTFILL
 70
     0
  9
$DIMTFILLCLR
 70
     0
  9
$DIMARCSYM
 70
     0
  9
$DIMLTYPE
  6

  9
$DIMLTEX1
  6

  9
$DIMLTEX2
  6

  9
$DIMTXTDIRECTION
 70
     0
  9
$LUNITS
 70
     2
  9
$LUPREC
 70
     4
  9
$SKETCHINC
 40
0.1
  9
$FILLETRAD
 40
0.5
  9
$AUNITS
 70
     0
  9
$AUPREC
 70
     0
  9
$MENU
  1
.
  9
$ELEVATION
 40
0.0
  9
$PELEVATION
 40
0.0
  9
$THICKNESS
 40
0.0
  9
$LIMCHECK
 70
     0
  9
$CHAMFERA
 40
0.0
  9
$CHAMFERB
 40
0.0
  9
$CHAMFERC
 40
0.0
  9
$CHAMFERD
 40
0.0
  9
$SKPOLY
 70
     0
  9
$TDCREATE
 40
2458168.989294838
  9
$TDUCREATE
 40
2458168.947628171
  9
$TDUPDATE
 40
2458168.989295197
  9
$TDUUPDATE
 40
2458168.94762853
  9
$TDINDWG
 40
0.0000000116
  9
$TDUSRTIMER
 40
0.0000000116
  9
$USRTIMER
 70
     1
  9
$ANGBASE
 50
0.0
  9
$ANGDIR
 70
     0
  9
$PDMODE
 70
     0
  9
$PDSIZE
 40
0.0
  9
$PLINEWID
 40
0.0
  9
$SPLFRAME
 70
     0
  9
$SPLINETYPE
 70
     6
  9
$SPLINESEGS
 70
     8
  9
$HANDSEED
  5
26D
  9
$SURFTAB1
 70
     6
  9
$SURFTAB2
 70
     6
  9
$SURFTYPE
 70
     6
  9
$SURFU
 70
     6
  9
$SURFV
 70
     6
  9
$UCSBASE
  2

  9
$UCSNAME
  2

  9
$UCSORG
 10
0.0
 20
0.0
 30
0.0
  9
$UCSXDIR
 10
1.0
 20
0.0
 30
0.0
  9
$UCSYDIR
 10
0.0
 20
1.0
 30
0.0
  9
$UCSORTHOREF
  2

  9
$UCSORTHOVIEW
 70
     0
  9
$UCSORGTOP
 10
0.0
 20
0.0
 30
0.0
  9
$UCSORGBOTTOM
 10
0.0
 20
0.0
 30
0.0
  9
$UCSORGLEFT
 10
0.0
 20
0.0
 30
0.0
  9
$UCSORGRIGHT
 10
0.0
 20
0.0
 30
0.0
  9
$UCSORGFRONT
 10
0.0
 20
0.0
 30
0.0
  9
$UCSORGBACK
 10
0.0
 20
0.0
 30
0.0
  9
$PUCSBASE
  2

  9
$PUCSNAME
  2

  9
$PUCSORG
 10
0.0
 20
0.0
 30
0.0
  9
$PUCSXDIR
 10
1.0
 20
0.0
 30
0.0
  9
$PUCSYDIR
 10
0.0
 20
1.0
 30
0.0
  9
$PUCSORTHOREF
  2

  9
$PUCSORTHOVIEW
 70
     0
  9
$PUCSORGTOP
 10
0.0
 20
0.0
 30
0.0
  9
$PUCSORGBOTTOM
 10
0.0
 20
0.0
 30
0.0
  9
$PUCSORGLEFT
 10
0.0
 20
0.0
 30
0.0
  9
$PUCSORGRIGHT
 10
0.0
 20
0.0
 30
0.0
  9
$PUCSORGFRONT
 10
0.0
 20
0.0
 30
0.0
  9
$PUCSORGBACK
 10
0.0
 20
0.0
 30
0.0
  9
$USERI1
 70
     0
  9
$USERI2
 70
     0
  9
$USERI3
 70
     0
  9
$USERI4
 70
     0
  9
$USERI5
 70
     0
  9
$USERR1
 40
0.0
  9
$USERR2
 40
0.0
  9
$USERR3
 40
0.0
  9
$USERR4
 40
0.0
  9
$USERR5
 40
0.0
  9
$WORLDVIEW
 70
     1
  9
$SHADEDGE
 70
     3
  9
$SHADEDIF
 70
    70
  9
$TILEMODE
 70
     1
  9
$MAXACTVP
 70
    64
  9
$PINSBASE
 10
0.0
 20
0.0
 30
0.0
  9
$PLIMCHECK
 70
     0
  9
$PEXTMIN
 10
1.000000000000000E+20
 20
1.000000000000000E+20
 30
1.000000000000000E+20
  9
$PEXTMAX
 10
-1.000000000000000E+20
 20
-1.000000000000000E+20
 30
-1.000000000000000E+20
  9
$PLIMMIN
 10
0.0
 20
0.0
  9
$PLIMMAX
 10
12.0
 20
9.0
  9
$UNITMODE
 70
     0
  9
$VISRETAIN
 70
     1
  9
$PLINEGEN
 70
     0
  9
$PSLTSCALE
 70
     1
  9
$TREEDEPTH
 70
  3020
  9
$CMLSTYLE
  2
Standard
  9
$CMLJUST
 70
     0
  9
$CMLSCALE
 40
1.0
  9
$PROXYGRAPHICS
 70
     1
  9
$MEASUREMENT
 70
     0
  9
$CELWEIGHT
370
    -1
  9
$ENDCAPS
280
     0
  9
$JOINSTYLE
280
     0
  9
$LWDISPLAY
290
     0
  9
$INSUNITS
 70
     1
  9
$HYPERLINKBASE
  1

  9
$STYLESHEET
  1

  9
$XEDIT
290
     1
  9
$CEPSNTYPE
380
     0
  9
$PSTYLEMODE
290
     1
  9
$FINGERPRINTGUID
  2
{4C79EA17-FC84-4076-BB9D-8FF1B0C38ADC}
  9
$VERSIONGUID
  2
{FAEB1C32-E019-11D5-929B-00C0DF256EC4}
  9
$EXTNAMES
290
     1
  9
$PSVPSCALE
 40
0.0
  9
$OLESTARTUP
290
     0
  9
$SORTENTS
280
   127
  9
$INDEXCTL
280
     0
  9
$HIDETEXT
280
     1
  9
$XCLIPFRAME
280
     2
  9
$HALOGAP
280
     0
  9
$OBSCOLOR
 70
   257
  9
$OBSLTYPE
280
     0
  9
$INTERSECTIONDISPLAY
280
     0
  9
$INTERSECTIONCOLOR
 70
   257
  9
$DIMASSOC
280
     2
  9
$PROJECTNAME
  1

  9
$CAMERADISPLAY
290
     0
  9
$LENSLENGTH
 40
50.0
  9
$CAMERAHEIGHT
 40
0.0
  9
$STEPSPERSEC
 40
2.0
  9
$STEPSIZE
 40
6.0
  9
$3DDWFPREC
 40
2.0
  9
$PSOLWIDTH
 40
0.25
  9
$PSOLHEIGHT
 40
4.0
  9
$LOFTANG1
 40
1.570796326794897
  9
$LOFTANG2
 40
1.570796326794897
  9
$LOFTMAG1
 40
0.0
  9
$LOFTMAG2
 40
0.0
  9
$LOFTPARAM
 70
     7
  9
$LOFTNORMALS
280
     1
  9
$LATITUDE
 40
37.795
  9
$LONGITUDE
 40
-122.394
  9
$NORTHDIRECTION
 40
0.0
  9
$TIMEZONE
 70
 -8000
  9
$LIGHTGLYPHDISPLAY
280
     1
  9
$TILEMODELIGHTSYNCH
280
     1
  9
$CMATERIAL
347
44
  9
$SOLIDHIST
280
     0
  9
$SHOWHIST
280
     1
  9
$DWFFRAME
280
     2
  9
$DGNFRAME
280
     2
  9
$REALWORLDSCALE
290
     1
  9
$INTERFERECOLOR
 62
   256
  9
$CSHADOW
280
     0
  9
$SHADOWPLANELOCATION
 40
0.0
  0
ENDSEC
  0
SECTION
  2
CLASSES
  0
CLASS
  1
ACDBDICTIONARYWDFLT
  2
AcDbDictionaryWithDefault
  3
ObjectDBX Classes
 90
        0
 91
        4
280
     0
281
     0
  0
CLASS
  1
VISUALSTYLE
  2
AcDbVisualStyle
  3
ObjectDBX Classes
 90
     4095
 91
        4
280
     0
281
     0
  0
CLASS
  1
MATERIAL
  2
AcDbMaterial
  3
ObjectDBX Classes
 90
     1153
 91
        4
280
     0
281
     0
  0
CLASS
  1
SCALE
  2
AcDbScale
  3
ObjectDBX Classes
 90
     1153
 91
        4
280
     0
281
     0
  0
CLASS
  1
TABLESTYLE
  2
AcDbTableStyle
  3
ObjectDBX Classes
 90
     4095
 91
        4
280
     0
281
     0
  0
CLASS
  1
MLEADERSTYLE
  2
AcDbMLeaderStyle
  3
ACDB_MLEADERSTYLE_CLASS
 90
     4095
 91
        4
280
     0
281
     0
  0
CLASS
  1
SUN
  2
AcDbSun
  3
SCENEOE
 90
     1153
 91
        4
280
     0
281
     0
  0
CLASS
  1
DICTIONARYVAR
  2
AcDbDictionaryVar
  3
ObjectDBX Classes
 90
        0
 91
        4
280
     0
281
     0
  0
CLASS
  1
CELLSTYLEMAP
  2
AcDbCellStyleMap
  3
ObjectDBX Classes
 90
     1152
 91
        4
280
     0
281
     0
  0
ENDSEC
  0
SECTION
  2
TABLES
  0
TABLE
  2
VPORT
  5
8
330
0
100
AcDbSymbolTable
 70
     1
  0
VPORT
  5
29
330
8
100
AcDbSymbolTableRecord
100
AcDbViewportTableRecord
  2
*Active
 70
     0
 10
0.0
 20
0.0
 11
1.0
 21
1.0
 12
-0.2841406249999991
 22
0.087730379888094
 13
0.0
 23
0.0
 14
0.5
 24
0.5
 15
0.5
 25
0.5
 16
0.0
 26
0.0
 36
1.0
 17
0.0
 27
0.0
 37
0.0
 40
5.788969974971712
 41
0.6817453091073058
 42
50.0
 43
0.0
 44
0.0
 50
0.0
 51
0.0
 71
     0
 72
   100
 73
     1
 74
     3
 75
     0
 76
     0
 77
     0
 78
     0
281
     0
 65
     1
110
0.0
120
0.0
130
0.0
111
1.0
121
0.0
131
0.0
112
0.0
122
1.0
132
0.0
 79
     0
146
0.0
348
2F
 60
     3
 61
     5
292
     1
282
     1
141
0.0
142
0.0
 63
   250
361
6D
  0
ENDTAB
  0
TABLE
  2
LTYPE
  5
5
330
0
100
AcDbSymbolTable
 70
     3
  0
LTYPE
  5
14
330
5
100
AcDbSymbolTableRecord
100
AcDbLinetypeTableRecord
  2
ByBlock
 70
     0
  3

 72
    65
 73
     0
 40
0.0
  0
LTYPE
  5
15
330
5
100
AcDbSymbolTableRecord
100
AcDbLinetypeTableRecord
  2
ByLayer
 70
     0
  3

 72
    65
 73
     0
 40
0.0
  0
LTYPE
  5
16
330
5
100
AcDbSymbolTableRecord
100
AcDbLinetypeTableRecord
  2
Continuous
 70
     0
  3
Solid line
 72
    65
 73
     0
 40
0.0
  0
LTYPE
  5
9E
330
5
100
AcDbSymbolTableRecord
100
AcDbLinetypeTableRecord
  2
Dashed
 70
     0
  3

 72
    65
 73
     2
 40
2.0
 49
1.0
 74
     0
 49
-1.0
 74
     0
  0
LTYPE
  5
181
330
5
100
AcDbSymbolTableRecord
100
AcDbLinetypeTableRecord
  2
Center
 70
     0
  3

 72
    65
 73
     4
 40
1.5
 49
0.45
 74
     0
 49
-0.5
 74
     0
 49
0.05
 74
     0
 49
-0.5
 74
     0
  0
ENDTAB
  0
TABLE
  2
LAYER
  5
2
330
0
100
AcDbSymbolTable
 70
     7
  0
LAYER
  5
10
330
2
100
AcDbSymbolTableRecord
100
AcDbLayerTableRecord
  2
0
 70
     0
 62
     7
  6
Continuous
370
    -3
390
F
347
46
348
0
  0
LAYER
  5
72
330
2
100
AcDbSymbolTableRecord
100
AcDbLayerTableRecord
  2
AM_6
 70
     0
 62
    -2
  6
Continuous
370
    35
390
F
347
46
348
0
  0
LAYER
  5
9F
330
2
100
AcDbSymbolTableRecord
100
AcDbLayerTableRecord
  2
AM_9
 70
     0
 62
     6
  6
Dashed
370
    25
390
F
347
46
348
0
  0
LAYER
  5
AB
330
2
100
AcDbSymbolTableRecord
100
AcDbLayerTableRecord
  2
AM_5
 70
     0
 62
     3
  6
Continuous
370
    25
390
F
347
46
348
0
  0
LAYER
  5
AF
330
2
100
AcDbSymbolTableRecord
100
AcDbLayerTableRecord
  2
AM_4
 70
     0
 62
     7
  6
Continuous
370
    50
390
F
347
46
348
0
  0
LAYER
  5
182
330
2
100
AcDbSymbolTableRecord
100
AcDbLayerTableRecord
  2
AM_7
 70
     0
 62
     7
  6
Center
370
    25
390
F
347
46
348
0
  0
LAYER
  5
256
330
2
100
AcDbSymbolTableRecord
100
AcDbLayerTableRecord
  2
ConnectionPoints
 70
     0
 62
     7
  6
Continuous
370
    50
390
F
347
46
348
0
  0
ENDTAB
  0
TABLE
  2
STYLE
  5
3
330
0
100
AcDbSymbolTable
 70
     1
  0
STYLE
  5
11
330
3
100
AcDbSymbolTableRecord
100
AcDbTextStyleTableRecord
  2
Standard
 70
     0
 40
0.0
 41
1.0
 50
0.0
 71
     0
 42
0.2
  3
txt
  4

  0
ENDTAB
  0
TABLE
  2
VIEW
  5
6
330
0
100
AcDbSymbolTable
 70
     0
  0
ENDTAB
  0
TABLE
  2
UCS
  5
7
330
0
100
AcDbSymbolTable
 70
     0
  0
ENDTAB
  0
TABLE
  2
APPID
  5
9
330
0
100
AcDbSymbolTable
 70
     1
  0
APPID
  5
12
330
9
100
AcDbSymbolTableRecord
100
AcDbRegAppTableRecord
  2
ACAD
 70
     0
  0
ENDTAB
  0
TABLE
  2
DIMSTYLE
  5
A
330
0
100
AcDbSymbolTable
 70
     1
100
AcDbDimStyleTable
  0
DIMSTYLE
105
27
330
A
100
AcDbSymbolTableRecord
100
AcDbDimStyleTableRecord
  2
Standard
 70
     0
178
     0
340
11
  0
ENDTAB
  0
TABLE
  2
BLOCK_RECORD
  5
1
330
0
100
AcDbSymbolTable
 70
     8
  0
BLOCK_RECORD
  5
1F
330
1
100
AcDbSymbolTableRecord
100
AcDbBlockTableRecord
  2
*Model_Space
340
22
 70
     0
280
     1
281
     0
  0
BLOCK_RECORD
  5
1B
330
1
100
AcDbSymbolTableRecord
100
AcDbBlockTableRecord
  2
*Paper_Space
340
1E
 70
     0
280
     1
281
     0
  0
BLOCK_RECORD
  5
23
330
1
100
AcDbSymbolTableRecord
100
AcDbBlockTableRecord
  2
*Paper_Space0
340
26
 70
     0
280
     1
281
     0
  0
BLOCK_RECORD
  5
6E
330
1
100
AcDbSymbolTableRecord
100
AcDbBlockTableRecord
  2
1_069500_2
340
0
102
{BLKREFS
331
6F
102
}
 70
     0
280
     1
281
     0
  0
BLOCK_RECORD
  5
8E
330
1
100
AcDbSymbolTableRecord
100
AcDbBlockTableRecord
  2
2_ASME_B18_3_10_1_0_in_069500_2
340
0
102
{BLKREFS
331
8F
102
}
 70
     0
280
     1
281
     0
  0
BLOCK_RECORD
  5
B6
330
1
100
AcDbSymbolTableRecord
100
AcDbBlockTableRecord
  2
3_ASME_B18_3_10_2_0_in_069500_2
340
0
102
{BLKREFS
331
B7
102
}
 70
     0
280
     1
281
     0
  0
BLOCK_RECORD
  5
DA
330
1
100
AcDbSymbolTableRecord
100
AcDbBlockTableRecord
  2
4_070896LW_0_in_069500_2
340
0
102
{BLKREFS
331
DB
102
}
 70
     0
280
     1
281
     0
  0
BLOCK_RECORD
  5
110
330
1
100
AcDbSymbolTableRecord
100
AcDbBlockTableRecord
  2
5_070928I_0_in_069500_2
340
0
102
{BLKREFS
331
111
102
}
 70
     0
280
     1
281
     0
  0
BLOCK_RECORD
  5
1A0
330
1
100
AcDbSymbolTableRecord
100
AcDbBlockTableRecord
  2
6_405015E_Inch_0_in_069500_2
340
0
102
{BLKREFS
331
1A1
102
}
 70
     0
280
     1
281
     0
  0
BLOCK_RECORD
  5
204
330
1
100
AcDbSymbolTableRecord
100
AcDbBlockTableRecord
  2
7_069500H_0_in_069500_2
340
0
102
{BLKREFS
331
205
102
}
 70
     0
280
     1
281
     0
  0
ENDTAB
  0
ENDSEC
  0
SECTION
  2
BLOCKS
  0
BLOCK
  5
20
330
1F
100
AcDbEntity
  8
0
100
AcDbBlockBegin
  2
*Model_Space
 70
     0
 10
0.0
 20
0.0
 30
0.0
  3
*Model_Space
  1

  0
ENDBLK
  5
21
330
1F
100
AcDbEntity
  8
0
100
AcDbBlockEnd
  0
BLOCK
  5
1C
330
1B
100
AcDbEntity
 67
     1
  8
0
100
AcDbBlockBegin
  2
*Paper_Space
 70
     0
 10
0.0
 20
0.0
 30
0.0
  3
*Paper_Space
  1

  0
ENDBLK
  5
1D
330
1B
100
AcDbEntity
 67
     1
  8
0
100
AcDbBlockEnd
  0
BLOCK
  5
24
330
23
100
AcDbEntity
  8
0
100
AcDbBlockBegin
  2
*Paper_Space0
 70
     0
 10
0.0
 20
0.0
 30
0.0
  3
*Paper_Space0
  1

  0
ENDBLK
  5
25
330
23
100
AcDbEntity
  8
0
100
AcDbBlockEnd
  0
BLOCK
  5
70
330
6E
100
AcDbEntity
  8
0
100
AcDbBlockBegin
  2
1_069500_2
 70
     2
 10
0.0
 20
0.0
 30
0.0
  3
1_069500_2
  1

  0
ATTDEF
  5
73
330
6E
100
AcDbEntity
  8
AM_6
100
AcDbText
 10
6.65046875
 20
2.925460759776187
 30
0.0
 40
0.5
  1
Imperial -IP Pillow Block 1-1/8 thru 2-1/4  2-Bolt Inch Bore (Labyrinth Seal)
100
AcDbAttributeDefinition
  3

  2
NN
 70
     8
280
     0
  0
ATTDEF
  5
74
330
6E
100
AcDbEntity
  8
AM_6
100
AcDbText
 10
6.65046875
 20
2.425460759776187
 30
0.0
 40
0.5
  1
Imperial 2 Bolt Piliow Block Bearings
100
AcDbAttributeDefinition
  3

  2
NT
 70
     8
280
     0
  0
ATTDEF
  5
75
330
6E
100
AcDbEntity
  8
AM_6
100
AcDbText
 10
6.65046875
 20
1.925460759776187
 30
0.0
 40
0.5
  1
069500
100
AcDbAttributeDefinition
  3

  2
NB
 70
     8
280
     0
  0
ATTDEF
  5
76
330
6E
100
AcDbEntity
  8
AM_6
100
AcDbText
 10
6.65046875
 20
1.425460759776187
 30
0.0
 40
0.5
  1
$PN.
100
AcDbAttributeDefinition
  3

  2
NBSYN
 70
     8
280
     0
  0
ATTDEF
  5
77
330
6E
100
AcDbEntity
  8
AM_6
100
AcDbText
 10
6.65046875
 20
0.9254607597761875
 30
0.0
 40
0.5
  1
069500
100
AcDbAttributeDefinition
  3

  2
LINA
 70
     8
280
     0
  0
ATTDEF
  5
78
330
6E
100
AcDbEntity
  8
AM_6
100
AcDbText
 10
6.65046875
 20
0.4254607597761875
 30
0.0
 40
0.5
  1
2-1/2
100
AcDbAttributeDefinition
  3

  2
SS
 70
     8
280
     0
  0
ATTDEF
  5
79
330
6E
100
AcDbEntity
  8
AM_6
100
AcDbText
 10
6.65046875
 20
-0.0745392402238125
 30
0.0
 40
0.5
  1
069500
100
AcDbAttributeDefinition
  3

  2
PN
 70
     8
280
     0
  0
ATTDEF
  5
7A
330
6E
100
AcDbEntity
  8
AM_6
100
AcDbText
 10
6.65046875
 20
-0.5745392402238125
 30
0.0
 40
0.5
  1
P2B-IP-208LE
100
AcDbAttributeDefinition
  3

  2
DESCRIPTION
 70
     8
280
     0
  0
ATTDEF
  5
7B
330
6E
100
AcDbEntity
  8
AM_6
100
AcDbText
 10
6.65046875
 20
-1.074539240223813
 30
0.0
 40
0.5
  1
Expansion Type
100
AcDbAttributeDefinition
  3

  2
EF
 70
     8
280
     0
  0
ATTDEF
  5
7C
330
6E
100
AcDbEntity
  8
AM_6
100
AcDbText
 10
6.65046875
 20
-1.574539240223813
 30
0.0
 40
0.5
  1
Labyrinth Seal
100
AcDbAttributeDefinition
  3

  2
ST
 70
     8
280
     0
  0
ATTDEF
  5
7D
330
6E
100
AcDbEntity
  8
AM_6
100
AcDbText
 10
6.65046875
 20
-2.074539240223813
 30
0.0
 40
0.5
  1
3-27/64
100
AcDbAttributeDefinition
  3

  2
A
 70
     8
280
     0
  0
ATTDEF
  5
7E
330
6E
100
AcDbEntity
  8
AM_6
100
AcDbText
 10
6.65046875
 20
-2.574539240223813
 30
0.0
 40
0.5
  1
9-1/4
100
AcDbAttributeDefinition
  3

  2
B
 70
     8
280
     0
  0
ATTDEF
  5
7F
330
6E
100
AcDbEntity
  8
AM_6
100
AcDbText
 10
6.65046875
 20
-3.074539240223813
 30
0.0
 40
0.5
  1
2-55/64
100
AcDbAttributeDefinition
  3

  2
C
 70
     8
280
     0
  0
ATTDEF
  5
80
330
6E
100
AcDbEntity
  8
AM_6
100
AcDbText
 10
6.65046875
 20
-3.574539240223813
 30
0.0
 40
0.5
  1
6-15/16
100
AcDbAttributeDefinition
  3

  2
DMIN
 70
     8
280
     0
  0
ATTDEF
  5
81
330
6E
100
AcDbEntity
  8
AM_6
100
AcDbText
 10
6.65046875
 20
-4.074539240223812
 30
0.0
 40
0.5
  1
7-5/16
100
AcDbAttributeDefinition
  3

  2
DMAX
 70
     8
280
     0
  0
ATTDEF
  5
82
330
6E
100
AcDbEntity
  8
AM_6
100
AcDbText
 10
6.65046875
 20
-4.574539240223812
 30
0.0
 40
0.5
  1
5/8
100
AcDbAttributeDefinition
  3

  2
F
 70
     8
280
     0
  0
ATTDEF
  5
83
330
6E
100
AcDbEntity
  8
AM_6
100
AcDbText
 10
6.65046875
 20
-5.074539240223812
 30
0.0
 40
0.5
  1
61/64
100
AcDbAttributeDefinition
  3

  2
G
 70
     8
280
     0
  0
ATTDEF
  5
84
330
6E
100
AcDbEntity
  8
AM_6
100
AcDbText
 10
6.65046875
 20
-5.574539240223812
 30
0.0
 40
0.5
  1
1-5/8
100
AcDbAttributeDefinition
  3

  2
H
 70
     8
280
     0
  0
ATTDEF
  5
85
330
6E
100
AcDbEntity
  8
AM_6
100
AcDbText
 10
6.65046875
 20
-6.074539240223812
 30
0.0
 40
0.5
  1
5-19/32
100
AcDbAttributeDefinition
  3

  2
J
 70
     8
280
     0
  0
ATTDEF
  5
86
330
6E
100
AcDbEntity
  8
AM_6
100
AcDbText
 10
6.65046875
 20
-6.574539240223812
 30
0.0
 40
0.5
  1
3-7/8
100
AcDbAttributeDefinition
  3

  2
L
 70
     8
280
     0
  0
ATTDEF
  5
87
330
6E
100
AcDbEntity
  8
AM_6
100
AcDbText
 10
6.65046875
 20
-7.074539240223812
 30
0.0
 40
0.5
  1
2-3/4
100
AcDbAttributeDefinition
  3

  2
M
 70
     8
280
     0
  0
ATTDEF
  5
88
330
6E
100
AcDbEntity
  8
AM_6
100
AcDbText
 10
6.65046875
 20
-7.574539240223812
 30
0.0
 40
0.5
  1
1-13/64
100
AcDbAttributeDefinition
  3

  2
R
 70
     8
280
     0
  0
ATTDEF
  5
89
330
6E
100
AcDbEntity
  8
AM_6
100
AcDbText
 10
6.65046875
 20
-8.074539240223812
 30
0.0
 40
0.5
  1
2-7/32
100
AcDbAttributeDefinition
  3

  2
S
 70
     8
280
     0
  0
ATTDEF
  5
8A
330
6E
100
AcDbEntity
  8
AM_6
100
AcDbText
 10
6.65046875
 20
-8.574539240223812
 30
0.0
 40
0.5
  1
1/4
100
AcDbAttributeDefinition
  3

  2
X
 70
     8
280
     0
  0
ATTDEF
  5
8B
330
6E
100
AcDbEntity
  8
AM_6
100
AcDbText
 10
6.65046875
 20
-9.074539240223812
 30
0.0
 40
0.5
  1
0.025
100
AcDbAttributeDefinition
  3

  2
Y
 70
     8
280
     0
  0
ATTDEF
  5
8C
330
6E
100
AcDbEntity
  8
AM_6
100
AcDbText
 10
6.65046875
 20
-9.574539240223812
 30
0.0
 40
0.5
  1
2-15/16
100
AcDbAttributeDefinition
  3

  2
Z
 70
     8
280
     0
  0
ATTDEF
  5
8D
330
6E
100
AcDbEntity
  8
AM_6
100
AcDbText
 10
6.65046875
 20
-10.07453924022381
 30
0.0
 40
0.5
  1
baldor
100
AcDbAttributeDefinition
  3

  2
COMPANY
 70
     8
280
     0
  0
INSERT
  5
8F
330
6E
100
AcDbEntity
  8
0
100
AcDbBlockReference
  2
2_ASME_B18_3_10_1_0_in_069500_2
 10
0.0
 20
0.0
 30
0.0
  0
INSERT
  5
B7
330
6E
100
AcDbEntity
  8
0
100
AcDbBlockReference
  2
3_ASME_B18_3_10_2_0_in_069500_2
 10
0.0
 20
0.0
 30
0.0
  0
INSERT
  5
DB
330
6E
100
AcDbEntity
  8
0
100
AcDbBlockReference
  2
4_070896LW_0_in_069500_2
 10
0.0
 20
0.0
 30
0.0
  0
INSERT
  5
111
330
6E
100
AcDbEntity
  8
0
100
AcDbBlockReference
  2
5_070928I_0_in_069500_2
 10
0.0
 20
0.0
 30
0.0
  0
INSERT
  5
1A1
330
6E
100
AcDbEntity
  8
0
100
AcDbBlockReference
  2
6_405015E_Inch_0_in_069500_2
 10
0.0
 20
0.0
 30
0.0
  0
INSERT
  5
205
330
6E
100
AcDbEntity
  8
0
100
AcDbBlockReference
  2
7_069500H_0_in_069500_2
 10
0.0
 20
0.0
 30
0.0
  0
ENDBLK
  5
71
330
6E
100
AcDbEntity
  8
0
100
AcDbBlockEnd
  0
BLOCK
  5
90
330
8E
100
AcDbEntity
  8
0
100
AcDbBlockBegin
  2
2_ASME_B18_3_10_1_0_in_069500_2
 70
     2
 10
0.0
 20
0.0
 30
0.0
  3
2_ASME_B18_3_10_1_0_in_069500_2
  1

  0
ATTDEF
  5
92
330
8E
100
AcDbEntity
  8
AM_6
100
AcDbText
 10
4.032583333333333
 20
-1.482694444444445
 30
0.0
 40
0.5
  1
ANSI/ASME B18.3-1998
100
AcDbAttributeDefinition
  3

  2
NN
 70
     8
280
     0
  0
ATTDEF
  5
93
330
8E
100
AcDbEntity
  8
AM_6
100
AcDbText
 10
4.032583333333333
 20
-1.982694444444445
 30
0.0
 40
0.5
  1
Socket Button Head Cap Screws
100
AcDbAttributeDefinition
  3

  2
NT
 70
     8
280
     0
  0
ATTDEF
  5
94
330
8E
100
AcDbEntity
  8
AM_6
100
AcDbText
 10
4.032583333333333
 20
-2.482694444444444
 30
0.0
 40
0.5
  1
ASME B18.3-10
100
AcDbAttributeDefinition
  3

  2
NB
 70
     8
280
     0
  0
ATTDEF
  5
95
330
8E
100
AcDbEntity
  8
AM_6
100
AcDbText
 10
4.032583333333333
 20
-2.982694444444444
 30
0.0
 40
0.5
  1
ASME B18.3-$NS.
100
AcDbAttributeDefinition
  3

  2
NBSYN
 70
     8
280
     0
  0
ATTDEF
  5
96
330
8E
100
AcDbEntity
  8
AM_6
100
AcDbText
 10
4.032583333333333
 20
-3.482694444444444
 30
0.0
 40
0.5
  1
ASME B18.3-10
100
AcDbAttributeDefinition
  3

  2
LINA
 70
     8
280
     0
  0
ATTDEF
  5
97
330
8E
100
AcDbEntity
  8
AM_6
100
AcDbText
 10
4.032583333333333
 20
-3.982694444444444
 30
0.0
 40
0.5
  1
10
100
AcDbAttributeDefinition
  3

  2
NS
 70
     8
280
     0
  0
ATTDEF
  5
98
330
8E
100
AcDbEntity
  8
AM_6
100
AcDbText
 10
4.032583333333333
 20
-4.482694444444444
 30
0.0
 40
0.5
  1
0.361
100
AcDbAttributeDefinition
  3

  2
A
 70
     8
280
     0
  0
ATTDEF
  5
99
330
8E
100
AcDbEntity
  8
AM_6
100
AcDbText
 10
4.032583333333333
 20
-4.982694444444444
 30
0.0
 40
0.5
  1
0.101
100
AcDbAttributeDefinition
  3

  2
H
 70
     8
280
     0
  0
ATTDEF
  5
9A
330
8E
100
AcDbEntity
  8
AM_6
100
AcDbText
 10
4.032583333333333
 20
-5.482694444444444
 30
0.0
 40
0.5
  1
0.800
100
AcDbAttributeDefinition
  3

  2
L
 70
     8
280
     0
  0
ATTDEF
  5
9B
330
8E
100
AcDbEntity
  8
AM_6
100
AcDbText
 10
4.032583333333333
 20
-5.982694444444444
 30
0.0
 40
0.5
  1
0.020
100
AcDbAttributeDefinition
  3

  2
S
 70
     8
280
     0
  0
ATTDEF
  5
9C
330
8E
100
AcDbEntity
  8
AM_6
100
AcDbText
 10
4.032583333333333
 20
-6.482694444444444
 30
0.0
 40
0.5
  1
0.125000
100
AcDbAttributeDefinition
  3

  2
J
 70
     8
280
     0
  0
ATTDEF
  5
9D
330
8E
100
AcDbEntity
  8
AM_6
100
AcDbText
 10
4.032583333333333
 20
-6.982694444444444
 30
0.0
 40
0.5
  1
baldor
100
AcDbAttributeDefinition
  3

  2
COMPANY
 70
     8
280
     0
  0
LINE
  5
A0
330
8E
100
AcDbEntity
  8
AM_9
100
AcDbLine
 10
-1.807416666666667
 20
-1.591025660795741
 30
0.0
 11
-1.868416666666667
 21
-1.591025660795741
 31
0.0
  0
LINE
  5
A1
330
8E
100
AcDbEntity
  8
AM_9
100
AcDbLine
 10
-1.807416666666667
 20
-1.735363228093148
 30
0.0
 11
-1.868416666666667
 21
-1.735363228093148
 31
0.0
  0
LINE
  5
A2
330
8E
100
AcDbEntity
  8
AM_9
100
AcDbLine
 10
-1.807416666666667
 20
-1.591025660795741
 30
0.0
 11
-1.807416666666667
 21
-1.735363228093148
 31
0.0
  0
LINE
  5
A3
330
8E
100
AcDbEntity
  8
AM_9
100
AcDbLine
 10
-1.807416666666667
 20
-1.627110052620093
 30
0.0
 11
-1.868416666666667
 21
-1.627110052620093
 31
0.0
  0
LINE
  5
A4
330
8E
100
AcDbEntity
  8
AM_9
100
AcDbLine
 10
-1.807416666666667
 20
-1.699278836268796
 30
0.0
 11
-1.868416666666667
 21
-1.699278836268796
 31
0.0
  0
LINE
  5
A5
330
8E
100
AcDbEntity
  8
AM_9
100
AcDbLine
 10
-0.9674166666666667
 20
-1.586794444444444
 30
0.0
 11
-0.9674166666666667
 21
-1.739594444444444
 31
0.0
  0
LINE
  5
A6
330
8E
100
AcDbEntity
  8
AM_9
100
AcDbLine
 10
-0.9674166666666667
 20
-1.586794444444444
 30
0.0
 11
-0.9860166666666668
 21
-1.568194444444444
 31
0.0
  0
LINE
  5
A7
330
8E
100
AcDbEntity
  8
AM_9
100
AcDbLine
 10
-0.9860166666666668
 20
-1.758194444444444
 30
0.0
 11
-0.9674166666666667
 21
-1.739594444444444
 31
0.0
  0
LINE
  5
A8
330
8E
100
AcDbEntity
  8
AM_9
100
AcDbLine
 10
-0.9860166666666668
 20
-1.568194444444444
 30
0.0
 11
-0.9860166666666668
 21
-1.758194444444444
 31
0.0
  0
LINE
  5
A9
330
8E
100
AcDbEntity
  8
AM_9
100
AcDbLine
 10
-1.767416666666667
 20
-1.758194444444444
 30
0.0
 11
-0.9860166666666668
 21
-1.758194444444444
 31
0.0
  0
LINE
  5
AA
330
8E
100
AcDbEntity
  8
AM_9
100
AcDbLine
 10
-0.9860166666666668
 20
-1.568194444444444
 30
0.0
 11
-1.767416666666667
 21
-1.568194444444444
 31
0.0
  0
LINE
  5
AC
330
8E
100
AcDbEntity
  8
AM_5
100
AcDbLine
 10
-1.687416666666667
 20
-1.739594444444444
 30
0.0
 11
-1.719632811687448
 21
-1.758194444444444
 31
0.0
  0
LINE
  5
AD
330
8E
100
AcDbEntity
  8
AM_5
100
AcDbLine
 10
-1.687416666666667
 20
-1.568194479479496
 30
0.0
 11
-1.687416666666667
 21
-1.758194598016309
 31
0.0
  0
LINE
  5
AE
330
8E
100
AcDbEntity
  8
AM_5
100
AcDbLine
 10
-1.687416666666667
 20
-1.586794444444444
 30
0.0
 11
-1.719632811687449
 21
-1.568194444444444
 31
0.0
  0
LINE
  5
B0
330
8E
100
AcDbEntity
  8
AM_4
100
AcDbLine
 10
-1.868416666666667
 20
-1.563694444444444
 30
0.0
 11
-1.868416666666667
 21
-1.762694444444445
 31
0.0
  0
ARC
  5
B1
330
8E
100
AcDbEntity
  8
AM_4
100
AcDbCircle
 10
-1.787416666666667
 20
-1.762694444444444
 30
0.0
 40
0.0810000000000002
100
AcDbArc
 50
179.9999991462263
 51
270.0
  0
ARC
  5
B2
330
8E
100
AcDbEntity
  8
AM_4
100
AcDbCircle
 10
-1.787416666666667
 20
-1.563694444444445
 30
0.0
 40
0.0810000000000002
100
AcDbArc
 50
90.0
 51
179.9999991462263
  0
LINE
  5
B3
330
8E
100
AcDbEntity
  8
AM_4
100
AcDbLine
 10
-1.787416666666667
 20
-1.482694444444445
 30
0.0
 11
-1.787416666666667
 21
-1.843694444444444
 31
0.0
  0
LINE
  5
B4
330
8E
100
AcDbEntity
  8
AM_4
100
AcDbLine
 10
-1.787416666666667
 20
-1.843694444444444
 30
0.0
 11
-1.767416666666667
 21
-1.843694444444444
 31
0.0
  0
LINE
  5
B5
330
8E
100
AcDbEntity
  8
AM_4
100
AcDbLine
 10
-1.767416666666667
 20
-1.482694444444445
 30
0.0
 11
-1.787416666666667
 21
-1.482694444444445
 31
0.0
  0
ENDBLK
  5
91
330
8E
100
AcDbEntity
  8
0
100
AcDbBlockEnd
  0
BLOCK
  5
B8
330
B6
100
AcDbEntity
  8
0
100
AcDbBlockBegin
  2
3_ASME_B18_3_10_2_0_in_069500_2
 70
     2
 10
0.0
 20
0.0
 30
0.0
  3
3_ASME_B18_3_10_2_0_in_069500_2
  1

  0
ATTDEF
  5
BA
330
B6
100
AcDbEntity
  8
AM_6
100
AcDbText
 10
4.032583333333333
 20
1.843694444444444
 30
0.0
 40
0.5
  1
ANSI/ASME B18.3-1998
100
AcDbAttributeDefinition
  3

  2
NN
 70
     8
280
     0
  0
ATTDEF
  5
BB
330
B6
100
AcDbEntity
  8
AM_6
100
AcDbText
 10
4.032583333333333
 20
1.343694444444444
 30
0.0
 40
0.5
  1
Socket Button Head Cap Screws
100
AcDbAttributeDefinition
  3

  2
NT
 70
     8
280
     0
  0
ATTDEF
  5
BC
330
B6
100
AcDbEntity
  8
AM_6
100
AcDbText
 10
4.032583333333333
 20
0.8436944444444443
 30
0.0
 40
0.5
  1
ASME B18.3-10
100
AcDbAttributeDefinition
  3

  2
NB
 70
     8
280
     0
  0
ATTDEF
  5
BD
330
B6
100
AcDbEntity
  8
AM_6
100
AcDbText
 10
4.032583333333333
 20
0.3436944444444443
 30
0.0
 40
0.5
  1
ASME B18.3-$NS.
100
AcDbAttributeDefinition
  3

  2
NBSYN
 70
     8
280
     0
  0
ATTDEF
  5
BE
330
B6
100
AcDbEntity
  8
AM_6
100
AcDbText
 10
4.032583333333333
 20
-0.1563055555555557
 30
0.0
 40
0.5
  1
ASME B18.3-10
100
AcDbAttributeDefinition
  3

  2
LINA
 70
     8
280
     0
  0
ATTDEF
  5
BF
330
B6
100
AcDbEntity
  8
AM_6
100
AcDbText
 10
4.032583333333333
 20
-0.6563055555555557
 30
0.0
 40
0.5
  1
10
100
AcDbAttributeDefinition
  3

  2
NS
 70
     8
280
     0
  0
ATTDEF
  5
C0
330
B6
100
AcDbEntity
  8
AM_6
100
AcDbText
 10
4.032583333333333
 20
-1.156305555555556
 30
0.0
 40
0.5
  1
0.361
100
AcDbAttributeDefinition
  3

  2
A
 70
     8
280
     0
  0
ATTDEF
  5
C1
330
B6
100
AcDbEntity
  8
AM_6
100
AcDbText
 10
4.032583333333333
 20
-1.656305555555556
 30
0.0
 40
0.5
  1
0.101
100
AcDbAttributeDefinition
  3

  2
H
 70
     8
280
     0
  0
ATTDEF
  5
C2
330
B6
100
AcDbEntity
  8
AM_6
100
AcDbText
 10
4.032583333333333
 20
-2.156305555555556
 30
0.0
 40
0.5
  1
0.800
100
AcDbAttributeDefinition
  3

  2
L
 70
     8
280
     0
  0
ATTDEF
  5
C3
330
B6
100
AcDbEntity
  8
AM_6
100
AcDbText
 10
4.032583333333333
 20
-2.656305555555556
 30
0.0
 40
0.5
  1
0.020
100
AcDbAttributeDefinition
  3

  2
S
 70
     8
280
     0
  0
ATTDEF
  5
C4
330
B6
100
AcDbEntity
  8
AM_6
100
AcDbText
 10
4.032583333333333
 20
-3.156305555555556
 30
0.0
 40
0.5
  1
0.125000
100
AcDbAttributeDefinition
  3

  2
J
 70
     8
280
     0
  0
ATTDEF
  5
C5
330
B6
100
AcDbEntity
  8
AM_6
100
AcDbText
 10
4.032583333333333
 20
-3.656305555555556
 30
0.0
 40
0.5
  1
baldor
100
AcDbAttributeDefinition
  3

  2
COMPANY
 70
     8
280
     0
  0
LINE
  5
C6
330
B6
100
AcDbEntity
  8
AM_9
100
AcDbLine
 10
-1.807416666666667
 20
1.735363228093148
 30
0.0
 11
-1.868416666666667
 21
1.735363228093148
 31
0.0
  0
LINE
  5
C7
330
B6
100
AcDbEntity
  8
AM_9
100
AcDbLine
 10
-1.807416666666667
 20
1.591025660795741
 30
0.0
 11
-1.868416666666667
 21
1.591025660795741
 31
0.0
  0
LINE
  5
C8
330
B6
100
AcDbEntity
  8
AM_9
100
AcDbLine
 10
-1.807416666666667
 20
1.735363228093148
 30
0.0
 11
-1.807416666666667
 21
1.591025660795741
 31
0.0
  0
LINE
  5
C9
330
B6
100
AcDbEntity
  8
AM_9
100
AcDbLine
 10
-1.807416666666667
 20
1.699278836268796
 30
0.0
 11
-1.868416666666667
 21
1.699278836268796
 31
0.0
  0
LINE
  5
CA
330
B6
100
AcDbEntity
  8
AM_9
100
AcDbLine
 10
-1.807416666666667
 20
1.627110052620093
 30
0.0
 11
-1.868416666666667
 21
1.627110052620093
 31
0.0
  0
LINE
  5
CB
330
B6
100
AcDbEntity
  8
AM_9
100
AcDbLine
 10
-0.9674166666666667
 20
1.739594444444444
 30
0.0
 11
-0.9674166666666667
 21
1.586794444444444
 31
0.0
  0
LINE
  5
CC
330
B6
100
AcDbEntity
  8
AM_9
100
AcDbLine
 10
-0.9674166666666667
 20
1.739594444444444
 30
0.0
 11
-0.9860166666666668
 21
1.758194444444444
 31
0.0
  0
LINE
  5
CD
330
B6
100
AcDbEntity
  8
AM_9
100
AcDbLine
 10
-0.9860166666666668
 20
1.568194444444444
 30
0.0
 11
-0.9674166666666667
 21
1.586794444444444
 31
0.0
  0
LINE
  5
CE
330
B6
100
AcDbEntity
  8
AM_9
100
AcDbLine
 10
-0.9860166666666668
 20
1.758194444444444
 30
0.0
 11
-0.9860166666666668
 21
1.568194444444444
 31
0.0
  0
LINE
  5
CF
330
B6
100
AcDbEntity
  8
AM_9
100
AcDbLine
 10
-1.767416666666667
 20
1.568194444444444
 30
0.0
 11
-0.9860166666666668
 21
1.568194444444444
 31
0.0
  0
LINE
  5
D0
330
B6
100
AcDbEntity
  8
AM_9
100
AcDbLine
 10
-0.9860166666666668
 20
1.758194444444444
 30
0.0
 11
-1.767416666666667
 21
1.758194444444444
 31
0.0
  0
LINE
  5
D1
330
B6
100
AcDbEntity
  8
AM_5
100
AcDbLine
 10
-1.687416666666667
 20
1.586794444444444
 30
0.0
 11
-1.719632811687448
 21
1.568194444444444
 31
0.0
  0
LINE
  5
D2
330
B6
100
AcDbEntity
  8
AM_5
100
AcDbLine
 10
-1.687416666666667
 20
1.758194598016309
 30
0.0
 11
-1.687416666666667
 21
1.568194479479496
 31
0.0
  0
LINE
  5
D3
330
B6
100
AcDbEntity
  8
AM_5
100
AcDbLine
 10
-1.687416666666667
 20
1.739594444444444
 30
0.0
 11
-1.719632811687448
 21
1.758194444444444
 31
0.0
  0
LINE
  5
D4
330
B6
100
AcDbEntity
  8
AM_4
100
AcDbLine
 10
-1.868416666666667
 20
1.762694444444445
 30
0.0
 11
-1.868416666666667
 21
1.563694444444444
 31
0.0
  0
ARC
  5
D5
330
B6
100
AcDbEntity
  8
AM_4
100
AcDbCircle
 10
-1.787416666666667
 20
1.563694444444445
 30
0.0
 40
0.0810000000000002
100
AcDbArc
 50
179.9999991462263
 51
270.0
  0
ARC
  5
D6
330
B6
100
AcDbEntity
  8
AM_4
100
AcDbCircle
 10
-1.787416666666667
 20
1.762694444444444
 30
0.0
 40
0.0810000000000002
100
AcDbArc
 50
90.0
 51
179.9999991462263
  0
LINE
  5
D7
330
B6
100
AcDbEntity
  8
AM_4
100
AcDbLine
 10
-1.787416666666667
 20
1.843694444444444
 30
0.0
 11
-1.787416666666667
 21
1.482694444444445
 31
0.0
  0
LINE
  5
D8
330
B6
100
AcDbEntity
  8
AM_4
100
AcDbLine
 10
-1.787416666666667
 20
1.482694444444445
 30
0.0
 11
-1.767416666666667
 21
1.482694444444445
 31
0.0
  0
LINE
  5
D9
330
B6
100
AcDbEntity
  8
AM_4
100
AcDbLine
 10
-1.767416666666667
 20
1.843694444444444
 30
0.0
 11
-1.787416666666667
 21
1.843694444444444
 31
0.0
  0
ENDBLK
  5
B9
330
B6
100
AcDbEntity
  8
0
100
AcDbBlockEnd
  0
BLOCK
  5
DC
330
DA
100
AcDbEntity
  8
0
100
AcDbBlockBegin
  2
4_070896LW_0_in_069500_2
 70
     2
 10
0.0
 20
0.0
 30
0.0
  3
4_070896LW_0_in_069500_2
  1

  0
ATTDEF
  5
DE
330
DA
100
AcDbEntity
  8
AM_6
100
AcDbText
 10
3.672583333333333
 20
1.9375
 30
0.0
 40
0.5
  1
Imperial Insert Lockwasher -Inch
100
AcDbAttributeDefinition
  3

  2
NN
 70
     8
280
     0
  0
ATTDEF
  5
DF
330
DA
100
AcDbEntity
  8
AM_6
100
AcDbText
 10
3.672583333333333
 20
1.4375
 30
0.0
 40
0.5
  1
Imperial Bearings
100
AcDbAttributeDefinition
  3

  2
NT
 70
     8
280
     0
  0
ATTDEF
  5
E0
330
DA
100
AcDbEntity
  8
AM_6
100
AcDbText
 10
3.672583333333333
 20
0.9375000000000002
 30
0.0
 40
0.5
  1
070896LW
100
AcDbAttributeDefinition
  3

  2
NB
 70
     8
280
     0
  0
ATTDEF
  5
E1
330
DA
100
AcDbEntity
  8
AM_6
100
AcDbText
 10
3.672583333333333
 20
0.4375000000000002
 30
0.0
 40
0.5
  1
$PN.LW
100
AcDbAttributeDefinition
  3

  2
NBSYN
 70
     8
280
     0
  0
ATTDEF
  5
E2
330
DA
100
AcDbEntity
  8
AM_6
100
AcDbText
 10
3.672583333333333
 20
-0.0624999999999998
 30
0.0
 40
0.5
  1
070896
100
AcDbAttributeDefinition
  3

  2
LINA
 70
     8
280
     0
  0
ATTDEF
  5
E3
330
DA
100
AcDbEntity
  8
AM_6
100
AcDbText
 10
3.672583333333333
 20
-0.5624999999999998
 30
0.0
 40
0.5
  1
2-1/2
100
AcDbAttributeDefinition
  3

  2
SS
 70
     8
280
     0
  0
ATTDEF
  5
E4
330
DA
100
AcDbEntity
  8
AM_6
100
AcDbText
 10
3.672583333333333
 20
-1.0625
 30
0.0
 40
0.5
  1
2.500000
100
AcDbAttributeDefinition
  3

  2
SS1
 70
     8
280
     0
  0
ATTDEF
  5
E5
330
DA
100
AcDbEntity
  8
AM_6
100
AcDbText
 10
3.672583333333333
 20
-1.5625
 30
0.0
 40
0.5
  1
070896
100
AcDbAttributeDefinition
  3

  2
PN
 70
     8
280
     0
  0
ATTDEF
  5
E6
330
DA
100
AcDbEntity
  8
AM_6
100
AcDbText
 10
3.672583333333333
 20
-2.0625
 30
0.0
 40
0.5
  1
INS-IP-208R
100
AcDbAttributeDefinition
  3

  2
DESCRIPTION
 70
     8
280
     0
  0
ATTDEF
  5
E7
330
DA
100
AcDbEntity
  8
AM_6
100
AcDbText
 10
3.672583333333333
 20
-2.5625
 30
0.0
 40
0.5
  1
4.7241
100
AcDbAttributeDefinition
  3

  2
A
 70
     8
280
     0
  0
ATTDEF
  5
E8
330
DA
100
AcDbEntity
  8
AM_6
100
AcDbText
 10
3.672583333333333
 20
-3.0625
 30
0.0
 40
0.5
  1
1-9/32
100
AcDbAttributeDefinition
  3

  2
B
 70
     8
280
     0
  0
ATTDEF
  5
E9
330
DA
100
AcDbEntity
  8
AM_6
100
AcDbText
 10
3.672583333333333
 20
-3.5625
 30
0.0
 40
0.5
  1
3-27/64
100
AcDbAttributeDefinition
  3

  2
C
 70
     8
280
     0
  0
ATTDEF
  5
EA
330
DA
100
AcDbEntity
  8
AM_6
100
AcDbText
 10
3.672583333333333
 20
-4.0625
 30
0.0
 40
0.5
  1
1.208
100
AcDbAttributeDefinition
  3

  2
D
 70
     8
280
     0
  0
ATTDEF
  5
EB
330
DA
100
AcDbEntity
  8
AM_6
100
AcDbText
 10
3.672583333333333
 20
-4.5625
 30
0.0
 40
0.5
  1
3-7/8
100
AcDbAttributeDefinition
  3

  2
E
 70
     8
280
     0
  0
ATTDEF
  5
EC
330
DA
100
AcDbEntity
  8
AM_6
100
AcDbText
 10
3.672583333333333
 20
-5.0625
 30
0.0
 40
0.5
  1
0.1900
100
AcDbAttributeDefinition
  3

  2
NDM
 70
     8
280
     0
  0
ATTDEF
  5
ED
330
DA
100
AcDbEntity
  8
AM_6
100
AcDbText
 10
3.672583333333333
 20
-5.5625
 30
0.0
 40
0.5
  1
0.1450
100
AcDbAttributeDefinition
  3

  2
KDM
 70
     8
280
     0
  0
ATTDEF
  5
EE
330
DA
100
AcDbEntity
  8
AM_6
100
AcDbText
 10
3.672583333333333
 20
-6.0625
 30
0.0
 40
0.5
  1
3.35
100
AcDbAttributeDefinition
  3

  2
AL
 70
     8
280
     0
  0
ATTDEF
  5
EF
330
DA
100
AcDbEntity
  8
AM_6
100
AcDbText
 10
3.672583333333333
 20
-6.5625
 30
0.0
 40
0.5
  1
0.50
100
AcDbAttributeDefinition
  3

  2
BL
 70
     8
280
     0
  0
ATTDEF
  5
F0
330
DA
100
AcDbEntity
  8
AM_6
100
AcDbText
 10
3.672583333333333
 20
-7.0625
 30
0.0
 40
0.5
  1
0.07
100
AcDbAttributeDefinition
  3

  2
CL
 70
     8
280
     0
  0
ATTDEF
  5
F1
330
DA
100
AcDbEntity
  8
AM_6
100
AcDbText
 10
3.672583333333333
 20
-7.5625
 30
0.0
 40
0.5
  1
0.44
100
AcDbAttributeDefinition
  3

  2
DL
 70
     8
280
     0
  0
ATTDEF
  5
F2
330
DA
100
AcDbEntity
  8
AM_6
100
AcDbText
 10
3.672583333333333
 20
-8.0625
 30
0.0
 40
0.5
  1
baldor
100
AcDbAttributeDefinition
  3

  2
COMPANY
 70
     8
280
     0
  0
LINE
  5
F3
330
DA
100
AcDbEntity
  8
AM_9
100
AcDbLine
 10
-1.697416666666667
 20
1.195297772896251
 30
0.0
 11
-1.767416666666667
 21
1.195297772896251
 31
0.0
  0
LINE
  5
F4
330
DA
100
AcDbEntity
  8
AM_9
100
AcDbLine
 10
-1.327416666666667
 20
1.162297567155935
 30
0.0
 11
-1.697416666666667
 21
1.162297567155935
 31
0.0
  0
LINE
  5
F5
330
DA
100
AcDbEntity
  8
AM_9
100
AcDbLine
 10
-1.327416666666667
 20
1.101225231265198
 30
0.0
 11
-1.767416666666667
 21
1.101225231265198
 31
0.0
  0
LINE
  5
F6
330
DA
100
AcDbEntity
  8
AM_9
100
AcDbLine
 10
-1.697416666666667
 20
1.257968425247207
 30
0.0
 11
-1.327416666666667
 21
1.257968425247207
 31
0.0
  0
LINE
  5
F7
330
DA
100
AcDbEntity
  8
AM_9
100
AcDbLine
 10
-1.327416666666667
 20
1.19689608935647
 30
0.0
 11
-1.767416666666667
 21
1.19689608935647
 31
0.0
  0
LINE
  5
F8
330
DA
100
AcDbEntity
  8
AM_9
100
AcDbLine
 10
-1.327416666666667
 20
1.101225231265198
 30
0.0
 11
-1.327416666666667
 21
1.257968425247207
 31
0.0
  0
LINE
  5
F9
330
DA
100
AcDbEntity
  8
AM_9
100
AcDbLine
 10
-1.697416666666667
 20
1.290968630987523
 30
0.0
 11
-1.767416666666667
 21
1.290968630987523
 31
0.0
  0
LINE
  5
FA
330
DA
100
AcDbEntity
  8
AM_9
100
AcDbLine
 10
-1.697416666666667
 20
1.663194444444444
 30
0.0
 11
-1.767416666666667
 21
1.663194444444444
 31
0.0
  0
LINE
  5
FB
330
DA
100
AcDbEntity
  8
AM_9
100
AcDbLine
 10
-1.697416666666667
 20
1.75823324298871
 30
0.0
 11
-1.767416666666667
 21
1.75823324298871
 31
0.0
  0
LINE
  5
FC
330
DA
100
AcDbEntity
  8
AM_9
100
AcDbLine
 10
-1.697416666666667
 20
-1.663194444444444
 30
0.0
 11
-1.767416666666667
 21
-1.663194444444444
 31
0.0
  0
LINE
  5
FD
330
DA
100
AcDbEntity
  8
AM_9
100
AcDbLine
 10
-1.767416666666667
 20
-1.758233242988709
 30
0.0
 11
-1.697416666666667
 21
-1.758233242988709
 31
0.0
  0
LINE
  5
FE
330
DA
100
AcDbEntity
  8
AM_9
100
AcDbLine
 10
-1.697416666666667
 20
1.348007965406408
 30
0.0
 11
-1.767416666666667
 21
1.348007965406408
 31
0.0
  0
LINE
  5
FF
330
DA
100
AcDbEntity
  8
AM_9
100
AcDbLine
 10
-1.697416666666667
 20
-1.348007965406408
 30
0.0
 11
-1.767416666666667
 21
-1.348007965406408
 31
0.0
  0
LINE
  5
100
330
DA
100
AcDbEntity
  8
AM_9
100
AcDbLine
 10
-1.697416666666667
 20
1.020360717645074
 30
0.0
 11
-1.767416666666667
 21
1.020360717645073
 31
0.0
  0
LINE
  5
101
330
DA
100
AcDbEntity
  8
AM_9
100
AcDbLine
 10
-1.697416666666667
 20
-1.020360717645074
 30
0.0
 11
-1.767416666666667
 21
-1.020360717645074
 31
0.0
  0
LINE
  5
102
330
DA
100
AcDbEntity
  8
AM_9
100
AcDbLine
 10
-1.697416666666667
 20
0.8860104292196302
 30
0.0
 11
-1.767416666666667
 21
0.8860104292196302
 31
0.0
  0
LINE
  5
103
330
DA
100
AcDbEntity
  8
AM_9
100
AcDbLine
 10
-1.697416666666667
 20
-0.8860104292196292
 30
0.0
 11
-1.767416666666667
 21
-0.8860104292196292
 31
0.0
  0
LINE
  5
104
330
DA
100
AcDbEntity
  8
AM_9
100
AcDbLine
 10
-1.697416666666667
 20
1.243231214311181
 30
0.0
 11
-1.767416666666667
 21
1.243231214311181
 31
0.0
  0
LINE
  5
105
330
DA
100
AcDbEntity
  8
AM_9
100
AcDbLine
 10
-1.697416666666667
 20
1.108880925885738
 30
0.0
 11
-1.767416666666667
 21
1.108880925885738
 31
0.0
  0
LINE
  5
106
330
DA
100
AcDbEntity
  8
AM_9
100
AcDbLine
 10
-1.697416666666667
 20
1.271083507131789
 30
0.0
 11
-1.767416666666667
 21
1.271083507131789
 31
0.0
  0
LINE
  5
107
330
DA
100
AcDbEntity
  8
AM_9
100
AcDbLine
 10
-1.697416666666667
 20
-1.108880925885736
 30
0.0
 11
-1.767416666666667
 21
-1.108880925885736
 31
0.0
  0
LINE
  5
108
330
DA
100
AcDbEntity
  8
AM_9
100
AcDbLine
 10
-1.697416666666667
 20
-1.243231214311192
 30
0.0
 11
-1.767416666666667
 21
-1.243231214311192
 31
0.0
  0
LINE
  5
109
330
DA
100
AcDbEntity
  8
AM_9
100
AcDbLine
 10
-1.767416666666667
 20
-1.271083507131788
 30
0.0
 11
-1.697416666666667
 21
-1.271083507131788
 31
0.0
  0
LINE
  5
10A
330
DA
100
AcDbEntity
  8
AM_9
100
AcDbLine
 10
-1.697416666666667
 20
0.0950000000000005
 30
0.0
 11
-1.767416666666667
 21
0.0950000000000006
 31
0.0
  0
LINE
  5
10B
330
DA
100
AcDbEntity
  8
AM_9
100
AcDbLine
 10
-1.697416666666667
 20
-0.0949999999999993
 30
0.0
 11
-1.767416666666667
 21
-0.0949999999999993
 31
0.0
  0
LINE
  5
10C
330
DA
100
AcDbEntity
  8
AM_4
100
AcDbLine
 10
-1.697416666666667
 20
1.9375
 30
0.0
 11
-1.767416666666667
 21
1.9375
 31
0.0
  0
LINE
  5
10D
330
DA
100
AcDbEntity
  8
AM_4
100
AcDbLine
 10
-1.767416666666667
 20
-1.9375
 30
0.0
 11
-1.697416666666667
 21
-1.9375
 31
0.0
  0
LINE
  5
10E
330
DA
100
AcDbEntity
  8
AM_4
100
AcDbLine
 10
-1.767416666666667
 20
1.9375
 30
0.0
 11
-1.767416666666667
 21
-1.9375
 31
0.0
  0
LINE
  5
10F
330
DA
100
AcDbEntity
  8
AM_4
100
AcDbLine
 10
-1.697416666666667
 20
1.9375
 30
0.0
 11
-1.697416666666667
 21
-1.9375
 31
0.0
  0
ENDBLK
  5
DD
330
DA
100
AcDbEntity
  8
0
100
AcDbBlockEnd
  0
BLOCK
  5
112
330
110
100
AcDbEntity
  8
0
100
AcDbBlockBegin
  2
5_070928I_0_in_069500_2
 70
     2
 10
0.0
 20
0.0
 30
0.0
  3
5_070928I_0_in_069500_2
  1

  0
ATTDEF
  5
114
330
110
100
AcDbEntity
  8
AM_6
100
AcDbText
 10
6.65046875
 20
2.36205
 30
0.0
 40
0.5
  1
Imperial Insert -Inch
100
AcDbAttributeDefinition
  3

  2
NN
 70
     8
280
     0
  0
ATTDEF
  5
115
330
110
100
AcDbEntity
  8
AM_6
100
AcDbText
 10
6.65046875
 20
1.86205
 30
0.0
 40
0.5
  1
Imperial Bearings
100
AcDbAttributeDefinition
  3

  2
NT
 70
     8
280
     0
  0
ATTDEF
  5
116
330
110
100
AcDbEntity
  8
AM_6
100
AcDbText
 10
6.65046875
 20
1.36205
 30
0.0
 40
0.5
  1
070928I
100
AcDbAttributeDefinition
  3

  2
NB
 70
     8
280
     0
  0
ATTDEF
  5
117
330
110
100
AcDbEntity
  8
AM_6
100
AcDbText
 10
6.65046875
 20
0.8620500000000004
 30
0.0
 40
0.5
  1
$PN.I
100
AcDbAttributeDefinition
  3

  2
NBSYN
 70
     8
280
     0
  0
ATTDEF
  5
118
330
110
100
AcDbEntity
  8
AM_6
100
AcDbText
 10
6.65046875
 20
0.3620500000000004
 30
0.0
 40
0.5
  1
070928
100
AcDbAttributeDefinition
  3

  2
LINA
 70
     8
280
     0
  0
ATTDEF
  5
119
330
110
100
AcDbEntity
  8
AM_6
100
AcDbText
 10
6.65046875
 20
-0.1379499999999996
 30
0.0
 40
0.5
  1
2-1/2
100
AcDbAttributeDefinition
  3

  2
SS
 70
     8
280
     0
  0
ATTDEF
  5
11A
330
110
100
AcDbEntity
  8
AM_6
100
AcDbText
 10
6.65046875
 20
-0.6379499999999996
 30
0.0
 40
0.5
  1
2.500000
100
AcDbAttributeDefinition
  3

  2
SS1
 70
     8
280
     0
  0
ATTDEF
  5
11B
330
110
100
AcDbEntity
  8
AM_6
100
AcDbText
 10
6.65046875
 20
-1.13795
 30
0.0
 40
0.5
  1
070928
100
AcDbAttributeDefinition
  3

  2
PN
 70
     8
280
     0
  0
ATTDEF
  5
11C
330
110
100
AcDbEntity
  8
AM_6
100
AcDbText
 10
6.65046875
 20
-1.63795
 30
0.0
 40
0.5
  1
INS-IP-208L
100
AcDbAttributeDefinition
  3

  2
DESCRIPTION
 70
     8
280
     0
  0
ATTDEF
  5
11D
330
110
100
AcDbEntity
  8
AM_6
100
AcDbText
 10
6.65046875
 20
-2.13795
 30
0.0
 40
0.5
  1
Labyrinth Seal
100
AcDbAttributeDefinition
  3

  2
ST
 70
     8
280
     0
  0
ATTDEF
  5
11E
330
110
100
AcDbEntity
  8
AM_6
100
AcDbText
 10
6.65046875
 20
-2.63795
 30
0.0
 40
0.5
  1
4.7241
100
AcDbAttributeDefinition
  3

  2
A
 70
     8
280
     0
  0
ATTDEF
  5
11F
330
110
100
AcDbEntity
  8
AM_6
100
AcDbText
 10
6.65046875
 20
-3.13795
 30
0.0
 40
0.5
  1
1-9/32
100
AcDbAttributeDefinition
  3

  2
B
 70
     8
280
     0
  0
ATTDEF
  5
120
330
110
100
AcDbEntity
  8
AM_6
100
AcDbText
 10
6.65046875
 20
-3.63795
 30
0.0
 40
0.5
  1
3-27/64
100
AcDbAttributeDefinition
  3

  2
C
 70
     8
280
     0
  0
ATTDEF
  5
121
330
110
100
AcDbEntity
  8
AM_6
100
AcDbText
 10
6.65046875
 20
-4.13795
 30
0.0
 40
0.5
  1
1.208
100
AcDbAttributeDefinition
  3

  2
D
 70
     8
280
     0
  0
ATTDEF
  5
122
330
110
100
AcDbEntity
  8
AM_6
100
AcDbText
 10
6.65046875
 20
-4.63795
 30
0.0
 40
0.5
  1
3-7/8
100
AcDbAttributeDefinition
  3

  2
E
 70
     8
280
     0
  0
ATTDEF
  5
123
330
110
100
AcDbEntity
  8
AM_6
100
AcDbText
 10
6.65046875
 20
-5.13795
 30
0.0
 40
0.5
  1
0.1900
100
AcDbAttributeDefinition
  3

  2
NDM
 70
     8
280
     0
  0
ATTDEF
  5
124
330
110
100
AcDbEntity
  8
AM_6
100
AcDbText
 10
6.65046875
 20
-5.63795
 30
0.0
 40
0.5
  1
0.101
100
AcDbAttributeDefinition
  3

  2
H
 70
     8
280
     0
  0
ATTDEF
  5
125
330
110
100
AcDbEntity
  8
AM_6
100
AcDbText
 10
6.65046875
 20
-6.13795
 30
0.0
 40
0.5
  1
0.1450
100
AcDbAttributeDefinition
  3

  2
KDM
 70
     8
280
     0
  0
ATTDEF
  5
126
330
110
100
AcDbEntity
  8
AM_6
100
AcDbText
 10
6.65046875
 20
-6.63795
 30
0.0
 40
0.5
  1
3.35
100
AcDbAttributeDefinition
  3

  2
AL
 70
     8
280
     0
  0
ATTDEF
  5
127
330
110
100
AcDbEntity
  8
AM_6
100
AcDbText
 10
6.65046875
 20
-7.13795
 30
0.0
 40
0.5
  1
0.50
100
AcDbAttributeDefinition
  3

  2
BL
 70
     8
280
     0
  0
ATTDEF
  5
128
330
110
100
AcDbEntity
  8
AM_6
100
AcDbText
 10
6.65046875
 20
-7.63795
 30
0.0
 40
0.5
  1
0.07
100
AcDbAttributeDefinition
  3

  2
CL
 70
     8
280
     0
  0
ATTDEF
  5
129
330
110
100
AcDbEntity
  8
AM_6
100
AcDbText
 10
6.65046875
 20
-8.13795
 30
0.0
 40
0.5
  1
0.44
100
AcDbAttributeDefinition
  3

  2
DL
 70
     8
280
     0
  0
ATTDEF
  5
12A
330
110
100
AcDbEntity
  8
AM_6
100
AcDbText
 10
6.65046875
 20
-8.63795
 30
0.0
 40
0.5
  1
0.8000
100
AcDbAttributeDefinition
  3

  2
LL
 70
     8
280
     0
  0
ATTDEF
  5
12B
330
110
100
AcDbEntity
  8
AM_6
100
AcDbText
 10
6.65046875
 20
-9.13795
 30
0.0
 40
0.5
  1
0.025
100
AcDbAttributeDefinition
  3

  2
Y
 70
     8
280
     0
  0
ATTDEF
  5
12C
330
110
100
AcDbEntity
  8
AM_6
100
AcDbText
 10
6.65046875
 20
-9.63795
 30
0.0
 40
0.5
  1
0.025000
100
AcDbAttributeDefinition
  3

  2
Y1
 70
     8
280
     0
  0
ATTDEF
  5
12D
330
110
100
AcDbEntity
  8
AM_6
100
AcDbText
 10
6.65046875
 20
-10.13795
 30
0.0
 40
0.5
  1
2-15/16
100
AcDbAttributeDefinition
  3

  2
Z
 70
     8
280
     0
  0
ATTDEF
  5
12E
330
110
100
AcDbEntity
  8
AM_6
100
AcDbText
 10
6.65046875
 20
-10.63795
 30
0.0
 40
0.5
  1
2.937500
100
AcDbAttributeDefinition
  3

  2
Z1
 70
     8
280
     0
  0
ATTDEF
  5
12F
330
110
100
AcDbEntity
  8
AM_6
100
AcDbText
 10
6.65046875
 20
-11.13795
 30
0.0
 40
0.5
  1
baldor
100
AcDbAttributeDefinition
  3

  2
COMPANY
 70
     8
280
     0
  0
LINE
  5
130
330
110
100
AcDbEntity
  8
AM_9
100
AcDbLine
 10
0.8857499999999997
 20
1.261190428617456
 30
0.0
 11
-1.697416666666667
 21
1.261190428617456
 31
0.0
  0
LINE
  5
131
330
110
100
AcDbEntity
  8
AM_9
100
AcDbLine
 10
0.8857499999999997
 20
1.165519570526183
 30
0.0
 11
-1.697416666666667
 21
1.165519570526183
 31
0.0
  0
LINE
  5
132
330
110
100
AcDbEntity
  8
AM_9
100
AcDbLine
 10
-0.8574166666666683
 20
-1.663194444444444
 30
0.0
 11
-0.891200656500016
 21
-1.590744444444445
 31
0.0
  0
LINE
  5
133
330
110
100
AcDbEntity
  8
AM_9
100
AcDbLine
 10
-0.891200656500016
 20
-1.735644444444444
 30
0.0
 11
-0.8574166666666683
 21
-1.663194444444444
 31
0.0
  0
LINE
  5
134
330
110
100
AcDbEntity
  8
AM_9
100
AcDbLine
 10
-0.8574166666666664
 20
1.663194444444444
 30
0.0
 11
-0.8912006564999958
 21
1.735644444444444
 31
0.0
  0
LINE
  5
135
330
110
100
AcDbEntity
  8
AM_9
100
AcDbLine
 10
-0.8912006564999958
 20
1.590744444444445
 30
0.0
 11
-0.8574166666666664
 21
1.663194444444444
 31
0.0
  0
LINE
  5
136
330
110
100
AcDbEntity
  8
AM_9
100
AcDbLine
 10
-0.8912006564999958
 20
1.590744444444445
 30
0.0
 11
-0.8912006564999958
 21
1.735644444444444
 31
0.0
  0
LINE
  5
137
330
110
100
AcDbEntity
  8
AM_9
100
AcDbLine
 10
-0.8912006564999958
 20
1.735644444444444
 30
0.0
 11
-1.674866666666667
 21
1.735644444444444
 31
0.0
  0
LINE
  5
138
330
110
100
AcDbEntity
  8
AM_9
100
AcDbLine
 10
-1.674866666666667
 20
1.590744444444445
 30
0.0
 11
-0.8912006564999958
 21
1.590744444444445
 31
0.0
  0
LINE
  5
139
330
110
100
AcDbEntity
  8
AM_9
100
AcDbLine
 10
-1.674866666666656
 20
-1.735644444444444
 30
0.0
 11
-0.891200656500016
 21
-1.735644444444444
 31
0.0
  0
LINE
  5
13A
330
110
100
AcDbEntity
  8
AM_9
100
AcDbLine
 10
-0.891200656500016
 20
-1.590744444444445
 30
0.0
 11
-1.674866666666656
 21
-1.590744444444445
 31
0.0
  0
LINE
  5
13B
330
110
100
AcDbEntity
  8
AM_9
100
AcDbLine
 10
-0.891200656500016
 20
-1.590744444444445
 30
0.0
 11
-0.891200656500016
 21
-1.735644444444444
 31
0.0
  0
LINE
  5
13C
330
110
100
AcDbEntity
  8
AM_9
100
AcDbLine
 10
-1.674866666666667
 20
1.590744444444445
 30
0.0
 11
-1.674866666666667
 21
1.735644444444444
 31
0.0
  0
LINE
  5
13D
330
110
100
AcDbEntity
  8
AM_9
100
AcDbLine
 10
-1.674866666666667
 20
1.735644444444444
 30
0.0
 11
-1.697416666666667
 21
1.758194444444444
 31
0.0
  0
LINE
  5
13E
330
110
100
AcDbEntity
  8
AM_9
100
AcDbLine
 10
-1.697416666666667
 20
1.568194444444444
 30
0.0
 11
-1.674866666666667
 21
1.590744444444445
 31
0.0
  0
LINE
  5
13F
330
110
100
AcDbEntity
  8
AM_9
100
AcDbLine
 10
-1.674866666666656
 20
-1.590744444444445
 30
0.0
 11
-1.697416666666675
 21
-1.568194444444444
 31
0.0
  0
LINE
  5
140
330
110
100
AcDbEntity
  8
AM_9
100
AcDbLine
 10
-1.697416666666675
 20
-1.758194444444444
 30
0.0
 11
-1.674866666666656
 21
-1.735644444444444
 31
0.0
  0
LINE
  5
141
330
110
100
AcDbEntity
  8
AM_9
100
AcDbLine
 10
-1.674866666666656
 20
-1.590744444444445
 30
0.0
 11
-1.674866666666656
 21
-1.735644444444444
 31
0.0
  0
LINE
  5
142
330
110
100
AcDbEntity
  8
AM_9
100
AcDbLine
 10
0.8857499999999997
 20
1.19689608935647
 30
0.0
 11
-1.96875
 21
1.19689608935647
 31
0.0
  0
LINE
  5
143
330
110
100
AcDbEntity
  8
AM_9
100
AcDbLine
 10
-1.96875
 20
1.101225231265198
 30
0.0
 11
0.8857499999999997
 21
1.101225231265198
 31
0.0
  0
LINE
  5
144
330
110
100
AcDbEntity
  8
AM_9
100
AcDbLine
 10
0.8857499999999997
 20
1.25
 30
0.0
 11
-1.96875
 21
1.25
 31
0.0
  0
LINE
  5
145
330
110
100
AcDbEntity
  8
AM_9
100
AcDbLine
 10
-1.96875
 20
-1.25
 30
0.0
 11
0.8857499999999997
 21
-1.25
 31
0.0
  0
LINE
  5
146
330
110
100
AcDbEntity
  8
AM_9
100
AcDbLine
 10
1.453125
 20
1.315789473684211
 30
0.0
 11
0.8857499999999997
 21
1.315789473684211
 31
0.0
  0
LINE
  5
147
330
110
100
AcDbEntity
  8
AM_9
100
AcDbLine
 10
0.8857499999999997
 20
-1.315789473684211
 30
0.0
 11
1.453125
 21
-1.315789473684211
 31
0.0
  0
LINE
  5
148
330
110
100
AcDbEntity
  8
AM_9
100
AcDbLine
 10
-1.96875
 20
1.257968425247207
 30
0.0
 11
-1.697416666666667
 21
1.257968425247208
 31
0.0
  0
LINE
  5
149
330
110
100
AcDbEntity
  8
AM_9
100
AcDbLine
 10
-1.697416666666667
 20
1.162297567155935
 30
0.0
 11
-1.96875
 21
1.162297567155935
 31
0.0
  0
LINE
  5
14A
330
110
100
AcDbEntity
  8
AM_9
100
AcDbLine
 10
-1.697416666666667
 20
1.315789473684211
 30
0.0
 11
-1.767416666666667
 21
1.315789473684211
 31
0.0
  0
LINE
  5
14B
330
110
100
AcDbEntity
  8
AM_9
100
AcDbLine
 10
-1.767416666666667
 20
-1.315789473684211
 30
0.0
 11
-1.697416666666667
 21
-1.315789473684211
 31
0.0
  0
LINE
  5
14C
330
110
100
AcDbEntity
  8
AM_9
100
AcDbLine
 10
-1.257416666666667
 20
-1.00762716319083
 30
0.0
 11
-1.697416666666667
 21
-1.00762716319083
 31
0.0
  0
LINE
  5
14D
330
110
100
AcDbEntity
  8
AM_9
100
AcDbLine
 10
-1.257416666666667
 20
-1.361180553784104
 30
0.0
 11
-1.4296875
 21
-1.361180553784104
 31
0.0
  0
LINE
  5
14E
330
110
100
AcDbEntity
  8
AM_9
100
AcDbLine
 10
-1.257416666666667
 20
1.00762716319083
 30
0.0
 11
-1.697416666666667
 21
1.00762716319083
 31
0.0
  0
LINE
  5
14F
330
110
100
AcDbEntity
  8
AM_9
100
AcDbLine
 10
-1.257416666666667
 20
1.361180553784104
 30
0.0
 11
-1.28671875
 21
1.361180553784104
 31
0.0
  0
LINE
  5
150
330
110
100
AcDbEntity
  8
AM_9
100
AcDbLine
 10
1.453125
 20
-1.46875
 30
0.0
 11
1.453125
 21
1.46875
 31
0.0
  0
LINE
  5
151
330
110
100
AcDbEntity
  8
AM_9
100
AcDbLine
 10
1.478125
 20
1.46875
 30
0.0
 11
1.453125
 21
1.46875
 31
0.0
  0
LINE
  5
152
330
110
100
AcDbEntity
  8
AM_9
100
AcDbLine
 10
1.453125
 20
-1.46875
 30
0.0
 11
1.478125
 21
-1.46875
 31
0.0
  0
LINE
  5
153
330
110
100
AcDbEntity
  8
AM_9
100
AcDbLine
 10
-1.257416666666667
 20
1.546298920283676
 30
0.0
 11
-1.257416666666667
 21
1.00762716319083
 31
0.0
  0
LINE
  5
154
330
110
100
AcDbEntity
  8
AM_9
100
AcDbLine
 10
1.28671875
 20
1.631944444444444
 30
0.0
 11
1.142
 21
1.631944444444444
 31
0.0
  0
LINE
  5
155
330
110
100
AcDbEntity
  8
AM_9
100
AcDbLine
 10
1.142
 20
-1.631944444444444
 30
0.0
 11
1.4296875
 21
-1.631944444444444
 31
0.0
  0
LINE
  5
156
330
110
100
AcDbEntity
  8
AM_9
100
AcDbLine
 10
-1.429687507046657
 20
-1.188456293813406
 30
0.0
 11
-1.257416666666667
 21
-1.192745529690402
 31
0.0
  0
LINE
  5
157
330
110
100
AcDbEntity
  8
AM_9
100
AcDbLine
 10
-1.257416666666667
 20
-1.00762716319083
 30
0.0
 11
-1.257416666666667
 21
-1.546298920283676
 31
0.0
  0
LINE
  5
158
330
110
100
AcDbEntity
  8
AM_9
100
AcDbLine
 10
-1.257416666666667
 20
-1.546298920283676
 30
0.0
 11
-1.429687507046657
 21
-1.54200968440668
 31
0.0
  0
LINE
  5
159
330
110
100
AcDbEntity
  8
AM_9
100
AcDbLine
 10
-1.286718751974134
 20
1.545569366351387
 30
0.0
 11
-1.257416666666667
 21
1.546298920283676
 31
0.0
  0
LINE
  5
15A
330
110
100
AcDbEntity
  8
AM_9
100
AcDbLine
 10
-1.257416666666667
 20
1.192745529690402
 30
0.0
 11
-1.286718751974134
 21
1.192015975758113
 31
0.0
  0
LINE
  5
15B
330
110
100
AcDbEntity
  8
AM_9
100
AcDbLine
 10
-1.429687500000001
 20
-1.946849308515383
 30
0.0
 11
-0.3955000000000001
 21
-1.982963931814131
 31
0.0
  0
LINE
  5
15C
330
110
100
AcDbEntity
  8
AM_9
100
AcDbLine
 10
-0.3955000000000001
 20
1.982963931814131
 30
0.0
 11
-1.28671875
 21
1.951841887278656
 31
0.0
  0
LINE
  5
15D
330
110
100
AcDbEntity
  8
AM_9
100
AcDbLine
 10
1.141999999999999
 20
-1.956368966601195
 30
0.0
 11
1.141999999999999
 21
1.956368966601195
 31
0.0
  0
ARC
  5
15E
330
110
100
AcDbEntity
  8
AM_9
100
AcDbCircle
 10
1.042000000000001
 20
1.956368966601196
 30
0.0
 40
0.0999999999999988
100
AcDbArc
 50
0.0
 51
60.00000000000033
  0
ARC
  5
15F
330
110
100
AcDbEntity
  8
AM_9
100
AcDbCircle
 10
1.042000000000001
 20
-1.956368966601196
 30
0.0
 40
0.0999999999999989
100
AcDbArc
 50
299.9999999999997
 51
0.0
  0
LINE
  5
160
330
110
100
AcDbEntity
  8
AM_9
100
AcDbLine
 10
1.092
 20
2.042971506979639
 30
0.0
 11
0.8857499999999997
 21
2.16205
 31
0.0
  0
LINE
  5
161
330
110
100
AcDbEntity
  8
AM_9
100
AcDbLine
 10
0.8857499999999997
 20
-2.16205
 30
0.0
 11
1.092
 21
-2.042971506979639
 31
0.0
  0
LINE
  5
162
330
110
100
AcDbEntity
  8
AM_9
100
AcDbLine
 10
1.092
 20
-2.042971506979639
 30
0.0
 11
1.092
 21
2.042971506979639
 31
0.0
  0
LINE
  5
163
330
110
100
AcDbEntity
  8
AM_9
100
AcDbLine
 10
0.2821115016199602
 20
2.2979875
 30
0.0
 11
0.2081384983800394
 21
2.2979875
 31
0.0
  0
LINE
  5
164
330
110
100
AcDbEntity
  8
AM_9
100
AcDbLine
 10
0.2081384983800394
 20
-2.2979875
 30
0.0
 11
0.2821115016199602
 21
-2.2979875
 31
0.0
  0
LINE
  5
165
330
110
100
AcDbEntity
  8
AM_9
100
AcDbLine
 10
0.8857499999999997
 20
-2.31205
 30
0.0
 11
0.8857499999999997
 21
2.31205
 31
0.0
  0
ARC
  5
166
330
110
100
AcDbEntity
  8
AM_9
100
AcDbCircle
 10
0.8357500000000002
 20
2.31205
 30
0.0
 40
0.0499999999999995
100
AcDbArc
 50
0.0
 51
90.0
  0
ARC
  5
167
330
110
100
AcDbEntity
  8
AM_9
100
AcDbCircle
 10
0.8357500000000002
 20
-2.31205
 30
0.0
 40
0.0499999999999998
100
AcDbArc
 50
270.0
 51
0.0
  0
LINE
  5
168
330
110
100
AcDbEntity
  8
AM_9
100
AcDbLine
 10
0.2081384983800394
 20
2.2979875
 30
0.0
 11
0.1711519967600787
 21
2.36205
 31
0.0
  0
LINE
  5
169
330
110
100
AcDbEntity
  8
AM_9
100
AcDbLine
 10
0.1711519967600787
 20
-2.36205
 30
0.0
 11
0.2081384983800394
 21
-2.2979875
 31
0.0
  0
LINE
  5
16A
330
110
100
AcDbEntity
  8
AM_9
100
AcDbLine
 10
0.2081384983800394
 20
-2.2979875
 30
0.0
 11
0.2081384983800394
 21
2.2979875
 31
0.0
  0
LINE
  5
16B
330
110
100
AcDbEntity
  8
AM_9
100
AcDbLine
 10
0.2821115016199602
 20
-2.2979875
 30
0.0
 11
0.3190980032399207
 21
-2.36205
 31
0.0
  0
LINE
  5
16C
330
110
100
AcDbEntity
  8
AM_9
100
AcDbLine
 10
0.3190980032399207
 20
2.36205
 30
0.0
 11
0.2821115016199602
 21
2.2979875
 31
0.0
  0
LINE
  5
16D
330
110
100
AcDbEntity
  8
AM_9
100
AcDbLine
 10
0.2821115016199602
 20
-2.2979875
 30
0.0
 11
0.2821115016199602
 21
2.2979875
 31
0.0
  0
LINE
  5
16E
330
110
100
AcDbEntity
  8
AM_9
100
AcDbLine
 10
0.83575
 20
2.36205
 30
0.0
 11
0.3190980032399207
 21
2.36205
 31
0.0
  0
LINE
  5
16F
330
110
100
AcDbEntity
  8
AM_9
100
AcDbLine
 10
0.3190980032399207
 20
-2.36205
 30
0.0
 11
0.83575
 21
-2.36205
 31
0.0
  0
LINE
  5
170
330
110
100
AcDbEntity
  8
AM_9
100
AcDbLine
 10
0.83575
 20
-2.36205
 30
0.0
 11
0.83575
 21
2.36205
 31
0.0
  0
LINE
  5
171
330
110
100
AcDbEntity
  8
AM_9
100
AcDbLine
 10
0.3190980032399207
 20
-2.36205
 30
0.0
 11
0.3190980032399207
 21
2.36205
 31
0.0
  0
LINE
  5
172
330
110
100
AcDbEntity
  8
AM_9
100
AcDbLine
 10
-0.3955000000000001
 20
-2.31205
 30
0.0
 11
-0.3955000000000001
 21
2.31205
 31
0.0
  0
ARC
  5
173
330
110
100
AcDbEntity
  8
AM_9
100
AcDbCircle
 10
-0.3455000000000011
 20
2.312050000000001
 30
0.0
 40
0.0499999999999989
100
AcDbArc
 50
90.0
 51
180.0
  0
ARC
  5
174
330
110
100
AcDbEntity
  8
AM_9
100
AcDbCircle
 10
-0.3455000000000011
 20
-2.312050000000001
 30
0.0
 40
0.049999999999999
100
AcDbArc
 50
180.0
 51
270.0
  0
LINE
  5
175
330
110
100
AcDbEntity
  8
AM_9
100
AcDbLine
 10
0.1711519967600787
 20
2.36205
 30
0.0
 11
-0.3455000000000006
 21
2.36205
 31
0.0
  0
LINE
  5
176
330
110
100
AcDbEntity
  8
AM_9
100
AcDbLine
 10
-0.3455000000000006
 20
-2.36205
 30
0.0
 11
0.1711519967600787
 21
-2.36205
 31
0.0
  0
LINE
  5
177
330
110
100
AcDbEntity
  8
AM_9
100
AcDbLine
 10
0.1711519967600787
 20
-2.36205
 30
0.0
 11
0.1711519967600787
 21
2.36205
 31
0.0
  0
LINE
  5
178
330
110
100
AcDbEntity
  8
AM_9
100
AcDbLine
 10
-0.3455000000000006
 20
-2.36205
 30
0.0
 11
-0.3455000000000006
 21
2.36205
 31
0.0
  0
LINE
  5
179
330
110
100
AcDbEntity
  8
AM_5
100
AcDbLine
 10
-0.9374166666666666
 20
1.735644444444444
 30
0.0
 11
-0.9374166666666666
 21
1.758194444444444
 31
0.0
  0
LINE
  5
17A
330
110
100
AcDbEntity
  8
AM_5
100
AcDbLine
 10
-0.9374166666666666
 20
1.758194444444444
 30
0.0
 11
-0.9243974180964405
 21
1.735644444444444
 31
0.0
  0
LINE
  5
17B
330
110
100
AcDbEntity
  8
AM_5
100
AcDbLine
 10
-0.9374166666666666
 20
1.590744444444445
 30
0.0
 11
-0.9374166666666666
 21
1.568194444444444
 31
0.0
  0
LINE
  5
17C
330
110
100
AcDbEntity
  8
AM_5
100
AcDbLine
 10
-0.9374166666666666
 20
1.568194444444444
 30
0.0
 11
-0.9243974180964405
 21
1.590744444444445
 31
0.0
  0
LINE
  5
17D
330
110
100
AcDbEntity
  8
AM_5
100
AcDbLine
 10
-0.9374166666666647
 20
-1.735644444444444
 30
0.0
 11
-0.9374166666666647
 21
-1.758194444444444
 31
0.0
  0
LINE
  5
17E
330
110
100
AcDbEntity
  8
AM_5
100
AcDbLine
 10
-0.9374166666666647
 20
-1.758194444444444
 30
0.0
 11
-0.9243974180964433
 21
-1.735644444444444
 31
0.0
  0
LINE
  5
17F
330
110
100
AcDbEntity
  8
AM_5
100
AcDbLine
 10
-0.9374166666666647
 20
-1.590744444444445
 30
0.0
 11
-0.9374166666666647
 21
-1.568194444444444
 31
0.0
  0
LINE
  5
180
330
110
100
AcDbEntity
  8
AM_5
100
AcDbLine
 10
-0.9374166666666647
 20
-1.568194444444444
 30
0.0
 11
-0.9243974180964433
 21
-1.590744444444445
 31
0.0
  0
LINE
  5
183
330
110
100
AcDbEntity
  8
AM_7
100
AcDbLine
 10
1.65046875
 20
0.0
 30
0.0
 11
-2.14109375
 21
0.0
 31
0.0
  0
LINE
  5
184
330
110
100
AcDbEntity
  8
AM_7
100
AcDbLine
 10
-0.8154166666666663
 20
1.663194444444444
 30
0.0
 11
-1.913466666666667
 21
1.663194444444444
 31
0.0
  0
LINE
  5
185
330
110
100
AcDbEntity
  8
AM_7
100
AcDbLine
 10
-0.8154166666666679
 20
-1.663194444444444
 30
0.0
 11
-1.913466666666667
 21
-1.663194444444444
 31
0.0
  0
ARC
  5
186
330
110
100
AcDbEntity
  8
AM_4
100
AcDbCircle
 10
-1.647416666666667
 20
-1.889215561259645
 30
0.0
 40
0.05
100
AcDbArc
 50
180.0
 51
268.0000000000001
  0
ARC
  5
187
330
110
100
AcDbEntity
  8
AM_4
100
AcDbCircle
 10
-1.647416666666667
 20
1.889215561259645
 30
0.0
 40
0.0499999999999999
100
AcDbArc
 50
92.0
 51
180.0
  0
LWPOLYLINE
  5
188
330
110
100
AcDbEntity
  8
AM_4
100
AcDbPolyline
 90
        6
 70
     0
 43
0.0
 10
-1.697416666666667
 20
1.500905736762308
 10
-1.69689519195521
 20
1.506043662286855
 10
-1.691645342911153
 20
1.517539989191865
 10
-1.681315153523579
 20
1.52712121451395
 10
-1.667157780662395
 20
1.533669989616411
 10
-1.649161641501792
 20
1.536544848730685
  0
LWPOLYLINE
  5
189
330
110
100
AcDbEntity
  8
AM_4
100
AcDbPolyline
 90
        6
 70
     0
 43
0.0
 10
-1.649161641501792
 20
-1.536544848730685
 10
-1.665498431399264
 20
-1.534153533934661
 10
-1.679803446599458
 20
-1.528075939344721
 10
-1.690526718338504
 20
-1.518972330603809
 10
-1.696475489563237
 20
-1.507793588446512
 10
-1.697416666666667
 20
-1.500905736762308
  0
LINE
  5
18A
330
110
100
AcDbEntity
  8
AM_4
100
AcDbLine
 10
-1.767416666666667
 20
1.315789473684211
 30
0.0
 11
-1.96875
 21
1.315789473684211
 31
0.0
  0
LINE
  5
18B
330
110
100
AcDbEntity
  8
AM_4
100
AcDbLine
 10
-1.96875
 20
-1.315789473684211
 30
0.0
 11
-1.767416666666667
 21
-1.315789473684211
 31
0.0
  0
LINE
  5
18C
330
110
100
AcDbEntity
  8
AM_4
100
AcDbLine
 10
-1.96875
 20
-1.315789473684211
 30
0.0
 11
-1.96875
 21
1.315789473684211
 31
0.0
  0
LINE
  5
18D
330
110
100
AcDbEntity
  8
AM_4
100
AcDbLine
 10
-1.4296875
 20
-1.361180553784104
 30
0.0
 11
-1.697416666666667
 21
-1.361180553784104
 31
0.0
  0
LINE
  5
18E
330
110
100
AcDbEntity
  8
AM_4
100
AcDbLine
 10
-1.28671875
 20
1.361180553784104
 30
0.0
 11
-1.697416666666667
 21
1.361180553784104
 31
0.0
  0
LINE
  5
18F
330
110
100
AcDbEntity
  8
AM_4
100
AcDbLine
 10
1.440464743589743
 20
1.631944444444444
 30
0.0
 11
1.28671875
 21
1.631944444444444
 31
0.0
  0
LINE
  5
190
330
110
100
AcDbEntity
  8
AM_4
100
AcDbLine
 10
1.4296875
 20
-1.631944444444444
 30
0.0
 11
1.440464743589743
 21
-1.631944444444444
 31
0.0
  0
LINE
  5
191
330
110
100
AcDbEntity
  8
AM_4
100
AcDbLine
 10
1.478125
 20
-1.594284188595369
 30
0.0
 11
1.478125
 21
1.594284188595369
 31
0.0
  0
LINE
  5
192
330
110
100
AcDbEntity
  8
AM_4
100
AcDbLine
 10
1.440464743589743
 20
-1.631944444444444
 30
0.0
 11
1.440464743589743
 21
1.631944444444444
 31
0.0
  0
ARC
  5
193
330
110
100
AcDbEntity
  8
AM_4
100
AcDbCircle
 10
1.440464743589743
 20
1.594284188034188
 30
0.0
 40
0.0376602564102562
100
AcDbArc
 50
0.0
 51
90.0
  0
ARC
  5
194
330
110
100
AcDbEntity
  8
AM_4
100
AcDbCircle
 10
1.440464743589743
 20
-1.594284188034188
 30
0.0
 40
0.0376602564102562
100
AcDbArc
 50
270.0
 51
0.0
  0
LWPOLYLINE
  5
195
330
110
100
AcDbEntity
  8
AM_4
100
AcDbPolyline
 90
        6
 70
     0
 43
0.0
 10
-1.649161641501792
 20
1.182991458137411
 10
-1.665498431399271
 20
1.180600143341385
 10
-1.679803446599464
 20
1.174522548751443
 10
-1.690526718338507
 20
1.16541894001053
 10
-1.696475489563238
 20
1.154240197853232
 10
-1.697416666666667
 20
1.147352346169034
  0
LWPOLYLINE
  5
196
330
110
100
AcDbEntity
  8
AM_4
100
AcDbPolyline
 90
        6
 70
     0
 43
0.0
 10
-1.697416666666667
 20
-1.147352346169034
 10
-1.69689519195521
 20
-1.152490271693581
 10
-1.691645342911153
 20
-1.163986598598591
 10
-1.681315153523579
 20
-1.173567823920677
 10
-1.667157780662395
 20
-1.180116599023138
 10
-1.649161641501792
 20
-1.182991458137411
  0
LINE
  5
197
330
110
100
AcDbEntity
  8
AM_4
100
AcDbLine
 10
-1.649161641501792
 20
-1.182991458137411
 30
0.0
 11
-1.649161641501792
 21
1.182991458137411
 31
0.0
  0
LINE
  5
198
330
110
100
AcDbEntity
  8
AM_4
100
AcDbLine
 10
-1.649161641501792
 20
-1.182991458137411
 30
0.0
 11
-1.429687507046657
 21
-1.188456293813406
 31
0.0
  0
LINE
  5
199
330
110
100
AcDbEntity
  8
AM_4
100
AcDbLine
 10
-1.429687507046657
 20
-1.54200968440668
 30
0.0
 11
-1.649161641501792
 21
-1.536544848730685
 31
0.0
  0
LINE
  5
19A
330
110
100
AcDbEntity
  8
AM_4
100
AcDbLine
 10
-1.649161641501792
 20
1.536544848730685
 30
0.0
 11
-1.649161641501792
 21
1.9391851026106
 31
0.0
  0
LINE
  5
19B
330
110
100
AcDbEntity
  8
AM_4
100
AcDbLine
 10
-1.649161641501792
 20
1.536544848730685
 30
0.0
 11
-1.286718751974134
 21
1.545569366351387
 31
0.0
  0
LINE
  5
19C
330
110
100
AcDbEntity
  8
AM_4
100
AcDbLine
 10
-1.286718751974134
 20
1.192015975758113
 30
0.0
 11
-1.649161641501792
 21
1.182991458137411
 31
0.0
  0
LINE
  5
19D
330
110
100
AcDbEntity
  8
AM_4
100
AcDbLine
 10
-1.649161641501792
 20
-1.9391851026106
 30
0.0
 11
-1.429687500000001
 21
-1.946849308515383
 31
0.0
  0
LINE
  5
19E
330
110
100
AcDbEntity
  8
AM_4
100
AcDbLine
 10
-1.28671875
 20
1.951841887278656
 30
0.0
 11
-1.649161641501792
 21
1.9391851026106
 31
0.0
  0
LINE
  5
19F
330
110
100
AcDbEntity
  8
AM_4
100
AcDbLine
 10
-1.649161641501792
 20
-1.9391851026106
 30
0.0
 11
-1.649161641501792
 21
-1.536544848730685
 31
0.0
  0
ENDBLK
  5
113
330
110
100
AcDbEntity
  8
0
100
AcDbBlockEnd
  0
BLOCK
  5
1A2
330
1A0
100
AcDbEntity
  8
0
100
AcDbBlockBegin
  2
6_405015E_Inch_0_in_069500_2
 70
     2
 10
0.0
 20
0.0
 30
0.0
  3
6_405015E_Inch_0_in_069500_2
  1

  0
ATTDEF
  5
1A4
330
1A0
100
AcDbEntity
  8
AM_6
100
AcDbText
 10
5.252590742770462
 20
2.925460759776187
 30
0.0
 40
0.5
  1
405015E -Inch
100
AcDbAttributeDefinition
  3

  2
NN
 70
     8
280
     0
  0
ATTDEF
  5
1A5
330
1A0
100
AcDbEntity
  8
AM_6
100
AcDbText
 10
5.252590742770462
 20
2.425460759776187
 30
0.0
 40
0.5
  1
Grease Fitting
100
AcDbAttributeDefinition
  3

  2
NT
 70
     8
280
     0
  0
ATTDEF
  5
1A6
330
1A0
100
AcDbEntity
  8
AM_6
100
AcDbText
 10
5.252590742770462
 20
1.925460759776187
 30
0.0
 40
0.5
  1
405015E-Inch
100
AcDbAttributeDefinition
  3

  2
NB
 70
     8
280
     0
  0
ATTDEF
  5
1A7
330
1A0
100
AcDbEntity
  8
AM_6
100
AcDbText
 10
5.252590742770462
 20
1.425460759776187
 30
0.0
 40
0.5
  1
$MN.-Inch
100
AcDbAttributeDefinition
  3

  2
NBSYN
 70
     8
280
     0
  0
ATTDEF
  5
1A8
330
1A0
100
AcDbEntity
  8
AM_6
100
AcDbText
 10
5.252590742770462
 20
0.9254607597761875
 30
0.0
 40
0.5
  1
405015E
100
AcDbAttributeDefinition
  3

  2
LINA
 70
     8
280
     0
  0
ATTDEF
  5
1A9
330
1A0
100
AcDbEntity
  8
AM_6
100
AcDbText
 10
5.252590742770462
 20
0.4254607597761875
 30
0.0
 40
0.5
  1
405015E
100
AcDbAttributeDefinition
  3

  2
MN
 70
     8
280
     0
  0
ATTDEF
  5
1AA
330
1A0
100
AcDbEntity
  8
AM_6
100
AcDbText
 10
5.252590742770462
 20
-0.0745392402238125
 30
0.0
 40
0.5
  1
1/8 x 27PTF
100
AcDbAttributeDefinition
  3

  2
T
 70
     8
280
     0
  0
ATTDEF
  5
1AB
330
1A0
100
AcDbEntity
  8
AM_6
100
AcDbText
 10
5.252590742770462
 20
-0.5745392402238125
 30
0.0
 40
0.5
  1
baldor
100
AcDbAttributeDefinition
  3

  2
COMPANY
 70
     8
280
     0
  0
LINE
  5
1AC
330
1A0
100
AcDbEntity
  8
AM_9
100
AcDbLine
 10
-0.1262953713852306
 20
2.737487051080269
 30
0.0
 11
-0.1262953713852306
 21
2.666590054079058
 31
0.0
  0
LINE
  5
1AD
330
1A0
100
AcDbEntity
  8
AM_9
100
AcDbLine
 10
0.1262953713852307
 20
2.737487051080269
 30
0.0
 11
0.1262953713852307
 21
2.666590054079058
 31
0.0
  0
LWPOLYLINE
  5
1AE
330
1A0
100
AcDbEntity
  8
AM_9
100
AcDbPolyline
 90
        4
 70
     0
 43
0.0
 10
-0.1262953713852306
 20
2.666590054079058
 10
-0.0967996321117977
 20
2.66348519090492
 10
-0.0485424412477543
 20
2.659972085870375
 10
0.0000000000000001
 20
2.658737282390442
  0
LWPOLYLINE
  5
1AF
330
1A0
100
AcDbEntity
  8
AM_9
100
AcDbPolyline
 90
        3
 70
     0
 43
0.0
 10
0.0000000000000001
 20
2.658737282390442
 10
0.0631476856926154
 20
2.660810010951211
 10
0.1262953713852307
 20
2.666590054079058
  0
ELLIPSE
  5
1B0
330
1A0
100
AcDbEntity
  8
AM_9
100
AcDbEllipse
 10
0.0000000000000007
 20
2.549362282390441
 30
0.0
 11
0.2187499999999988
 21
0.0
 31
0.0
210
0.0
220
0.0
230
1.0
 40
0.5000000000000069
 41
5.7595865315813
 42
7.853981633974483
  0
LWPOLYLINE
  5
1B1
330
1A0
100
AcDbEntity
  8
AM_9
100
AcDbPolyline
 90
        3
 70
     0
 43
0.0
 10
0.1262953713852307
 20
2.666590054079058
 10
0.1577272497321277
 20
2.633607517197809
 10
0.1894430570778461
 20
2.604049782390441
  0
ELLIPSE
  5
1B2
330
1A0
100
AcDbEntity
  8
AM_9
100
AcDbEllipse
 10
-0.0000000000000002
 20
2.54936228239044
 30
0.0
 11
0.2187499999999992
 21
0.0
 31
0.0
210
0.0
220
0.0
230
1.0
 40
0.5000000000000099
 41
1.570796326794897
 42
3.665191429188071
  0
LWPOLYLINE
  5
1B3
330
1A0
100
AcDbEntity
  8
AM_9
100
AcDbPolyline
 90
        3
 70
     0
 43
0.0
 10
-0.1894430570778459
 20
2.604049782390441
 10
-0.1578692142315382
 20
2.633466260951211
 10
-0.1262953713852306
 20
2.666590054079058
  0
LWPOLYLINE
  5
1B4
330
1A0
100
AcDbEntity
  8
AM_9
100
AcDbPolyline
 90
        3
 70
     0
 43
0.0
 10
0.1018642058435937
 20
2.740106024553652
 10
0.0634316146914368
 20
2.743248782824443
 10
0.0000000000000001
 20
2.745339822768885
  0
LINE
  5
1B5
330
1A0
100
AcDbEntity
  8
AM_9
100
AcDbLine
 10
0.1050470645306125
 20
2.739790257879105
 30
0.0
 11
0.1018642058435937
 21
2.740106024553652
 31
0.0
  0
LINE
  5
1B6
330
1A0
100
AcDbEntity
  8
AM_9
100
AcDbLine
 10
-0.1018828591420454
 20
2.740104197179333
 30
0.0
 11
-0.1050087569988761
 21
2.739794105383615
 31
0.0
  0
LWPOLYLINE
  5
1B7
330
1A0
100
AcDbEntity
  8
AM_9
100
AcDbPolyline
 90
        4
 70
     0
 43
0.0
 10
0.0000000000000001
 20
2.745339822768885
 10
-0.0483998160558988
 20
2.744112179176438
 10
-0.0967996321117977
 20
2.740591914254407
 10
-0.1018828591420454
 20
2.740104197179333
  0
LWPOLYLINE
  5
1B8
330
1A0
100
AcDbEntity
  8
AM_9
100
AcDbPolyline
 90
        3
 70
     0
 43
0.0
 10
0.1894430570778461
 20
2.604049782390441
 10
0.2210168999241537
 20
2.578778760951211
 10
0.2525907427704613
 20
2.557215054079057
  0
LWPOLYLINE
  5
1B9
330
1A0
100
AcDbEntity
  8
AM_9
100
AcDbPolyline
 90
        3
 70
     0
 43
0.0
 10
-0.2525907427704611
 20
2.557215054079057
 10
-0.2211588644235642
 20
2.578674127471958
 10
-0.1894430570778459
 20
2.604049782390441
  0
LINE
  5
1BA
330
1A0
100
AcDbEntity
  8
AM_9
100
AcDbLine
 10
0.1321931418159854
 20
2.273128216885346
 30
0.0
 11
0.1621706131788417
 21
2.294325490168847
 31
0.0
  0
LINE
  5
1BB
330
1A0
100
AcDbEntity
  8
AM_9
100
AcDbLine
 10
-0.1621706131788414
 20
2.294325490168847
 30
0.0
 11
-0.1321931418159852
 21
2.273128216885346
 31
0.0
  0
ELLIPSE
  5
1BC
330
1A0
100
AcDbEntity
  8
AM_9
100
AcDbEllipse
 10
-0.0000000000000031
 20
2.351661460312815
 30
0.0
 11
0.1986176267812186
 21
0.0
 31
0.0
210
0.0
220
0.0
230
1.0
 40
0.4999999999999974
 41
5.667705598509219
 42
6.283185307179586
  0
ELLIPSE
  5
1BD
330
1A0
100
AcDbEntity
  8
AM_9
100
AcDbEllipse
 10
0.0000000000000001
 20
2.351661460312817
 30
0.0
 11
0.1986176267812155
 21
2.959633272606366E-9
 31
0.0
210
0.0
220
0.0
230
1.0
 40
0.5000000000000032
 41
0.0000017195196831
 42
5.667705576157456
  0
LINE
  5
1BE
330
1A0
100
AcDbEntity
  8
AM_9
100
AcDbLine
 10
0.1985852938306409
 20
2.349869621703997
 30
0.0
 11
0.2057184028850728
 21
2.547506081612812
 31
0.0
  0
LINE
  5
1BF
330
1A0
100
AcDbEntity
  8
AM_9
100
AcDbLine
 10
-0.2057184028850726
 20
2.547506081612812
 30
0.0
 11
-0.1985852938306407
 21
2.349869621703997
 31
0.0
  0
ELLIPSE
  5
1C0
330
1A0
100
AcDbEntity
  8
AM_9
100
AcDbEllipse
 10
0.0000000000000009
 20
2.549362282390441
 30
0.0
 11
0.2187499999999983
 21
0.0
 31
0.0
210
0.0
220
0.0
230
1.0
 40
0.4999999999999999
 41
4.71238898038469
 42
5.759586531581293
  0
ELLIPSE
  5
1C1
330
1A0
100
AcDbEntity
  8
AM_9
100
AcDbEllipse
 10
-0.0000000000000004
 20
2.549362282390442
 30
0.0
 11
0.2187499999999993
 21
0.0
 31
0.0
210
0.0
220
0.0
230
1.0
 40
0.5000000000000016
 41
3.665191429188091
 42
4.71238898038469
  0
LINE
  5
1C2
330
1A0
100
AcDbEntity
  8
AM_9
100
AcDbLine
 10
-0.1017810272422099
 20
2.739797656554729
 30
0.0
 11
-0.1049999999999999
 21
2.733495261915201
 31
0.0
  0
LINE
  5
1C3
330
1A0
100
AcDbEntity
  8
AM_9
100
AcDbLine
 10
0.1050000000000001
 20
2.733495261915201
 30
0.0
 11
0.1017810272422101
 21
2.739797656554729
 31
0.0
  0
ELLIPSE
  5
1C4
330
1A0
100
AcDbEntity
  8
AM_9
100
AcDbEllipse
 10
0.0000000000000001
 20
2.726897490166252
 30
0.0
 11
0.1049999999999996
 21
0.0
 31
0.0
210
0.0
220
0.0
230
1.0
 40
0.499999999999991
 41
0.0
 42
2.891559760490996
  0
ELLIPSE
  5
1C5
330
1A0
100
AcDbEntity
  8
AM_9
100
AcDbEllipse
 10
0.0000000000000058
 20
2.726897490166258
 30
0.0
 11
0.1050000000000058
 21
0.0
 31
0.0
210
0.0
220
0.0
230
1.0
 40
0.4999999999999703
 41
2.891559760491123
 42
3.141592653589793
  0
ELLIPSE
  5
1C6
330
1A0
100
AcDbEntity
  8
AM_9
100
AcDbEllipse
 10
0.0000000000000027
 20
2.698970874295174
 30
0.0
 11
0.1188200907348946
 21
0.0
 31
0.0
210
0.0
220
0.0
230
1.0
 40
0.5000000000000674
 41
0.250032893099001
 42
2.53544751339458
  0
LINE
  5
1C7
330
1A0
100
AcDbEntity
  8
AM_9
100
AcDbLine
 10
0.1050000000000001
 20
2.745135718978711
 30
0.0
 11
0.1050000000000001
 21
2.752878252279785
 31
0.0
  0
LINE
  5
1C8
330
1A0
100
AcDbEntity
  8
AM_9
100
AcDbLine
 10
-0.1049999999999999
 20
2.752878252279785
 30
0.0
 11
-0.1049999999999999
 21
2.745135718978711
 31
0.0
  0
ELLIPSE
  5
1C9
330
1A0
100
AcDbEntity
  8
AM_9
100
AcDbEllipse
 10
0.0000000000000032
 20
2.752878252279789
 30
0.0
 11
0.1050000000000031
 21
0.0
 31
0.0
210
0.0
220
0.0
230
1.0
 40
0.4999999999999999
 41
3.141592653589793
 42
3.434435425318445
  0
LINE
  5
1CA
330
1A0
100
AcDbEntity
  8
AM_9
100
AcDbLine
 10
-0.0976523208201057
 20
2.732816990027634
 30
0.0
 11
-0.1098343496897822
 21
2.724030136900784
 31
0.0
  0
LINE
  5
1CB
330
1A0
100
AcDbEntity
  8
AM_9
100
AcDbLine
 10
0.1098343496897824
 20
2.724030136900784
 30
0.0
 11
0.0976523208201058
 21
2.732816990027634
 31
0.0
  0
ELLIPSE
  5
1CC
330
1A0
100
AcDbEntity
  8
AM_9
100
AcDbEllipse
 10
0.000000000000003
 20
2.698970874295193
 30
0.0
 11
0.1188200907349006
 21
1.770557325108359E-9
 31
0.0
210
0.0
220
0.0
230
1.0
 40
0.4999999999999934
 41
2.535447490846986
 42
2.89155973205723
  0
ELLIPSE
  5
1CD
330
1A0
100
AcDbEntity
  8
AM_9
100
AcDbEllipse
 10
0.0000000000000001
 20
2.651828848056856
 30
0.0
 11
0.1725340532830152
 21
0.0
 31
0.0
210
0.0
220
0.0
230
1.0
 40
0.5000000000000047
 41
0.6061451401950846
 42
2.535447513394709
  0
ELLIPSE
  5
1CE
330
1A0
100
AcDbEntity
  8
AM_9
100
AcDbEllipse
 10
0.0
 20
2.635964822768885
 30
0.0
 11
0.2187499999999984
 21
0.0
 31
0.0
210
0.0
220
0.0
230
1.0
 40
0.5000000000000037
 41
1.06524463825123
 42
1.570796326794897
  0
ELLIPSE
  5
1CF
330
1A0
100
AcDbEntity
  8
AM_9
100
AcDbEllipse
 10
0.0000000000000002
 20
2.635964822768885
 30
0.0
 11
0.2187499999999983
 21
0.0
 31
0.0
210
0.0
220
0.0
230
1.0
 40
0.5000000000000039
 41
1.570796326794897
 42
2.076348015338565
  0
ELLIPSE
  5
1D0
330
1A0
100
AcDbEntity
  8
AM_9
100
AcDbEllipse
 10
0.0000000000008693
 20
2.635964822765939
 30
0.0
 11
0.213750000001751
 21
0.0
 31
0.0
210
0.0
220
0.0
230
1.0
 40
0.5000000000088977
 41
-4.198889882955834
 42
-4.184564777759884
  0
ELLIPSE
  5
1D1
330
1A0
100
AcDbEntity
  8
AM_9
100
AcDbEllipse
 10
0.0000000000019276
 20
2.635964822772996
 30
0.0
 11
0.2137500000039696
 21
0.0
 31
0.0
210
0.0
220
0.0
230
1.0
 40
0.4999999999761007
 41
-4.217356306589557
 42
-4.198889882947153
  0
ELLIPSE
  5
1D2
330
1A0
100
AcDbEntity
  8
AM_9
100
AcDbEllipse
 10
-0.0000000000000002
 20
2.635964822768885
 30
0.0
 11
0.2137499999999993
 21
0.0
 31
0.0
210
0.0
220
0.0
230
1.0
 40
0.500000000000002
 41
1.057297229363653
 42
2.065829000583804
  0
ELLIPSE
  5
1D3
330
1A0
100
AcDbEntity
  8
AM_9
100
AcDbEllipse
 10
0.0000000000010022
 20
2.635964822769459
 30
0.0
 11
0.2137499999979675
 21
0.0
 31
0.0
210
0.0
220
0.0
230
1.0
 40
0.5000000000012685
 41
1.042972124167708
 42
1.057297229364019
  0
ELLIPSE
  5
1D4
330
1A0
100
AcDbEntity
  8
AM_9
100
AcDbEllipse
 10
0.0000000000000001
 20
2.752878252279785
 30
0.0
 11
0.1050000000000001
 21
0.0
 31
0.0
210
0.0
220
0.0
230
1.0
 40
0.5000000000000017
 41
5.990342535451017
 42
9.42477796076938
  0
ELLIPSE
  5
1D5
330
1A0
100
AcDbEntity
  8
AM_9
100
AcDbEllipse
 10
0.0000000000000001
 20
2.804839776506851
 30
0.0
 11
0.1349999999999998
 21
0.0
 31
0.0
210
0.0
220
0.0
230
1.0
 40
0.4999999999999934
 41
0.2354336045415559
 42
2.906159049048237
  0
ELLIPSE
  5
1D6
330
1A0
100
AcDbEntity
  8
AM_9
100
AcDbEllipse
 10
-0.0000000000000023
 20
2.319865550387564
 30
0.0
 11
0.1619028724722714
 21
0.0
 31
0.0
210
0.0
220
0.0
230
1.0
 40
0.4999999999999956
 41
0.0
 42
6.283185307179586
  0
ELLIPSE
  5
1D7
330
1A0
100
AcDbEntity
  8
AM_9
100
AcDbEllipse
 10
0.0000000000000001
 20
2.549362282390442
 30
0.0
 11
0.2057518972230699
 21
0.0
 31
0.0
210
0.0
220
0.0
230
1.0
 40
0.5000000000000225
 41
0.0
 42
6.283185307179586
  0
LWPOLYLINE
  5
1D8
330
1A0
100
AcDbEntity
  8
AM_4
100
AcDbPolyline
 90
        3
 70
     0
 43
0.0
 10
0.1894430570778461
 20
2.690652322768885
 10
0.1578692142315384
 20
2.715923344208116
 10
0.1262953713852307
 20
2.737487051080269
  0
LINE
  5
1D9
330
1A0
100
AcDbEntity
  8
AM_4
100
AcDbLine
 10
0.1262953713852307
 20
2.737487051080269
 30
0.0
 11
0.1050470645306125
 21
2.739790257879105
 31
0.0
  0
LWPOLYLINE
  5
1DA
330
1A0
100
AcDbEntity
  8
AM_4
100
AcDbPolyline
 90
        3
 70
     0
 43
0.0
 10
-0.1262953713852306
 20
2.737487051080269
 10
-0.1577272497321275
 20
2.716027977687368
 10
-0.1894430570778459
 20
2.690652322768885
  0
LINE
  5
1DB
330
1A0
100
AcDbEntity
  8
AM_4
100
AcDbLine
 10
-0.1050087569988761
 20
2.739794105383615
 30
0.0
 11
-0.1262953713852306
 21
2.737487051080269
 31
0.0
  0
LWPOLYLINE
  5
1DC
330
1A0
100
AcDbEntity
  8
AM_4
100
AcDbPolyline
 90
        3
 70
     0
 43
0.0
 10
0.2525907427704613
 20
2.628112051080269
 10
0.2211588644235644
 20
2.661094587961518
 10
0.1894430570778461
 20
2.690652322768885
  0
LWPOLYLINE
  5
1DD
330
1A0
100
AcDbEntity
  8
AM_4
100
AcDbPolyline
 90
        3
 70
     0
 43
0.0
 10
-0.1894430570778459
 20
2.690652322768885
 10
-0.2210168999241535
 20
2.661235844208116
 10
-0.2525907427704611
 20
2.628112051080269
  0
LINE
  5
1DE
330
1A0
100
AcDbEntity
  8
AM_4
100
AcDbLine
 10
-0.1049999999999999
 20
2.733495261915201
 30
0.0
 11
-0.1151252948555657
 21
2.713671048160387
 31
0.0
  0
LINE
  5
1DF
330
1A0
100
AcDbEntity
  8
AM_4
100
AcDbLine
 10
0.1151252948555659
 20
2.713671048160387
 30
0.0
 11
0.1050000000000001
 21
2.733495261915201
 31
0.0
  0
ELLIPSE
  5
1E0
330
1A0
100
AcDbEntity
  8
AM_4
100
AcDbEllipse
 10
0.0
 20
2.698970874295188
 30
0.0
 11
0.1188200907348975
 21
0.0
 31
0.0
210
0.0
220
0.0
230
1.0
 40
0.4999999999999843
 41
2.891559760490988
 42
6.533218200278391
  0
LINE
  5
1E1
330
1A0
100
AcDbEntity
  8
AM_4
100
AcDbLine
 10
0.1050000000000001
 20
2.726897490166252
 30
0.0
 11
0.1050000000000001
 21
2.745135718978711
 31
0.0
  0
LINE
  5
1E2
330
1A0
100
AcDbEntity
  8
AM_4
100
AcDbLine
 10
-0.1049999999999999
 20
2.745135718978711
 30
0.0
 11
-0.1049999999999999
 21
2.726897490166252
 31
0.0
  0
ELLIPSE
  5
1E3
330
1A0
100
AcDbEntity
  8
AM_4
100
AcDbEllipse
 10
0.0000000000000001
 20
2.726897490166252
 30
0.0
 11
0.1049999999999999
 21
0.0
 31
0.0
210
0.0
220
0.0
230
1.0
 40
0.5000000000000026
 41
3.141592653589793
 42
6.283185307179586
  0
LINE
  5
1E4
330
1A0
100
AcDbEntity
  8
AM_4
100
AcDbLine
 10
-0.1098343496897822
 20
2.724030136900784
 30
0.0
 11
-0.1417971541629017
 21
2.700975482258927
 31
0.0
  0
LINE
  5
1E5
330
1A0
100
AcDbEntity
  8
AM_4
100
AcDbLine
 10
0.1417971541629019
 20
2.700975482258927
 30
0.0
 11
0.1098343496897824
 21
2.724030136900784
 31
0.0
  0
ELLIPSE
  5
1E6
330
1A0
100
AcDbEntity
  8
AM_4
100
AcDbEllipse
 10
-0.0000000000000001
 20
2.651828848056856
 30
0.0
 11
0.1725340532830154
 21
0.0
 31
0.0
210
0.0
220
0.0
230
1.0
 40
0.5000000000000016
 41
2.535447513394705
 42
6.889330447374675
  0
LINE
  5
1E7
330
1A0
100
AcDbEntity
  8
AM_4
100
AcDbLine
 10
0.2525907427704613
 20
2.628112051080269
 30
0.0
 11
0.2525907427704613
 21
2.557215054079057
 31
0.0
  0
LWPOLYLINE
  5
1E8
330
1A0
100
AcDbEntity
  8
AM_4
100
AcDbPolyline
 90
        3
 70
     0
 43
0.0
 10
0.1894430570778461
 20
2.581277322768885
 10
0.2210168999241537
 20
2.606548344208116
 10
0.2525907427704613
 20
2.628112051080269
  0
LWPOLYLINE
  5
1E9
330
1A0
100
AcDbEntity
  8
AM_4
100
AcDbPolyline
 90
        3
 70
     0
 43
0.0
 10
0.1262953713852308
 20
2.518737051080269
 10
0.1577272497321277
 20
2.551719587961518
 10
0.1894430570778461
 20
2.581277322768885
  0
LWPOLYLINE
  5
1EA
330
1A0
100
AcDbEntity
  8
AM_4
100
AcDbPolyline
 90
        3
 70
     0
 43
0.0
 10
0.1894430570778461
 20
2.494674782390442
 10
0.1578692142315384
 20
2.469403760951211
 10
0.1262953713852308
 20
2.447840054079057
  0
LWPOLYLINE
  5
1EB
330
1A0
100
AcDbEntity
  8
AM_4
100
AcDbPolyline
 90
        3
 70
     0
 43
0.0
 10
0.2525907427704613
 20
2.557215054079057
 10
0.2211588644235644
 20
2.524232517197809
 10
0.1894430570778461
 20
2.494674782390442
  0
ELLIPSE
  5
1EC
330
1A0
100
AcDbEntity
  8
AM_4
100
AcDbEllipse
 10
0.0000000000000002
 20
2.635964822768884
 30
0.0
 11
0.21875
 21
0.0
 31
0.0
210
0.0
220
0.0
230
1.0
 40
0.4999999999999919
 41
2.617993877991473
 42
4.71238898038469
  0
ELLIPSE
  5
1ED
330
1A0
100
AcDbEntity
  8
AM_4
100
AcDbEllipse
 10
0.0000000000000002
 20
2.635964822768883
 30
0.0
 11
0.2187499999999998
 21
0.0
 31
0.0
210
0.0
220
0.0
230
1.0
 40
0.4999999999999905
 41
4.71238898038469
 42
7.348429945430835
  0
ELLIPSE
  5
1EE
330
1A0
100
AcDbEntity
  8
AM_4
100
AcDbEllipse
 10
-0.0000000000000002
 20
2.635964822768889
 30
0.0
 11
0.2187499999999998
 21
0.0
 31
0.0
210
0.0
220
0.0
230
1.0
 40
0.4999999999999862
 41
2.076348015338565
 42
2.61799387799151
  0
LINE
  5
1EF
330
1A0
100
AcDbEntity
  8
AM_4
100
AcDbLine
 10
0.1262953713852308
 20
2.518737051080269
 30
0.0
 11
0.1262953713852308
 21
2.447840054079057
 31
0.0
  0
LWPOLYLINE
  5
1F0
330
1A0
100
AcDbEntity
  8
AM_4
100
AcDbPolyline
 90
        3
 70
     0
 43
0.0
 10
0.0000000000000001
 20
2.526589822768885
 10
0.0631476856926154
 20
2.524517094208116
 10
0.1262953713852308
 20
2.518737051080269
  0
LWPOLYLINE
  5
1F1
330
1A0
100
AcDbEntity
  8
AM_4
100
AcDbPolyline
 90
        4
 70
     0
 43
0.0
 10
-0.1262953713852306
 20
2.518737051080269
 10
-0.0967996321117977
 20
2.521841914254407
 10
-0.0485424412477543
 20
2.525355019288952
 10
0.0000000000000001
 20
2.526589822768885
  0
LWPOLYLINE
  5
1F2
330
1A0
100
AcDbEntity
  8
AM_4
100
AcDbPolyline
 90
        4
 70
     0
 43
0.0
 10
0.0000000000000001
 20
2.439987282390442
 10
-0.0483998160558988
 20
2.441214925982889
 10
-0.0967996321117977
 20
2.44473519090492
 10
-0.1262953713852306
 20
2.447840054079057
  0
LWPOLYLINE
  5
1F3
330
1A0
100
AcDbEntity
  8
AM_4
100
AcDbPolyline
 90
        3
 70
     0
 43
0.0
 10
0.1262953713852308
 20
2.447840054079057
 10
0.0634316146914368
 20
2.442078322334884
 10
0.0000000000000001
 20
2.439987282390442
  0
LINE
  5
1F4
330
1A0
100
AcDbEntity
  8
AM_4
100
AcDbLine
 10
-0.1262953713852306
 20
2.518737051080269
 30
0.0
 11
-0.1262953713852306
 21
2.447840054079057
 31
0.0
  0
LWPOLYLINE
  5
1F5
330
1A0
100
AcDbEntity
  8
AM_4
100
AcDbPolyline
 90
        3
 70
     0
 43
0.0
 10
-0.1894430570778459
 20
2.581277322768885
 10
-0.1578692142315382
 20
2.551860844208116
 10
-0.1262953713852306
 20
2.518737051080269
  0
LWPOLYLINE
  5
1F6
330
1A0
100
AcDbEntity
  8
AM_4
100
AcDbPolyline
 90
        3
 70
     0
 43
0.0
 10
-0.2525907427704611
 20
2.628112051080269
 10
-0.2211588644235642
 20
2.606652977687368
 10
-0.1894430570778459
 20
2.581277322768885
  0
LINE
  5
1F7
330
1A0
100
AcDbEntity
  8
AM_4
100
AcDbLine
 10
-0.2525907427704611
 20
2.628112051080269
 30
0.0
 11
-0.2525907427704611
 21
2.557215054079057
 31
0.0
  0
LWPOLYLINE
  5
1F8
330
1A0
100
AcDbEntity
  8
AM_4
100
AcDbPolyline
 90
        3
 70
     0
 43
0.0
 10
-0.1894430570778459
 20
2.494674782390442
 10
-0.2210168999241535
 20
2.524091260951211
 10
-0.2525907427704611
 20
2.557215054079057
  0
LWPOLYLINE
  5
1F9
330
1A0
100
AcDbEntity
  8
AM_4
100
AcDbPolyline
 90
        3
 70
     0
 43
0.0
 10
-0.1262953713852306
 20
2.447840054079057
 10
-0.1577272497321275
 20
2.469299127471959
 10
-0.1894430570778459
 20
2.494674782390442
  0
ELLIPSE
  5
1FA
330
1A0
100
AcDbEntity
  8
AM_4
100
AcDbEllipse
 10
0.0000000000000001
 20
2.635964822768885
 30
0.0
 11
0.2137499999999999
 21
3.185123205184936E-9
 31
0.0
210
0.0
220
0.0
230
1.0
 40
0.4999999999999983
 41
2.09862051630182
 42
7.326157418226545
  0
LINE
  5
1FB
330
1A0
100
AcDbEntity
  8
AM_4
100
AcDbLine
 10
0.1005298463144156
 20
2.737722807713557
 30
0.0
 11
0.1292526595471058
 21
2.785354204921701
 31
0.0
  0
LINE
  5
1FC
330
1A0
100
AcDbEntity
  8
AM_4
100
AcDbLine
 10
-0.1292526595471055
 20
2.785354204921701
 30
0.0
 11
-0.1005298463144154
 21
2.737722807713557
 31
0.0
  0
ELLIPSE
  5
1FD
330
1A0
100
AcDbEntity
  8
AM_4
100
AcDbEllipse
 10
0.0000000000000001
 20
2.804839776506851
 30
0.0
 11
0.1350000000000003
 21
0.0
 31
0.0
210
0.0
220
0.0
230
1.0
 40
0.5000000000000014
 41
2.906159049048242
 42
5.990342535451006
  0
ELLIPSE
  5
1FE
330
1A0
100
AcDbEntity
  8
AM_4
100
AcDbEllipse
 10
-0.0000000000000058
 20
2.804839776506847
 30
0.0
 11
0.1350000000000059
 21
2.011656761169522E-9
 31
0.0
210
0.0
220
0.0
230
1.0
 40
0.5000000000000002
 41
5.990342507511404
 42
6.283187022706516
  0
ELLIPSE
  5
1FF
330
1A0
100
AcDbEntity
  8
AM_4
100
AcDbEllipse
 10
0.0000000000000001
 20
2.752878252279785
 30
0.0
 11
0.1050000000000001
 21
0.0
 31
0.0
210
0.0
220
0.0
230
1.0
 40
0.5000000000000017
 41
3.43443542531837
 42
5.990342535451009
  0
ELLIPSE
  5
200
330
1A0
100
AcDbEntity
  8
AM_4
100
AcDbEllipse
 10
0.0000000000000112
 20
2.804839776506866
 30
0.0
 11
0.1349999999999889
 21
0.0
 31
0.0
210
0.0
220
0.0
230
1.0
 40
0.499999999999978
 41
0.0
 42
0.235433604541371
  0
LINE
  5
201
330
1A0
100
AcDbEntity
  8
AM_4
100
AcDbLine
 10
-0.0998453562378796
 20
2.886097371250804
 30
0.0
 11
-0.1312757938985218
 21
2.820585140398428
 31
0.0
  0
LINE
  5
202
330
1A0
100
AcDbEntity
  8
AM_4
100
AcDbLine
 10
0.131275793898522
 20
2.820585140398428
 30
0.0
 11
0.0998453562378798
 21
2.886097371250804
 31
0.0
  0
ELLIPSE
  5
203
330
1A0
100
AcDbEntity
  8
AM_4
100
AcDbEllipse
 10
0.0000000000000063
 20
2.874121808809598
 30
0.0
 11
0.1026779019331813
 21
1.530019967752416E-9
 31
0.0
210
0.0
220
0.0
230
1.0
 40
0.4999999999999875
 41
0.0
 42
6.283185307179586
  0
ENDBLK
  5
1A3
330
1A0
100
AcDbEntity
  8
0
100
AcDbBlockEnd
  0
BLOCK
  5
206
330
204
100
AcDbEntity
  8
0
100
AcDbBlockBegin
  2
7_069500H_0_in_069500_2
 70
     2
 10
0.0
 20
0.0
 30
0.0
  3
7_069500H_0_in_069500_2
  1

  0
ATTDEF
  5
208
330
204
100
AcDbEntity
  8
AM_6
100
AcDbText
 10
6.4296875
 20
2.84375
 30
0.0
 40
0.5
  1
P2B-IP -(Labyrinth Seal)-Housing -Inch
100
AcDbAttributeDefinition
  3

  2
NN
 70
     8
280
     0
  0
ATTDEF
  5
209
330
204
100
AcDbEntity
  8
AM_6
100
AcDbText
 10
6.4296875
 20
2.34375
 30
0.0
 40
0.5
  1
Imperial 2 Bolt Piliow Block Bearings
100
AcDbAttributeDefinition
  3

  2
NT
 70
     8
280
     0
  0
ATTDEF
  5
20A
330
204
100
AcDbEntity
  8
AM_6
100
AcDbText
 10
6.4296875
 20
1.84375
 30
0.0
 40
0.5
  1
069500H
100
AcDbAttributeDefinition
  3

  2
NB
 70
     8
280
     0
  0
ATTDEF
  5
20B
330
204
100
AcDbEntity
  8
AM_6
100
AcDbText
 10
6.4296875
 20
1.34375
 30
0.0
 40
0.5
  1
$PN.H
100
AcDbAttributeDefinition
  3

  2
NBSYN
 70
     8
280
     0
  0
ATTDEF
  5
20C
330
204
100
AcDbEntity
  8
AM_6
100
AcDbText
 10
6.4296875
 20
0.84375
 30
0.0
 40
0.5
  1
069500
100
AcDbAttributeDefinition
  3

  2
LINA
 70
     8
280
     0
  0
ATTDEF
  5
20D
330
204
100
AcDbEntity
  8
AM_6
100
AcDbText
 10
6.4296875
 20
0.34375
 30
0.0
 40
0.5
  1
2-1/2
100
AcDbAttributeDefinition
  3

  2
SS
 70
     8
280
     0
  0
ATTDEF
  5
20E
330
204
100
AcDbEntity
  8
AM_6
100
AcDbText
 10
6.4296875
 20
-0.15625
 30
0.0
 40
0.5
  1
069500
100
AcDbAttributeDefinition
  3

  2
PN
 70
     8
280
     0
  0
ATTDEF
  5
20F
330
204
100
AcDbEntity
  8
AM_6
100
AcDbText
 10
6.4296875
 20
-0.65625
 30
0.0
 40
0.5
  1
P2B-IP-208LE
100
AcDbAttributeDefinition
  3

  2
DESCRIPTION
 70
     8
280
     0
  0
ATTDEF
  5
210
330
204
100
AcDbEntity
  8
AM_6
100
AcDbText
 10
6.4296875
 20
-1.15625
 30
0.0
 40
0.5
  1
Expansion Type
100
AcDbAttributeDefinition
  3

  2
EF
 70
     8
280
     0
  0
ATTDEF
  5
211
330
204
100
AcDbEntity
  8
AM_6
100
AcDbText
 10
6.4296875
 20
-1.65625
 30
0.0
 40
0.5
  1
Labyrinth Seal
100
AcDbAttributeDefinition
  3

  2
ST
 70
     8
280
     0
  0
ATTDEF
  5
212
330
204
100
AcDbEntity
  8
AM_6
100
AcDbText
 10
6.4296875
 20
-2.15625
 30
0.0
 40
0.5
  1
3-27/64
100
AcDbAttributeDefinition
  3

  2
A
 70
     8
280
     0
  0
ATTDEF
  5
213
330
204
100
AcDbEntity
  8
AM_6
100
AcDbText
 10
6.4296875
 20
-2.65625
 30
0.0
 40
0.5
  1
9-1/4
100
AcDbAttributeDefinition
  3

  2
B
 70
     8
280
     0
  0
ATTDEF
  5
214
330
204
100
AcDbEntity
  8
AM_6
100
AcDbText
 10
6.4296875
 20
-3.15625
 30
0.0
 40
0.5
  1
2-55/64
100
AcDbAttributeDefinition
  3

  2
C
 70
     8
280
     0
  0
ATTDEF
  5
215
330
204
100
AcDbEntity
  8
AM_6
100
AcDbText
 10
6.4296875
 20
-3.65625
 30
0.0
 40
0.5
  1
6-15/16
100
AcDbAttributeDefinition
  3

  2
DMIN
 70
     8
280
     0
  0
ATTDEF
  5
216
330
204
100
AcDbEntity
  8
AM_6
100
AcDbText
 10
6.4296875
 20
-4.15625
 30
0.0
 40
0.5
  1
7-5/16
100
AcDbAttributeDefinition
  3

  2
DMAX
 70
     8
280
     0
  0
ATTDEF
  5
217
330
204
100
AcDbEntity
  8
AM_6
100
AcDbText
 10
6.4296875
 20
-4.65625
 30
0.0
 40
0.5
  1
5/8
100
AcDbAttributeDefinition
  3

  2
F
 70
     8
280
     0
  0
ATTDEF
  5
218
330
204
100
AcDbEntity
  8
AM_6
100
AcDbText
 10
6.4296875
 20
-5.15625
 30
0.0
 40
0.5
  1
61/64
100
AcDbAttributeDefinition
  3

  2
G
 70
     8
280
     0
  0
ATTDEF
  5
219
330
204
100
AcDbEntity
  8
AM_6
100
AcDbText
 10
6.4296875
 20
-5.65625
 30
0.0
 40
0.5
  1
1-5/8
100
AcDbAttributeDefinition
  3

  2
H
 70
     8
280
     0
  0
ATTDEF
  5
21A
330
204
100
AcDbEntity
  8
AM_6
100
AcDbText
 10
6.4296875
 20
-6.15625
 30
0.0
 40
0.5
  1
5-19/32
100
AcDbAttributeDefinition
  3

  2
J
 70
     8
280
     0
  0
ATTDEF
  5
21B
330
204
100
AcDbEntity
  8
AM_6
100
AcDbText
 10
6.4296875
 20
-6.65625
 30
0.0
 40
0.5
  1
3-7/8
100
AcDbAttributeDefinition
  3

  2
L
 70
     8
280
     0
  0
ATTDEF
  5
21C
330
204
100
AcDbEntity
  8
AM_6
100
AcDbText
 10
6.4296875
 20
-7.15625
 30
0.0
 40
0.5
  1
2-3/4
100
AcDbAttributeDefinition
  3

  2
M
 70
     8
280
     0
  0
ATTDEF
  5
21D
330
204
100
AcDbEntity
  8
AM_6
100
AcDbText
 10
6.4296875
 20
-7.65625
 30
0.0
 40
0.5
  1
1-13/64
100
AcDbAttributeDefinition
  3

  2
R
 70
     8
280
     0
  0
ATTDEF
  5
21E
330
204
100
AcDbEntity
  8
AM_6
100
AcDbText
 10
6.4296875
 20
-8.15625
 30
0.0
 40
0.5
  1
2-7/32
100
AcDbAttributeDefinition
  3

  2
S
 70
     8
280
     0
  0
ATTDEF
  5
21F
330
204
100
AcDbEntity
  8
AM_6
100
AcDbText
 10
6.4296875
 20
-8.65625
 30
0.0
 40
0.5
  1
1/4
100
AcDbAttributeDefinition
  3

  2
X
 70
     8
280
     0
  0
ATTDEF
  5
220
330
204
100
AcDbEntity
  8
AM_6
100
AcDbText
 10
6.4296875
 20
-9.15625
 30
0.0
 40
0.5
  1
0.025
100
AcDbAttributeDefinition
  3

  2
Y
 70
     8
280
     0
  0
ATTDEF
  5
221
330
204
100
AcDbEntity
  8
AM_6
100
AcDbText
 10
6.4296875
 20
-9.65625
 30
0.0
 40
0.5
  1
2-15/16
100
AcDbAttributeDefinition
  3

  2
Z
 70
     8
280
     0
  0
ATTDEF
  5
222
330
204
100
AcDbEntity
  8
AM_6
100
AcDbText
 10
6.4296875
 20
-10.15625
 30
0.0
 40
0.5
  1
baldor
100
AcDbAttributeDefinition
  3

  2
COMPANY
 70
     8
280
     0
  0
LINE
  5
223
330
204
100
AcDbEntity
  8
AM_9
100
AcDbLine
 10
-0.1154710554367102
 20
2.7625
 30
0.0
 11
0.1154710554367102
 21
2.7625
 31
0.0
  0
LINE
  5
224
330
204
100
AcDbEntity
  8
AM_9
100
AcDbLine
 10
-0.1201621183885949
 20
2.84375
 30
0.0
 11
0.1201621183885954
 21
2.84375
 31
0.0
  0
ELLIPSE
  5
225
330
204
100
AcDbEntity
  8
AM_9
100
AcDbEllipse
 10
0.0000000000000001
 20
2.462759742011998
 30
0.0
 11
0.4999999999999998
 21
0.0
 31
0.0
210
0.0
220
0.0
230
1.0
 40
0.4999999999999905
 41
0.0039638912538393
 42
3.114736596817071
  0
ELLIPSE
  5
226
330
204
100
AcDbEntity
  8
AM_9
100
AcDbEllipse
 10
-0.0000000000000031
 20
2.549362282390439
 30
0.0
 11
0.4000000000000206
 21
0.0
 31
0.0
210
0.0
220
0.0
230
1.0
 40
0.4999999999999803
 41
1.309208643565822
 42
1.570796326794897
  0
ELLIPSE
  5
227
330
204
100
AcDbEntity
  8
AM_9
100
AcDbEllipse
 10
0.0000000000000032
 20
2.549362282390439
 30
0.0
 11
0.4000000000000203
 21
0.0
 31
0.0
210
0.0
220
0.0
230
1.0
 40
0.4999999999999806
 41
1.570796326794897
 42
1.832384010023971
  0
LWPOLYLINE
  5
228
330
204
100
AcDbEntity
  8
AM_9
100
AcDbPolyline
 90
        5
 70
     0
 43
0.0
 10
0.0000000000000001
 20
2.762759742011998
 10
-0.0186613206514454
 20
2.762566196326232
 10
-0.0535011312005735
 20
2.761164353315545
 10
-0.0881070098084813
 20
2.758408528546944
 10
-0.1113757844822576
 20
2.755768954954057
  0
LWPOLYLINE
  5
229
330
204
100
AcDbEntity
  8
AM_9
100
AcDbPolyline
 90
        5
 70
     0
 43
0.0
 10
0.1113916840791602
 20
2.755766929701476
 10
0.1058206465905062
 20
2.756457866888419
 10
0.0713424810192822
 20
2.759915638611569
 10
0.0365743499962578
 20
2.762015456534428
 10
0.0000000000000001
 20
2.762759742011998
  0
LINE
  5
22A
330
204
100
AcDbEntity
  8
AM_9
100
AcDbLine
 10
-1.28671875
 20
-2.36205
 30
0.0
 11
1.28671875
 21
-2.36205
 31
0.0
  0
LINE
  5
22B
330
204
100
AcDbEntity
  8
AM_9
100
AcDbLine
 10
1.28671875
 20
2.36205
 30
0.0
 11
-1.28671875
 21
2.36205
 31
0.0
  0
LINE
  5
22C
330
204
100
AcDbEntity
  8
AM_9
100
AcDbLine
 10
-0.2255249571045584
 20
2.732580106785528
 30
0.0
 11
0.2251676414955235
 21
2.732580106785528
 31
0.0
  0
LWPOLYLINE
  5
22D
330
204
100
AcDbEntity
  8
AM_9
100
AcDbPolyline
 90
       29
 70
     0
 43
0.0
 10
0.4999935224958301
 20
2.46403129864766
 10
0.4971304433391023
 20
2.488907227467828
 10
0.4886251345115913
 20
2.513985276751639
 10
0.4746391152502436
 20
2.53760247544963
 10
0.4543341117699113
 20
2.560448232543992
 10
0.4284365703976398
 20
2.581465970746214
 10
0.3974281849366169
 20
2.600402616526981
 10
0.3610392899623773
 20
2.617401607915312
 10
0.3200318355713527
 20
2.632244069177653
 10
0.2751531016554158
 20
2.644816975195458
 10
0.2263764384669564
 20
2.65520291178193
 10
0.1745268163315532
 20
2.663364111129144
 10
0.1205846384336281
 20
2.669262692538649
 10
0.0607534915006298
 20
2.673109347318637
 10
0.0000000000000001
 20
2.67439385143483
 10
-0.0555595074024201
 20
2.67331455465969
 10
-0.1105884020092803
 20
2.67008420468243
 10
-0.164047341504594
 20
2.664714112025292
 10
-0.2153836766220485
 20
2.657161303580435
 10
-0.2641882831941066
 20
2.647403412550736
 10
-0.3095778667003664
 20
2.635489945323975
 10
-0.3514859439499967
 20
2.621208298290982
 10
-0.3891265590822223
 20
2.604662382025153
 10
-0.42180877233434
 20
2.585996222443251
 10
-0.4493197862873238
 20
2.565045029580509
 10
-0.471227640341687
 20
2.542019476357729
 10
-0.4871003679137921
 20
2.517240922740795
 10
-0.4967524517762247
 20
2.490664073476647
 10
-0.4999999999999998
 20
2.462759742011998
  0
LINE
  5
22E
330
204
100
AcDbEntity
  8
AM_9
100
AcDbLine
 10
0.5000000000000006
 20
2.462759742011998
 30
0.0
 11
0.4999935224958301
 21
2.46403129864766
 31
0.0
  0
LINE
  5
22F
330
204
100
AcDbEntity
  8
AM_9
100
AcDbLine
 10
1.28671875
 20
-1.038793337366136
 30
0.0
 11
1.28671875
 21
-2.75
 31
0.0
  0
LINE
  5
230
330
204
100
AcDbEntity
  8
AM_9
100
AcDbLine
 10
-1.28671875
 20
-1.038793337366141
 30
0.0
 11
-1.28671875
 21
-2.75
 31
0.0
  0
LINE
  5
231
330
204
100
AcDbEntity
  8
AM_9
100
AcDbLine
 10
-0.3124999999999998
 20
-1.125
 30
0.0
 11
-0.3124999999999998
 21
-2.75
 31
0.0
  0
LINE
  5
232
330
204
100
AcDbEntity
  8
AM_9
100
AcDbLine
 10
0.3125000000000002
 20
-1.125
 30
0.0
 11
0.3125000000000002
 21
-2.75
 31
0.0
  0
LINE
  5
233
330
204
100
AcDbEntity
  8
AM_4
100
AcDbLine
 10
0.1154710554367102
 20
2.7625
 30
0.0
 11
1.28671875
 21
2.7625
 31
0.0
  0
LINE
  5
234
330
204
100
AcDbEntity
  8
AM_4
100
AcDbLine
 10
-1.28671875
 20
2.7625
 30
0.0
 11
-0.1154710554367102
 21
2.7625
 31
0.0
  0
LINE
  5
235
330
204
100
AcDbEntity
  8
AM_4
100
AcDbLine
 10
0.1201621183885954
 20
2.84375
 30
0.0
 11
1.28671875
 21
2.84375
 31
0.0
  0
LINE
  5
236
330
204
100
AcDbEntity
  8
AM_4
100
AcDbLine
 10
-1.28671875
 20
2.84375
 30
0.0
 11
-0.1201621183885949
 21
2.84375
 31
0.0
  0
ELLIPSE
  5
237
330
204
100
AcDbEntity
  8
AM_4
100
AcDbEllipse
 10
0.0000000000000004
 20
2.462759742011998
 30
0.0
 11
0.5
 21
0.0
 31
0.0
210
0.0
220
0.0
230
1.0
 40
0.5
 41
3.141592653589793
 42
6.283185307179586
  0
ELLIPSE
  5
238
330
204
100
AcDbEntity
  8
AM_4
100
AcDbEllipse
 10
-0.0000000000001436
 20
2.549362282389912
 30
0.0
 11
0.400000000000496
 21
0.0
 31
0.0
210
0.0
220
0.0
230
1.0
 40
0.500000000000705
 41
1.257958860608643
 42
1.305184177224684
  0
ELLIPSE
  5
239
330
204
100
AcDbEntity
  8
AM_4
100
AcDbEllipse
 10
0.0000000000009999
 20
2.549362282386312
 30
0.0
 11
0.3999999999968438
 21
0.0
 31
0.0
210
0.0
220
0.0
230
1.0
 40
0.5000000000133371
 41
1.903006273346975
 42
7.541144167789091
  0
ELLIPSE
  5
23A
330
204
100
AcDbEntity
  8
AM_4
100
AcDbEllipse
 10
0.0000000000000218
 20
2.549362282434596
 30
0.0
 11
0.4000000000001576
 21
0.0
 31
0.0
210
0.0
220
0.0
230
1.0
 40
0.4999999998953136
 41
-4.385883462126795
 42
-4.380179033828962
  0
ELLIPSE
  5
23B
330
204
100
AcDbEntity
  8
AM_4
100
AcDbEllipse
 10
-0.0000000000000382
 20
2.549362282390422
 30
0.0
 11
0.3999999999998534
 21
0.0
 31
0.0
210
0.0
220
0.0
230
1.0
 40
0.5000000000002204
 41
-4.446776830814493
 42
-4.385883462134039
  0
LWPOLYLINE
  5
23C
330
204
100
AcDbEntity
  8
AM_4
100
AcDbPolyline
 90
       21
 70
     0
 43
0.0
 10
-0.1113757844822576
 20
2.755768954954057
 10
-0.1223309437059189
 20
2.754300501644795
 10
-0.156033616866812
 20
2.748840790669941
 10
-0.1890792413436888
 20
2.742027659762706
 10
-0.2213356656860754
 20
2.733855657192737
 10
-0.2526735877350023
 20
2.724313924418011
 10
-0.2829642985892819
 20
2.713384605764993
 10
-0.3120751485776963
 20
2.701042113882596
 10
-0.3398617845279184
 20
2.687254778571582
 10
-0.3661566212225487
 20
2.67199154742601
 10
-0.3907503344228788
 20
2.655240809162569
 10
-0.4133482573632302
 20
2.637069583442849
 10
-0.4336624156453071
 20
2.617602282965875
 10
-0.4514270269744607
 20
2.59704092585549
 10
-0.4664546362948436
 20
2.575633871125777
 10
-0.4786625525906403
 20
2.553628487561164
 10
-0.4880558240626758
 20
2.531241068010439
 10
-0.4946904811686255
 20
2.508654109405739
 10
-0.4986437784279563
 20
2.486026473525664
 10
-0.4999986253245077
 20
2.463501273545907
 10
-0.4999999996321121
 20
2.462747611260273
  0
LWPOLYLINE
  5
23D
330
204
100
AcDbEntity
  8
AM_4
100
AcDbPolyline
 90
       21
 70
     0
 43
0.0
 10
0.4999999721846779
 20
2.462865222476331
 10
0.4999611119021257
 20
2.466703635267846
 10
0.4982825104434745
 20
2.488935222398629
 10
0.494185285166014
 20
2.51076902968178
 10
0.4877447485119312
 20
2.532110387913488
 10
0.4790107807980144
 20
2.552908113916603
 10
0.4680021802336135
 20
2.573129949782926
 10
0.4547059051431037
 20
2.592751847747441
 10
0.4390863546163025
 20
2.611742107707079
 10
0.4211085605868612
 20
2.630043457652948
 10
0.4007737951067656
 20
2.647560043432983
 10
0.3781550579949696
 20
2.664158946269361
 10
0.3534110084023818
 20
2.679691028904971
 10
0.3267657363157231
 20
2.694022087789272
 10
0.2984837730411239
 20
2.707048690912228
 10
0.2688169065715832
 20
2.71871357945048
 10
0.2379586788310175
 20
2.729003327127369
 10
0.2060789256454038
 20
2.737917917063324
 10
0.1733321594654624
 20
2.745462059604157
 10
0.1398649124230532
 20
2.751640788551367
 10
0.1113916840791602
 20
2.755766929701476
  0
LINE
  5
23E
330
204
100
AcDbEntity
  8
AM_4
100
AcDbLine
 10
0.2251676414955235
 20
2.732580106785528
 30
0.0
 11
1.28671875
 21
2.732580106785528
 31
0.0
  0
LINE
  5
23F
330
204
100
AcDbEntity
  8
AM_4
100
AcDbLine
 10
-1.28671875
 20
2.732580106785528
 30
0.0
 11
-0.2255249571045584
 21
2.732580106785528
 31
0.0
  0
LINE
  5
240
330
204
100
AcDbEntity
  8
AM_4
100
AcDbLine
 10
1.021205357142857
 20
0.42870444364387
 30
0.0
 11
-1.021205357142857
 21
0.42870444364387
 31
0.0
  0
LWPOLYLINE
  5
241
330
204
100
AcDbEntity
  8
AM_4
100
AcDbPolyline
 90
       30
 70
     0
 43
0.0
 10
-0.4999999999999998
 20
2.462759742011998
 10
-0.497053379012209
 20
2.435210970365276
 10
-0.4879853179927331
 20
2.406560291789572
 10
-0.4729354261996285
 20
2.377666401899126
 10
-0.4521948650558986
 20
2.349141888882392
 10
-0.4257447489284061
 20
2.321211859816492
 10
-0.3940019905277173
 20
2.294400003115547
 10
-0.3575479480375041
 20
2.269331367036211
 10
-0.3160689562066454
 20
2.246113323422555
 10
-0.2704623855764871
 20
2.225442990930412
 10
-0.2215673567259804
 20
2.207861697497853
 10
-0.1697193854684432
 20
2.193721222988206
 10
-0.1155075137900957
 20
2.183251662817959
 10
-0.0599705015278083
 20
2.176754825181932
 10
-0.0043887263571808
 20
2.174439220922709
 10
0.0514262248134597
 20
2.176161563430213
 10
0.1064106451112348
 20
2.181871885939812
 10
0.1596461538829748
 20
2.191447724109886
 10
0.211059503686172
 20
2.204668830912941
 10
0.2597166497360338
 20
2.221177191204497
 10
0.3055916582821219
 20
2.240950777516582
 10
0.3478061818728574
 20
2.263458345533547
 10
0.3855985535582971
 20
2.288135147189677
 10
0.4189200154409412
 20
2.314944534517544
 10
0.447053294749045
 20
2.34319162640237
 10
0.4694579126289347
 20
2.372210338195131
 10
0.4857589528333782
 20
2.401462875120904
 10
0.4959936476730848
 20
2.430728327081168
 10
0.4999546615010824
 20
2.459386221583299
 10
0.5000000000000006
 20
2.462759742011998
  0
LINE
  5
242
330
204
100
AcDbEntity
  8
AM_4
100
AcDbLine
 10
-1.021205357142857
 20
-1.04375
 30
0.0
 11
1.021205357142857
 21
-1.04375
 31
0.0
  0
LINE
  5
243
330
204
100
AcDbEntity
  8
AM_4
100
AcDbLine
 10
1.021205357142857
 20
0.3522429525271453
 30
0.0
 11
1.28671875
 21
0.3522429525271453
 31
0.0
  0
LINE
  5
244
330
204
100
AcDbEntity
  8
AM_4
100
AcDbLine
 10
-1.28671875
 20
0.3522429525271453
 30
0.0
 11
-1.021205357142857
 21
0.3522429525271453
 31
0.0
  0
LINE
  5
245
330
204
100
AcDbEntity
  8
AM_4
100
AcDbLine
 10
1.021205357142857
 20
0.42870444364387
 30
0.0
 11
1.021205357142857
 21
-1.125
 31
0.0
  0
LINE
  5
246
330
204
100
AcDbEntity
  8
AM_4
100
AcDbLine
 10
1.28671875
 20
2.84375
 30
0.0
 11
1.28671875
 21
-1.038793337366136
 31
0.0
  0
LINE
  5
247
330
204
100
AcDbEntity
  8
AM_4
100
AcDbLine
 10
1.021205357142857
 20
-0.9826281687158368
 30
0.0
 11
1.28671875
 21
-0.9826281687158368
 31
0.0
  0
LWPOLYLINE
  5
248
330
204
100
AcDbEntity
  8
AM_4
100
AcDbPolyline
 90
       14
 70
     0
 43
0.0
 10
1.286718750000001
 20
-1.038793337366137
 10
1.293914124820596
 20
-1.051007840557869
 10
1.302146683165625
 20
-1.06254874564046
 10
1.311353770295128
 20
-1.073328219357643
 10
1.321465314716657
 20
-1.083264223405606
 10
1.332404361471647
 20
-1.09228113879402
 10
1.344087657809117
 20
-1.100310341352218
 10
1.356426286789369
 20
-1.107290724000566
 10
1.369326343995598
 20
-1.113169161812241
 10
1.382689652203195
 20
-1.117900916325997
 10
1.396414508567716
 20
-1.121449976032873
 10
1.41039645864493
 20
-1.123789330445519
 10
1.424529091352219
 20
-1.124901175664315
 10
1.4296875
 20
-1.124999205967152
  0
LINE
  5
249
330
204
100
AcDbEntity
  8
AM_4
100
AcDbLine
 10
-1.021205357142857
 20
0.42870444364387
 30
0.0
 11
-1.021205357142857
 21
-1.125
 31
0.0
  0
LWPOLYLINE
  5
24A
330
204
100
AcDbEntity
  8
AM_4
100
AcDbPolyline
 90
       14
 70
     0
 43
0.0
 10
-1.4296875
 20
-1.124999205967152
 10
-1.415526694086584
 20
-1.124336572650552
 10
-1.401477526613811
 20
-1.122442265296486
 10
-1.387646920229268
 20
-1.119330700727734
 10
-1.374140134198688
 20
-1.115025559829477
 10
-1.361059963319387
 20
-1.109559607323467
 10
-1.348505955589776
 20
-1.102974442408707
 10
-1.336573654588998
 20
-1.095320182166429
 10
-1.325353872332587
 20
-1.086655080138846
 10
-1.314931998138206
 20
-1.077045082984519
 10
-1.305387348761371
 20
-1.066563328584468
 10
-1.29679256474706
 20
-1.055289589418733
 10
-1.289213057591291
 20
-1.043309665449636
 10
-1.28671875
 20
-1.03879333736614
  0
LINE
  5
24B
330
204
100
AcDbEntity
  8
AM_4
100
AcDbLine
 10
-1.28671875
 20
-0.9826281687158368
 30
0.0
 11
-1.021205357142857
 21
-0.9826281687158368
 31
0.0
  0
LINE
  5
24C
330
204
100
AcDbEntity
  8
AM_4
100
AcDbLine
 10
-1.28671875
 20
-1.038793337366141
 30
0.0
 11
-1.28671875
 21
2.84375
 31
0.0
  0
LINE
  5
24D
330
204
100
AcDbEntity
  8
AM_4
100
AcDbLine
 10
1.4296875
 20
-1.124999999999998
 30
0.0
 11
1.4296875
 21
-2.75
 31
0.0
  0
LWPOLYLINE
  5
24E
330
204
100
AcDbEntity
  8
AM_4
100
AcDbPolyline
 90
       19
 70
     0
 43
0.0
 10
1.14375
 20
-1.287499995805945
 10
1.144368361925628
 20
-1.27333718762541
 10
1.146218740863806
 20
-1.259282166998786
 10
1.149287054313528
 20
-1.245441901119694
 10
1.153549950556741
 20
-1.231921722768456
 10
1.158974986379029
 20
-1.218824528666032
 10
1.165520873982056
 20
-1.206249996367842
 10
1.17313779520865
 20
-1.194293825657386
 10
1.181767780689053
 20
-1.183047010213105
 10
1.191345151022831
 20
-1.172595145091541
 10
1.20179701663877
 20
-1.163017775297279
 10
1.213043832528524
 20
-1.154387790397428
 10
1.225000003632158
 20
-1.146770869788001
 10
1.237574536268241
 20
-1.14022498283406
 10
1.250671730650701
 20
-1.134799947687839
 10
1.264191909221986
 20
-1.130537052142525
 10
1.278032175259461
 20
-1.127468739407226
 10
1.2920871959816
 20
-1.125618361194555
 10
1.306249999999999
 20
-1.125
  0
LINE
  5
24F
330
204
100
AcDbEntity
  8
AM_4
100
AcDbLine
 10
1.14375
 20
-1.287499999999999
 30
0.0
 11
1.14375
 21
-2.75
 31
0.0
  0
LINE
  5
250
330
204
100
AcDbEntity
  8
AM_4
100
AcDbLine
 10
-1.14375
 20
-1.2875
 30
0.0
 11
1.14375
 21
-1.287499999999999
 31
0.0
  0
LINE
  5
251
330
204
100
AcDbEntity
  8
AM_4
100
AcDbLine
 10
-1.4296875
 20
-1.125
 30
0.0
 11
1.4296875
 21
-1.124999999999998
 31
0.0
  0
LINE
  5
252
330
204
100
AcDbEntity
  8
AM_4
100
AcDbLine
 10
-1.4296875
 20
-1.125
 30
0.0
 11
-1.4296875
 21
-2.75
 31
0.0
  0
LINE
  5
253
330
204
100
AcDbEntity
  8
AM_4
100
AcDbLine
 10
-1.4296875
 20
-2.75
 30
0.0
 11
1.4296875
 21
-2.75
 31
0.0
  0
LINE
  5
254
330
204
100
AcDbEntity
  8
AM_4
100
AcDbLine
 10
-1.14375
 20
-1.2875
 30
0.0
 11
-1.14375
 21
-2.75
 31
0.0
  0
LWPOLYLINE
  5
255
330
204
100
AcDbEntity
  8
AM_4
100
AcDbPolyline
 90
       19
 70
     0
 43
0.0
 10
-1.306249999999999
 20
-1.125
 10
-1.292087191803505
 20
-1.125618361560091
 10
-1.278032171129123
 20
-1.127468740135516
 10
-1.26419190517084
 20
-1.130537053228026
 10
-1.250671726709578
 20
-1.13479994912229
 10
-1.237574532467136
 20
-1.140224984606544
 10
-1.225
 20
-1.146770871885028
 10
-1.213043829092955
 20
-1.154387792803039
 10
-1.201797013425937
 20
-1.163017777993166
 10
-1.191345148057186
 20
-1.172595148057186
 10
-1.181767777993166
 20
-1.183047013425937
 10
-1.173137792803038
 20
-1.194293829092955
 10
-1.165520871885028
 20
-1.206249999999999
 10
-1.158974984606544
 20
-1.218824532467136
 10
-1.15354994912229
 20
-1.231921726709578
 10
-1.149287053228026
 20
-1.24544190517084
 10
-1.146218740135516
 20
-1.259282171129123
 10
-1.144368361560091
 20
-1.273337191803505
 10
-1.14375
 20
-1.287499999999999
  0
ENDBLK
  5
207
330
204
100
AcDbEntity
  8
0
100
AcDbBlockEnd
  0
ENDSEC
  0
SECTION
  2
ENTITIES
  0
INSERT
  5
6F
330
1F
100
AcDbEntity
  8
0
100
AcDbBlockReference
  2
1_069500_2
 10
0.0
 20
0.0
 30
0.0
  0
POINT
  5
257
330
1F
100
AcDbEntity
  8
ConnectionPoints
100
AcDbPoint
 10
-1.767416666666667
 20
1.663194444444444
 30
0.0000000000000001
  0
POINT
  5
258
330
1F
100
AcDbEntity
  8
ConnectionPoints
100
AcDbPoint
 10
-1.697416666666667
 20
0.0
 30
0.0000000000000001
  0
POINT
  5
259
330
1F
100
AcDbEntity
  8
ConnectionPoints
100
AcDbPoint
 10
-1.96875
 20
0.0
 30
0.0000000000000001
  0
POINT
  5
25A
330
1F
100
AcDbEntity
  8
ConnectionPoints
100
AcDbPoint
 10
-1.896416666666667
 20
0.0
 30
0.0000000000000001
  0
POINT
  5
25B
330
1F
100
AcDbEntity
  8
ConnectionPoints
100
AcDbPoint
 10
-1.697416666666667
 20
1.663194444444444
 30
0.0000000000000001
  0
POINT
  5
25C
330
1F
100
AcDbEntity
  8
ConnectionPoints
100
AcDbPoint
 10
-1.86775
 20
1.663194444444444
 30
0.0000000000000001
  0
POINT
  5
25D
330
1F
100
AcDbEntity
  8
ConnectionPoints
100
AcDbPoint
 10
-1.697416666666667
 20
-1.663194444444444
 30
0.0000000000000001
  0
POINT
  5
25E
330
1F
100
AcDbEntity
  8
ConnectionPoints
100
AcDbPoint
 10
-1.86775
 20
-1.663194444444444
 30
0.0000000000000001
  0
POINT
  5
25F
330
1F
100
AcDbEntity
  8
ConnectionPoints
100
AcDbPoint
 10
-1.697416666666667
 20
0.0
 30
0.0000000000000001
  0
POINT
  5
260
330
1F
100
AcDbEntity
  8
ConnectionPoints
100
AcDbPoint
 10
0.0000000000000001
 20
2.549362282390442
 30
1.471875
  0
POINT
  5
261
330
1F
100
AcDbEntity
  8
ConnectionPoints
100
AcDbPoint
 10
0.0000000000000001
 20
2.549362282390442
 30
1.471875
  0
POINT
  5
262
330
1F
100
AcDbEntity
  8
ConnectionPoints
100
AcDbPoint
 10
-1.96875
 20
0.0
 30
0.0000000000000001
  0
POINT
  5
263
330
1F
100
AcDbEntity
  8
ConnectionPoints
100
AcDbPoint
 10
-2.21875
 20
0.0
 30
0.0000000000000001
  0
ENDSEC
  0
SECTION
  2
OBJECTS
  0
DICTIONARY
  5
C
330
0
100
AcDbDictionary
281
     1
  3
ACAD_DETAILVIEWSTYLE
350
26B
  3
ACAD_GROUP
350
D
  3
ACAD_LAYOUT
350
1A
  3
ACAD_MATERIAL
350
43
  3
ACAD_MLEADERSTYLE
350
6B
  3
ACAD_MLINESTYLE
350
17
  3
ACAD_PLOTSETTINGS
350
19
  3
ACAD_PLOTSTYLENAME
350
E
  3
ACAD_SCALELIST
350
47
  3
ACAD_SECTIONVIEWSTYLE
350
26C
  3
ACAD_TABLESTYLE
350
69
  3
ACAD_VISUALSTYLE
350
2A
  3
ACDB_RECOMPOSE_DATA
350
268
  3
AcDbVariableDictionary
350
264
  0
SUN
  5
6D
330
29
100
AcDbSun
 90
        1
290
     0
 63
     7
421
 16777215
 40
1.0
291
     1
 91
  2455826
 92
 54000000
292
     0
 70
     2
 71
   256
280
     1
  0
DICTIONARY
  5
26B
102
{ACAD_REACTORS
330
C
102
}
330
C
100
AcDbDictionary
281
     1
  0
DICTIONARY
  5
D
102
{ACAD_REACTORS
330
C
102
}
330
C
100
AcDbDictionary
281
     1
  0
DICTIONARY
  5
1A
102
{ACAD_REACTORS
330
C
102
}
330
C
100
AcDbDictionary
281
     1
  3
Layout1
350
1E
  3
Layout2
350
26
  3
Model
350
22
  0
DICTIONARY
  5
43
102
{ACAD_REACTORS
330
C
102
}
330
C
100
AcDbDictionary
281
     1
  3
ByBlock
350
45
  3
ByLayer
350
44
  3
Global
350
46
  0
DICTIONARY
  5
6B
102
{ACAD_REACTORS
330
C
102
}
330
C
100
AcDbDictionary
281
     1
  3
Standard
350
6C
  0
DICTIONARY
  5
17
102
{ACAD_REACTORS
330
C
102
}
330
C
100
AcDbDictionary
281
     1
  3
Standard
350
18
  0
DICTIONARY
  5
19
102
{ACAD_REACTORS
330
C
102
}
330
C
100
AcDbDictionary
281
     1
  0
ACDBDICTIONARYWDFLT
  5
E
102
{ACAD_REACTORS
330
C
102
}
330
C
100
AcDbDictionary
281
     1
  3
Normal
350
F
100
AcDbDictionaryWithDefault
340
F
  0
DICTIONARY
  5
47
102
{ACAD_REACTORS
330
C
102
}
330
C
100
AcDbDictionary
281
     1
  3
A0
350
48
  3
A1
350
49
  3
A2
350
4A
  3
A3
350
4B
  3
A4
350
4C
  3
A5
350
4D
  3
A6
350
4E
  3
A7
350
4F
  3
A8
350
50
  3
A9
350
51
  3
B0
350
52
  3
B1
350
53
  3
B2
350
54
  3
B3
350
55
  3
B4
350
56
  3
B5
350
57
  3
B6
350
58
  3
B7
350
59
  3
B8
350
5A
  3
B9
350
5B
  3
C0
350
5C
  3
C1
350
5D
  3
C2
350
5E
  3
C3
350
5F
  3
C4
350
60
  3
C5
350
61
  3
C6
350
62
  3
C7
350
63
  3
C8
350
64
  3
C9
350
65
  3
D0
350
66
  3
D1
350
67
  3
D2
350
68
  0
DICTIONARY
  5
26C
102
{ACAD_REACTORS
330
C
102
}
330
C
100
AcDbDictionary
281
     1
  0
DICTIONARY
  5
69
102
{ACAD_REACTORS
330
C
102
}
330
C
100
AcDbDictionary
281
     1
  3
Standard
350
6A
  0
DICTIONARY
  5
2A
102
{ACAD_REACTORS
330
C
102
}
330
C
100
AcDbDictionary
281
     1
  3
2dWireframe
350
2F
  3
Basic
350
32
  3
Brighten
350
36
  3
ColorChange
350
3A
  3
Conceptual
350
34
  3
Dim
350
35
  3
EdgeColorOff
350
3D
  3
Facepattern
350
39
  3
Flat
350
2B
  3
FlatWithEdges
350
2C
  3
Gouraud
350
2D
  3
GouraudWithEdges
350
2E
  3
Hidden
350
31
  3
JitterOff
350
3B
  3
Linepattern
350
38
  3
OverhangOff
350
3C
  3
Realistic
350
33
  3
Shaded
350
42
  3
Shaded with edges
350
41
  3
Shades of Gray
350
3E
  3
Sketchy
350
3F
  3
Thicken
350
37
  3
Wireframe
350
30
  3
X-Ray
350
40
  0
XRECORD
  5
268
102
{ACAD_REACTORS
330
C
102
}
330
C
100
AcDbXrecord
280
     1
 90
        1
330
6A
  0
DICTIONARY
  5
264
102
{ACAD_REACTORS
330
C
102
}
330
C
100
AcDbDictionary
281
     1
  3
CANNOSCALE
350
265
  3
CMLEADERSTYLE
350
26A
  3
CTABLESTYLE
350
269
  0
LAYOUT
  5
1E
102
{ACAD_REACTORS
330
1A
102
}
330
1A
100
AcDbPlotSettings
  1

  2
none_device
  4

  6

 40
0.0
 41
0.0
 42
0.0
 43
0.0
 44
0.0
 45
0.0
 46
0.0
 47
0.0
 48
0.0
 49
0.0
140
0.0
141
0.0
142
1.0
143
1.0
 70
   688
 72
     0
 73
     0
 74
     5
  7

 75
    16
 76
     0
 77
     2
 78
   300
147
1.0
148
0.0
149
0.0
100
AcDbLayout
  1
Layout1
 70
     1
 71
     1
 10
0.0
 20
0.0
 11
12.0
 21
9.0
 12
0.0
 22
0.0
 32
0.0
 14
1.000000000000000E+20
 24
1.000000000000000E+20
 34
1.000000000000000E+20
 15
-1.000000000000000E+20
 25
-1.000000000000000E+20
 35
-1.000000000000000E+20
146
0.0
 13
0.0
 23
0.0
 33
0.0
 16
1.0
 26
0.0
 36
0.0
 17
0.0
 27
1.0
 37
0.0
 76
     0
330
1B
  0
LAYOUT
  5
26
102
{ACAD_REACTORS
330
1A
102
}
330
1A
100
AcDbPlotSettings
  1

  2
none_device
  4

  6

 40
0.0
 41
0.0
 42
0.0
 43
0.0
 44
0.0
 45
0.0
 46
0.0
 47
0.0
 48
0.0
 49
0.0
140
0.0
141
0.0
142
1.0
143
1.0
 70
   688
 72
     0
 73
     0
 74
     5
  7

 75
    16
 76
     0
 77
     2
 78
   300
147
1.0
148
0.0
149
0.0
100
AcDbLayout
  1
Layout2
 70
     1
 71
     2
 10
0.0
 20
0.0
 11
0.0
 21
0.0
 12
0.0
 22
0.0
 32
0.0
 14
0.0
 24
0.0
 34
0.0
 15
0.0
 25
0.0
 35
0.0
146
0.0
 13
0.0
 23
0.0
 33
0.0
 16
1.0
 26
0.0
 36
0.0
 17
0.0
 27
1.0
 37
0.0
 76
     0
330
23
  0
LAYOUT
  5
22
102
{ACAD_REACTORS
330
1A
102
}
330
1A
100
AcDbPlotSettings
  1

  2
none_device
  4
Letter_(8.50_x_11.00_Inches)
  6

 40
6.35
 41
6.35
 42
6.35000508
 43
6.35000508
 44
215.9
 45
279.4
 46
0.0
 47
0.0
 48
0.0
 49
0.0
140
0.0
141
0.0
142
1.0
143
1.0
 70
  1712
 72
     0
 73
     0
 74
     0
  7

 75
     0
 76
     0
 77
     2
 78
   300
147
1.0
148
0.0
149
0.0
100
AcDbLayout
  1
Model
 70
     1
 71
     0
 10
0.0
 20
0.0
 11
12.0
 21
9.0
 12
0.0
 22
0.0
 32
0.0
 14
1.000000000000000E+20
 24
1.000000000000000E+20
 34
1.000000000000000E+20
 15
-1.000000000000000E+20
 25
-1.000000000000000E+20
 35
-1.000000000000000E+20
146
0.0
 13
0.0
 23
0.0
 33
0.0
 16
1.0
 26
0.0
 36
0.0
 17
0.0
 27
1.0
 37
0.0
 76
     0
330
1F
331
29
  0
MATERIAL
  5
45
102
{ACAD_REACTORS
330
43
102
}
330
43
100
AcDbMaterial
  1
ByBlock
 72
     1
 94
      127
  0
MATERIAL
  5
44
102
{ACAD_REACTORS
330
43
102
}
330
43
100
AcDbMaterial
  1
ByLayer
 72
     1
 94
      127
  0
MATERIAL
  5
46
102
{ACAD_REACTORS
330
43
102
}
330
43
100
AcDbMaterial
  1
Global
 72
     1
 94
      127
  0
MLEADERSTYLE
  5
6C
102
{ACAD_REACTORS
330
6B
102
}
330
6B
100
AcDbMLeaderStyle
179
     2
170
     2
171
     1
172
     0
 90
        2
 40
0.0
 41
0.0
173
     1
 91
-1056964608
340
14
 92
       -2
290
     1
 42
0.09
291
     1
 43
0.36
  3
Standard
341
0
 44
0.18
300

342
11
174
     1
178
     6
175
     1
176
     0
 93
-1056964608
 45
0.18
292
     0
297
     0
 46
0.18
343
0
 94
-1056964608
 47
1.0
 49
1.0
140
1.0
293
     1
141
0.0
294
     1
177
     0
142
1.0
295
     0
296
     0
143
0.125
271
     0
272
     9
273
     9
298
     0
  0
MLINESTYLE
  5
18
102
{ACAD_REACTORS
330
17
102
}
330
17
100
AcDbMlineStyle
  2
Standard
 70
     0
  3

 62
   256
 51
90.0
 52
90.0
 71
     2
 49
0.5
 62
   256
  6
BYLAYER
 49
-0.5
 62
   256
  6
BYLAYER
  0
ACDBPLACEHOLDER
  5
F
102
{ACAD_REACTORS
330
E
102
}
330
E
  0
SCALE
  5
48
102
{ACAD_REACTORS
330
47
102
}
330
47
100
AcDbScale
 70
     0
300
1:1
140
1.0
141
1.0
290
     1
  0
SCALE
  5
49
102
{ACAD_REACTORS
330
47
102
}
330
47
100
AcDbScale
 70
     0
300
1:2
140
1.0
141
2.0
290
     0
  0
SCALE
  5
4A
102
{ACAD_REACTORS
330
47
102
}
330
47
100
AcDbScale
 70
     0
300
1:4
140
1.0
141
4.0
290
     0
  0
SCALE
  5
4B
102
{ACAD_REACTORS
330
47
102
}
330
47
100
AcDbScale
 70
     0
300
1:5
140
1.0
141
5.0
290
     0
  0
SCALE
  5
4C
102
{ACAD_REACTORS
330
47
102
}
330
47
100
AcDbScale
 70
     0
300
1:8
140
1.0
141
8.0
290
     0
  0
SCALE
  5
4D
102
{ACAD_REACTORS
330
47
102
}
330
47
100
AcDbScale
 70
     0
300
1:10
140
1.0
141
10.0
290
     0
  0
SCALE
  5
4E
102
{ACAD_REACTORS
330
47
102
}
330
47
100
AcDbScale
 70
     0
300
1:16
140
1.0
141
16.0
290
     0
  0
SCALE
  5
4F
102
{ACAD_REACTORS
330
47
102
}
330
47
100
AcDbScale
 70
     0
300
1:20
140
1.0
141
20.0
290
     0
  0
SCALE
  5
50
102
{ACAD_REACTORS
330
47
102
}
330
47
100
AcDbScale
 70
     0
300
1:30
140
1.0
141
30.0
290
     0
  0
SCALE
  5
51
102
{ACAD_REACTORS
330
47
102
}
330
47
100
AcDbScale
 70
     0
300
1:40
140
1.0
141
40.0
290
     0
  0
SCALE
  5
52
102
{ACAD_REACTORS
330
47
102
}
330
47
100
AcDbScale
 70
     0
300
1:50
140
1.0
141
50.0
290
     0
  0
SCALE
  5
53
102
{ACAD_REACTORS
330
47
102
}
330
47
100
AcDbScale
 70
     0
300
1:100
140
1.0
141
100.0
290
     0
  0
SCALE
  5
54
102
{ACAD_REACTORS
330
47
102
}
330
47
100
AcDbScale
 70
     0
300
2:1
140
2.0
141
1.0
290
     0
  0
SCALE
  5
55
102
{ACAD_REACTORS
330
47
102
}
330
47
100
AcDbScale
 70
     0
300
4:1
140
4.0
141
1.0
290
     0
  0
SCALE
  5
56
102
{ACAD_REACTORS
330
47
102
}
330
47
100
AcDbScale
 70
     0
300
8:1
140
8.0
141
1.0
290
     0
  0
SCALE
  5
57
102
{ACAD_REACTORS
330
47
102
}
330
47
100
AcDbScale
 70
     0
300
10:1
140
10.0
141
1.0
290
     0
  0
SCALE
  5
58
102
{ACAD_REACTORS
330
47
102
}
330
47
100
AcDbScale
 70
     0
300
100:1
140
100.0
141
1.0
290
     0
  0
SCALE
  5
59
102
{ACAD_REACTORS
330
47
102
}
330
47
100
AcDbScale
 70
     0
300
1/128" = 1'-0"
140
0.0078125
141
12.0
290
     0
  0
SCALE
  5
5A
102
{ACAD_REACTORS
330
47
102
}
330
47
100
AcDbScale
 70
     0
300
1/64" = 1'-0"
140
0.015625
141
12.0
290
     0
  0
SCALE
  5
5B
102
{ACAD_REACTORS
330
47
102
}
330
47
100
AcDbScale
 70
     0
300
1/32" = 1'-0"
140
0.03125
141
12.0
290
     0
  0
SCALE
  5
5C
102
{ACAD_REACTORS
330
47
102
}
330
47
100
AcDbScale
 70
     0
300
1/16" = 1'-0"
140
0.0625
141
12.0
290
     0
  0
SCALE
  5
5D
102
{ACAD_REACTORS
330
47
102
}
330
47
100
AcDbScale
 70
     0
300
3/32" = 1'-0"
140
0.09375
141
12.0
290
     0
  0
SCALE
  5
5E
102
{ACAD_REACTORS
330
47
102
}
330
47
100
AcDbScale
 70
     0
300
1/8" = 1'-0"
140
0.125
141
12.0
290
     0
  0
SCALE
  5
5F
102
{ACAD_REACTORS
330
47
102
}
330
47
100
AcDbScale
 70
     0
300
3/16" = 1'-0"
140
0.1875
141
12.0
290
     0
  0
SCALE
  5
60
102
{ACAD_REACTORS
330
47
102
}
330
47
100
AcDbScale
 70
     0
300
1/4" = 1'-0"
140
0.25
141
12.0
290
     0
  0
SCALE
  5
61
102
{ACAD_REACTORS
330
47
102
}
330
47
100
AcDbScale
 70
     0
300
3/8" = 1'-0"
140
0.375
141
12.0
290
     0
  0
SCALE
  5
62
102
{ACAD_REACTORS
330
47
102
}
330
47
100
AcDbScale
 70
     0
300
1/2" = 1'-0"
140
0.5
141
12.0
290
     0
  0
SCALE
  5
63
102
{ACAD_REACTORS
330
47
102
}
330
47
100
AcDbScale
 70
     0
300
3/4" = 1'-0"
140
0.75
141
12.0
290
     0
  0
SCALE
  5
64
102
{ACAD_REACTORS
330
47
102
}
330
47
100
AcDbScale
 70
     0
300
1" = 1'-0"
140
1.0
141
12.0
290
     0
  0
SCALE
  5
65
102
{ACAD_REACTORS
330
47
102
}
330
47
100
AcDbScale
 70
     0
300
1-1/2" = 1'-0"
140
1.5
141
12.0
290
     0
  0
SCALE
  5
66
102
{ACAD_REACTORS
330
47
102
}
330
47
100
AcDbScale
 70
     0
300
3" = 1'-0"
140
3.0
141
12.0
290
     0
  0
SCALE
  5
67
102
{ACAD_REACTORS
330
47
102
}
330
47
100
AcDbScale
 70
     0
300
6" = 1'-0"
140
6.0
141
12.0
290
     0
  0
SCALE
  5
68
102
{ACAD_REACTORS
330
47
102
}
330
47
100
AcDbScale
 70
     0
300
1'-0" = 1'-0"
140
12.0
141
12.0
290
     0
  0
TABLESTYLE
  5
6A
102
{ACAD_REACTORS
330
69
102
}
102
{ACAD_XDICTIONARY
360
266
102
}
330
69
100
AcDbTableStyle
  3
Standard
 70
     0
 71
     0
 40
0.06
 41
0.06
280
     0
281
     0
  7
Standard
140
0.18
170
     2
 62
     0
 63
   257
283
     0
 90
        4
 91
        0
  1

274
    -2
284
     1
 64
     0
275
    -2
285
     1
 65
     0
276
    -2
286
     1
 66
     0
277
    -2
287
     1
 67
     0
278
    -2
288
     1
 68
     0
279
    -2
289
     1
 69
     0
  7
Standard
140
0.25
170
     5
 62
     0
 63
   257
283
     0
 90
        4
 91
        0
  1

274
    -2
284
     1
 64
     0
275
    -2
285
     1
 65
     0
276
    -2
286
     1
 66
     0
277
    -2
287
     1
 67
     0
278
    -2
288
     1
 68
     0
279
    -2
289
     1
 69
     0
  7
Standard
140
0.18
170
     5
 62
     0
 63
   257
283
     0
 90
        4
 91
        0
  1

274
    -2
284
     1
 64
     0
275
    -2
285
     1
 65
     0
276
    -2
286
     1
 66
     0
277
    -2
287
     1
 67
     0
278
    -2
288
     1
 68
     0
279
    -2
289
     1
 69
     0
  0
VISUALSTYLE
  5
2F
102
{ACAD_REACTORS
330
2A
102
}
330
2A
100
AcDbVisualStyle
  2
2dWireframe
 70
     4
177
     3
291
     0
 70
    58
 90
        0
176
     1
 90
        2
176
     1
 90
        0
176
     1
 90
        0
176
     1
 40
0.6
176
     1
 40
30.0
176
     1
 62
     7
420
 16777215
176
     1
 90
        1
176
     1
 90
        4
176
     1
 62
     7
176
     1
 62
   257
176
     1
 90
        1
176
     1
 90
        1
176
     1
 40
1.0
176
     1
 90
        0
176
     1
 62
   257
176
     1
 40
1.0
176
     1
 90
        1
176
     1
 90
        6
176
     1
 90
        2
176
     1
 62
     7
176
     1
 90
        5
176
     1
 90
        0
176
     1
 90
        0
176
     1
290
     0
176
     1
 90
        1
176
     1
 40
0.0
176
     1
 90
        0
176
     1
290
     1
176
     1
290
     1
176
     1
290
     0
176
     1
290
     0
176
     1
290
     0
176
     1
290
     0
176
     1
290
     0
176
     1
290
     0
176
     1
290
     0
176
     1
 90
       50
176
     1
 40
0.0
176
     1
 40
1.0
176
     1
 90
        0
176
     1
 62
    18
420
        0
176
     1
 90
       50
176
     1
 90
        3
176
     1
 62
     5
420
      255
176
     1
290
     0
176
     1
 90
       50
176
     1
 90
       50
176
     1
 90
       50
176
     1
290
     0
176
     1
 90
       50
176
     1
 62
   256
176
     0
 40
1.0
176
     0
 90
        2
176
     1
  1
strokes_ogs.tif
176
     1
290
     0
176
     1
 40
1.0
176
     1
 40
1.0
176
     1
  0
VISUALSTYLE
  5
32
102
{ACAD_REACTORS
330
2A
102
}
330
2A
100
AcDbVisualStyle
  2
Basic
 70
     7
177
     3
291
     1
 70
    58
 90
        1
176
     1
 90
        0
176
     1
 90
        1
176
     1
 90
        0
176
     1
 40
0.6
176
     1
 40
30.0
176
     1
 62
     7
420
 16777215
176
     1
 90
        0
176
     1
 90
        4
176
     1
 62
     7
176
     1
 62
   257
176
     1
 90
        1
176
     1
 90
        1
176
     1
 40
1.0
176
     1
 90
        8
176
     1
 62
     7
176
     1
 40
1.0
176
     1
 90
        1
176
     1
 90
        6
176
     1
 90
        2
176
     1
 62
     7
176
     1
 90
        5
176
     1
 90
        0
176
     1
 90
        0
176
     1
290
     0
176
     1
 90
        1
176
     1
 40
0.0
176
     1
 90
        0
176
     1
290
     0
176
     1
290
     1
176
     1
290
     1
176
     1
290
     0
176
     1
290
     0
176
     1
290
     0
176
     1
290
     0
176
     1
290
     0
176
     1
290
     0
176
     1
 90
       50
176
     1
 40
0.0
176
     1
 40
1.0
176
     1
 90
        0
176
     1
 62
    18
420
        0
176
     1
 90
       50
176
     1
 90
        3
176
     1
 62
     5
420
      255
176
     1
290
     0
176
     1
 90
       50
176
     1
 90
       50
176
     1
 90
       50
176
     1
290
     0
176
     1
 90
       50
176
     1
 62
   256
176
     0
 40
1.0
176
     0
 90
        2
176
     1
  1
strokes_ogs.tif
176
     1
290
     0
176
     1
 40
1.0
176
     1
 40
1.0
176
     1
  0
VISUALSTYLE
  5
36
102
{ACAD_REACTORS
330
2A
102
}
330
2A
100
AcDbVisualStyle
  2
Brighten
 70
    12
177
     3
291
     1
 70
    58
 90
        2
176
     1
 90
        2
176
     1
 90
        0
176
     1
 90
        0
176
     1
 40
0.6
176
     1
 40
30.0
176
     1
 62
     7
420
 16777215
176
     1
 90
        1
176
     1
 90
        4
176
     1
 62
     7
176
     1
 62
   257
176
     1
 90
        1
176
     1
 90
        1
176
     1
 40
1.0
176
     1
 90
        8
176
     1
 62
     7
176
     1
 40
1.0
176
     1
 90
        1
176
     1
 90
        6
176
     1
 90
        2
176
     1
 62
     7
176
     1
 90
        5
176
     1
 90
        0
176
     1
 90
        0
176
     1
290
     0
176
     1
 90
        1
176
     1
 40
50.0
176
     1
 90
        0
176
     1
290
     0
176
     1
290
     1
176
     1
290
     1
176
     1
290
     0
176
     1
290
     0
176
     1
290
     0
176
     1
290
     0
176
     1
290
     0
176
     1
290
     0
176
     1
 90
       50
176
     1
 40
0.0
176
     1
 40
1.0
176
     1
 90
        0
176
     1
 62
    18
420
        0
176
     1
 90
       50
176
     1
 90
        3
176
     1
 62
     5
420
      255
176
     1
290
     0
176
     1
 90
       50
176
     1
 90
       50
176
     1
 90
       50
176
     1
290
     0
176
     1
 90
       50
176
     1
 62
   256
176
     0
 40
1.0
176
     0
 90
        2
176
     1
  1
strokes_ogs.tif
176
     1
290
     0
176
     1
 40
1.0
176
     1
 40
1.0
176
     1
  0
VISUALSTYLE
  5
3A
102
{ACAD_REACTORS
330
2A
102
}
330
2A
100
AcDbVisualStyle
  2
ColorChange
 70
    16
177
     3
291
     1
 70
    58
 90
        2
176
     1
 90
        2
176
     1
 90
        3
176
     1
 90
        0
176
     1
 40
0.6
176
     1
 40
30.0
176
     1
 62
     8
420
  8421504
176
     1
 90
        1
176
     1
 90
        4
176
     1
 62
     7
176
     1
 62
   257
176
     1
 90
        1
176
     1
 90
        1
176
     1
 40
1.0
176
     1
 90
        8
176
     1
 62
     8
420
  8421504
176
     1
 40
1.0
176
     1
 90
        1
176
     1
 90
        6
176
     1
 90
        2
176
     1
 62
     7
176
     1
 90
        5
176
     1
 90
        0
176
     1
 90
        0
176
     1
290
     0
176
     1
 90
        1
176
     1
 40
0.0
176
     1
 90
        0
176
     1
290
     0
176
     1
290
     1
176
     1
290
     1
176
     1
290
     0
176
     1
290
     0
176
     1
290
     0
176
     1
290
     0
176
     1
290
     0
176
     1
290
     0
176
     1
 90
       50
176
     1
 40
0.0
176
     1
 40
1.0
176
     1
 90
        0
176
     1
 62
    18
420
        0
176
     1
 90
       50
176
     1
 90
        3
176
     1
 62
     5
420
      255
176
     1
290
     0
176
     1
 90
       50
176
     1
 90
       50
176
     1
 90
       50
176
     1
290
     0
176
     1
 90
       50
176
     1
 62
   256
176
     0
 40
1.0
176
     0
 90
        2
176
     1
  1
strokes_ogs.tif
176
     1
290
     0
176
     1
 40
1.0
176
     1
 40
1.0
176
     1
  0
VISUALSTYLE
  5
34
102
{ACAD_REACTORS
330
2A
102
}
330
2A
100
AcDbVisualStyle
  2
Conceptual
 70
     9
177
     3
291
     0
 70
    58
 90
        3
176
     1
 90
        2
176
     1
 90
        0
176
     1
 90
        0
176
     1
 40
0.6
176
     1
 40
30.0
176
     1
 62
     7
420
 16777215
176
     1
 90
        2
176
     1
 90
        2
176
     1
 62
     7
176
     1
 62
   257
176
     1
 90
        1
176
     1
 90
        1
176
     1
 40
179.0
176
     1
 90
        8
176
     1
 62
     7
176
     1
 40
1.0
176
     1
 90
        1
176
     1
 90
        6
176
     1
 90
        2
176
     1
 62
     7
176
     1
 90
        3
176
     1
 90
        0
176
     1
 90
        0
176
     1
290
     0
176
     1
 90
        1
176
     1
 40
0.0
176
     1
 90
        0
176
     1
290
     0
176
     1
290
     1
176
     1
290
     1
176
     1
290
     0
176
     1
290
     0
176
     1
290
     0
176
     1
290
     0
176
     1
290
     0
176
     1
290
     0
176
     1
 90
       50
176
     1
 40
0.0
176
     1
 40
1.0
176
     1
 90
        0
176
     1
 62
    18
420
        0
176
     1
 90
       50
176
     1
 90
        3
176
     1
 62
     5
420
      255
176
     1
290
     0
176
     1
 90
       50
176
     1
 90
       50
176
     1
 90
       50
176
     1
290
     0
176
     1
 90
       50
176
     1
 62
   256
176
     0
 40
1.0
176
     0
 90
        2
176
     1
  1
strokes_ogs.tif
176
     1
290
     0
176
     1
 40
1.0
176
     1
 40
1.0
176
     1
  0
VISUALSTYLE
  5
35
102
{ACAD_REACTORS
330
2A
102
}
330
2A
100
AcDbVisualStyle
  2
Dim
 70
    11
177
     3
291
     1
 70
    58
 90
        2
176
     1
 90
        2
176
     1
 90
        0
176
     1
 90
        0
176
     1
 40
0.6
176
     1
 40
30.0
176
     1
 62
     7
420
 16777215
176
     1
 90
        1
176
     1
 90
        4
176
     1
 62
     7
176
     1
 62
   257
176
     1
 90
        1
176
     1
 90
        1
176
     1
 40
1.0
176
     1
 90
        8
176
     1
 62
     7
176
     1
 40
1.0
176
     1
 90
        1
176
     1
 90
        6
176
     1
 90
        2
176
     1
 62
     7
176
     1
 90
        5
176
     1
 90
        0
176
     1
 90
        0
176
     1
290
     0
176
     1
 90
        1
176
     1
 40
-50.0
176
     1
 90
        0
176
     1
290
     0
176
     1
290
     1
176
     1
290
     1
176
     1
290
     0
176
     1
290
     0
176
     1
290
     0
176
     1
290
     0
176
     1
290
     0
176
     1
290
     0
176
     1
 90
       50
176
     1
 40
0.0
176
     1
 40
1.0
176
     1
 90
        0
176
     1
 62
    18
420
        0
176
     1
 90
       50
176
     1
 90
        3
176
     1
 62
     5
420
      255
176
     1
290
     0
176
     1
 90
       50
176
     1
 90
       50
176
     1
 90
       50
176
     1
290
     0
176
     1
 90
       50
176
     1
 62
   256
176
     0
 40
1.0
176
     0
 90
        2
176
     1
  1
strokes_ogs.tif
176
     1
290
     0
176
     1
 40
1.0
176
     1
 40
1.0
176
     1
  0
VISUALSTYLE
  5
3D
102
{ACAD_REACTORS
330
2A
102
}
330
2A
100
AcDbVisualStyle
  2
EdgeColorOff
 70
    22
177
     3
291
     1
 70
    58
 90
        2
176
     0
 90
        2
176
     0
 90
        0
176
     0
 90
        0
176
     0
 40
0.6
176
     0
 40
30.0
176
     0
 62
     7
420
 16777215
176
     0
 90
        1
176
     0
 90
        4
176
     0
 62
     7
176
     0
 62
   257
176
     0
 90
        1
176
     0
 90
        1
176
     0
 40
1.0
176
     0
 90
        8
176
     2
 62
     7
176
     0
 40
1.0
176
     0
 90
        1
176
     0
 90
        6
176
     0
 90
        2
176
     0
 62
     7
176
     0
 90
        5
176
     0
 90
        0
176
     0
 90
        0
176
     0
290
     0
176
     0
 90
        1
176
     0
 40
0.0
176
     0
 90
        0
176
     0
290
     0
176
     0
290
     1
176
     0
290
     1
176
     0
290
     0
176
     0
290
     0
176
     0
290
     0
176
     0
290
     0
176
     0
290
     0
176
     0
290
     0
176
     0
 90
       50
176
     0
 40
0.0
176
     0
 40
1.0
176
     0
 90
        0
176
     0
 62
    18
420
        0
176
     0
 90
       50
176
     0
 90
        3
176
     0
 62
     5
420
      255
176
     0
290
     0
176
     0
 90
       50
176
     0
 90
       50
176
     0
 90
       50
176
     0
290
     0
176
     0
 90
       50
176
     0
 62
   256
176
     0
 40
1.0
176
     0
 90
        2
176
     0
  1
strokes_ogs.tif
176
     0
290
     0
176
     0
 40
1.0
176
     0
 40
1.0
176
     0
  0
VISUALSTYLE
  5
39
102
{ACAD_REACTORS
330
2A
102
}
330
2A
100
AcDbVisualStyle
  2
Facepattern
 70
    15
177
     3
291
     1
 70
    58
 90
        2
176
     1
 90
        2
176
     1
 90
        0
176
     1
 90
        0
176
     1
 40
0.6
176
     1
 40
30.0
176
     1
 62
     7
420
 16777215
176
     1
 90
        1
176
     1
 90
        4
176
     1
 62
     7
176
     1
 62
   257
176
     1
 90
        1
176
     1
 90
        1
176
     1
 40
1.0
176
     1
 90
        8
176
     1
 62
     7
176
     1
 40
1.0
176
     1
 90
        1
176
     1
 90
        6
176
     1
 90
        2
176
     1
 62
     7
176
     1
 90
        5
176
     1
 90
        0
176
     1
 90
        0
176
     1
290
     0
176
     1
 90
        1
176
     1
 40
0.0
176
     1
 90
        0
176
     1
290
     0
176
     1
290
     1
176
     1
290
     1
176
     1
290
     0
176
     1
290
     0
176
     1
290
     0
176
     1
290
     0
176
     1
290
     0
176
     1
290
     0
176
     1
 90
       50
176
     1
 40
0.0
176
     1
 40
1.0
176
     1
 90
        0
176
     1
 62
    18
420
        0
176
     1
 90
       50
176
     1
 90
        3
176
     1
 62
     5
420
      255
176
     1
290
     0
176
     1
 90
       50
176
     1
 90
       50
176
     1
 90
       50
176
     1
290
     0
176
     1
 90
       50
176
     1
 62
   256
176
     0
 40
1.0
176
     0
 90
        2
176
     1
  1
strokes_ogs.tif
176
     1
290
     0
176
     1
 40
1.0
176
     1
 40
1.0
176
     1
  0
VISUALSTYLE
  5
2B
102
{ACAD_REACTORS
330
2A
102
}
330
2A
100
AcDbVisualStyle
  2
Flat
 70
     0
177
     3
291
     1
 70
    58
 90
        2
176
     1
 90
        1
176
     1
 90
        1
176
     1
 90
        2
176
     1
 40
0.6
176
     1
 40
30.0
176
     1
 62
     7
420
 16777215
176
     1
 90
        0
176
     1
 90
        0
176
     1
 62
     7
176
     1
 62
   257
176
     1
 90
        1
176
     1
 90
        1
176
     1
 40
1.0
176
     1
 90
        8
176
     1
 62
     7
176
     1
 40
1.0
176
     1
 90
        1
176
     1
 90
        6
176
     1
 90
        2
176
     1
 62
     7
176
     1
 90
        5
176
     1
 90
        0
176
     1
 90
        0
176
     1
290
     0
176
     1
 90
       13
176
     1
 40
0.0
176
     1
 90
        0
176
     1
290
     0
176
     1
290
     1
176
     1
290
     1
176
     1
290
     0
176
     1
290
     0
176
     1
290
     0
176
     1
290
     0
176
     1
290
     0
176
     1
290
     0
176
     1
 90
       50
176
     1
 40
0.0
176
     1
 40
1.0
176
     1
 90
        0
176
     1
 62
    18
420
        0
176
     1
 90
       50
176
     1
 90
        3
176
     1
 62
     5
420
      255
176
     1
290
     0
176
     1
 90
       50
176
     1
 90
       50
176
     1
 90
       50
176
     1
290
     0
176
     1
 90
       50
176
     1
 62
   256
176
     0
 40
1.0
176
     0
 90
        2
176
     1
  1
strokes_ogs.tif
176
     1
290
     0
176
     1
 40
1.0
176
     1
 40
1.0
176
     1
  0
VISUALSTYLE
  5
2C
102
{ACAD_REACTORS
330
2A
102
}
330
2A
100
AcDbVisualStyle
  2
FlatWithEdges
 70
     1
177
     3
291
     1
 70
    58
 90
        2
176
     1
 90
        1
176
     1
 90
        1
176
     1
 90
        2
176
     1
 40
0.6
176
     1
 40
30.0
176
     1
 62
     7
420
 16777215
176
     1
 90
        1
176
     1
 90
        0
176
     1
 62
     7
176
     1
 62
   257
176
     1
 90
        1
176
     1
 90
        1
176
     1
 40
1.0
176
     1
 90
        0
176
     1
 62
   257
176
     1
 40
1.0
176
     1
 90
        1
176
     1
 90
        6
176
     1
 90
        2
176
     1
 62
     7
176
     1
 90
        5
176
     1
 90
        0
176
     1
 90
        0
176
     1
290
     0
176
     1
 90
       13
176
     1
 40
0.0
176
     1
 90
        0
176
     1
290
     0
176
     1
290
     1
176
     1
290
     1
176
     1
290
     0
176
     1
290
     0
176
     1
290
     0
176
     1
290
     0
176
     1
290
     0
176
     1
290
     0
176
     1
 90
       50
176
     1
 40
0.0
176
     1
 40
1.0
176
     1
 90
        0
176
     1
 62
    18
420
        0
176
     1
 90
       50
176
     1
 90
        3
176
     1
 62
     5
420
      255
176
     1
290
     0
176
     1
 90
       50
176
     1
 90
       50
176
     1
 90
       50
176
     1
290
     0
176
     1
 90
       50
176
     1
 62
   256
176
     0
 40
1.0
176
     0
 90
        2
176
     1
  1
strokes_ogs.tif
176
     1
290
     0
176
     1
 40
1.0
176
     1
 40
1.0
176
     1
  0
VISUALSTYLE
  5
2D
102
{ACAD_REACTORS
330
2A
102
}
330
2A
100
AcDbVisualStyle
  2
Gouraud
 70
     2
177
     3
291
     1
 70
    58
 90
        2
176
     1
 90
        2
176
     1
 90
        1
176
     1
 90
        2
176
     1
 40
0.6
176
     1
 40
30.0
176
     1
 62
     7
420
 16777215
176
     1
 90
        0
176
     1
 90
        0
176
     1
 62
     7
176
     1
 62
   257
176
     1
 90
        1
176
     1
 90
        1
176
     1
 40
1.0
176
     1
 90
        0
176
     1
 62
     7
176
     1
 40
1.0
176
     1
 90
        1
176
     1
 90
        6
176
     1
 90
        2
176
     1
 62
     7
176
     1
 90
        5
176
     1
 90
        0
176
     1
 90
        0
176
     1
290
     0
176
     1
 90
       13
176
     1
 40
0.0
176
     1
 90
        0
176
     1
290
     0
176
     1
290
     1
176
     1
290
     1
176
     1
290
     0
176
     1
290
     0
176
     1
290
     0
176
     1
290
     0
176
     1
290
     0
176
     1
290
     0
176
     1
 90
       50
176
     1
 40
0.0
176
     1
 40
1.0
176
     1
 90
        0
176
     1
 62
    18
420
        0
176
     1
 90
       50
176
     1
 90
        3
176
     1
 62
     5
420
      255
176
     1
290
     0
176
     1
 90
       50
176
     1
 90
       50
176
     1
 90
       50
176
     1
290
     0
176
     1
 90
       50
176
     1
 62
   256
176
     0
 40
1.0
176
     0
 90
        2
176
     1
  1
strokes_ogs.tif
176
     1
290
     0
176
     1
 40
1.0
176
     1
 40
1.0
176
     1
  0
VISUALSTYLE
  5
2E
102
{ACAD_REACTORS
330
2A
102
}
330
2A
100
AcDbVisualStyle
  2
GouraudWithEdges
 70
     3
177
     3
291
     1
 70
    58
 90
        2
176
     1
 90
        2
176
     1
 90
        1
176
     1
 90
        2
176
     1
 40
0.6
176
     1
 40
30.0
176
     1
 62
     7
420
 16777215
176
     1
 90
        1
176
     1
 90
        0
176
     1
 62
     7
176
     1
 62
   257
176
     1
 90
        1
176
     1
 90
        1
176
     1
 40
1.0
176
     1
 90
        0
176
     1
 62
   257
176
     1
 40
1.0
176
     1
 90
        1
176
     1
 90
        6
176
     1
 90
        2
176
     1
 62
     7
176
     1
 90
        5
176
     1
 90
        0
176
     1
 90
        0
176
     1
290
     0
176
     1
 90
       13
176
     1
 40
0.0
176
     1
 90
        0
176
     1
290
     0
176
     1
290
     1
176
     1
290
     1
176
     1
290
     0
176
     1
290
     0
176
     1
290
     0
176
     1
290
     0
176
     1
290
     0
176
     1
290
     0
176
     1
 90
       50
176
     1
 40
0.0
176
     1
 40
1.0
176
     1
 90
        0
176
     1
 62
    18
420
        0
176
     1
 90
       50
176
     1
 90
        3
176
     1
 62
     5
420
      255
176
     1
290
     0
176
     1
 90
       50
176
     1
 90
       50
176
     1
 90
       50
176
     1
290
     0
176
     1
 90
       50
176
     1
 62
   256
176
     0
 40
1.0
176
     0
 90
        2
176
     1
  1
strokes_ogs.tif
176
     1
290
     0
176
     1
 40
1.0
176
     1
 40
1.0
176
     1
  0
VISUALSTYLE
  5
31
102
{ACAD_REACTORS
330
2A
102
}
330
2A
100
AcDbVisualStyle
  2
Hidden
 70
     6
177
     3
291
     0
 70
    58
 90
        1
176
     1
 90
        2
176
     1
 90
        2
176
     1
 90
        0
176
     1
 40
0.6
176
     1
 40
30.0
176
     1
 62
     7
420
 16777215
176
     1
 90
        2
176
     1
 90
        2
176
     1
 62
     7
176
     1
 62
   257
176
     1
 90
        2
176
     1
 90
        1
176
     1
 40
40.0
176
     1
 90
        0
176
     1
 62
   257
176
     1
 40
1.0
176
     1
 90
        1
176
     1
 90
        6
176
     1
 90
        2
176
     1
 62
     7
176
     1
 90
        3
176
     1
 90
        0
176
     1
 90
        0
176
     1
290
     0
176
     1
 90
        1
176
     1
 40
0.0
176
     1
 90
        0
176
     1
290
     0
176
     1
290
     1
176
     1
290
     1
176
     1
290
     0
176
     1
290
     0
176
     1
290
     0
176
     1
290
     0
176
     1
290
     0
176
     1
290
     0
176
     1
 90
       50
176
     1
 40
0.0
176
     1
 40
1.0
176
     1
 90
        0
176
     1
 62
    18
420
        0
176
     1
 90
       50
176
     1
 90
        3
176
     1
 62
     5
420
      255
176
     1
290
     0
176
     1
 90
       50
176
     1
 90
       50
176
     1
 90
       50
176
     1
290
     0
176
     1
 90
       50
176
     1
 62
   256
176
     0
 40
1.0
176
     0
 90
        2
176
     1
  1
strokes_ogs.tif
176
     1
290
     0
176
     1
 40
1.0
176
     1
 40
1.0
176
     1
  0
VISUALSTYLE
  5
3B
102
{ACAD_REACTORS
330
2A
102
}
330
2A
100
AcDbVisualStyle
  2
JitterOff
 70
    20
177
     3
291
     1
 70
    58
 90
        2
176
     0
 90
        2
176
     0
 90
        0
176
     0
 90
        0
176
     0
 40
0.6
176
     0
 40
30.0
176
     0
 62
     7
420
 16777215
176
     0
 90
        1
176
     0
 90
        4
176
     0
 62
     7
176
     0
 62
   257
176
     0
 90
        1
176
     0
 90
        1
176
     0
 40
1.0
176
     0
 90
       10
176
     2
 62
     7
176
     0
 40
1.0
176
     0
 90
        1
176
     0
 90
        6
176
     0
 90
        2
176
     0
 62
     7
176
     0
 90
        5
176
     0
 90
        0
176
     0
 90
        0
176
     0
290
     0
176
     0
 90
        1
176
     0
 40
0.0
176
     0
 90
        0
176
     0
290
     0
176
     0
290
     1
176
     0
290
     1
176
     0
290
     0
176
     0
290
     0
176
     0
290
     0
176
     0
290
     0
176
     0
290
     0
176
     0
290
     0
176
     0
 90
       50
176
     0
 40
0.0
176
     0
 40
1.0
176
     0
 90
        0
176
     0
 62
    18
420
        0
176
     0
 90
       50
176
     0
 90
        3
176
     0
 62
     5
420
      255
176
     0
290
     0
176
     0
 90
       50
176
     0
 90
       50
176
     0
 90
       50
176
     0
290
     0
176
     0
 90
       50
176
     0
 62
   256
176
     0
 40
1.0
176
     0
 90
        2
176
     0
  1
strokes_ogs.tif
176
     0
290
     0
176
     0
 40
1.0
176
     0
 40
1.0
176
     0
  0
VISUALSTYLE
  5
38
102
{ACAD_REACTORS
330
2A
102
}
330
2A
100
AcDbVisualStyle
  2
Linepattern
 70
    14
177
     3
291
     1
 70
    58
 90
        2
176
     1
 90
        2
176
     1
 90
        0
176
     1
 90
        0
176
     1
 40
0.6
176
     1
 40
30.0
176
     1
 62
     7
420
 16777215
176
     1
 90
        1
176
     1
 90
        4
176
     1
 62
     7
176
     1
 62
   257
176
     1
 90
        7
176
     1
 90
        7
176
     1
 40
1.0
176
     1
 90
        8
176
     1
 62
     7
176
     1
 40
1.0
176
     1
 90
        1
176
     1
 90
        6
176
     1
 90
        2
176
     1
 62
     7
176
     1
 90
        5
176
     1
 90
        0
176
     1
 90
        0
176
     1
290
     0
176
     1
 90
        1
176
     1
 40
0.0
176
     1
 90
        0
176
     1
290
     0
176
     1
290
     1
176
     1
290
     1
176
     1
290
     0
176
     1
290
     0
176
     1
290
     0
176
     1
290
     0
176
     1
290
     0
176
     1
290
     0
176
     1
 90
       50
176
     1
 40
0.0
176
     1
 40
1.0
176
     1
 90
        0
176
     1
 62
    18
420
        0
176
     1
 90
       50
176
     1
 90
        3
176
     1
 62
     5
420
      255
176
     1
290
     0
176
     1
 90
       50
176
     1
 90
       50
176
     1
 90
       50
176
     1
290
     0
176
     1
 90
       50
176
     1
 62
   256
176
     0
 40
1.0
176
     0
 90
        2
176
     1
  1
strokes_ogs.tif
176
     1
290
     0
176
     1
 40
1.0
176
     1
 40
1.0
176
     1
  0
VISUALSTYLE
  5
3C
102
{ACAD_REACTORS
330
2A
102
}
330
2A
100
AcDbVisualStyle
  2
OverhangOff
 70
    21
177
     3
291
     1
 70
    58
 90
        2
176
     0
 90
        2
176
     0
 90
        0
176
     0
 90
        0
176
     0
 40
0.6
176
     0
 40
30.0
176
     0
 62
     7
420
 16777215
176
     0
 90
        1
176
     0
 90
        4
176
     0
 62
     7
176
     0
 62
   257
176
     0
 90
        1
176
     0
 90
        1
176
     0
 40
1.0
176
     0
 90
        9
176
     2
 62
     7
176
     0
 40
1.0
176
     0
 90
        1
176
     0
 90
        6
176
     0
 90
        2
176
     0
 62
     7
176
     0
 90
        5
176
     0
 90
        0
176
     0
 90
        0
176
     0
290
     0
176
     0
 90
        1
176
     0
 40
0.0
176
     0
 90
        0
176
     0
290
     0
176
     0
290
     1
176
     0
290
     1
176
     0
290
     0
176
     0
290
     0
176
     0
290
     0
176
     0
290
     0
176
     0
290
     0
176
     0
290
     0
176
     0
 90
       50
176
     0
 40
0.0
176
     0
 40
1.0
176
     0
 90
        0
176
     0
 62
    18
420
        0
176
     0
 90
       50
176
     0
 90
        3
176
     0
 62
     5
420
      255
176
     0
290
     0
176
     0
 90
       50
176
     0
 90
       50
176
     0
 90
       50
176
     0
290
     0
176
     0
 90
       50
176
     0
 62
   256
176
     0
 40
1.0
176
     0
 90
        2
176
     0
  1
strokes_ogs.tif
176
     0
290
     0
176
     0
 40
1.0
176
     0
 40
1.0
176
     0
  0
VISUALSTYLE
  5
33
102
{ACAD_REACTORS
330
2A
102
}
330
2A
100
AcDbVisualStyle
  2
Realistic
 70
     8
177
     3
291
     0
 70
    58
 90
        2
176
     1
 90
        3
176
     1
 90
        0
176
     1
 90
        2
176
     1
 40
0.6
176
     1
 40
30.0
176
     1
 62
     7
420
 16777215
176
     1
 90
        0
176
     1
 90
        0
176
     1
 62
     7
176
     1
 62
   257
176
     1
 90
        1
176
     1
 90
        1
176
     1
 40
1.0
176
     1
 90
        8
176
     1
 62
   257
176
     1
 40
1.0
176
     1
 90
        1
176
     1
 90
        6
176
     1
 90
        2
176
     1
 62
     7
176
     1
 90
        3
176
     1
 90
        0
176
     1
 90
        0
176
     1
290
     0
176
     1
 90
       13
176
     1
 40
0.0
176
     1
 90
        0
176
     1
290
     0
176
     1
290
     1
176
     1
290
     1
176
     1
290
     0
176
     1
290
     0
176
     1
290
     0
176
     1
290
     0
176
     1
290
     0
176
     1
290
     0
176
     1
 90
       50
176
     1
 40
0.0
176
     1
 40
1.0
176
     1
 90
        0
176
     1
 62
    18
420
        0
176
     1
 90
       50
176
     1
 90
        3
176
     1
 62
     5
420
      255
176
     1
290
     0
176
     1
 90
       50
176
     1
 90
       50
176
     1
 90
       50
176
     1
290
     0
176
     1
 90
       50
176
     1
 62
   256
176
     0
 40
1.0
176
     0
 90
        2
176
     1
  1
strokes_ogs.tif
176
     1
290
     0
176
     1
 40
1.0
176
     1
 40
1.0
176
     1
  0
VISUALSTYLE
  5
42
102
{ACAD_REACTORS
330
2A
102
}
330
2A
100
AcDbVisualStyle
  2
Shaded
 70
    27
177
     3
291
     0
 70
    58
 90
        2
176
     1
 90
        2
176
     1
 90
        1
176
     1
 90
        2
176
     1
 40
0.6
176
     1
 40
30.0
176
     1
 62
     7
420
 16777215
176
     1
 90
        0
176
     1
 90
        4
176
     1
 62
     7
176
     1
 62
   257
176
     1
 90
        1
176
     1
 90
        1
176
     1
 40
1.0
176
     1
 90
        8
176
     1
 62
   257
176
     1
 40
1.0
176
     1
 90
        1
176
     1
 90
        6
176
     1
 90
        2
176
     1
 62
     8
420
  7895160
176
     1
 90
        3
176
     1
 90
        0
176
     1
 90
        0
176
     1
290
     0
176
     1
 90
        5
176
     1
 40
0.0
176
     1
 90
        0
176
     1
290
     0
176
     1
290
     1
176
     1
290
     1
176
     1
290
     0
176
     1
290
     0
176
     1
290
     0
176
     1
290
     0
176
     1
290
     0
176
     1
290
     0
176
     1
 90
       50
176
     1
 40
0.0
176
     1
 40
1.0
176
     1
 90
        0
176
     1
 62
    18
420
        0
176
     1
 90
       50
176
     1
 90
        3
176
     1
 62
     5
420
      255
176
     1
290
     0
176
     1
 90
       50
176
     1
 90
       50
176
     1
 90
       50
176
     1
290
     0
176
     1
 90
       50
176
     1
 62
   256
176
     0
 40
1.0
176
     0
 90
        2
176
     1
  1
strokes_ogs.tif
176
     1
290
     0
176
     1
 40
1.0
176
     1
 40
1.0
176
     1
  0
VISUALSTYLE
  5
41
102
{ACAD_REACTORS
330
2A
102
}
330
2A
100
AcDbVisualStyle
  2
Shaded with edges
 70
    26
177
     3
291
     0
 70
    58
 90
        2
176
     1
 90
        2
176
     1
 90
        1
176
     1
 90
        2
176
     1
 40
0.6
176
     1
 40
30.0
176
     1
 62
     7
420
 16777215
176
     1
 90
        1
176
     1
 90
       10
176
     1
 62
     7
176
     1
 62
   257
176
     1
 90
        2
176
     1
 90
        1
176
     1
 40
1.0
176
     1
 90
        8
176
     1
 62
   257
176
     1
 40
1.0
176
     1
 90
        1
176
     1
 90
        6
176
     1
 90
        2
176
     1
 62
     7
176
     1
 90
        3
176
     1
 90
        0
176
     1
 90
        0
176
     1
290
     0
176
     1
 90
        5
176
     1
 40
0.0
176
     1
 90
        0
176
     1
290
     0
176
     1
290
     1
176
     1
290
     1
176
     1
290
     0
176
     1
290
     0
176
     1
290
     0
176
     1
290
     0
176
     1
290
     0
176
     1
290
     0
176
     1
 90
       50
176
     1
 40
0.0
176
     1
 40
1.0
176
     1
 90
        0
176
     1
 62
    18
420
        0
176
     1
 90
       50
176
     1
 90
        3
176
     1
 62
     5
420
      255
176
     1
290
     0
176
     1
 90
       50
176
     1
 90
       50
176
     1
 90
       50
176
     1
290
     0
176
     1
 90
       50
176
     1
 62
   256
176
     0
 40
1.0
176
     0
 90
        2
176
     1
  1
strokes_ogs.tif
176
     1
290
     0
176
     1
 40
1.0
176
     1
 40
1.0
176
     1
  0
VISUALSTYLE
  5
3E
102
{ACAD_REACTORS
330
2A
102
}
330
2A
100
AcDbVisualStyle
  2
Shades of Gray
 70
    23
177
     3
291
     0
 70
    58
 90
        2
176
     1
 90
        2
176
     1
 90
        3
176
     1
 90
        0
176
     1
 40
0.6
176
     1
 40
30.0
176
     1
 62
     7
420
 16777215
176
     1
 90
        2
176
     1
 90
        2
176
     1
 62
     7
176
     1
 62
     7
176
     1
 90
        1
176
     1
 90
        1
176
     1
 40
40.0
176
     1
 90
        8
176
     1
 62
     7
176
     1
 40
1.0
176
     1
 90
        1
176
     1
 90
        6
176
     1
 90
        2
176
     1
 62
     7
176
     1
 90
        3
176
     1
 90
        0
176
     1
 90
        0
176
     1
290
     0
176
     1
 90
        1
176
     1
 40
0.0
176
     1
 90
        0
176
     1
290
     0
176
     1
290
     1
176
     1
290
     1
176
     1
290
     0
176
     1
290
     0
176
     1
290
     0
176
     1
290
     0
176
     1
290
     0
176
     1
290
     0
176
     1
 90
       50
176
     1
 40
0.0
176
     1
 40
1.0
176
     1
 90
        0
176
     1
 62
    18
420
        0
176
     1
 90
       50
176
     1
 90
        3
176
     1
 62
     5
420
      255
176
     1
290
     0
176
     1
 90
       50
176
     1
 90
       50
176
     1
 90
       50
176
     1
290
     0
176
     1
 90
       50
176
     1
 62
   256
176
     0
 40
1.0
176
     0
 90
        2
176
     1
  1
strokes_ogs.tif
176
     1
290
     0
176
     1
 40
1.0
176
     1
 40
1.0
176
     1
  0
VISUALSTYLE
  5
3F
102
{ACAD_REACTORS
330
2A
102
}
330
2A
100
AcDbVisualStyle
  2
Sketchy
 70
    24
177
     3
291
     0
 70
    58
 90
        1
176
     1
 90
        2
176
     1
 90
        2
176
     1
 90
        0
176
     1
 40
0.6
176
     1
 40
30.0
176
     1
 62
     7
420
 16777215
176
     1
 90
        2
176
     1
 90
        2
176
     1
 62
     7
176
     1
 62
     7
176
     1
 90
        1
176
     1
 90
        1
176
     1
 40
40.0
176
     1
 90
       11
176
     1
 62
     7
176
     1
 40
1.0
176
     1
 90
        1
176
     1
 90
        6
176
     1
 90
        2
176
     1
 62
     7
176
     1
 90
        6
176
     1
 90
        0
176
     1
 90
        0
176
     1
290
     0
176
     1
 90
        1
176
     1
 40
0.0
176
     1
 90
        0
176
     1
290
     0
176
     1
290
     1
176
     1
290
     1
176
     1
290
     0
176
     1
290
     0
176
     1
290
     0
176
     1
290
     0
176
     1
290
     0
176
     1
290
     0
176
     1
 90
       50
176
     1
 40
0.0
176
     1
 40
1.0
176
     1
 90
        0
176
     1
 62
    18
420
        0
176
     1
 90
       50
176
     1
 90
        3
176
     1
 62
     5
420
      255
176
     1
290
     0
176
     1
 90
       50
176
     1
 90
       50
176
     1
 90
       50
176
     1
290
     0
176
     1
 90
       50
176
     1
 62
   256
176
     0
 40
1.0
176
     0
 90
        2
176
     1
  1
strokes_ogs.tif
176
     1
290
     0
176
     1
 40
1.0
176
     1
 40
1.0
176
     1
  0
VISUALSTYLE
  5
37
102
{ACAD_REACTORS
330
2A
102
}
330
2A
100
AcDbVisualStyle
  2
Thicken
 70
    13
177
     3
291
     1
 70
    58
 90
        2
176
     1
 90
        2
176
     1
 90
        0
176
     1
 90
        0
176
     1
 40
0.6
176
     1
 40
30.0
176
     1
 62
     7
420
 16777215
176
     1
 90
        1
176
     1
 90
        4
176
     1
 62
     7
176
     1
 62
   257
176
     1
 90
        1
176
     1
 90
        1
176
     1
 40
1.0
176
     1
 90
       12
176
     1
 62
     7
176
     1
 40
1.0
176
     1
 90
        1
176
     1
 90
        6
176
     1
 90
        2
176
     1
 62
     7
176
     1
 90
        5
176
     1
 90
        0
176
     1
 90
        0
176
     1
290
     0
176
     1
 90
        1
176
     1
 40
0.0
176
     1
 90
        0
176
     1
290
     0
176
     1
290
     1
176
     1
290
     1
176
     1
290
     0
176
     1
290
     0
176
     1
290
     0
176
     1
290
     0
176
     1
290
     0
176
     1
290
     0
176
     1
 90
       50
176
     1
 40
0.0
176
     1
 40
1.0
176
     1
 90
        0
176
     1
 62
    18
420
        0
176
     1
 90
       50
176
     1
 90
        3
176
     1
 62
     5
420
      255
176
     1
290
     0
176
     1
 90
       50
176
     1
 90
       50
176
     1
 90
       50
176
     1
290
     0
176
     1
 90
       50
176
     1
 62
   256
176
     0
 40
1.0
176
     0
 90
        2
176
     1
  1
strokes_ogs.tif
176
     1
290
     0
176
     1
 40
1.0
176
     1
 40
1.0
176
     1
  0
VISUALSTYLE
  5
30
102
{ACAD_REACTORS
330
2A
102
}
330
2A
100
AcDbVisualStyle
  2
Wireframe
 70
     5
177
     3
291
     0
 70
    58
 90
        0
176
     1
 90
        2
176
     1
 90
        0
176
     1
 90
        0
176
     1
 40
0.6
176
     1
 40
30.0
176
     1
 62
     7
420
 16777215
176
     1
 90
        1
176
     1
 90
        4
176
     1
 62
     7
176
     1
 62
   257
176
     1
 90
        1
176
     1
 90
        1
176
     1
 40
1.0
176
     1
 90
        0
176
     1
 62
   257
176
     1
 40
1.0
176
     1
 90
        1
176
     1
 90
        6
176
     1
 90
        2
176
     1
 62
     7
176
     1
 90
        3
176
     1
 90
        0
176
     1
 90
        0
176
     1
290
     0
176
     1
 90
        1
176
     1
 40
0.0
176
     1
 90
        0
176
     1
290
     0
176
     1
290
     1
176
     1
290
     1
176
     1
290
     0
176
     1
290
     0
176
     1
290
     0
176
     1
290
     0
176
     1
290
     0
176
     1
290
     0
176
     1
 90
       50
176
     1
 40
0.0
176
     1
 40
1.0
176
     1
 90
        0
176
     1
 62
    18
420
        0
176
     1
 90
       50
176
     1
 90
        3
176
     1
 62
     5
420
      255
176
     1
290
     0
176
     1
 90
       50
176
     1
 90
       50
176
     1
 90
       50
176
     1
290
     0
176
     1
 90
       50
176
     1
 62
   256
176
     0
 40
1.0
176
     0
 90
        2
176
     1
  1
strokes_ogs.tif
176
     1
290
     0
176
     1
 40
1.0
176
     1
 40
1.0
176
     1
  0
VISUALSTYLE
  5
40
102
{ACAD_REACTORS
330
2A
102
}
330
2A
100
AcDbVisualStyle
  2
X-Ray
 70
    25
177
     3
291
     0
 70
    58
 90
        2
176
     1
 90
        2
176
     1
 90
        1
176
     1
 90
        1
176
     1
 40
0.5
176
     1
 40
30.0
176
     1
 62
     7
420
 16777215
176
     1
 90
        1
176
     1
 90
        0
176
     1
 62
     7
176
     1
 62
   257
176
     1
 90
        1
176
     1
 90
        1
176
     1
 40
1.0
176
     1
 90
        8
176
     1
 62
     7
176
     1
 40
1.0
176
     1
 90
        1
176
     1
 90
        6
176
     1
 90
        2
176
     1
 62
     7
176
     1
 90
        3
176
     1
 90
        0
176
     1
 90
        0
176
     1
290
     0
176
     1
 90
       13
176
     1
 40
0.0
176
     1
 90
        0
176
     1
290
     0
176
     1
290
     1
176
     1
290
     1
176
     1
290
     0
176
     1
290
     0
176
     1
290
     0
176
     1
290
     0
176
     1
290
     0
176
     1
290
     0
176
     1
 90
       50
176
     1
 40
0.0
176
     1
 40
1.0
176
     1
 90
        0
176
     1
 62
    18
420
        0
176
     1
 90
       50
176
     1
 90
        3
176
     1
 62
     5
420
      255
176
     1
290
     0
176
     1
 90
       50
176
     1
 90
       50
176
     1
 90
       50
176
     1
290
     0
176
     1
 90
       50
176
     1
 62
   256
176
     0
 40
1.0
176
     0
 90
        2
176
     1
  1
strokes_ogs.tif
176
     1
290
     0
176
     1
 40
1.0
176
     1
 40
1.0
176
     1
  0
DICTIONARYVAR
  5
265
102
{ACAD_REACTORS
330
264
102
}
330
264
100
DictionaryVariables
280
     0
  1
1:1
  0
DICTIONARYVAR
  5
26A
102
{ACAD_REACTORS
330
264
102
}
330
264
100
DictionaryVariables
280
     0
  1
Standard
  0
DICTIONARYVAR
  5
269
102
{ACAD_REACTORS
330
264
102
}
330
264
100
DictionaryVariables
280
     0
  1
Standard
  0
DICTIONARY
  5
266
330
6A
100
AcDbDictionary
280
     1
281
     1
  3
ACAD_ROUNDTRIP_2008_TABLESTYLE_CELLSTYLEMAP
360
267
  0
CELLSTYLEMAP
  5
267
102
{ACAD_REACTORS
330
266
102
}
330
266
100
AcDbCellStyleMap
 90
        3
300
CELLSTYLE
  1
TABLEFORMAT_BEGIN
 90
        5
170
     1
 91
        0
 92
    32768
 62
   257
 93
        1
300
CONTENTFORMAT
  1
CONTENTFORMAT_BEGIN
 90
        0
 91
        0
 92
        4
 93
        0
300

 40
0.0
140
1.0
 94
        5
 62
     0
340
11
144
0.25
309
CONTENTFORMAT_END
171
     1
301
MARGIN
  1
CELLMARGIN_BEGIN
 40
0.06
 40
0.06
 40
0.06
 40
0.06
 40
0.06
 40
0.06
309
CELLMARGIN_END
 94
        6
 95
        1
302
GRIDFORMAT
  1
GRIDFORMAT_BEGIN
 90
        0
 91
        1
 62
     0
 92
       -2
340
14
 93
        0
 40
0.045
309
GRIDFORMAT_END
 95
        2
302
GRIDFORMAT
  1
GRIDFORMAT_BEGIN
 90
        0
 91
        1
 62
     0
 92
       -2
340
14
 93
        0
 40
0.045
309
GRIDFORMAT_END
 95
        4
302
GRIDFORMAT
  1
GRIDFORMAT_BEGIN
 90
        0
 91
        1
 62
     0
 92
       -2
340
14
 93
        0
 40
0.045
309
GRIDFORMAT_END
 95
        8
302
GRIDFORMAT
  1
GRIDFORMAT_BEGIN
 90
        0
 91
        1
 62
     0
 92
       -2
340
14
 93
        0
 40
0.045
309
GRIDFORMAT_END
 95
       16
302
GRIDFORMAT
  1
GRIDFORMAT_BEGIN
 90
        0
 91
        1
 62
     0
 92
       -2
340
14
 93
        0
 40
0.045
309
GRIDFORMAT_END
 95
       32
302
GRIDFORMAT
  1
GRIDFORMAT_BEGIN
 90
        0
 91
        1
 62
     0
 92
       -2
340
14
 93
        0
 40
0.045
309
GRIDFORMAT_END
309
TABLEFORMAT_END
  1
CELLSTYLE_BEGIN
 90
        1
 91
        1
300
_TITLE
309
CELLSTYLE_END
300
CELLSTYLE
  1
TABLEFORMAT_BEGIN
 90
        5
170
     1
 91
        0
 92
        0
 62
   257
 93
        1
300
CONTENTFORMAT
  1
CONTENTFORMAT_BEGIN
 90
        0
 91
        0
 92
        4
 93
        0
300

 40
0.0
140
1.0
 94
        5
 62
     0
340
11
144
0.18
309
CONTENTFORMAT_END
171
     1
301
MARGIN
  1
CELLMARGIN_BEGIN
 40
0.06
 40
0.06
 40
0.06
 40
0.06
 40
0.06
 40
0.06
309
CELLMARGIN_END
 94
        6
 95
        1
302
GRIDFORMAT
  1
GRIDFORMAT_BEGIN
 90
        0
 91
        1
 62
     0
 92
       -2
340
14
 93
        0
 40
0.045
309
GRIDFORMAT_END
 95
        2
302
GRIDFORMAT
  1
GRIDFORMAT_BEGIN
 90
        0
 91
        1
 62
     0
 92
       -2
340
14
 93
        0
 40
0.045
309
GRIDFORMAT_END
 95
        4
302
GRIDFORMAT
  1
GRIDFORMAT_BEGIN
 90
        0
 91
        1
 62
     0
 92
       -2
340
14
 93
        0
 40
0.045
309
GRIDFORMAT_END
 95
        8
302
GRIDFORMAT
  1
GRIDFORMAT_BEGIN
 90
        0
 91
        1
 62
     0
 92
       -2
340
14
 93
        0
 40
0.045
309
GRIDFORMAT_END
 95
       16
302
GRIDFORMAT
  1
GRIDFORMAT_BEGIN
 90
        0
 91
        1
 62
     0
 92
       -2
340
14
 93
        0
 40
0.045
309
GRIDFORMAT_END
 95
       32
302
GRIDFORMAT
  1
GRIDFORMAT_BEGIN
 90
        0
 91
        1
 62
     0
 92
       -2
340
14
 93
        0
 40
0.045
309
GRIDFORMAT_END
309
TABLEFORMAT_END
  1
CELLSTYLE_BEGIN
 90
        2
 91
        1
300
_HEADER
309
CELLSTYLE_END
300
CELLSTYLE
  1
TABLEFORMAT_BEGIN
 90
        5
170
     1
 91
        0
 92
        0
 62
   257
 93
        1
300
CONTENTFORMAT
  1
CONTENTFORMAT_BEGIN
 90
        0
 91
        0
 92
        4
 93
        0
300

 40
0.0
140
1.0
 94
        2
 62
     0
340
11
144
0.18
309
CONTENTFORMAT_END
171
     1
301
MARGIN
  1
CELLMARGIN_BEGIN
 40
0.06
 40
0.06
 40
0.06
 40
0.06
 40
0.06
 40
0.06
309
CELLMARGIN_END
 94
        6
 95
        1
302
GRIDFORMAT
  1
GRIDFORMAT_BEGIN
 90
        0
 91
        1
 62
     0
 92
       -2
340
14
 93
        0
 40
0.045
309
GRIDFORMAT_END
 95
        2
302
GRIDFORMAT
  1
GRIDFORMAT_BEGIN
 90
        0
 91
        1
 62
     0
 92
       -2
340
14
 93
        0
 40
0.045
309
GRIDFORMAT_END
 95
        4
302
GRIDFORMAT
  1
GRIDFORMAT_BEGIN
 90
        0
 91
        1
 62
     0
 92
       -2
340
14
 93
        0
 40
0.045
309
GRIDFORMAT_END
 95
        8
302
GRIDFORMAT
  1
GRIDFORMAT_BEGIN
 90
        0
 91
        1
 62
     0
 92
       -2
340
14
 93
        0
 40
0.045
309
GRIDFORMAT_END
 95
       16
302
GRIDFORMAT
  1
GRIDFORMAT_BEGIN
 90
        0
 91
        1
 62
     0
 92
       -2
340
14
 93
        0
 40
0.045
309
GRIDFORMAT_END
 95
       32
302
GRIDFORMAT
  1
GRIDFORMAT_BEGIN
 90
        0
 91
        1
 62
     0
 92
       -2
340
14
 93
        0
 40
0.045
309
GRIDFORMAT_END
309
TABLEFORMAT_END
  1
CELLSTYLE_BEGIN
 90
        3
 91
        2
300
_DATA
309
CELLSTYLE_END
  0
ENDSEC
  0
EOF